  0
SECTION
  2
HEADER
  9
$ACADVER
  1
AC1006
  9
$DWGCODEPAGE
  3
ansi_932
  9
$INSBASE
 10
0.0
 20
0.0
 30
0.0
  9
$EXTMIN
 10
-37.07903999521248
 20
396.788012844289
  9
$EXTMAX
 10
374.424758255767
 20
761.4730282883198
  9
$LIMMIN
 10
0.0
 20
0.0
  9
$LIMMAX
 10
12.0
 20
9.0
  9
$ORTHOMODE
 70
     0
  9
$REGENMODE
 70
     1
  9
$FILLMODE
 70
     1
  9
$QTEXTMODE
 70
     0
  9
$MIRRTEXT
 70
     1
  9
$DRAGMODE
 70
     2
  9
$LTSCALE
 40
1.0
  9
$OSMODE
 70
    37
  9
$ATTMODE
 70
     1
  9
$TEXTSIZE
 40
0.2
  9
$TRACEWID
 40
0.05
  9
$TEXTSTYLE
  7
STANDARD
  9
$CLAYER
  8
0
  9
$CELTYPE
  6
BYLAYER
  9
$CECOLOR
 62
   256
  9
$DIMSCALE
 40
1.0
  9
$DIMASZ
 40
3.0
  9
$DIMEXO
 40
0.0625
  9
$DIMDLI
 40
0.38
  9
$DIMRND
 40
0.0
  9
$DIMDLE
 40
0.0
  9
$DIMEXE
 40
1.5
  9
$DIMTP
 40
0.0
  9
$DIMTM
 40
0.0
  9
$DIMTXT
 40
3.0
  9
$DIMCEN
 40
0.09
  9
$DIMTSZ
 40
0.0
  9
$DIMTOL
 70
     0
  9
$DIMLIM
 70
     0
  9
$DIMTIH
 70
     1
  9
$DIMTOH
 70
     1
  9
$DIMSE1
 70
     0
  9
$DIMSE2
 70
     0
  9
$DIMTAD
 70
     1
  9
$DIMZIN
 70
     0
  9
$DIMBLK
  1

  9
$DIMASO
 70
     1
  9
$DIMSHO
 70
     1
  9
$DIMPOST
  1

  9
$DIMAPOST
  1

  9
$DIMALT
 70
     0
  9
$DIMALTD
 70
     2
  9
$DIMALTF
 40
25.4
  9
$DIMLFAC
 40
1.0
  9
$DIMTOFL
 70
     0
  9
$DIMTVP
 40
0.0
  9
$DIMTIX
 70
     0
  9
$DIMSOXD
 70
     0
  9
$DIMSAH
 70
     0
  9
$DIMBLK1
  1

  9
$DIMBLK2
  1

  9
$LUNITS
 70
     2
  9
$LUPREC
 70
     4
  9
$SKETCHINC
 40
0.1
  9
$FILLETRAD
 40
0.5
  9
$AUNITS
 70
     0
  9
$AUPREC
 70
     0
  9
$MENU
  1
.
  9
$ELEVATION
 40
0.0
  9
$THICKNESS
 40
0.0
  9
$LIMCHECK
 70
     0
  9
$CHAMFERA
 40
0.0
  9
$CHAMFERB
 40
0.0
  9
$SKPOLY
 70
     0
  9
$TDCREATE
 40
2459110.424689259
  9
$TDUPDATE
 40
2459110.42468956
  9
$TDINDWG
 40
0.0000000116
  9
$TDUSRTIMER
 40
0.0000000116
  9
$USRTIMER
 70
     1
  9
$ANGBASE
 50
0.0
  9
$ANGDIR
 70
     0
  9
$PDMODE
 70
     0
  9
$PDSIZE
 40
0.0
  9
$PLINEWID
 40
0.0
  9
$COORDS
 70
     1
  9
$SPLFRAME
 70
     0
  9
$SPLINETYPE
 70
     6
  9
$SPLINESEGS
 70
     8
  9
$ATTDIA
 70
     0
  9
$ATTREQ
 70
     1
  9
$HANDLING
 70
     1
  9
$HANDSEED
  5
86E
  9
$SURFTAB1
 70
     6
  9
$SURFTAB2
 70
     6
  9
$SURFTYPE
 70
     6
  9
$SURFU
 70
     6
  9
$SURFV
 70
     6
  9
$UCSNAME
  2

  9
$UCSORG
 10
0.0
 20
0.0
 30
0.0
  9
$UCSXDIR
 10
1.0
 20
0.0
 30
0.0
  9
$UCSYDIR
 10
0.0
 20
1.0
 30
0.0
  9
$USERI1
 70
     0
  9
$USERI2
 70
     0
  9
$USERI3
 70
     0
  9
$USERI4
 70
     0
  9
$USERI5
 70
     0
  9
$USERR1
 40
0.0
  9
$USERR2
 40
0.0
  9
$USERR3
 40
0.0
  9
$USERR4
 40
0.0
  9
$USERR5
 40
0.0
  9
$WORLDVIEW
 70
     1
  0
ENDSEC
  0
SECTION
  2
TABLES
  0
TABLE
  2
VPORT
 70
     1
  0
VPORT
  2
*ACTIVE
 70
     0
 10
0.0
 20
0.0
 11
1.0
 21
1.0
 12
168.6728591302772
 22
579.1305205663044
 13
0.0
 23
0.0
 14
0.5
 24
0.5
 15
0.5
 25
0.5
 16
0.0
 26
0.0
 36
1.0
 17
0.0
 27
0.0
 37
0.0
 40
364.6850154440309
 41
1.6
 42
50.0
 43
0.0
 44
0.0
 50
0.0
 51
0.0
 71
     0
 72
   100
 73
     1
 74
     3
 75
     0
 76
     0
 77
     0
 78
     0
  0
ENDTAB
  0
TABLE
  2
LTYPE
 70
     2
  0
LTYPE
  2
CONTINUOUS
 70
     0
  3
Solid line
 72
    65
 73
     0
 40
0.0
  0
LTYPE
  2
CENTER
 70
     0
  3

 72
    65
 73
     0
 40
0.0
  0
ENDTAB
  0
TABLE
  2
LAYER
 70
     1
  0
LAYER
  2
0
 70
     0
 62
     7
  6
CONTINUOUS
  0
ENDTAB
  0
TABLE
  2
STYLE
 70
     2
  0
STYLE
  2
STANDARD
 70
     0
 40
0.0
 41
1.0
 50
0.0
 71
     0
 42
0.2
  3
txt
  4

  0
STYLE
  2
ＭＳ_ゴシック
 70
     0
 40
0.0
 41
1.0
 50
0.0
 71
     0
 42
0.2
  3
ＭＳ ゴシック.shx
  4

  0
ENDTAB
  0
TABLE
  2
VIEW
 70
     0
  0
ENDTAB
  0
TABLE
  2
UCS
 70
     0
  0
ENDTAB
  0
ENDSEC
  0
SECTION
  2
BLOCKS
  0
BLOCK
  8
0
  2
D_FRAME_VIEW_1713
 70
     0
 10
0.0
 20
0.0
 30
0.0
  0
LINE
  5
71
  8
0
  6
CONTINUOUS
 62
     7
 10
15.13603562743912
 20
598.4730282883198
 30
0.0
 11
15.14908785146447
 21
599.9686650205707
 31
0.0
  0
LINE
  5
72
  8
0
  6
CONTINUOUS
 62
     7
 10
14.13599754905338
 20
598.4730282883198
 30
0.0
 11
15.13603562743912
 21
598.4730282883198
 31
0.0
  0
LINE
  5
73
  8
0
  6
CONTINUOUS
 62
     7
 10
-12.46803654457973
 20
600.4730282883198
 30
0.0
 11
-12.35089311006765
 21
600.4730282883198
 31
0.0
  0
ARC
  5
74
  8
0
  6
CONTINUOUS
 62
     7
 10
-12.35089311006765
 20
599.9730282883197
 30
0.0
 40
0.500000000000001
 50
359.5000000000001
 51
33.39776808525369
  0
LINE
  5
75
  8
0
  6
CONTINUOUS
 62
     7
 10
-12.85091214926052
 20
600.4730282883198
 30
0.0
 11
-12.46803654457973
 21
600.4730282883198
 31
0.0
  0
ARC
  5
76
  8
0
  6
CONTINUOUS
 62
     7
 10
-12.35089311006765
 20
599.9730282883197
 30
0.0
 40
0.5000000000000004
 50
47.20475529437385
 51
90.0
  0
LINE
  5
77
  8
0
  6
CONTINUOUS
 62
     7
 10
-11.86396437256092
 20
598.4730282883198
 30
0.0
 11
-12.86400245094666
 21
598.4730282883198
 31
0.0
  0
LINE
  5
78
  8
0
  6
CONTINUOUS
 62
     7
 10
-11.85091214853557
 20
599.9686650205707
 30
0.0
 11
-11.86396437256093
 21
598.4730282883198
 31
0.0
  0
LINE
  5
79
  8
0
  6
CONTINUOUS
 62
     7
 10
-15.84210912469828
 20
600.4730282883198
 30
0.0
 11
-12.85091214926052
 21
600.4730282883198
 31
0.0
  0
LINE
  5
7A
  8
0
  6
CONTINUOUS
 62
     7
 10
14.14908785073952
 20
600.4730282883198
 30
0.0
 11
11.15789087530176
 21
600.4730282883198
 31
0.0
  0
LINE
  5
7B
  8
0
  6
CONTINUOUS
 62
     7
 10
10.17094309860216
 20
598.4730282883198
 30
0.0
 11
11.1709811769879
 21
598.4730282883198
 31
0.0
  0
LINE
  5
7C
  8
0
  6
CONTINUOUS
 62
     7
 10
10.15789087457681
 20
599.9686650205707
 30
0.0
 11
10.17094309860216
 21
598.4730282883198
 31
0.0
  0
LINE
  5
7D
  8
0
  6
CONTINUOUS
 62
     7
 10
-16.34212816389115
 20
600.4730282883198
 30
0.0
 11
-15.84210912469828
 21
600.4730282883198
 31
0.0
  0
ARC
  5
7E
  8
0
  6
CONTINUOUS
 62
     7
 10
-16.34212816389115
 20
599.9730282883197
 30
0.0
 40
0.5000000000000004
 50
90.0
 51
180.5
  0
LINE
  5
7F
  8
0
  6
CONTINUOUS
 62
     7
 10
-12.86400245094666
 20
598.4730282883198
 30
0.0
 11
-15.82901882301215
 21
598.4730282883198
 31
0.0
  0
LINE
  5
80
  8
0
  6
CONTINUOUS
 62
     7
 10
-15.82901882301215
 20
598.4730282883198
 30
0.0
 11
-16.82905690139788
 21
598.4730282883198
 31
0.0
  0
LINE
  5
81
  8
0
  6
CONTINUOUS
 62
     7
 10
-16.82905690139788
 20
598.4730282883198
 30
0.0
 11
-16.84210912542324
 21
599.9686650205707
 31
0.0
  0
LINE
  5
82
  8
0
  6
CONTINUOUS
 62
     7
 10
14.64910688993239
 20
600.4730282883198
 30
0.0
 11
14.14908785073952
 21
600.4730282883198
 31
0.0
  0
ARC
  5
83
  8
0
  6
CONTINUOUS
 62
     7
 10
14.64910688993239
 20
599.9730282883197
 30
0.0
 40
0.5000000000000004
 50
359.5000000000001
 51
90.0
  0
ARC
  5
84
  8
0
  6
CONTINUOUS
 62
     7
 10
10.65787183610889
 20
599.9730282883197
 30
0.0
 40
0.5000000000000053
 50
123.9491200964596
 51
180.5
  0
LINE
  5
85
  8
0
  6
CONTINUOUS
 62
     7
 10
10.84636017789608
 20
600.4730282883198
 30
0.0
 11
10.65787183610889
 21
600.4730282883198
 31
0.0
  0
LINE
  5
86
  8
0
  6
CONTINUOUS
 62
     7
 10
11.15789087530176
 20
600.4730282883198
 30
0.0
 11
10.84636017789608
 21
600.4730282883198
 31
0.0
  0
LINE
  5
87
  8
0
  6
CONTINUOUS
 62
     7
 10
11.1709811769879
 20
598.4730282883198
 30
0.0
 11
14.13599754905338
 21
598.4730282883198
 31
0.0
  0
POLYLINE
  5
88
  8
0
  6
CONTINUOUS
 62
     7
 66
     1
 10
0.0
 20
0.0
 30
0.0
  0
VERTEX
  5
4EA
  8
0
  6
CONTINUOUS
 62
     7
 10
15.16473419354801
 20
601.761558239384
 30
0.0
  0
VERTEX
  5
4EB
  8
0
  6
CONTINUOUS
 62
     7
 10
15.15626033077776
 20
601.9001246802382
 30
0.0
  0
VERTEX
  5
4EC
  8
0
  6
CONTINUOUS
 62
     7
 10
15.12874991624507
 20
602.0334933006376
 30
0.0
  0
VERTEX
  5
4ED
  8
0
  6
CONTINUOUS
 62
     7
 10
15.08326845527342
 20
602.1564986031724
 30
0.0
  0
VERTEX
  5
4EE
  8
0
  6
CONTINUOUS
 62
     7
 10
15.021577489432
 20
602.2643764718925
 30
0.0
  0
VERTEX
  5
4EF
  8
0
  6
CONTINUOUS
 62
     7
 10
14.94606637030387
 20
602.3529486911891
 30
0.0
  0
VERTEX
  5
4F0
  8
0
  6
CONTINUOUS
 62
     7
 10
14.85965971755686
 20
602.418784772181
 30
0.0
  0
VERTEX
  5
4F1
  8
0
  6
CONTINUOUS
 62
     7
 10
14.76570414555685
 20
602.4593348189115
 30
0.0
  0
VERTEX
  5
4F2
  8
0
  6
CONTINUOUS
 62
     7
 10
14.6678386457126
 20
602.4730282883198
 30
0.0
  0
SEQEND
  5
82D
  8
0
  6
CONTINUOUS
 62
     7
  0
LINE
  5
89
  8
0
  6
CONTINUOUS
 62
     7
 10
15.14908785146447
 20
599.9686650205707
 30
0.0
 11
15.16473419354801
 21
601.7615582393842
 31
0.0
  0
POLYLINE
  5
8A
  8
0
  6
CONTINUOUS
 62
     7
 66
     1
 10
0.0
 20
0.0
 30
0.0
  0
VERTEX
  5
4F3
  8
0
  6
CONTINUOUS
 62
     7
 10
10.63914008032868
 20
602.4730282883198
 30
0.0
  0
VERTEX
  5
4F4
  8
0
  6
CONTINUOUS
 62
     7
 10
10.54127458048443
 20
602.4593348189115
 30
0.0
  0
VERTEX
  5
4F5
  8
0
  6
CONTINUOUS
 62
     7
 10
10.44731900848442
 20
602.418784772181
 30
0.0
  0
VERTEX
  5
4F6
  8
0
  6
CONTINUOUS
 62
     7
 10
10.36091235573741
 20
602.3529486911891
 30
0.0
  0
VERTEX
  5
4F7
  8
0
  6
CONTINUOUS
 62
     7
 10
10.28540123660928
 20
602.2643764718925
 30
0.0
  0
VERTEX
  5
4F8
  8
0
  6
CONTINUOUS
 62
     7
 10
10.22371027076785
 20
602.1564986031724
 30
0.0
  0
VERTEX
  5
4F9
  8
0
  6
CONTINUOUS
 62
     7
 10
10.17822880979621
 20
602.0334933006376
 30
0.0
  0
VERTEX
  5
4FA
  8
0
  6
CONTINUOUS
 62
     7
 10
10.15071839526352
 20
601.9001246802382
 30
0.0
  0
VERTEX
  5
4FB
  8
0
  6
CONTINUOUS
 62
     7
 10
10.14224453249327
 20
601.761558239384
 30
0.0
  0
SEQEND
  5
82E
  8
0
  6
CONTINUOUS
 62
     7
  0
LINE
  5
8B
  8
0
  6
CONTINUOUS
 62
     7
 10
10.14224453249328
 20
601.761558239384
 30
0.0
 11
10.15789087457681
 21
599.9686650205706
 31
0.0
  0
POLYLINE
  5
8C
  8
0
  6
CONTINUOUS
 62
     7
 66
     1
 10
0.0
 20
0.0
 30
0.0
  0
VERTEX
  5
4FC
  8
0
  6
CONTINUOUS
 62
     7
 10
-16.36085991967136
 20
602.4730282883198
 30
0.0
  0
VERTEX
  5
4FD
  8
0
  6
CONTINUOUS
 62
     7
 10
-16.45872541951561
 20
602.4593348189115
 30
0.0
  0
VERTEX
  5
4FE
  8
0
  6
CONTINUOUS
 62
     7
 10
-16.55268099151563
 20
602.418784772181
 30
0.0
  0
VERTEX
  5
4FF
  8
0
  6
CONTINUOUS
 62
     7
 10
-16.63908764426263
 20
602.3529486911891
 30
0.0
  0
VERTEX
  5
500
  8
0
  6
CONTINUOUS
 62
     7
 10
-16.71459876339076
 20
602.2643764718925
 30
0.0
  0
VERTEX
  5
501
  8
0
  6
CONTINUOUS
 62
     7
 10
-16.77628972923219
 20
602.1564986031724
 30
0.0
  0
VERTEX
  5
502
  8
0
  6
CONTINUOUS
 62
     7
 10
-16.82177119020383
 20
602.0334933006376
 30
0.0
  0
VERTEX
  5
503
  8
0
  6
CONTINUOUS
 62
     7
 10
-16.84928160473652
 20
601.9001246802382
 30
0.0
  0
VERTEX
  5
504
  8
0
  6
CONTINUOUS
 62
     7
 10
-16.85775546750677
 20
601.761558239384
 30
0.0
  0
SEQEND
  5
82F
  8
0
  6
CONTINUOUS
 62
     7
  0
LINE
  5
8D
  8
0
  6
CONTINUOUS
 62
     7
 10
-16.84210912542324
 20
599.9686650205707
 30
0.0
 11
-16.85775546750677
 21
601.7615582393842
 31
0.0
  0
POLYLINE
  5
8E
  8
0
  6
CONTINUOUS
 62
     7
 66
     1
 10
0.0
 20
0.0
 30
0.0
  0
VERTEX
  5
505
  8
0
  6
CONTINUOUS
 62
     7
 10
-11.83526580645204
 20
601.761558239384
 30
0.0
  0
VERTEX
  5
506
  8
0
  6
CONTINUOUS
 62
     7
 10
-11.84373966922228
 20
601.9001246802382
 30
0.0
  0
VERTEX
  5
507
  8
0
  6
CONTINUOUS
 62
     7
 10
-11.87125008375497
 20
602.0334933006376
 30
0.0
  0
VERTEX
  5
508
  8
0
  6
CONTINUOUS
 62
     7
 10
-11.91673154472662
 20
602.1564986031724
 30
0.0
  0
VERTEX
  5
509
  8
0
  6
CONTINUOUS
 62
     7
 10
-11.97842251056804
 20
602.2643764718925
 30
0.0
  0
VERTEX
  5
50A
  8
0
  6
CONTINUOUS
 62
     7
 10
-12.05393362969617
 20
602.3529486911891
 30
0.0
  0
VERTEX
  5
50B
  8
0
  6
CONTINUOUS
 62
     7
 10
-12.14034028244318
 20
602.418784772181
 30
0.0
  0
VERTEX
  5
50C
  8
0
  6
CONTINUOUS
 62
     7
 10
-12.23429585444319
 20
602.4593348189115
 30
0.0
  0
VERTEX
  5
50D
  8
0
  6
CONTINUOUS
 62
     7
 10
-12.33216135428744
 20
602.4730282883198
 30
0.0
  0
SEQEND
  5
830
  8
0
  6
CONTINUOUS
 62
     7
  0
LINE
  5
8F
  8
0
  6
CONTINUOUS
 62
     7
 10
-11.83526580645204
 20
601.761558239384
 30
0.0
 11
-11.85091214853557
 21
599.9686650205706
 31
0.0
  0
ARC
  5
90
  8
0
  6
CONTINUOUS
 62
     7
 10
-30.73017413096889
 20
609.9730282883198
 30
0.0
 40
0.5000000000000022
 50
14.9999999999999
 51
90.00000000000001
  0
LINE
  5
91
  8
0
  6
CONTINUOUS
 62
     7
 10
-30.24721121782436
 20
610.102437810871
 30
0.0
 11
-28.33689169374599
 21
602.9730282883197
 31
0.0
  0
POLYLINE
  5
92
  8
0
  6
CONTINUOUS
 62
     7
 66
     1
 10
0.0
 20
0.0
 30
0.0
  0
VERTEX
  5
50E
  8
0
  6
CONTINUOUS
 62
     7
 10
-28.336891693746
 20
602.9730282883197
 30
0.0
  0
VERTEX
  5
50F
  8
0
  6
CONTINUOUS
 62
     7
 10
-28.33094138964027
 20
602.9484944511561
 30
0.0
  0
VERTEX
  5
510
  8
0
  6
CONTINUOUS
 62
     7
 10
-28.32625245583736
 20
602.924019718155
 30
0.0
  0
VERTEX
  5
511
  8
0
  6
CONTINUOUS
 62
     7
 10
-28.32283618838951
 20
602.8996630510921
 30
0.0
  0
VERTEX
  5
512
  8
0
  6
CONTINUOUS
 62
     7
 10
-28.32070081738422
 20
602.8754831273118
 30
0.0
  0
VERTEX
  5
513
  8
0
  6
CONTINUOUS
 62
     7
 10
-28.31985148711729
 20
602.8515381983681
 30
0.0
  0
VERTEX
  5
514
  8
0
  6
CONTINUOUS
 62
     7
 10
-28.32029024369971
 20
602.8278859496925
 30
0.0
  0
VERTEX
  5
515
  8
0
  6
CONTINUOUS
 62
     7
 10
-28.32201603012847
 20
602.8045833616237
 30
0.0
  0
VERTEX
  5
516
  8
0
  6
CONTINUOUS
 62
     7
 10
-28.32502468883287
 20
602.7816865721372
 30
0.0
  0
VERTEX
  5
517
  8
0
  6
CONTINUOUS
 62
     7
 10
-28.32930897169059
 20
602.7592507416047
 30
0.0
  0
VERTEX
  5
518
  8
0
  6
CONTINUOUS
 62
     7
 10
-28.33485855748895
 20
602.7373299199068
 30
0.0
  0
VERTEX
  5
519
  8
0
  6
CONTINUOUS
 62
     7
 10
-28.34166007678968
 20
602.7159769162231
 30
0.0
  0
VERTEX
  5
51A
  8
0
  6
CONTINUOUS
 62
     7
 10
-28.34969714413704
 20
602.69524317181
 30
0.0
  0
VERTEX
  5
51B
  8
0
  6
CONTINUOUS
 62
     7
 10
-28.35895039753183
 20
602.6751786360735
 30
0.0
  0
VERTEX
  5
51C
  8
0
  6
CONTINUOUS
 62
     7
 10
-28.36939754507613
 20
602.655831646238
 30
0.0
  0
VERTEX
  5
51D
  8
0
  6
CONTINUOUS
 62
     7
 10
-28.38101341867645
 20
602.6372488108963
 30
0.0
  0
VERTEX
  5
51E
  8
0
  6
CONTINUOUS
 62
     7
 10
-28.39377003467585
 20
602.6194748977265
 30
0.0
  0
VERTEX
  5
51F
  8
0
  6
CONTINUOUS
 62
     7
 10
-28.40763666126904
 20
602.6025527256423
 30
0.0
  0
VERTEX
  5
520
  8
0
  6
CONTINUOUS
 62
     7
 10
-28.42257989253799
 20
602.5865230616384
 30
0.0
  0
VERTEX
  5
521
  8
0
  6
CONTINUOUS
 62
     7
 10
-28.43856372892969
 20
602.5714245225795
 30
0.0
  0
VERTEX
  5
522
  8
0
  6
CONTINUOUS
 62
     7
 10
-28.45554966398226
 20
602.5572934821686
 30
0.0
  0
VERTEX
  5
523
  8
0
  6
CONTINUOUS
 62
     7
 10
-28.47349677709037
 20
602.5441639833197
 30
0.0
  0
VERTEX
  5
524
  8
0
  6
CONTINUOUS
 62
     7
 10
-28.49236183208656
 20
602.5320676561456
 30
0.0
  0
VERTEX
  5
525
  8
0
  6
CONTINUOUS
 62
     7
 10
-28.51209938140095
 20
602.521033641758
 30
0.0
  0
VERTEX
  5
526
  8
0
  6
CONTINUOUS
 62
     7
 10
-28.53266187554845
 20
602.5110885220641
 30
0.0
  0
VERTEX
  5
527
  8
0
  6
CONTINUOUS
 62
     7
 10
-28.55399977767958
 20
602.5022562557283
 30
0.0
  0
VERTEX
  5
528
  8
0
  6
CONTINUOUS
 62
     7
 10
-28.57606168291915
 20
602.4945581204537
 30
0.0
  0
VERTEX
  5
529
  8
0
  6
CONTINUOUS
 62
     7
 10
-28.59879444220503
 20
602.4880126617225
 30
0.0
  0
VERTEX
  5
52A
  8
0
  6
CONTINUOUS
 62
     7
 10
-28.62214329032894
 20
602.4826356481182
 30
0.0
  0
VERTEX
  5
52B
  8
0
  6
CONTINUOUS
 62
     7
 10
-28.64605197787064
 20
602.4784400333374
 30
0.0
  0
VERTEX
  5
52C
  8
0
  6
CONTINUOUS
 62
     7
 10
-28.67046290670769
 20
602.4754359249837
 30
0.0
  0
VERTEX
  5
52D
  8
0
  6
CONTINUOUS
 62
     7
 10
-28.69531726877437
 20
602.4736305602172
 30
0.0
  0
VERTEX
  5
52E
  8
0
  6
CONTINUOUS
 62
     7
 10
-28.72055518773548
 20
602.4730282883198
 30
0.0
  0
SEQEND
  5
831
  8
0
  6
CONTINUOUS
 62
     7
  0
LINE
  5
93
  8
0
  6
CONTINUOUS
 62
     7
 10
-31.34651063697939
 20
598.4730282883198
 30
0.0
 11
-31.34651063697939
 21
602.3183277499406
 31
0.0
  0
LINE
  5
94
  8
0
  6
CONTINUOUS
 62
     7
 10
-31.34651063697939
 20
602.3183277499405
 30
0.0
 11
-33.34651063697937
 21
603.4730282883197
 31
0.0
  0
LINE
  5
95
  8
0
  6
CONTINUOUS
 62
     7
 10
-33.34651063697937
 20
603.4730282883198
 30
0.0
 11
-33.34651063697939
 21
604.4730282883198
 31
0.0
  0
LINE
  5
96
  8
0
  6
CONTINUOUS
 62
     7
 10
-33.34651063697939
 20
604.4730282883198
 30
0.0
 11
-32.37671224308285
 21
609.9730282883198
 31
0.0
  0
LINE
  5
97
  8
0
  6
CONTINUOUS
 62
     7
 10
-21.84651063697938
 20
602.4730282883199
 30
0.0
 11
-28.72055518773548
 21
602.4730282883197
 31
0.0
  0
ARC
  5
98
  8
0
  6
CONTINUOUS
 62
     7
 10
-21.84651063697938
 20
601.4730282883198
 30
0.0
 40
1.000000000000001
 50
90.0
 51
180.0
  0
ARC
  5
99
  8
0
  6
CONTINUOUS
 62
     7
 10
-23.34651063697938
 20
598.9730282883197
 30
0.0
 40
0.5000000000000004
 50
269.9999999999992
 51
0.0
  0
LINE
  5
9A
  8
0
  6
CONTINUOUS
 62
     7
 10
-23.34651063697939
 20
598.4730282883198
 30
0.0
 11
-31.34651063697939
 21
598.4730282883198
 31
0.0
  0
LINE
  5
9B
  8
0
  6
CONTINUOUS
 62
     7
 10
-22.84651063697938
 20
601.4730282883198
 30
0.0
 11
-22.84651063697938
 21
598.9730282883198
 31
0.0
  0
LINE
  5
9C
  8
0
  6
CONTINUOUS
 62
     7
 10
10.63914008032868
 20
602.4730282883198
 30
0.0
 11
-12.33216135428744
 21
602.4730282883198
 31
0.0
  0
LINE
  5
9D
  8
0
  6
CONTINUOUS
 62
     7
 10
10.17094309860216
 20
598.4730282883198
 30
0.0
 11
-11.86396437256092
 21
598.4730282883198
 31
0.0
  0
ARC
  5
9E
  8
0
  6
CONTINUOUS
 62
     7
 10
21.65348936302062
 20
598.9730282883197
 30
0.0
 40
0.5000000000000004
 50
180.0
 51
270.0000000000007
  0
ARC
  5
9F
  8
0
  6
CONTINUOUS
 62
     7
 10
20.15348936302062
 20
601.4730282883198
 30
0.0
 40
1.000000000000001
 50
0.0
 51
90.0
  0
LINE
  5
A0
  8
0
  6
CONTINUOUS
 62
     7
 10
20.15348936302062
 20
602.4730282883199
 30
0.0
 11
27.02753391377671
 21
602.4730282883197
 31
0.0
  0
LINE
  5
A1
  8
0
  6
CONTINUOUS
 62
     7
 10
31.65348936302061
 20
603.4730282883198
 30
0.0
 11
31.65348936302063
 21
604.4730282883198
 31
0.0
  0
LINE
  5
A2
  8
0
  6
CONTINUOUS
 62
     7
 10
29.65348936302063
 20
602.3183277499405
 30
0.0
 11
31.65348936302061
 21
603.4730282883197
 31
0.0
  0
LINE
  5
A3
  8
0
  6
CONTINUOUS
 62
     7
 10
29.65348936302063
 20
598.4730282883198
 30
0.0
 11
29.65348936302063
 21
602.3183277499406
 31
0.0
  0
LINE
  5
A4
  8
0
  6
CONTINUOUS
 62
     7
 10
21.65348936302063
 20
598.4730282883198
 30
0.0
 11
29.65348936302063
 21
598.4730282883198
 31
0.0
  0
LINE
  5
A5
  8
0
  6
CONTINUOUS
 62
     7
 10
21.15348936302062
 20
601.4730282883198
 30
0.0
 11
21.15348936302062
 21
598.9730282883198
 31
0.0
  0
LINE
  5
A6
  8
0
  6
CONTINUOUS
 62
     7
 10
31.65348936302063
 20
604.4730282883198
 30
0.0
 11
30.68369096912409
 21
609.9730282883198
 31
0.0
  0
LINE
  5
A7
  8
0
  6
CONTINUOUS
 62
     7
 10
30.17597766318121
 20
610.4730282883197
 30
0.0
 11
29.03715285701013
 21
610.4730282883197
 31
0.0
  0
POLYLINE
  5
A8
  8
0
  6
CONTINUOUS
 62
     7
 66
     1
 10
0.0
 20
0.0
 30
0.0
  0
VERTEX
  5
52F
  8
0
  6
CONTINUOUS
 62
     7
 10
30.17597766318121
 20
610.4730282883197
 30
0.0
  0
VERTEX
  5
530
  8
0
  6
CONTINUOUS
 62
     7
 10
30.20090060601156
 20
610.4724067489292
 30
0.0
  0
VERTEX
  5
531
  8
0
  6
CONTINUOUS
 62
     7
 10
30.22576158647912
 20
610.4705436760025
 30
0.0
  0
VERTEX
  5
532
  8
0
  6
CONTINUOUS
 62
     7
 10
30.2504987962693
 20
610.4674437014323
 30
0.0
  0
VERTEX
  5
533
  8
0
  6
CONTINUOUS
 62
     7
 10
30.27505073478091
 20
610.463114532244
 30
0.0
  0
VERTEX
  5
534
  8
0
  6
CONTINUOUS
 62
     7
 10
30.29935636202636
 20
610.4575669314343
 30
0.0
  0
VERTEX
  5
535
  8
0
  6
CONTINUOUS
 62
     7
 10
30.32335525038667
 20
610.4508146912128
 30
0.0
  0
VERTEX
  5
536
  8
0
  6
CONTINUOUS
 62
     7
 10
30.34698773484405
 20
610.4428745987127
 30
0.0
  0
VERTEX
  5
537
  8
0
  6
CONTINUOUS
 62
     7
 10
30.37019506131856
 20
610.4337663942549
 30
0.0
  0
VERTEX
  5
538
  8
0
  6
CONTINUOUS
 62
     7
 10
30.39291953273999
 20
610.423512722271
 30
0.0
  0
VERTEX
  5
539
  8
0
  6
CONTINUOUS
 62
     7
 10
30.41510465249187
 20
610.4121390750049
 30
0.0
  0
VERTEX
  5
53A
  8
0
  6
CONTINUOUS
 62
     7
 10
30.43669526487096
 20
610.3996737291358
 30
0.0
  0
VERTEX
  5
53B
  8
0
  6
CONTINUOUS
 62
     7
 10
30.45763769221303
 20
610.3861476754777
 30
0.0
  0
VERTEX
  5
53C
  8
0
  6
CONTINUOUS
 62
     7
 10
30.47787986834395
 20
610.3715945419312
 30
0.0
  0
VERTEX
  5
53D
  8
0
  6
CONTINUOUS
 62
     7
 10
30.49737146802448
 20
610.3560505098793
 30
0.0
  0
VERTEX
  5
53E
  8
0
  6
CONTINUOUS
 62
     7
 10
30.51606403206667
 20
610.3395542242347
 30
0.0
  0
VERTEX
  5
53F
  8
0
  6
CONTINUOUS
 62
     7
 10
30.53391108781107
 20
610.3221466973629
 30
0.0
  0
VERTEX
  5
540
  8
0
  6
CONTINUOUS
 62
     7
 10
30.55086826466508
 20
610.3038712071183
 30
0.0
  0
VERTEX
  5
541
  8
0
  6
CONTINUOUS
 62
     7
 10
30.56689340441523
 20
610.2847731892491
 30
0.0
  0
VERTEX
  5
542
  8
0
  6
CONTINUOUS
 62
     7
 10
30.58194666603914
 20
610.2649001244371
 30
0.0
  0
VERTEX
  5
543
  8
0
  6
CONTINUOUS
 62
     7
 10
30.5959906247566
 20
610.2443014202527
 30
0.0
  0
VERTEX
  5
544
  8
0
  6
CONTINUOUS
 62
     7
 10
30.60899036507343
 20
610.2230282883197
 30
0.0
  0
VERTEX
  5
545
  8
0
  6
CONTINUOUS
 62
     7
 10
30.62091356758695
 20
610.2011336169963
 30
0.0
  0
VERTEX
  5
546
  8
0
  6
CONTINUOUS
 62
     7
 10
30.63173058933705
 20
610.178671839885
 30
0.0
  0
VERTEX
  5
547
  8
0
  6
CONTINUOUS
 62
     7
 10
30.64141453750332
 20
610.155698800503
 30
0.0
  0
VERTEX
  5
548
  8
0
  6
CONTINUOUS
 62
     7
 10
30.64994133626478
 20
610.1322716134456
 30
0.0
  0
VERTEX
  5
549
  8
0
  6
CONTINUOUS
 62
     7
 10
30.65728978665621
 20
610.1084485223913
 30
0.0
  0
VERTEX
  5
54A
  8
0
  6
CONTINUOUS
 62
     7
 10
30.66344161927212
 20
610.084288755298
 30
0.0
  0
VERTEX
  5
54B
  8
0
  6
CONTINUOUS
 62
     7
 10
30.66838153968732
 20
610.0598523771532
 30
0.0
  0
SEQEND
  5
832
  8
0
  6
CONTINUOUS
 62
     7
  0
LINE
  5
A9
  8
0
  6
CONTINUOUS
 62
     7
 10
30.68369096912409
 20
609.9730282883198
 30
0.0
 11
30.66838153968732
 21
610.0598523771532
 31
0.0
  0
LINE
  5
AA
  8
0
  6
CONTINUOUS
 62
     7
 10
-1.146510636979403
 20
603.4730282883198
 30
0.0
 11
-0.8465106369794325
 21
603.1730282883199
 31
0.0
  0
LINE
  5
AB
  8
0
  6
CONTINUOUS
 62
     7
 10
-0.5465106369793582
 20
603.4730282883198
 30
0.0
 11
-0.8465106369794326
 21
603.1730282883199
 31
0.0
  0
LINE
  5
AC
  8
0
  6
CONTINUOUS
 62
     7
 10
15.91742138552085
 20
603.4730282883198
 30
0.0
 11
-0.5465106369793582
 21
603.4730282883198
 31
0.0
  0
ARC
  5
AD
  8
0
  6
CONTINUOUS
 62
     7
 10
18.15348936302064
 20
601.4730282883198
 30
0.0
 40
3.000000000000001
 50
89.99999999999987
 51
138.1896851042214
  0
LINE
  5
AE
  8
0
  6
CONTINUOUS
 62
     7
 10
20.15348936302067
 20
604.4730282883198
 30
0.0
 11
18.15348936302065
 21
604.4730282883198
 31
0.0
  0
ARC
  5
AF
  8
0
  6
CONTINUOUS
 62
     7
 10
20.15348936302062
 20
601.4730282883198
 30
0.0
 40
3.000000000000004
 50
41.81031489577852
 51
89.99999999999906
  0
LINE
  5
B0
  8
0
  6
CONTINUOUS
 62
     7
 10
26.77784501600275
 20
603.4730282883197
 30
0.0
 11
22.38955734052042
 21
603.4730282883198
 31
0.0
  0
POLYLINE
  5
B1
  8
0
  6
CONTINUOUS
 62
     7
 66
     1
 10
0.0
 20
0.0
 30
0.0
  0
VERTEX
  5
54C
  8
0
  6
CONTINUOUS
 62
     7
 10
26.64387041978723
 20
602.9730282883197
 30
0.0
  0
VERTEX
  5
54D
  8
0
  6
CONTINUOUS
 62
     7
 10
26.63792011568151
 20
602.9484944511561
 30
0.0
  0
VERTEX
  5
54E
  8
0
  6
CONTINUOUS
 62
     7
 10
26.6332311818786
 20
602.924019718155
 30
0.0
  0
VERTEX
  5
54F
  8
0
  6
CONTINUOUS
 62
     7
 10
26.62981491443074
 20
602.8996630510921
 30
0.0
  0
VERTEX
  5
550
  8
0
  6
CONTINUOUS
 62
     7
 10
26.62767954342546
 20
602.8754831273118
 30
0.0
  0
VERTEX
  5
551
  8
0
  6
CONTINUOUS
 62
     7
 10
26.62683021315853
 20
602.8515381983681
 30
0.0
  0
VERTEX
  5
552
  8
0
  6
CONTINUOUS
 62
     7
 10
26.62726896974095
 20
602.8278859496925
 30
0.0
  0
VERTEX
  5
553
  8
0
  6
CONTINUOUS
 62
     7
 10
26.62899475616971
 20
602.8045833616237
 30
0.0
  0
VERTEX
  5
554
  8
0
  6
CONTINUOUS
 62
     7
 10
26.63200341487411
 20
602.7816865721372
 30
0.0
  0
VERTEX
  5
555
  8
0
  6
CONTINUOUS
 62
     7
 10
26.63628769773182
 20
602.7592507416047
 30
0.0
  0
VERTEX
  5
556
  8
0
  6
CONTINUOUS
 62
     7
 10
26.64183728353019
 20
602.7373299199068
 30
0.0
  0
VERTEX
  5
557
  8
0
  6
CONTINUOUS
 62
     7
 10
26.64863880283091
 20
602.7159769162231
 30
0.0
  0
VERTEX
  5
558
  8
0
  6
CONTINUOUS
 62
     7
 10
26.65667587017828
 20
602.69524317181
 30
0.0
  0
VERTEX
  5
559
  8
0
  6
CONTINUOUS
 62
     7
 10
26.66592912357306
 20
602.6751786360735
 30
0.0
  0
VERTEX
  5
55A
  8
0
  6
CONTINUOUS
 62
     7
 10
26.67637627111737
 20
602.655831646238
 30
0.0
  0
VERTEX
  5
55B
  8
0
  6
CONTINUOUS
 62
     7
 10
26.68799214471769
 20
602.6372488108963
 30
0.0
  0
VERTEX
  5
55C
  8
0
  6
CONTINUOUS
 62
     7
 10
26.70074876071709
 20
602.6194748977265
 30
0.0
  0
VERTEX
  5
55D
  8
0
  6
CONTINUOUS
 62
     7
 10
26.71461538731028
 20
602.6025527256423
 30
0.0
  0
VERTEX
  5
55E
  8
0
  6
CONTINUOUS
 62
     7
 10
26.72955861857923
 20
602.5865230616384
 30
0.0
  0
VERTEX
  5
55F
  8
0
  6
CONTINUOUS
 62
     7
 10
26.74554245497093
 20
602.5714245225795
 30
0.0
  0
VERTEX
  5
560
  8
0
  6
CONTINUOUS
 62
     7
 10
26.7625283900235
 20
602.5572934821686
 30
0.0
  0
VERTEX
  5
561
  8
0
  6
CONTINUOUS
 62
     7
 10
26.78047550313161
 20
602.5441639833197
 30
0.0
  0
VERTEX
  5
562
  8
0
  6
CONTINUOUS
 62
     7
 10
26.7993405581278
 20
602.5320676561456
 30
0.0
  0
VERTEX
  5
563
  8
0
  6
CONTINUOUS
 62
     7
 10
26.81907810744219
 20
602.521033641758
 30
0.0
  0
VERTEX
  5
564
  8
0
  6
CONTINUOUS
 62
     7
 10
26.83964060158969
 20
602.5110885220641
 30
0.0
  0
VERTEX
  5
565
  8
0
  6
CONTINUOUS
 62
     7
 10
26.86097850372082
 20
602.5022562557283
 30
0.0
  0
VERTEX
  5
566
  8
0
  6
CONTINUOUS
 62
     7
 10
26.88304040896039
 20
602.4945581204537
 30
0.0
  0
VERTEX
  5
567
  8
0
  6
CONTINUOUS
 62
     7
 10
26.90577316824626
 20
602.4880126617225
 30
0.0
  0
VERTEX
  5
568
  8
0
  6
CONTINUOUS
 62
     7
 10
26.92912201637018
 20
602.4826356481182
 30
0.0
  0
VERTEX
  5
569
  8
0
  6
CONTINUOUS
 62
     7
 10
26.95303070391188
 20
602.4784400333374
 30
0.0
  0
VERTEX
  5
56A
  8
0
  6
CONTINUOUS
 62
     7
 10
26.97744163274893
 20
602.4754359249837
 30
0.0
  0
VERTEX
  5
56B
  8
0
  6
CONTINUOUS
 62
     7
 10
27.00229599481561
 20
602.4736305602172
 30
0.0
  0
VERTEX
  5
56C
  8
0
  6
CONTINUOUS
 62
     7
 10
27.02753391377672
 20
602.4730282883198
 30
0.0
  0
SEQEND
  5
833
  8
0
  6
CONTINUOUS
 62
     7
  0
LINE
  5
B2
  8
0
  6
CONTINUOUS
 62
     7
 10
14.6678386457126
 20
602.4730282883198
 30
0.0
 11
18.15348936302064
 21
602.47302828832
 31
0.0
  0
LINE
  5
B3
  8
0
  6
CONTINUOUS
 62
     7
 10
-16.36085991967137
 20
602.4730282883198
 30
0.0
 11
-19.8465106369794
 21
602.47302828832
 31
0.0
  0
LINE
  5
B4
  8
0
  6
CONTINUOUS
 62
     7
 10
-19.8465106369794
 20
602.4730282883199
 30
0.0
 11
-21.84651063697938
 21
602.4730282883199
 31
0.0
  0
LINE
  5
B5
  8
0
  6
CONTINUOUS
 62
     7
 10
-28.47086628996151
 20
603.4730282883197
 30
0.0
 11
-24.08257861447918
 21
603.4730282883198
 31
0.0
  0
ARC
  5
B6
  8
0
  6
CONTINUOUS
 62
     7
 10
-21.84651063697939
 20
601.4730282883198
 30
0.0
 40
3.000000000000004
 50
90.00000000000097
 51
138.1896851042215
  0
LINE
  5
B7
  8
0
  6
CONTINUOUS
 62
     7
 10
-21.84651063697943
 20
604.4730282883198
 30
0.0
 11
-19.84651063697941
 21
604.4730282883198
 31
0.0
  0
ARC
  5
B8
  8
0
  6
CONTINUOUS
 62
     7
 10
-19.8465106369794
 20
601.4730282883198
 30
0.0
 40
3.000000000000001
 50
41.81031489577856
 51
90.00000000000011
  0
LINE
  5
B9
  8
0
  6
CONTINUOUS
 62
     7
 10
-17.61044265947961
 20
603.4730282883198
 30
0.0
 11
-1.146510636979403
 21
603.4730282883198
 31
0.0
  0
LINE
  5
BA
  8
0
  6
CONTINUOUS
 62
     7
 10
18.15348936302064
 20
602.4730282883199
 30
0.0
 11
20.15348936302062
 21
602.4730282883199
 31
0.0
  0
LINE
  5
BB
  8
0
  6
CONTINUOUS
 62
     7
 10
28.5541899438656
 20
610.102437810871
 30
0.0
 11
26.64387041978723
 21
602.9730282883197
 31
0.0
  0
ARC
  5
BC
  8
0
  6
CONTINUOUS
 62
     7
 10
16.65348936302062
 20
598.9730282883197
 30
0.0
 40
0.5000000000000004
 50
270.0000000000007
 51
0.0
  0
ARC
  5
BD
  8
0
  6
CONTINUOUS
 62
     7
 10
18.15348936302064
 20
601.4730282883198
 30
0.0
 40
1.000000000000001
 50
90.0
 51
180.0
  0
LINE
  5
BE
  8
0
  6
CONTINUOUS
 62
     7
 10
17.15348936302062
 20
598.9730282883197
 30
0.0
 11
17.15348936302064
 21
601.4730282883198
 31
0.0
  0
LINE
  5
BF
  8
0
  6
CONTINUOUS
 62
     7
 10
15.13603562743912
 20
598.4730282883198
 30
0.0
 11
16.65348936302063
 21
598.4730282883198
 31
0.0
  0
ARC
  5
C0
  8
0
  6
CONTINUOUS
 62
     7
 10
-18.34651063697938
 20
598.9730282883197
 30
0.0
 40
0.5000000000000004
 50
180.0
 51
269.9999999999992
  0
LINE
  5
C1
  8
0
  6
CONTINUOUS
 62
     7
 10
-18.84651063697938
 20
598.9730282883197
 30
0.0
 11
-18.8465106369794
 21
601.4730282883198
 31
0.0
  0
ARC
  5
C2
  8
0
  6
CONTINUOUS
 62
     7
 10
-19.8465106369794
 20
601.4730282883198
 30
0.0
 40
1.000000000000001
 50
0.0
 51
90.0
  0
LINE
  5
C3
  8
0
  6
CONTINUOUS
 62
     7
 10
-16.82905690139788
 20
598.4730282883198
 30
0.0
 11
-18.34651063697939
 21
598.4730282883198
 31
0.0
  0
POLYLINE
  5
C4
  8
0
  6
CONTINUOUS
 62
     7
 66
     1
 10
0.0
 20
0.0
 30
0.0
  0
VERTEX
  5
56D
  8
0
  6
CONTINUOUS
 62
     7
 10
-31.86899893713997
 20
610.4730282883197
 30
0.0
  0
VERTEX
  5
56E
  8
0
  6
CONTINUOUS
 62
     7
 10
-31.89392187997032
 20
610.4724067489292
 30
0.0
  0
VERTEX
  5
56F
  8
0
  6
CONTINUOUS
 62
     7
 10
-31.91878286043788
 20
610.4705436760025
 30
0.0
  0
VERTEX
  5
570
  8
0
  6
CONTINUOUS
 62
     7
 10
-31.94352007022806
 20
610.4674437014323
 30
0.0
  0
VERTEX
  5
571
  8
0
  6
CONTINUOUS
 62
     7
 10
-31.96807200873968
 20
610.463114532244
 30
0.0
  0
VERTEX
  5
572
  8
0
  6
CONTINUOUS
 62
     7
 10
-31.99237763598512
 20
610.4575669314343
 30
0.0
  0
VERTEX
  5
573
  8
0
  6
CONTINUOUS
 62
     7
 10
-32.01637652434543
 20
610.4508146912128
 30
0.0
  0
VERTEX
  5
574
  8
0
  6
CONTINUOUS
 62
     7
 10
-32.04000900880281
 20
610.4428745987127
 30
0.0
  0
VERTEX
  5
575
  8
0
  6
CONTINUOUS
 62
     7
 10
-32.06321633527732
 20
610.4337663942549
 30
0.0
  0
VERTEX
  5
576
  8
0
  6
CONTINUOUS
 62
     7
 10
-32.08594080669876
 20
610.423512722271
 30
0.0
  0
VERTEX
  5
577
  8
0
  6
CONTINUOUS
 62
     7
 10
-32.10812592645063
 20
610.4121390750049
 30
0.0
  0
VERTEX
  5
578
  8
0
  6
CONTINUOUS
 62
     7
 10
-32.12971653882973
 20
610.3996737291358
 30
0.0
  0
VERTEX
  5
579
  8
0
  6
CONTINUOUS
 62
     7
 10
-32.15065896617179
 20
610.3861476754777
 30
0.0
  0
VERTEX
  5
57A
  8
0
  6
CONTINUOUS
 62
     7
 10
-32.17090114230271
 20
610.3715945419312
 30
0.0
  0
VERTEX
  5
57B
  8
0
  6
CONTINUOUS
 62
     7
 10
-32.19039274198325
 20
610.3560505098793
 30
0.0
  0
VERTEX
  5
57C
  8
0
  6
CONTINUOUS
 62
     7
 10
-32.20908530602543
 20
610.3395542242347
 30
0.0
  0
VERTEX
  5
57D
  8
0
  6
CONTINUOUS
 62
     7
 10
-32.22693236176983
 20
610.3221466973629
 30
0.0
  0
VERTEX
  5
57E
  8
0
  6
CONTINUOUS
 62
     7
 10
-32.24388953862385
 20
610.3038712071183
 30
0.0
  0
VERTEX
  5
57F
  8
0
  6
CONTINUOUS
 62
     7
 10
-32.25991467837399
 20
610.2847731892491
 30
0.0
  0
VERTEX
  5
580
  8
0
  6
CONTINUOUS
 62
     7
 10
-32.2749679399979
 20
610.2649001244371
 30
0.0
  0
VERTEX
  5
581
  8
0
  6
CONTINUOUS
 62
     7
 10
-32.28901189871536
 20
610.2443014202527
 30
0.0
  0
VERTEX
  5
582
  8
0
  6
CONTINUOUS
 62
     7
 10
-32.30201163903219
 20
610.2230282883197
 30
0.0
  0
VERTEX
  5
583
  8
0
  6
CONTINUOUS
 62
     7
 10
-32.31393484154571
 20
610.2011336169963
 30
0.0
  0
VERTEX
  5
584
  8
0
  6
CONTINUOUS
 62
     7
 10
-32.32475186329581
 20
610.178671839885
 30
0.0
  0
VERTEX
  5
585
  8
0
  6
CONTINUOUS
 62
     7
 10
-32.33443581146208
 20
610.155698800503
 30
0.0
  0
VERTEX
  5
586
  8
0
  6
CONTINUOUS
 62
     7
 10
-32.34296261022354
 20
610.1322716134456
 30
0.0
  0
VERTEX
  5
587
  8
0
  6
CONTINUOUS
 62
     7
 10
-32.35031106061498
 20
610.1084485223913
 30
0.0
  0
VERTEX
  5
588
  8
0
  6
CONTINUOUS
 62
     7
 10
-32.35646289323088
 20
610.084288755298
 30
0.0
  0
VERTEX
  5
589
  8
0
  6
CONTINUOUS
 62
     7
 10
-32.36140281364608
 20
610.0598523771532
 30
0.0
  0
SEQEND
  5
834
  8
0
  6
CONTINUOUS
 62
     7
  0
LINE
  5
C5
  8
0
  6
CONTINUOUS
 62
     7
 10
-31.86899893713997
 20
610.4730282883197
 30
0.0
 11
-30.73017413096889
 21
610.4730282883197
 31
0.0
  0
LINE
  5
C6
  8
0
  6
CONTINUOUS
 62
     7
 10
-32.37671224308285
 20
609.9730282883198
 30
0.0
 11
-32.36140281364608
 21
610.0598523771532
 31
0.0
  0
ARC
  5
C7
  8
0
  6
CONTINUOUS
 62
     7
 10
29.03715285701013
 20
609.9730282883198
 30
0.0
 40
0.5000000000000022
 50
90.0
 51
165.0000000000001
  0
LINE
  5
C8
  8
0
  6
CONTINUOUS
 62
     7
 10
-17.69651063697938
 20
598.2730282883198
 30
0.0
 11
-17.84651063697937
 21
598.2730282883198
 31
0.0
  0
LINE
  5
C9
  8
0
  6
CONTINUOUS
 62
     7
 10
16.15348936302064
 20
598.2730282883198
 30
0.0
 11
16.00348936302062
 21
598.2730282883198
 31
0.0
  0
LINE
  5
CA
  8
0
  6
CONTINUOUS
 62
     7
 10
-17.69651063697938
 20
598.2730282883198
 30
0.0
 11
16.00348936302062
 21
598.2730282883198
 31
0.0
  0
LINE
  5
CB
  8
0
  6
CONTINUOUS
 62
     7
 10
-17.94651063697937
 20
598.3730282883197
 30
0.0
 11
-17.94651063697937
 21
598.4730282883197
 31
0.0
  0
ARC
  5
CC
  8
0
  6
CONTINUOUS
 62
     7
 10
-17.84651063697937
 20
598.3730282883197
 30
0.0
 40
0.0999999999999994
 50
180.0
 51
270.0
  0
LINE
  5
CD
  8
0
  6
CONTINUOUS
 62
     7
 10
16.25348936302063
 20
598.4730282883198
 30
0.0
 11
16.25348936302063
 21
598.3730282883198
 31
0.0
  0
ARC
  5
CE
  8
0
  6
CONTINUOUS
 62
     7
 10
16.15348936302064
 20
598.3730282883197
 30
0.0
 40
0.1000000000000029
 50
270.0
 51
0.0
  0
LINE
  5
CF
  8
0
  6
CONTINUOUS
 62
     7
 10
-33.34651063697937
 20
608.9331833967118
 30
0.0
 11
-33.33883569539683
 21
609.286736787305
 31
0.0
  0
LINE
  5
D0
  8
0
  6
CONTINUOUS
 62
     7
 10
-32.99841105924231
 20
618.4730282883346
 30
0.0
 11
-33.33883569539682
 21
609.286736787305
 31
0.0
  0
LINE
  5
D1
  8
0
  6
CONTINUOUS
 62
     7
 10
-32.44254261747337
 20
598.4730282883197
 30
0.0
 11
-32.403905878647
 21
599.5156330466522
 31
0.0
  0
LINE
  5
D2
  8
0
  6
CONTINUOUS
 62
     7
 10
-33.34625047668617
 20
598.573288448613
 30
0.0
 11
-33.33883569539684
 21
598.4730282883197
 31
0.0
  0
LINE
  5
D3
  8
0
  6
CONTINUOUS
 62
     7
 10
-33.34651063697937
 20
603.4152932614007
 30
0.0
 11
-33.34651063697937
 21
603.4730282883197
 31
0.0
  0
LINE
  5
D4
  8
0
  6
CONTINUOUS
 62
     7
 10
-33.34651063697937
 20
604.4730282883199
 30
0.0
 11
-33.34651063697937
 21
608.9331833967118
 31
0.0
  0
LINE
  5
D5
  8
0
  6
CONTINUOUS
 62
     7
 10
-32.44254261747337
 20
598.4730282883197
 30
0.0
 11
-33.33883569539683
 21
598.4730282883197
 31
0.0
  0
LINE
  5
D6
  8
0
  6
CONTINUOUS
 62
     7
 10
-31.34651063697939
 20
598.4730282883197
 30
0.0
 11
-32.44254261747337
 21
598.4730282883197
 31
0.0
  0
LINE
  5
D7
  8
0
  6
CONTINUOUS
 62
     7
 10
31.6532292027274
 20
598.573288448613
 30
0.0
 11
31.64581442143808
 21
598.4730282883197
 31
0.0
  0
LINE
  5
D8
  8
0
  6
CONTINUOUS
 62
     7
 10
30.74952134351461
 20
598.4730282883197
 30
0.0
 11
30.71088460468824
 21
599.5156330466522
 31
0.0
  0
LINE
  5
D9
  8
0
  6
CONTINUOUS
 62
     7
 10
31.30538978528355
 20
618.4730282883346
 30
0.0
 11
31.64581442143806
 21
609.286736787305
 31
0.0
  0
LINE
  5
DA
  8
0
  6
CONTINUOUS
 62
     7
 10
31.65348936302061
 20
608.9331833967118
 30
0.0
 11
31.64581442143807
 21
609.286736787305
 31
0.0
  0
LINE
  5
DB
  8
0
  6
CONTINUOUS
 62
     7
 10
31.6534893630206
 20
603.4152932614007
 30
0.0
 11
31.6534893630206
 21
603.4730282883197
 31
0.0
  0
LINE
  5
DC
  8
0
  6
CONTINUOUS
 62
     7
 10
31.65348936302061
 20
604.4730282883199
 30
0.0
 11
31.6534893630206
 21
608.9331833967118
 31
0.0
  0
LINE
  5
DD
  8
0
  6
CONTINUOUS
 62
     7
 10
30.74952134351461
 20
598.4730282883197
 30
0.0
 11
31.64581442143807
 21
598.4730282883197
 31
0.0
  0
LINE
  5
DE
  8
0
  6
CONTINUOUS
 62
     7
 10
29.65348936302063
 20
598.4730282883197
 30
0.0
 11
30.74952134351461
 21
598.4730282883197
 31
0.0
  0
LINE
  5
DF
  8
0
  6
CONTINUOUS
 62
     7
 10
29.8650959381838
 20
600.4730282883198
 30
0.0
 11
29.65348936302063
 21
600.4730282883198
 31
0.0
  0
LINE
  5
E0
  8
0
  6
CONTINUOUS
 62
     7
 10
-31.55811721214256
 20
600.4730282883198
 30
0.0
 11
-31.34651063697939
 21
600.4730282883198
 31
0.0
  0
POLYLINE
  5
E1
  8
0
  6
CONTINUOUS
 62
     7
 66
     1
 10
0.0
 20
0.0
 30
0.0
  0
VERTEX
  5
58A
  8
0
  6
CONTINUOUS
 62
     7
 10
31.26805136615343
 20
617.9620945915759
 30
0.0
  0
VERTEX
  5
58B
  8
0
  6
CONTINUOUS
 62
     7
 10
31.26624810596035
 20
617.971867809102
 30
0.0
  0
VERTEX
  5
58C
  8
0
  6
CONTINUOUS
 62
     7
 10
31.26332485375853
 20
617.9815773702936
 30
0.0
  0
VERTEX
  5
58D
  8
0
  6
CONTINUOUS
 62
     7
 10
31.25928819033867
 20
617.9912014171013
 30
0.0
  0
VERTEX
  5
58E
  8
0
  6
CONTINUOUS
 62
     7
 10
31.2541472029896
 20
618.0007182839852
 30
0.0
  0
VERTEX
  5
58F
  8
0
  6
CONTINUOUS
 62
     7
 10
31.24791346504114
 20
618.0101065466872
 30
0.0
  0
VERTEX
  5
590
  8
0
  6
CONTINUOUS
 62
     7
 10
31.24060100981028
 20
618.0193450704617
 30
0.0
  0
VERTEX
  5
591
  8
0
  6
CONTINUOUS
 62
     7
 10
31.23222629900955
 20
618.0284130576532
 30
0.0
  0
VERTEX
  5
592
  8
0
  6
CONTINUOUS
 62
     7
 10
31.22280818568868
 20
618.0372900945168
 30
0.0
  0
VERTEX
  5
593
  8
0
  6
CONTINUOUS
 62
     7
 10
31.21236787179274
 20
618.045956197172
 30
0.0
  0
VERTEX
  5
594
  8
0
  6
CONTINUOUS
 62
     7
 10
31.20092886043264
 20
618.0543918565915
 30
0.0
  0
VERTEX
  5
595
  8
0
  6
CONTINUOUS
 62
     7
 10
31.18851690297521
 20
618.0625780825185
 30
0.0
  0
VERTEX
  5
596
  8
0
  6
CONTINUOUS
 62
     7
 10
31.17515994107194
 20
618.0704964462184
 30
0.0
  0
VERTEX
  5
597
  8
0
  6
CONTINUOUS
 62
     7
 10
31.1608880437572
 20
618.0781291219646
 30
0.0
  0
VERTEX
  5
598
  8
0
  6
CONTINUOUS
 62
     7
 10
31.14573333975707
 20
618.0854589271678
 30
0.0
  0
VERTEX
  5
599
  8
0
  6
CONTINUOUS
 62
     7
 10
31.1297299451616
 20
618.0924693610577
 30
0.0
  0
VERTEX
  5
59A
  8
0
  6
CONTINUOUS
 62
     7
 10
31.11291388662302
 20
618.0991446418285
 30
0.0
  0
VERTEX
  5
59B
  8
0
  6
CONTINUOUS
 62
     7
 10
31.09532302025303
 20
618.1054697421671
 30
0.0
  0
VERTEX
  5
59C
  8
0
  6
CONTINUOUS
 62
     7
 10
31.07699694640153
 20
618.1114304230825
 30
0.0
  0
VERTEX
  5
59D
  8
0
  6
CONTINUOUS
 62
     7
 10
31.05797692050877
 20
618.1170132659607
 30
0.0
  0
VERTEX
  5
59E
  8
0
  6
CONTINUOUS
 62
     7
 10
31.03830576023164
 20
618.1222057027721
 30
0.0
  0
VERTEX
  5
59F
  8
0
  6
CONTINUOUS
 62
     7
 10
31.01802774905302
 20
618.1269960443642
 30
0.0
  0
VERTEX
  5
5A0
  8
0
  6
CONTINUOUS
 62
     7
 10
30.99718853659135
 20
618.1313735067769
 30
0.0
  0
VERTEX
  5
5A1
  8
0
  6
CONTINUOUS
 62
     7
 10
30.97583503583475
 20
618.1353282355185
 30
0.0
  0
VERTEX
  5
5A2
  8
0
  6
CONTINUOUS
 62
     7
 10
30.95401531753107
 20
618.1388513277508
 30
0.0
  0
VERTEX
  5
5A3
  8
0
  6
CONTINUOUS
 62
     7
 10
30.93177850197153
 20
618.1419348523302
 30
0.0
  0
VERTEX
  5
5A4
  8
0
  6
CONTINUOUS
 62
     7
 10
30.90917464841178
 20
618.1445718676628
 30
0.0
  0
VERTEX
  5
5A5
  8
0
  6
CONTINUOUS
 62
     7
 10
30.8862546423791
 20
618.1467564373309
 30
0.0
  0
VERTEX
  5
5A6
  8
0
  6
CONTINUOUS
 62
     7
 10
30.86307008111941
 20
618.148483643457
 30
0.0
  0
VERTEX
  5
5A7
  8
0
  6
CONTINUOUS
 62
     7
 10
30.83967315744227
 20
618.1497495977752
 30
0.0
  0
VERTEX
  5
5A8
  8
0
  6
CONTINUOUS
 62
     7
 10
30.81611654222495
 20
618.1505514503843
 30
0.0
  0
VERTEX
  5
5A9
  8
0
  6
CONTINUOUS
 62
     7
 10
30.79245326584046
 20
618.1508873961631
 30
0.0
  0
VERTEX
  5
5AA
  8
0
  6
CONTINUOUS
 62
     7
 10
30.76873659877614
 20
618.1507566788345
 30
0.0
  0
SEQEND
  5
835
  8
0
  6
CONTINUOUS
 62
     7
  0
POLYLINE
  5
E2
  8
0
  6
CONTINUOUS
 62
     7
 66
     1
 10
0.0
 20
0.0
 30
0.0
  0
VERTEX
  5
5AB
  8
0
  6
CONTINUOUS
 62
     7
 10
-32.96107264011219
 20
617.9620945915759
 30
0.0
  0
VERTEX
  5
5AC
  8
0
  6
CONTINUOUS
 62
     7
 10
-32.95926937991911
 20
617.971867809102
 30
0.0
  0
VERTEX
  5
5AD
  8
0
  6
CONTINUOUS
 62
     7
 10
-32.95634612771729
 20
617.9815773702936
 30
0.0
  0
VERTEX
  5
5AE
  8
0
  6
CONTINUOUS
 62
     7
 10
-32.95230946429743
 20
617.9912014171013
 30
0.0
  0
VERTEX
  5
5AF
  8
0
  6
CONTINUOUS
 62
     7
 10
-32.94716847694836
 20
618.0007182839852
 30
0.0
  0
VERTEX
  5
5B0
  8
0
  6
CONTINUOUS
 62
     7
 10
-32.9409347389999
 20
618.0101065466872
 30
0.0
  0
VERTEX
  5
5B1
  8
0
  6
CONTINUOUS
 62
     7
 10
-32.93362228376904
 20
618.0193450704617
 30
0.0
  0
VERTEX
  5
5B2
  8
0
  6
CONTINUOUS
 62
     7
 10
-32.92524757296832
 20
618.0284130576532
 30
0.0
  0
VERTEX
  5
5B3
  8
0
  6
CONTINUOUS
 62
     7
 10
-32.91582945964744
 20
618.0372900945168
 30
0.0
  0
VERTEX
  5
5B4
  8
0
  6
CONTINUOUS
 62
     7
 10
-32.9053891457515
 20
618.045956197172
 30
0.0
  0
VERTEX
  5
5B5
  8
0
  6
CONTINUOUS
 62
     7
 10
-32.8939501343914
 20
618.0543918565915
 30
0.0
  0
VERTEX
  5
5B6
  8
0
  6
CONTINUOUS
 62
     7
 10
-32.88153817693397
 20
618.0625780825185
 30
0.0
  0
VERTEX
  5
5B7
  8
0
  6
CONTINUOUS
 62
     7
 10
-32.8681812150307
 20
618.0704964462184
 30
0.0
  0
VERTEX
  5
5B8
  8
0
  6
CONTINUOUS
 62
     7
 10
-32.85390931771597
 20
618.0781291219646
 30
0.0
  0
VERTEX
  5
5B9
  8
0
  6
CONTINUOUS
 62
     7
 10
-32.83875461371584
 20
618.0854589271678
 30
0.0
  0
VERTEX
  5
5BA
  8
0
  6
CONTINUOUS
 62
     7
 10
-32.82275121912036
 20
618.0924693610577
 30
0.0
  0
VERTEX
  5
5BB
  8
0
  6
CONTINUOUS
 62
     7
 10
-32.80593516058178
 20
618.0991446418285
 30
0.0
  0
VERTEX
  5
5BC
  8
0
  6
CONTINUOUS
 62
     7
 10
-32.78834429421179
 20
618.1054697421671
 30
0.0
  0
VERTEX
  5
5BD
  8
0
  6
CONTINUOUS
 62
     7
 10
-32.77001822036029
 20
618.1114304230825
 30
0.0
  0
VERTEX
  5
5BE
  8
0
  6
CONTINUOUS
 62
     7
 10
-32.75099819446753
 20
618.1170132659607
 30
0.0
  0
VERTEX
  5
5BF
  8
0
  6
CONTINUOUS
 62
     7
 10
-32.73132703419041
 20
618.1222057027721
 30
0.0
  0
VERTEX
  5
5C0
  8
0
  6
CONTINUOUS
 62
     7
 10
-32.71104902301178
 20
618.1269960443642
 30
0.0
  0
VERTEX
  5
5C1
  8
0
  6
CONTINUOUS
 62
     7
 10
-32.69020981055011
 20
618.1313735067769
 30
0.0
  0
VERTEX
  5
5C2
  8
0
  6
CONTINUOUS
 62
     7
 10
-32.66885630979351
 20
618.1353282355185
 30
0.0
  0
VERTEX
  5
5C3
  8
0
  6
CONTINUOUS
 62
     7
 10
-32.64703659148983
 20
618.1388513277508
 30
0.0
  0
VERTEX
  5
5C4
  8
0
  6
CONTINUOUS
 62
     7
 10
-32.62479977593028
 20
618.1419348523302
 30
0.0
  0
VERTEX
  5
5C5
  8
0
  6
CONTINUOUS
 62
     7
 10
-32.60219592237055
 20
618.1445718676628
 30
0.0
  0
VERTEX
  5
5C6
  8
0
  6
CONTINUOUS
 62
     7
 10
-32.57927591633786
 20
618.1467564373309
 30
0.0
  0
VERTEX
  5
5C7
  8
0
  6
CONTINUOUS
 62
     7
 10
-32.55609135507817
 20
618.148483643457
 30
0.0
  0
VERTEX
  5
5C8
  8
0
  6
CONTINUOUS
 62
     7
 10
-32.53269443140103
 20
618.1497495977752
 30
0.0
  0
VERTEX
  5
5C9
  8
0
  6
CONTINUOUS
 62
     7
 10
-32.50913781618371
 20
618.1505514503843
 30
0.0
  0
VERTEX
  5
5CA
  8
0
  6
CONTINUOUS
 62
     7
 10
-32.48547453979922
 20
618.1508873961631
 30
0.0
  0
VERTEX
  5
5CB
  8
0
  6
CONTINUOUS
 62
     7
 10
-32.46175787273491
 20
618.1507566788345
 30
0.0
  0
SEQEND
  5
836
  8
0
  6
CONTINUOUS
 62
     7
  0
LINE
  5
E3
  8
0
  6
CONTINUOUS
 62
     7
 10
-32.46175787273491
 20
618.1507566788345
 30
0.0
 11
-32.45408293115081
 21
618.1506978179829
 31
0.0
  0
LINE
  5
E4
  8
0
  6
CONTINUOUS
 62
     7
 10
-31.82099292033524
 20
618.150697817983
 30
0.0
 11
-32.45408293115081
 21
618.150697817983
 31
0.0
  0
LINE
  5
E5
  8
0
  6
CONTINUOUS
 62
     7
 10
30.12797164637648
 20
618.150697817983
 30
0.0
 11
30.76106165719205
 21
618.150697817983
 31
0.0
  0
LINE
  5
E6
  8
0
  6
CONTINUOUS
 62
     7
 10
30.76873659877614
 20
618.1507566788345
 30
0.0
 11
30.76106165719205
 21
618.1506978179829
 31
0.0
  0
POLYLINE
  5
E7
  8
0
  6
CONTINUOUS
 62
     7
 66
     1
 10
0.0
 20
0.0
 30
0.0
  0
VERTEX
  5
5CC
  8
0
  6
CONTINUOUS
 62
     7
 10
-31.32167815295952
 20
617.4805981463554
 30
0.0
  0
VERTEX
  5
5CD
  8
0
  6
CONTINUOUS
 62
     7
 10
-31.33558231612334
 20
617.6131583999125
 30
0.0
  0
VERTEX
  5
5CE
  8
0
  6
CONTINUOUS
 62
     7
 10
-31.36692133342427
 20
617.7396281762187
 30
0.0
  0
VERTEX
  5
5CF
  8
0
  6
CONTINUOUS
 62
     7
 10
-31.414569578041
 20
617.8554649661413
 30
0.0
  0
VERTEX
  5
5D0
  8
0
  6
CONTINUOUS
 62
     7
 10
-31.47681563248993
 20
617.9565081734379
 30
0.0
  0
VERTEX
  5
5D1
  8
0
  6
CONTINUOUS
 62
     7
 10
-31.55142375888131
 20
618.0391285539891
 30
0.0
  0
VERTEX
  5
5D2
  8
0
  6
CONTINUOUS
 62
     7
 10
-31.63571420158189
 20
618.1003585700628
 30
0.0
  0
VERTEX
  5
5D3
  8
0
  6
CONTINUOUS
 62
     7
 10
-31.72665943799353
 20
618.137998977576
 30
0.0
  0
VERTEX
  5
5D4
  8
0
  6
CONTINUOUS
 62
     7
 10
-31.82099292033681
 20
618.1506978179827
 30
0.0
  0
SEQEND
  5
837
  8
0
  6
CONTINUOUS
 62
     7
  0
POLYLINE
  5
E8
  8
0
  6
CONTINUOUS
 62
     7
 66
     1
 10
0.0
 20
0.0
 30
0.0
  0
VERTEX
  5
5D5
  8
0
  6
CONTINUOUS
 62
     7
 10
30.12797164637804
 20
618.1506978179827
 30
0.0
  0
VERTEX
  5
5D6
  8
0
  6
CONTINUOUS
 62
     7
 10
30.03363816403477
 20
618.137998977576
 30
0.0
  0
VERTEX
  5
5D7
  8
0
  6
CONTINUOUS
 62
     7
 10
29.94269292762313
 20
618.1003585700628
 30
0.0
  0
VERTEX
  5
5D8
  8
0
  6
CONTINUOUS
 62
     7
 10
29.85840248492255
 20
618.0391285539891
 30
0.0
  0
VERTEX
  5
5D9
  8
0
  6
CONTINUOUS
 62
     7
 10
29.78379435853117
 20
617.9565081734379
 30
0.0
  0
VERTEX
  5
5DA
  8
0
  6
CONTINUOUS
 62
     7
 10
29.72154830408224
 20
617.8554649661413
 30
0.0
  0
VERTEX
  5
5DB
  8
0
  6
CONTINUOUS
 62
     7
 10
29.67390005946551
 20
617.7396281762187
 30
0.0
  0
VERTEX
  5
5DC
  8
0
  6
CONTINUOUS
 62
     7
 10
29.64256104216458
 20
617.6131583999125
 30
0.0
  0
VERTEX
  5
5DD
  8
0
  6
CONTINUOUS
 62
     7
 10
29.62865687900076
 20
617.4805981463554
 30
0.0
  0
SEQEND
  5
838
  8
0
  6
CONTINUOUS
 62
     7
  0
LINE
  5
E9
  8
0
  6
CONTINUOUS
 62
     7
 10
-31.08447174056411
 20
611.0796300061181
 30
0.0
 11
-31.32167815295952
 21
617.4805981463555
 31
0.0
  0
LINE
  5
EA
  8
0
  6
CONTINUOUS
 62
     7
 10
-31.08447174056411
 20
611.0796300061181
 30
0.0
 11
-31.08447174056411
 21
610.4730282883198
 31
0.0
  0
LINE
  5
EB
  8
0
  6
CONTINUOUS
 62
     7
 10
29.39145046660535
 20
611.0796300061181
 30
0.0
 11
29.39145046660535
 21
610.4730282883198
 31
0.0
  0
LINE
  5
EC
  8
0
  6
CONTINUOUS
 62
     7
 10
29.39145046660535
 20
611.0796300061181
 30
0.0
 11
29.62865687900076
 21
617.4805981463555
 31
0.0
  0
ARC
  5
ED
  8
0
  6
CONTINUOUS
 62
     7
 10
-21.84651063697938
 20
612.0796300061181
 30
0.0
 40
3.000000000000005
 50
89.9999999999953
 51
179.999999999996
  0
LINE
  5
EE
  8
0
  6
CONTINUOUS
 62
     7
 10
-24.84651063697907
 20
612.0796300061184
 30
0.0
 11
-24.84651063697907
 21
603.4730282883198
 31
0.0
  0
LINE
  5
EF
  8
0
  6
CONTINUOUS
 62
     7
 10
-19.84651063697907
 20
615.0796300061184
 30
0.0
 11
-21.84651063697914
 21
615.0796300061184
 31
0.0
  0
LINE
  5
F0
  8
0
  6
CONTINUOUS
 62
     7
 10
18.15348936302031
 20
615.0796300061184
 30
0.0
 11
20.15348936302037
 21
615.0796300061184
 31
0.0
  0
ARC
  5
F1
  8
0
  6
CONTINUOUS
 62
     7
 10
20.15348936302062
 20
612.0796300061181
 30
0.0
 40
3.000000000000005
 50
0.000000000003979
 51
90.00000000000472
  0
LINE
  5
F2
  8
0
  6
CONTINUOUS
 62
     7
 10
23.1534893630203
 20
612.0796300061184
 30
0.0
 11
23.15348936302031
 21
603.4730282883198
 31
0.0
  0
ARC
  5
F3
  8
0
  6
CONTINUOUS
 62
     7
 10
18.15348936302064
 20
612.0796300061181
 30
0.0
 40
3.000000000000003
 50
90.00000000000638
 51
179.9999999999984
  0
LINE
  5
F4
  8
0
  6
CONTINUOUS
 62
     7
 10
15.15348936302054
 20
612.0796300061182
 30
0.0
 11
15.15348936302055
 21
603.4730282883198
 31
0.0
  0
ARC
  5
F5
  8
0
  6
CONTINUOUS
 62
     7
 10
-19.8465106369794
 20
612.0796300061181
 30
0.0
 40
3.000000000000003
 50
0.0000000000015903
 51
89.99999999999363
  0
LINE
  5
F6
  8
0
  6
CONTINUOUS
 62
     7
 10
-16.8465106369793
 20
612.0796300061182
 30
0.0
 11
-16.84651063697931
 21
603.4730282883198
 31
0.0
  0
LINE
  5
F7
  8
0
  6
CONTINUOUS
 62
     7
 10
-1.146510636979015
 20
611.0796300061184
 30
0.0
 11
-16.84651063697906
 21
611.0796300061184
 31
0.0
  0
LINE
  5
F8
  8
0
  6
CONTINUOUS
 62
     7
 10
-1.146510636979015
 20
611.0796300061184
 30
0.0
 11
-1.146510636979015
 21
603.4730282883194
 31
0.0
  0
LINE
  5
F9
  8
0
  6
CONTINUOUS
 62
     7
 10
-0.5465106369797468
 20
611.0796300061184
 30
0.0
 11
-0.5465106369797468
 21
603.4730282883194
 31
0.0
  0
LINE
  5
FA
  8
0
  6
CONTINUOUS
 62
     7
 10
-0.5465106369797468
 20
611.0796300061184
 30
0.0
 11
15.1534893630203
 21
611.0796300061184
 31
0.0
  0
LINE
  5
FB
  8
0
  6
CONTINUOUS
 62
     7
 10
23.15348936302031
 20
611.0796300061184
 30
0.0
 11
29.39145046660535
 21
611.0796300061181
 31
0.0
  0
LINE
  5
FC
  8
0
  6
CONTINUOUS
 62
     7
 10
-0.8465106369789921
 20
610.7796300061183
 30
0.0
 11
-1.146510636979015
 21
611.0796300061184
 31
0.0
  0
LINE
  5
FD
  8
0
  6
CONTINUOUS
 62
     7
 10
-0.8465106369789921
 20
610.7796300061183
 30
0.0
 11
-0.8465106369789921
 21
603.1730282883203
 31
0.0
  0
LINE
  5
FE
  8
0
  6
CONTINUOUS
 62
     7
 10
-24.84651063697907
 20
611.0796300061184
 30
0.0
 11
-31.08447174056411
 21
611.0796300061181
 31
0.0
  0
LINE
  5
FF
  8
0
  6
CONTINUOUS
 62
     7
 10
-0.8465106369789921
 20
610.7796300061183
 30
0.0
 11
-0.5465106369797468
 21
611.0796300061184
 31
0.0
  0
LINE
  5
100
  8
0
  6
CONTINUOUS
 62
     7
 10
-24.84651063697917
 20
649.7036357938161
 30
0.0
 11
-24.84651063697907
 21
612.0796300061182
 31
0.0
  0
LINE
  5
101
  8
0
  6
CONTINUOUS
 62
     7
 10
23.15348936302041
 20
649.7036357938161
 30
0.0
 11
23.1534893630203
 21
612.0796300061182
 31
0.0
  0
LINE
  5
102
  8
0
  6
CONTINUOUS
 62
     7
 10
15.15348936302058
 20
658.1044879280473
 30
0.0
 11
15.15348936302054
 21
612.0796300061182
 31
0.0
  0
LINE
  5
103
  8
0
  6
CONTINUOUS
 62
     7
 10
-16.84651063697934
 20
658.1044879280473
 30
0.0
 11
-16.8465106369793
 21
612.0796300061182
 31
0.0
  0
ARC
  5
104
  8
0
  6
CONTINUOUS
 62
     7
 10
-0.8465106369793807
 20
630.9730282883198
 30
0.0
 40
15.0
 50
99.59406822686046
 51
260.4059317731396
  0
ARC
  5
105
  8
0
  6
CONTINUOUS
 62
     7
 10
-0.8465106369793807
 20
630.9730282883198
 30
0.0
 40
16.5
 50
261.2852579813818
 51
278.7147420186182
  0
ARC
  5
106
  8
0
  6
CONTINUOUS
 62
     7
 10
-0.8465106369793807
 20
630.9730282883198
 30
0.0
 40
15.0
 50
279.5940682268605
 51
80.40593177313951
  0
ARC
  5
107
  8
0
  6
CONTINUOUS
 62
     7
 10
-0.8465106369793807
 20
630.9730282883198
 30
0.0
 40
16.5
 50
81.2852579813818
 51
98.71474201861808
  0
ARC
  5
108
  8
0
  6
CONTINUOUS
 62
     7
 10
-0.8465106369793807
 20
630.9730282883198
 30
0.0
 40
17.0
 50
271.0111544781055
 51
340.2500772043576
  0
LINE
  5
109
  8
0
  6
CONTINUOUS
 62
     7
 10
-0.5465106369793166
 20
613.9756755532613
 30
0.0
 11
-0.8465106369794327
 21
614.2730282883199
 31
0.0
  0
LINE
  5
10A
  8
0
  6
CONTINUOUS
 62
     7
 10
-0.8465106369794327
 20
614.2730282883199
 30
0.0
 11
-1.146510636979445
 21
613.9756755532613
 31
0.0
  0
ARC
  5
10B
  8
0
  6
CONTINUOUS
 62
     7
 10
-0.8465106369793807
 20
630.9730282883198
 30
0.0
 40
17.0
 50
199.7499227956425
 51
268.9888455218946
  0
ARC
  5
10C
  8
0
  6
CONTINUOUS
 62
     7
 10
-0.8465106369793807
 20
630.9730282883198
 30
0.0
 40
17.0
 50
91.01115447810535
 51
160.2500772043576
  0
LINE
  5
10D
  8
0
  6
CONTINUOUS
 62
     7
 10
-1.146510636979445
 20
647.9703810233783
 30
0.0
 11
-0.8465106369794327
 21
647.6730282883199
 31
0.0
  0
LINE
  5
10E
  8
0
  6
CONTINUOUS
 62
     7
 10
-0.8465106369794327
 20
647.6730282883199
 30
0.0
 11
-0.5465106369793166
 21
647.9703810233783
 31
0.0
  0
ARC
  5
10F
  8
0
  6
CONTINUOUS
 62
     7
 10
-0.8465106369793807
 20
630.9730282883198
 30
0.0
 40
17.0
 50
19.74992279564242
 51
88.98884552189462
  0
LINE
  5
110
  8
0
  6
CONTINUOUS
 62
     7
 10
-1.146510636979445
 20
613.9756755532612
 30
0.0
 11
-1.146510636979015
 21
611.0796300061182
 31
0.0
  0
LINE
  5
111
  8
0
  6
CONTINUOUS
 62
     7
 10
-0.8465106369794327
 20
614.2730282883199
 30
0.0
 11
-0.8465106369789921
 21
610.7796300061183
 31
0.0
  0
LINE
  5
112
  8
0
  6
CONTINUOUS
 62
     7
 10
-0.5465106369793166
 20
613.9756755532613
 30
0.0
 11
-0.5465106369797468
 21
611.0796300061184
 31
0.0
  0
LINE
  5
113
  8
0
  6
CONTINUOUS
 62
     7
 10
-1.146510636979445
 20
659.4728326360625
 30
0.0
 11
-1.146510636979445
 21
647.9703810233782
 31
0.0
  0
LINE
  5
114
  8
0
  6
CONTINUOUS
 62
     7
 10
-0.5465106369793166
 20
659.4728326360625
 30
0.0
 11
-0.5465106369793166
 21
647.9703810233782
 31
0.0
  0
CIRCLE
  5
115
  8
0
  6
CONTINUOUS
 62
     7
 10
-0.8465106369793807
 20
630.9730282883198
 30
0.0
 40
12.49999999999999
  0
ARC
  5
116
  8
0
  6
CONTINUOUS
 62
     7
 10
-0.8465106369793807
 20
630.9730282883198
 30
0.0
 40
13.00000000000001
 50
258.9125107890294
 51
281.0874892109707
  0
ARC
  5
117
  8
0
  6
CONTINUOUS
 62
     7
 10
-0.8465106369793807
 20
630.9730282883198
 30
0.0
 40
14.5
 50
99.92819184228647
 51
260.0718081577135
  0
ARC
  5
118
  8
0
  6
CONTINUOUS
 62
     7
 10
-0.8465106369793807
 20
630.9730282883198
 30
0.0
 40
13.00000000000001
 50
78.91251078902937
 51
101.0874892109706
  0
ARC
  5
119
  8
0
  6
CONTINUOUS
 62
     7
 10
-0.8465106369793807
 20
630.9730282883198
 30
0.0
 40
14.5
 50
279.9281918422865
 51
80.07180815771352
  0
LINE
  5
11A
  8
0
  6
CONTINUOUS
 62
     7
 10
-0.8465106369794327
 20
659.4730282883197
 30
0.0
 11
-0.8465106369794327
 21
647.6730282883199
 31
0.0
  0
LINE
  5
11B
  8
0
  6
CONTINUOUS
 62
     7
 10
1.653489363020622
 20
647.2825347186198
 30
0.0
 11
1.653489363020622
 21
643.7303791104928
 31
0.0
  0
LINE
  5
11C
  8
0
  6
CONTINUOUS
 62
     7
 10
-3.346510636979378
 20
643.7303791104929
 30
0.0
 11
-3.346510636979378
 21
647.2825347186199
 31
0.0
  0
LINE
  5
11D
  8
0
  6
CONTINUOUS
 62
     7
 10
-3.346510636979379
 20
614.6635218580196
 30
0.0
 11
-3.346510636979379
 21
618.2156774661466
 31
0.0
  0
LINE
  5
11E
  8
0
  6
CONTINUOUS
 62
     7
 10
1.653489363020621
 20
618.2156774661466
 30
0.0
 11
1.653489363020621
 21
614.6635218580196
 31
0.0
  0
LINE
  5
11F
  8
0
  6
CONTINUOUS
 62
     7
 10
-0.8465106369794241
 20
659.4730282883197
 30
0.0
 11
-0.8465106369794241
 21
663.2730282883198
 31
0.0
  0
ARC
  5
120
  8
0
  6
CONTINUOUS
 62
     7
 10
-0.8465106369793807
 20
429.4730282883198
 30
0.0
 40
230.0
 50
90.0
 51
90.4982304487101
  0
LINE
  5
121
  8
0
  6
CONTINUOUS
 62
     7
 10
-2.846510636979311
 20
663.2644738118889
 30
0.0
 11
-2.846510636979262
 21
659.4643324717606
 31
0.0
  0
LINE
  5
122
  8
0
  6
CONTINUOUS
 62
     7
 10
27.99768934761892
 20
618.4730282883197
 30
0.0
 11
31.99784166116187
 21
618.4730282883197
 31
0.0
  0
LINE
  5
123
  8
0
  6
CONTINUOUS
 62
     7
 10
27.79499686749048
 20
641.6992859775997
 30
0.0
 11
27.99768934761892
 21
618.4730282883197
 31
0.0
  0
ARC
  5
124
  8
0
  6
CONTINUOUS
 62
     7
 10
19.79530148297711
 20
641.6294736936127
 30
0.0
 40
8.000000000000004
 50
0.5000000000000568
 51
43.5999164104
  0
LINE
  5
125
  8
0
  6
CONTINUOUS
 62
     7
 10
14.32742589796306
 20
658.9719425559771
 30
0.0
 11
25.58868442323411
 21
647.146421591458
 31
0.0
  0
ARC
  5
126
  8
0
  6
CONTINUOUS
 62
     7
 10
-0.8465106369793807
 20
429.4730282883198
 30
0.0
 40
230.0
 50
86.21724155378472
 51
89.5017695512899
  0
LINE
  5
127
  8
0
  6
CONTINUOUS
 62
     7
 10
1.15348936302055
 20
663.2644738118889
 30
0.0
 11
1.153489363020501
 21
659.4643324717606
 31
0.0
  0
ARC
  5
128
  8
0
  6
CONTINUOUS
 62
     7
 10
-0.8465106369793807
 20
429.4730282883198
 30
0.0
 40
230.0
 50
90.49823044871012
 51
93.78275844621528
  0
LINE
  5
129
  8
0
  6
CONTINUOUS
 62
     7
 10
-16.02044717192182
 20
658.9719425559771
 30
0.0
 11
-27.28170569719288
 21
647.146421591458
 31
0.0
  0
ARC
  5
12A
  8
0
  6
CONTINUOUS
 62
     7
 10
-21.48832275693587
 20
641.6294736936127
 30
0.0
 40
8.000000000000004
 50
136.4000835896
 51
179.5
  0
LINE
  5
12B
  8
0
  6
CONTINUOUS
 62
     7
 10
-29.48801814144924
 20
641.6992859775997
 30
0.0
 11
-29.69071062157768
 21
618.4730282883197
 31
0.0
  0
LINE
  5
12C
  8
0
  6
CONTINUOUS
 62
     7
 10
-29.69071062157768
 20
618.4730282883197
 30
0.0
 11
-33.69086293512063
 21
618.4730282883197
 31
0.0
  0
ARC
  5
12D
  8
0
  6
CONTINUOUS
 62
     7
 10
-0.8465106369793807
 20
429.4730282883198
 30
0.0
 40
230.0
 50
89.50176955128988
 51
90.00000000000001
  0
ARC
  5
12E
  8
0
  6
CONTINUOUS
 62
     7
 10
-21.48832275693587
 20
641.6294736936127
 30
0.0
 40
12.0
 50
136.4000835896
 51
179.5000000000001
  0
LINE
  5
12F
  8
0
  6
CONTINUOUS
 62
     7
 10
-33.48786583370592
 20
641.7341921195931
 30
0.0
 11
-33.86540029093582
 21
598.4730282883197
 31
0.0
  0
LINE
  5
130
  8
0
  6
CONTINUOUS
 62
     7
 10
-33.86540029093582
 20
598.4730282883198
 30
0.0
 11
-34.66543075364439
 21
598.4730282883198
 31
0.0
  0
LINE
  5
131
  8
0
  6
CONTINUOUS
 62
     7
 10
-34.28611223896032
 20
641.9386248550221
 30
0.0
 11
-34.66543075364439
 21
598.4730282883197
 31
0.0
  0
ARC
  5
132
  8
0
  6
CONTINUOUS
 62
     7
 10
-21.98658058527102
 20
641.8312884683922
 30
0.0
 40
12.3
 50
136.4000835896
 51
179.5
  0
LINE
  5
133
  8
0
  6
CONTINUOUS
 62
     7
 10
-18.21298896315965
 20
663.6299103792511
 30
0.0
 11
-30.89390685591615
 21
650.3135958613293
 31
0.0
  0
ARC
  5
134
  8
0
  6
CONTINUOUS
 62
     7
 10
-0.8465106369793807
 20
429.4730282883198
 30
0.0
 40
234.8
 50
85.75836725197999
 51
94.24163274801997
  0
LINE
  5
135
  8
0
  6
CONTINUOUS
 62
     7
 10
16.51996768920089
 20
663.6299103792511
 30
0.0
 11
29.20088558195739
 21
650.3135958613293
 31
0.0
  0
ARC
  5
136
  8
0
  6
CONTINUOUS
 62
     7
 10
20.29355931131225
 20
641.8312884683922
 30
0.0
 40
12.3
 50
0.5
 51
43.5999164104
  0
LINE
  5
137
  8
0
  6
CONTINUOUS
 62
     7
 10
32.59309096500156
 20
641.9386248550221
 30
0.0
 11
32.97240947968563
 21
598.4730282883197
 31
0.0
  0
LINE
  5
138
  8
0
  6
CONTINUOUS
 62
     7
 10
32.17237901697706
 20
598.4730282883198
 30
0.0
 11
32.97240947968563
 21
598.4730282883198
 31
0.0
  0
ARC
  5
139
  8
0
  6
CONTINUOUS
 62
     7
 10
19.79530148297711
 20
641.6294736936127
 30
0.0
 40
12.0
 50
0.4999999999999432
 51
43.5999164104
  0
LINE
  5
13A
  8
0
  6
CONTINUOUS
 62
     7
 10
16.15348936302052
 20
662.8546899500708
 30
0.0
 11
28.4853758933626
 21
649.9048955403806
 31
0.0
  0
LINE
  5
13B
  8
0
  6
CONTINUOUS
 62
     7
 10
-17.84651063697929
 20
662.8546899500708
 30
0.0
 11
-30.17839716732137
 21
649.9048955403806
 31
0.0
  0
LINE
  5
13C
  8
0
  6
CONTINUOUS
 62
     7
 10
31.79484455974716
 20
641.7341921195931
 30
0.0
 11
32.17237901697706
 21
598.4730282883197
 31
0.0
  0
ARC
  5
13D
  8
0
  6
CONTINUOUS
 62
     7
 10
-0.8465106369793807
 20
429.4730282883198
 30
0.0
 40
234.0
 50
85.83381578248017
 51
94.1661842175199
  0
LINE
  5
13E
  8
0
  6
CONTINUOUS
 62
     7
 10
-18.21298896315965
 20
663.6299103792511
 30
0.0
 11
-19.13099987732166
 21
665.5660554052166
 31
0.0
  0
ARC
  5
13F
  8
0
  6
CONTINUOUS
 62
     7
 10
-0.8465106369793807
 20
429.4730282883198
 30
0.0
 40
236.8
 50
85.57150388185767
 51
94.42849611814232
  0
LINE
  5
140
  8
0
  6
CONTINUOUS
 62
     7
 10
16.51996768920089
 20
663.6299103792511
 30
0.0
 11
17.43797860336289
 21
665.5660554052166
 31
0.0
  0
ARC
  5
141
  8
0
  6
CONTINUOUS
 62
     7
 10
20.29355931131225
 20
641.8312884683922
 30
0.0
 40
14.3
 50
0.5000000000000075
 51
43.5999164104
  0
LINE
  5
142
  8
0
  6
CONTINUOUS
 62
     7
 10
34.97248563645712
 20
598.4730282883198
 30
0.0
 11
34.5930148111299
 21
641.9560779260189
 31
0.0
  0
LINE
  5
143
  8
0
  6
CONTINUOUS
 62
     7
 10
32.97240947968563
 20
598.4730282883198
 30
0.0
 11
34.97248563645712
 21
598.4730282883198
 31
0.0
  0
LINE
  5
144
  8
0
  6
CONTINUOUS
 62
     7
 10
-32.3422525909804
 20
651.6928328357906
 30
0.0
 11
-19.13099987732166
 21
665.5660554052166
 31
0.0
  0
ARC
  5
145
  8
0
  6
CONTINUOUS
 62
     7
 10
-21.98658058527102
 20
641.8312884683922
 30
0.0
 40
14.3
 50
136.4000835896
 51
179.5
  0
LINE
  5
146
  8
0
  6
CONTINUOUS
 62
     7
 10
30.64923131702164
 20
651.6928328357906
 30
0.0
 11
17.43797860336289
 21
665.5660554052166
 31
0.0
  0
LINE
  5
147
  8
0
  6
CONTINUOUS
 62
     7
 10
-36.66550691041587
 20
598.4730282883198
 30
0.0
 11
-36.28603608508867
 21
641.9560779260189
 31
0.0
  0
LINE
  5
148
  8
0
  6
CONTINUOUS
 62
     7
 10
-34.66543075364439
 20
598.4730282883198
 30
0.0
 11
-36.66550691041587
 21
598.4730282883198
 31
0.0
  0
ARC
  5
149
  8
0
  6
CONTINUOUS
 62
     7
 10
31.62433790375497
 20
603.9758129277361
 30
0.0
 40
0.500000000000002
 50
299.9999999999998
 51
0.4999999999989769
  0
ARC
  5
14A
  8
0
  6
CONTINUOUS
 62
     7
 10
-33.31735917771373
 20
603.9758129277361
 30
0.0
 40
0.500000000000002
 50
179.5000000000011
 51
240.0000000000001
  0
LINE
  5
14B
  8
0
  6
CONTINUOUS
 62
     7
 10
-10.84223621917359
 20
663.1593254263537
 30
0.0
 11
-10.84651063697947
 21
663.2592554275591
 31
0.0
  0
LINE
  5
14C
  8
0
  6
CONTINUOUS
 62
     7
 10
9.14921494521483
 20
663.1593254263537
 30
0.0
 11
9.15348936302071
 21
663.2592554275591
 31
0.0
  0
LINE
  5
14D
  8
0
  6
CONTINUOUS
 62
     7
 10
-33.56735917771373
 20
603.542800225844
 30
0.0
 11
-31.7965106369794
 21
602.5204003441569
 31
0.0
  0
LINE
  5
14E
  8
0
  6
CONTINUOUS
 62
     7
 10
31.87433790375497
 20
603.542800225844
 30
0.0
 11
30.10348936302064
 21
602.5204003441569
 31
0.0
  0
LINE
  5
14F
  8
0
  6
CONTINUOUS
 62
     7
 10
-33.86540029093578
 20
598.4730282883198
 30
0.0
 11
-33.6045938594911
 21
598.4730282883198
 31
0.0
  0
LINE
  5
150
  8
0
  6
CONTINUOUS
 62
     7
 10
32.17237901697702
 20
598.4730282883198
 30
0.0
 11
31.91157258553234
 21
598.4730282883198
 31
0.0
  0
ARC
  5
151
  8
0
  6
CONTINUOUS
 62
     7
 10
-0.8465106369793807
 20
429.4730282883198
 30
0.0
 40
233.8
 50
87.57521235826943
 51
92.42478764173073
  0
ARC
  5
152
  8
0
  6
CONTINUOUS
 62
     7
 10
9.04930630113823
 20
663.1635989306271
 30
0.0
 40
0.1000000000000047
 50
267.575212358269
 51
357.5507165133497
  0
ARC
  5
153
  8
0
  6
CONTINUOUS
 62
     7
 10
-10.74232757509699
 20
663.1635989306271
 30
0.0
 40
0.1000000000000047
 50
182.4492834866503
 51
272.424787641731
  0
ARC
  5
154
  8
0
  6
CONTINUOUS
 62
     7
 10
30.35348936302063
 20
602.0873876422646
 30
0.0
 40
0.5000000000000004
 50
119.9999999999995
 51
180.0000000000009
  0
ARC
  5
155
  8
0
  6
CONTINUOUS
 62
     7
 10
-32.04651063697939
 20
602.0873876422646
 30
0.0
 40
0.5000000000000004
 50
359.9999999999991
 51
60.00000000000038
  0
LINE
  5
156
  8
0
  6
CONTINUOUS
 62
     7
 10
29.85348936302063
 20
602.0873876422646
 30
0.0
 11
29.85348936302063
 21
600.5801350695064
 31
0.0
  0
LINE
  5
157
  8
0
  6
CONTINUOUS
 62
     7
 10
-31.54651063697939
 20
602.0873876422646
 30
0.0
 11
-31.54651063697939
 21
600.5801350695064
 31
0.0
  0
LINE
  5
158
  8
0
  6
CONTINUOUS
 62
     7
 10
29.99993597242736
 20
600.226581678913
 30
0.0
 11
31.31809234870714
 21
598.9084253026333
 31
0.0
  0
LINE
  5
159
  8
0
  6
CONTINUOUS
 62
     7
 10
-31.69295724638612
 20
600.226581678913
 30
0.0
 11
-33.0111136226659
 21
598.9084253026333
 31
0.0
  0
ARC
  5
15A
  8
0
  6
CONTINUOUS
 62
     7
 10
30.35348936302063
 20
600.5801350695064
 30
0.0
 40
0.5000000000000004
 50
179.9999999999999
 51
225.0000000000001
  0
ARC
  5
15B
  8
0
  6
CONTINUOUS
 62
     7
 10
-32.04651063697939
 20
600.5801350695064
 30
0.0
 40
0.5000000000000004
 50
314.9999999999998
 51
0.0000000000001137
  0
LINE
  5
15C
  8
0
  6
CONTINUOUS
 62
     7
 10
31.75348936302064
 20
598.4730282883198
 30
0.0
 11
31.31809234870716
 21
598.9084253026333
 31
0.0
  0
LINE
  5
15D
  8
0
  6
CONTINUOUS
 62
     7
 10
31.75348936302067
 20
598.4730282883198
 30
0.0
 11
31.82001795378785
 21
598.4730282883198
 31
0.0
  0
LINE
  5
15E
  8
0
  6
CONTINUOUS
 62
     7
 10
31.82001795378788
 20
598.4730282883198
 30
0.0
 11
31.91157258553234
 21
598.4730282883198
 31
0.0
  0
LINE
  5
15F
  8
0
  6
CONTINUOUS
 62
     7
 10
-33.4465106369794
 20
598.4730282883198
 30
0.0
 11
-33.01111362266592
 21
598.9084253026333
 31
0.0
  0
LINE
  5
160
  8
0
  6
CONTINUOUS
 62
     7
 10
-33.44651063697943
 20
598.4730282883198
 30
0.0
 11
-33.51303922774662
 21
598.4730282883198
 31
0.0
  0
LINE
  5
161
  8
0
  6
CONTINUOUS
 62
     7
 10
-33.51303922774664
 20
598.4730282883198
 30
0.0
 11
-33.6045938594911
 21
598.4730282883198
 31
0.0
  0
LINE
  5
162
  8
0
  6
CONTINUOUS
 62
     7
 10
17.4379786033629
 20
665.5660554052166
 30
0.0
 11
17.4379786033629
 21
716.2730282883198
 31
0.0
  0
LINE
  5
163
  8
0
  6
CONTINUOUS
 62
     7
 10
35.38601872125371
 20
600.4730282883197
 30
0.0
 11
35.38601872125372
 21
598.4730282883197
 31
0.0
  0
POLYLINE
  5
164
  8
0
  6
CONTINUOUS
 62
     7
 66
     1
 10
0.0
 20
0.0
 30
0.0
  0
VERTEX
  5
5DE
  8
0
  6
CONTINUOUS
 62
     7
 10
35.38601872125371
 20
600.4730282883197
 30
0.0
  0
VERTEX
  5
5DF
  8
0
  6
CONTINUOUS
 62
     7
 10
35.3577132278136
 20
605.1487680186622
 30
0.0
  0
VERTEX
  5
5E0
  8
0
  6
CONTINUOUS
 62
     7
 10
35.08110109349896
 20
660.7103951435429
 30
0.0
  0
VERTEX
  5
5E1
  8
0
  6
CONTINUOUS
 62
     7
 10
34.9724856364571
 20
716.2730282883198
 30
0.0
  0
SEQEND
  5
839
  8
0
  6
CONTINUOUS
 62
     7
  0
LINE
  5
165
  8
0
  6
CONTINUOUS
 62
     7
 10
35.38601872125372
 20
598.4730282883198
 30
0.0
 11
34.97248563645711
 21
598.4730282883198
 31
0.0
  0
LINE
  5
166
  8
0
  6
CONTINUOUS
 62
     7
 10
-19.13099987732166
 20
665.5660554052166
 30
0.0
 11
-19.13099987732166
 21
716.2730282883198
 31
0.0
  0
LINE
  5
167
  8
0
  6
CONTINUOUS
 62
     7
 10
-37.07903999521248
 20
600.4730282883197
 30
0.0
 11
-37.07903999521248
 21
598.4730282883197
 31
0.0
  0
POLYLINE
  5
168
  8
0
  6
CONTINUOUS
 62
     7
 66
     1
 10
0.0
 20
0.0
 30
0.0
  0
VERTEX
  5
5E2
  8
0
  6
CONTINUOUS
 62
     7
 10
-37.07903999521248
 20
600.4730282883197
 30
0.0
  0
VERTEX
  5
5E3
  8
0
  6
CONTINUOUS
 62
     7
 10
-37.05073450177236
 20
605.1487680186622
 30
0.0
  0
VERTEX
  5
5E4
  8
0
  6
CONTINUOUS
 62
     7
 10
-36.77412236745772
 20
660.7103951435429
 30
0.0
  0
VERTEX
  5
5E5
  8
0
  6
CONTINUOUS
 62
     7
 10
-36.66550691041586
 20
716.2730282883198
 30
0.0
  0
SEQEND
  5
83A
  8
0
  6
CONTINUOUS
 62
     7
  0
LINE
  5
169
  8
0
  6
CONTINUOUS
 62
     7
 10
-37.07903999521248
 20
598.4730282883198
 30
0.0
 11
-36.66550691041586
 21
598.4730282883198
 31
0.0
  0
LINE
  5
16A
  8
0
  6
CONTINUOUS
 62
     7
 10
-18.21298896315965
 20
758.4730282883198
 30
0.0
 11
-19.13099987732165
 21
756.4730282883198
 31
0.0
  0
LINE
  5
16B
  8
0
  6
CONTINUOUS
 62
     7
 10
16.51996768920087
 20
758.4730282883198
 30
0.0
 11
-18.21298896315973
 21
758.4730282883198
 31
0.0
  0
LINE
  5
16C
  8
0
  6
CONTINUOUS
 62
     7
 10
16.51996768920089
 20
758.4730282883198
 30
0.0
 11
17.43797860336289
 21
756.4730282883198
 31
0.0
  0
LINE
  5
16D
  8
0
  6
CONTINUOUS
 62
     7
 10
-19.13099987732164
 20
756.4730282883198
 30
0.0
 11
17.43797860336316
 21
756.4730282883198
 31
0.0
  0
LINE
  5
16E
  8
0
  6
CONTINUOUS
 62
     7
 10
-19.13099987732165
 20
716.2730282883198
 30
0.0
 11
-19.13099987732165
 21
756.4730282883198
 31
0.0
  0
LINE
  5
16F
  8
0
  6
CONTINUOUS
 62
     7
 10
17.43797860336289
 20
716.2730282883198
 30
0.0
 11
17.43797860336289
 21
756.4730282883198
 31
0.0
  0
LINE
  5
170
  8
0
  6
CONTINUOUS
 62
     7
 10
30.64923131702163
 20
756.4730282883198
 30
0.0
 11
17.43797860336289
 21
756.4730282883198
 31
0.0
  0
LINE
  5
171
  8
0
  6
CONTINUOUS
 62
     7
 10
-32.34225259098039
 20
756.4730282883198
 30
0.0
 11
-19.13099987732165
 21
756.4730282883198
 31
0.0
  0
LINE
  5
172
  8
0
  6
CONTINUOUS
 62
     7
 10
-18.21298896315965
 20
758.4730282883198
 30
0.0
 11
-30.89390685591615
 21
758.4730282883198
 31
0.0
  0
LINE
  5
173
  8
0
  6
CONTINUOUS
 62
     7
 10
16.51996768920089
 20
758.4730282883198
 30
0.0
 11
29.20088558195738
 21
758.4730282883198
 31
0.0
  0
LINE
  5
174
  8
0
  6
CONTINUOUS
 62
     7
 10
34.59301481112989
 20
756.4730282883198
 30
0.0
 11
30.64923131702163
 21
756.4730282883198
 31
0.0
  0
LINE
  5
175
  8
0
  6
CONTINUOUS
 62
     7
 10
29.20088558195738
 20
758.4730282883198
 30
0.0
 11
32.59309096500156
 21
758.4730282883198
 31
0.0
  0
LINE
  5
176
  8
0
  6
CONTINUOUS
 62
     7
 10
-36.28603608508865
 20
756.4730282883198
 30
0.0
 11
-32.34225259098039
 21
756.4730282883198
 31
0.0
  0
LINE
  5
177
  8
0
  6
CONTINUOUS
 62
     7
 10
-30.89390685591614
 20
758.4730282883198
 30
0.0
 11
-34.28611223896031
 21
758.4730282883198
 31
0.0
  0
LINE
  5
178
  8
0
  6
CONTINUOUS
 62
     7
 10
34.97248563645711
 20
756.4730282883198
 30
0.0
 11
34.5930148111299
 21
756.4730282883198
 31
0.0
  0
LINE
  5
179
  8
0
  6
CONTINUOUS
 62
     7
 10
32.97240947968562
 20
758.4730282883198
 30
0.0
 11
34.97248563645711
 21
756.4730282883198
 31
0.0
  0
LINE
  5
17A
  8
0
  6
CONTINUOUS
 62
     7
 10
32.59309096500156
 20
758.4730282883198
 30
0.0
 11
32.97240947968562
 21
758.4730282883198
 31
0.0
  0
LINE
  5
17B
  8
0
  6
CONTINUOUS
 62
     7
 10
-36.66550691041586
 20
756.4730282883198
 30
0.0
 11
-36.28603608508866
 21
756.4730282883198
 31
0.0
  0
LINE
  5
17C
  8
0
  6
CONTINUOUS
 62
     7
 10
-34.66543075364439
 20
758.4730282883198
 30
0.0
 11
-36.66550691041586
 21
756.4730282883198
 31
0.0
  0
LINE
  5
17D
  8
0
  6
CONTINUOUS
 62
     7
 10
-34.28611223896031
 20
758.4730282883198
 30
0.0
 11
-34.66543075364439
 21
758.4730282883198
 31
0.0
  0
LINE
  5
17E
  8
0
  6
CONTINUOUS
 62
     7
 10
-36.66550691041586
 20
716.2730282883198
 30
0.0
 11
-36.66550691041586
 21
756.4730282883198
 31
0.0
  0
LINE
  5
17F
  8
0
  6
CONTINUOUS
 62
     7
 10
34.9724856364571
 20
716.2730282883198
 30
0.0
 11
34.97248563645711
 21
756.4730282883198
 31
0.0
  0
LINE
  5
180
  8
0
  6
CONTINUOUS
 62
     7
 10
32.07952961522371
 20
609.1125159005488
 30
0.0
 11
31.6534893630206
 21
608.8082014346894
 31
0.0
  0
LINE
  5
181
  8
0
  6
CONTINUOUS
 62
     7
 10
31.72903135373768
 20
598.4730282883198
 30
0.0
 11
31.64581442143807
 21
598.4730282883198
 31
0.0
  0
LINE
  5
182
  8
0
  6
CONTINUOUS
 62
     7
 10
-33.77255088918248
 20
609.1125159005488
 30
0.0
 11
-33.34651063697937
 21
608.8082014346894
 31
0.0
  0
LINE
  5
183
  8
0
  6
CONTINUOUS
 62
     7
 10
-33.42205262769644
 20
598.4730282883198
 30
0.0
 11
-33.33883569539683
 21
598.4730282883198
 31
0.0
  0
POLYLINE
  5
184
  8
0
  6
CONTINUOUS
 62
     7
 66
     1
 10
0.0
 20
0.0
 30
0.0
  0
VERTEX
  5
5E6
  8
0
  6
CONTINUOUS
 62
     7
 10
-11.93343900293556
 20
600.2482228880716
 30
0.0
  0
VERTEX
  5
5E7
  8
0
  6
CONTINUOUS
 62
     7
 10
-11.94078454480882
 20
600.2590529636107
 30
0.0
  0
VERTEX
  5
5E8
  8
0
  6
CONTINUOUS
 62
     7
 10
-11.95320242764164
 20
600.2760717379049
 30
0.0
  0
VERTEX
  5
5E9
  8
0
  6
CONTINUOUS
 62
     7
 10
-11.96646828426998
 20
600.292711651681
 30
0.0
  0
VERTEX
  5
5EA
  8
0
  6
CONTINUOUS
 62
     7
 10
-11.98054436218574
 20
600.3088841022245
 30
0.0
  0
VERTEX
  5
5EB
  8
0
  6
CONTINUOUS
 62
     7
 10
-11.99538367787414
 20
600.3245063967464
 30
0.0
  0
VERTEX
  5
5EC
  8
0
  6
CONTINUOUS
 62
     7
 10
-12.0109305131041
 20
600.3395027279423
 30
0.0
  0
VERTEX
  5
5ED
  8
0
  6
CONTINUOUS
 62
     7
 10
-12.02712104246776
 20
600.3538050688295
 30
0.0
  0
VERTEX
  5
5EE
  8
0
  6
CONTINUOUS
 62
     7
 10
-12.0438840790574
 20
600.3673539659013
 30
0.0
  0
VERTEX
  5
5EF
  8
0
  6
CONTINUOUS
 62
     7
 10
-12.06114192268272
 20
600.3800992120653
 30
0.0
  0
VERTEX
  5
5F0
  8
0
  6
CONTINUOUS
 62
     7
 10
-12.07881129293182
 20
600.392000383713
 30
0.0
  0
VERTEX
  5
5F1
  8
0
  6
CONTINUOUS
 62
     7
 10
-12.09680432773952
 20
600.4030272295346
 30
0.0
  0
VERTEX
  5
5F2
  8
0
  6
CONTINUOUS
 62
     7
 10
-12.11502962700608
 20
600.4131599021873
 30
0.0
  0
VERTEX
  5
5F3
  8
0
  6
CONTINUOUS
 62
     7
 10
-12.13339332025122
 20
600.4223890275587
 30
0.0
  0
VERTEX
  5
5F4
  8
0
  6
CONTINUOUS
 62
     7
 10
-12.15180013731889
 20
600.4307156099895
 30
0.0
  0
VERTEX
  5
5F5
  8
0
  6
CONTINUOUS
 62
     7
 10
-12.17015446177625
 20
600.4381507753021
 30
0.0
  0
VERTEX
  5
5F6
  8
0
  6
CONTINUOUS
 62
     7
 10
-12.19197678194715
 20
600.4459262874632
 30
0.0
  0
VERTEX
  5
5F7
  8
0
  6
CONTINUOUS
 62
     7
 10
-12.21342608831988
 20
600.4525018922029
 30
0.0
  0
VERTEX
  5
5F8
  8
0
  6
CONTINUOUS
 62
     7
 10
-12.23434717297497
 20
600.4579480024687
 30
0.0
  0
VERTEX
  5
5F9
  8
0
  6
CONTINUOUS
 62
     7
 10
-12.25459236594568
 20
600.4623500470556
 30
0.0
  0
VERTEX
  5
5FA
  8
0
  6
CONTINUOUS
 62
     7
 10
-12.27402321675274
 20
600.4658060023269
 30
0.0
  0
VERTEX
  5
5FB
  8
0
  6
CONTINUOUS
 62
     7
 10
-12.28733255139304
 20
600.4677547071472
 30
0.0
  0
VERTEX
  5
5FC
  8
0
  6
CONTINUOUS
 62
     7
 10
-12.30011797214334
 20
600.4693171202639
 30
0.0
  0
VERTEX
  5
5FD
  8
0
  6
CONTINUOUS
 62
     7
 10
-12.31233973619071
 20
600.4705360056336
 30
0.0
  0
VERTEX
  5
5FE
  8
0
  6
CONTINUOUS
 62
     7
 10
-12.32396145761877
 20
600.4714547337663
 30
0.0
  0
VERTEX
  5
5FF
  8
0
  6
CONTINUOUS
 62
     7
 10
-12.33495021620682
 20
600.4721166651711
 30
0.0
  0
VERTEX
  5
600
  8
0
  6
CONTINUOUS
 62
     7
 10
-12.3452766474784
 20
600.4725645193768
 30
0.0
  0
VERTEX
  5
601
  8
0
  6
CONTINUOUS
 62
     7
 10
-12.35491502193066
 20
600.4728397311178
 30
0.0
  0
VERTEX
  5
602
  8
0
  6
CONTINUOUS
 62
     7
 10
-12.36021074696066
 20
600.4729363496314
 30
0.0
  0
VERTEX
  5
603
  8
0
  6
CONTINUOUS
 62
     7
 10
-12.36526100221441
 20
600.4729951611121
 30
0.0
  0
VERTEX
  5
604
  8
0
  6
CONTINUOUS
 62
     7
 10
-12.37006245765564
 20
600.4730232695388
 30
0.0
  0
VERTEX
  5
605
  8
0
  6
CONTINUOUS
 62
     7
 10
-12.37461232334949
 20
600.47302738475
 30
0.0
  0
VERTEX
  5
606
  8
0
  6
CONTINUOUS
 62
     7
 10
-12.37891442196903
 20
600.4730137200931
 30
0.0
  0
VERTEX
  5
607
  8
0
  6
CONTINUOUS
 62
     7
 10
-12.38298301469895
 20
600.4729877095469
 30
0.0
  0
VERTEX
  5
608
  8
0
  6
CONTINUOUS
 62
     7
 10
-12.38757858394894
 20
600.4729465867248
 30
0.0
  0
VERTEX
  5
609
  8
0
  6
CONTINUOUS
 62
     7
 10
-12.39188623800039
 20
600.4729006611706
 30
0.0
  0
VERTEX
  5
60A
  8
0
  6
CONTINUOUS
 62
     7
 10
-12.39593225721868
 20
600.4728549160991
 30
0.0
  0
VERTEX
  5
60B
  8
0
  6
CONTINUOUS
 62
     7
 10
-12.39974277226954
 20
600.4728130655412
 30
0.0
  0
VERTEX
  5
60C
  8
0
  6
CONTINUOUS
 62
     7
 10
-12.40334369766041
 20
600.4727777202555
 30
0.0
  0
VERTEX
  5
60D
  8
0
  6
CONTINUOUS
 62
     7
 10
-12.41615869429015
 20
600.4727234737458
 30
0.0
  0
VERTEX
  5
60E
  8
0
  6
CONTINUOUS
 62
     7
 10
-12.42759469460263
 20
600.4727931910171
 30
0.0
  0
VERTEX
  5
60F
  8
0
  6
CONTINUOUS
 62
     7
 10
-12.43907203309072
 20
600.4729104466496
 30
0.0
  0
VERTEX
  5
610
  8
0
  6
CONTINUOUS
 62
     7
 10
-12.45179707830811
 20
600.4729987972024
 30
0.0
  0
VERTEX
  5
611
  8
0
  6
CONTINUOUS
 62
     7
 10
-12.46670429180065
 20
600.4730280754973
 30
0.0
  0
VERTEX
  5
612
  8
0
  6
CONTINUOUS
 62
     7
 10
-12.46811395629148
 20
600.4730282783197
 30
0.0
  0
SEQEND
  5
83B
  8
0
  6
CONTINUOUS
 62
     7
  0
LINE
  5
185
  8
0
  6
CONTINUOUS
 62
     7
 10
10.846409748914
 20
600.4730282816604
 30
0.0
 11
10.37865346083257
 21
600.3878018389961
 31
0.0
  0
ENDBLK
  8
0
  0
BLOCK
  8
0
  2
D_FRAME_VIEW_2890
 70
     0
 10
0.0
 20
0.0
 30
0.0
  0
LINE
  5
18B
  8
0
  6
CONTINUOUS
 62
     7
 10
321.3422288975339
 20
708.3730282883198
 30
0.0
 11
355.0422288975338
 21
708.3730282883198
 31
0.0
  0
LINE
  5
18C
  8
0
  6
CONTINUOUS
 62
     7
 10
321.2922288975339
 20
674.6230282883199
 30
0.0
 11
321.2922288975339
 21
708.3230282883198
 31
0.0
  0
LINE
  5
18D
  8
0
  6
CONTINUOUS
 62
     7
 10
321.0922288975339
 20
708.4730282883198
 30
0.0
 11
321.0922288975339
 21
674.4730282883198
 31
0.0
  0
LINE
  5
18E
  8
0
  6
CONTINUOUS
 62
     7
 10
355.1922288975339
 20
708.5730282883198
 30
0.0
 11
321.1922288975338
 21
708.5730282883198
 31
0.0
  0
ARC
  5
18F
  8
0
  6
CONTINUOUS
 62
     7
 10
321.1922288975338
 20
708.4730282883198
 30
0.0
 40
0.099999999999989
 50
90.0
 51
180.0
  0
LINE
  5
190
  8
0
  6
CONTINUOUS
 62
     7
 10
355.0422288975338
 20
674.5730282883198
 30
0.0
 11
321.3422288975339
 21
674.5730282883198
 31
0.0
  0
LINE
  5
191
  8
0
  6
CONTINUOUS
 62
     7
 10
321.1922288975338
 20
674.3730282883198
 30
0.0
 11
355.1922288975339
 21
674.3730282883198
 31
0.0
  0
ARC
  5
192
  8
0
  6
CONTINUOUS
 62
     7
 10
321.3422288975339
 20
674.6230282883199
 30
0.0
 40
0.0499999999999945
 50
180.0
 51
270.0
  0
ARC
  5
193
  8
0
  6
CONTINUOUS
 62
     7
 10
321.1922288975338
 20
674.4730282883198
 30
0.0
 40
0.099999999999989
 50
180.0
 51
270.0
  0
ARC
  5
194
  8
0
  6
CONTINUOUS
 62
     7
 10
321.3422288975339
 20
708.3230282883198
 30
0.0
 40
0.0499999999999945
 50
90.0
 51
180.0
  0
LINE
  5
195
  8
0
  6
CONTINUOUS
 62
     7
 10
355.2922288975338
 20
674.4730282883198
 30
0.0
 11
355.2922288975338
 21
708.4730282883198
 31
0.0
  0
ARC
  5
196
  8
0
  6
CONTINUOUS
 62
     7
 10
355.1922288975338
 20
674.4730282883198
 30
0.0
 40
0.1000000000000445
 50
270.0
 51
0.0
  0
LINE
  5
197
  8
0
  6
CONTINUOUS
 62
     7
 10
355.0922288975338
 20
708.3230282883198
 30
0.0
 11
355.0922288975338
 21
674.6230282883199
 31
0.0
  0
ARC
  5
198
  8
0
  6
CONTINUOUS
 62
     7
 10
355.1922288975339
 20
708.4730282883198
 30
0.0
 40
0.099999999999989
 50
0.0
 51
90.0
  0
ARC
  5
199
  8
0
  6
CONTINUOUS
 62
     7
 10
355.0422288975338
 20
674.6230282883199
 30
0.0
 40
0.0499999999999945
 50
270.0
 51
0.0
  0
ARC
  5
19A
  8
0
  6
CONTINUOUS
 62
     7
 10
355.0422288975338
 20
708.3230282883198
 30
0.0
 40
0.0499999999999945
 50
0.0
 51
90.0
  0
LINE
  5
19B
  8
0
  6
CONTINUOUS
 62
     7
 10
306.5961969170399
 20
633.4730282883198
 30
0.0
 11
305.6999038391164
 21
609.286736787305
 31
0.0
  0
LINE
  5
19C
  8
0
  6
CONTINUOUS
 62
     7
 10
310.6922288975336
 20
633.4730282883198
 30
0.0
 11
306.5961969170399
 21
633.4730282883198
 31
0.0
  0
LINE
  5
19D
  8
0
  6
CONTINUOUS
 62
     7
 10
310.6922288975339
 20
683.4730282883197
 30
0.0
 11
310.6922288975336
 21
633.4730282883198
 31
0.0
  0
LINE
  5
19E
  8
0
  6
CONTINUOUS
 62
     7
 10
310.6922288975339
 20
683.4730282883197
 30
0.0
 11
308.192228897534
 21
683.4730282883197
 31
0.0
  0
POLYLINE
  5
19F
  8
0
  6
CONTINUOUS
 62
     7
 66
     1
 10
0.0
 20
0.0
 30
0.0
  0
VERTEX
  5
613
  8
0
  6
CONTINUOUS
 62
     7
 10
307.6922288975339
 20
684.1801350695063
 30
0.0
  0
VERTEX
  5
614
  8
0
  6
CONTINUOUS
 62
     7
 10
307.7018362573323
 20
684.0421853798648
 30
0.0
  0
VERTEX
  5
615
  8
0
  6
CONTINUOUS
 62
     7
 10
307.7302891312783
 20
683.9095370194332
 30
0.0
  0
VERTEX
  5
616
  8
0
  6
CONTINUOUS
 62
     7
 10
307.7764940913826
 20
683.7872875903126
 30
0.0
  0
VERTEX
  5
617
  8
0
  6
CONTINUOUS
 62
     7
 10
307.8386755069406
 20
683.6801350695063
 30
0.0
  0
VERTEX
  5
618
  8
0
  6
CONTINUOUS
 62
     7
 10
307.9144437810241
 20
683.5921972682966
 30
0.0
  0
VERTEX
  5
619
  8
0
  6
CONTINUOUS
 62
     7
 10
308.0008871813513
 20
683.5268535870681
 30
0.0
  0
VERTEX
  5
61A
  8
0
  6
CONTINUOUS
 62
     7
 10
308.0946837365258
 20
683.4866151468451
 30
0.0
  0
VERTEX
  5
61B
  8
0
  6
CONTINUOUS
 62
     7
 10
308.1922288975339
 20
683.4730282883197
 30
0.0
  0
SEQEND
  5
83C
  8
0
  6
CONTINUOUS
 62
     7
  0
LINE
  5
1A0
  8
0
  6
CONTINUOUS
 62
     7
 10
307.6922288975339
 20
684.1801350695063
 30
0.0
 11
307.6922288975339
 21
698.4730282883197
 31
0.0
  0
LINE
  5
1A1
  8
0
  6
CONTINUOUS
 62
     7
 10
307.6922288975339
 20
698.4730282883197
 30
0.0
 11
307.6922288975339
 21
733.4730282883197
 31
0.0
  0
LINE
  5
1A2
  8
0
  6
CONTINUOUS
 62
     7
 10
315.6922288975338
 20
733.4730282883197
 30
0.0
 11
307.6922288975339
 21
733.4730282883197
 31
0.0
  0
LINE
  5
1A3
  8
0
  6
CONTINUOUS
 62
     7
 10
360.6922288975339
 20
733.4730282883197
 30
0.0
 11
368.6922288975339
 21
733.4730282883197
 31
0.0
  0
LINE
  5
1A4
  8
0
  6
CONTINUOUS
 62
     7
 10
368.6922288975338
 20
698.4730282883197
 30
0.0
 11
368.6922288975339
 21
733.4730282883197
 31
0.0
  0
LINE
  5
1A5
  8
0
  6
CONTINUOUS
 62
     7
 10
368.6922288975338
 20
684.1801350695063
 30
0.0
 11
368.6922288975338
 21
698.4730282883197
 31
0.0
  0
POLYLINE
  5
1A6
  8
0
  6
CONTINUOUS
 62
     7
 66
     1
 10
0.0
 20
0.0
 30
0.0
  0
VERTEX
  5
61C
  8
0
  6
CONTINUOUS
 62
     7
 10
368.1922288975338
 20
683.4730282883197
 30
0.0
  0
VERTEX
  5
61D
  8
0
  6
CONTINUOUS
 62
     7
 10
368.2897740585419
 20
683.4866151468451
 30
0.0
  0
VERTEX
  5
61E
  8
0
  6
CONTINUOUS
 62
     7
 10
368.3835706137164
 20
683.5268535870681
 30
0.0
  0
VERTEX
  5
61F
  8
0
  6
CONTINUOUS
 62
     7
 10
368.4700140140436
 20
683.5921972682966
 30
0.0
  0
VERTEX
  5
620
  8
0
  6
CONTINUOUS
 62
     7
 10
368.5457822881271
 20
683.6801350695063
 30
0.0
  0
VERTEX
  5
621
  8
0
  6
CONTINUOUS
 62
     7
 10
368.6079637036851
 20
683.7872875903126
 30
0.0
  0
VERTEX
  5
622
  8
0
  6
CONTINUOUS
 62
     7
 10
368.6541686637894
 20
683.9095370194332
 30
0.0
  0
VERTEX
  5
623
  8
0
  6
CONTINUOUS
 62
     7
 10
368.6826215377354
 20
684.0421853798648
 30
0.0
  0
VERTEX
  5
624
  8
0
  6
CONTINUOUS
 62
     7
 10
368.6922288975338
 20
684.1801350695063
 30
0.0
  0
SEQEND
  5
83D
  8
0
  6
CONTINUOUS
 62
     7
  0
LINE
  5
1A7
  8
0
  6
CONTINUOUS
 62
     7
 10
365.6922288975338
 20
683.4730282883197
 30
0.0
 11
368.1922288975337
 21
683.4730282883197
 31
0.0
  0
LINE
  5
1A8
  8
0
  6
CONTINUOUS
 62
     7
 10
365.6922288975338
 20
683.4730282883197
 30
0.0
 11
365.6922288975341
 21
633.4730282883198
 31
0.0
  0
LINE
  5
1A9
  8
0
  6
CONTINUOUS
 62
     7
 10
365.6922288975341
 20
633.4730282883198
 30
0.0
 11
369.7882608780279
 21
633.4730282883198
 31
0.0
  0
LINE
  5
1AA
  8
0
  6
CONTINUOUS
 62
     7
 10
369.7882608780279
 20
633.4730282883198
 30
0.0
 11
370.6845539559513
 21
609.286736787305
 31
0.0
  0
LINE
  5
1AB
  8
0
  6
CONTINUOUS
 62
     7
 10
305.6922288975339
 20
608.9331833967118
 30
0.0
 11
305.6999038391164
 21
609.286736787305
 31
0.0
  0
LINE
  5
1AC
  8
0
  6
CONTINUOUS
 62
     7
 10
309.1922288975338
 20
725.2659215071333
 30
0.0
 11
309.5457822881271
 21
725.6194748977266
 31
0.0
  0
LINE
  5
1AD
  8
0
  6
CONTINUOUS
 62
     7
 10
315.6922288975338
 20
725.2659215071333
 30
0.0
 11
316.0457822881271
 21
725.6194748977266
 31
0.0
  0
LINE
  5
1AE
  8
0
  6
CONTINUOUS
 62
     7
 10
309.1922288975338
 20
731.9730282883198
 30
0.0
 11
309.6922288975339
 21
731.4730282883198
 31
0.0
  0
LINE
  5
1AF
  8
0
  6
CONTINUOUS
 62
     7
 10
316.1922288975338
 20
731.4730282883198
 30
0.0
 11
315.6922288975338
 21
731.9730282883198
 31
0.0
  0
LINE
  5
1B0
  8
0
  6
CONTINUOUS
 62
     7
 10
316.1922288975338
 20
731.4730282883198
 30
0.0
 11
309.6922288975339
 21
731.4730282883198
 31
0.0
  0
LINE
  5
1B1
  8
0
  6
CONTINUOUS
 62
     7
 10
309.6922288975339
 20
731.4730282883198
 30
0.0
 11
309.6922288975339
 21
725.9730282883198
 31
0.0
  0
LINE
  5
1B2
  8
0
  6
CONTINUOUS
 62
     7
 10
309.6922288975339
 20
725.9730282883198
 30
0.0
 11
309.5457822881271
 21
725.6194748977266
 31
0.0
  0
LINE
  5
1B3
  8
0
  6
CONTINUOUS
 62
     7
 10
316.0457822881271
 20
725.6194748977266
 30
0.0
 11
316.1922288975338
 21
725.9730282883198
 31
0.0
  0
LINE
  5
1B4
  8
0
  6
CONTINUOUS
 62
     7
 10
316.1922288975338
 20
725.9730282883198
 30
0.0
 11
316.1922288975338
 21
609.286736787305
 31
0.0
  0
LINE
  5
1B5
  8
0
  6
CONTINUOUS
 62
     7
 10
316.1922288975338
 20
733.4730282883197
 30
0.0
 11
316.1922288975338
 21
731.4730282883198
 31
0.0
  0
LINE
  5
1B6
  8
0
  6
CONTINUOUS
 62
     7
 10
315.6922288975338
 20
733.4730282883197
 30
0.0
 11
316.1922288975338
 21
733.4730282883197
 31
0.0
  0
LINE
  5
1B7
  8
0
  6
CONTINUOUS
 62
     7
 10
322.2096826331154
 20
733.4730282883197
 30
0.0
 11
322.2096826331154
 21
747.4730282883198
 31
0.0
  0
LINE
  5
1B8
  8
0
  6
CONTINUOUS
 62
     7
 10
322.19663040909
 20
735.2659215071332
 30
0.0
 11
322.1809840670065
 21
733.4730282883197
 31
0.0
  0
LINE
  5
1B9
  8
0
  6
CONTINUOUS
 62
     7
 10
322.19663040909
 20
747.4730282883198
 30
0.0
 11
322.19663040909
 21
735.2659215071332
 31
0.0
  0
POLYLINE
  5
1BA
  8
0
  6
CONTINUOUS
 62
     7
 66
     1
 10
0.0
 20
0.0
 30
0.0
  0
VERTEX
  5
625
  8
0
  6
CONTINUOUS
 62
     7
 10
323.2097207115011
 20
748.4730282883198
 30
0.0
  0
VERTEX
  5
626
  8
0
  6
CONTINUOUS
 62
     7
 10
323.0146229607604
 20
748.453813568723
 30
0.0
  0
VERTEX
  5
627
  8
0
  6
CONTINUOUS
 62
     7
 10
322.8270227071687
 20
748.3969078208311
 30
0.0
  0
VERTEX
  5
628
  8
0
  6
CONTINUOUS
 62
     7
 10
322.6541293232639
 20
748.3044979006223
 30
0.0
  0
VERTEX
  5
629
  8
0
  6
CONTINUOUS
 62
     7
 10
322.5025870048298
 20
748.1801350695064
 30
0.0
  0
VERTEX
  5
62A
  8
0
  6
CONTINUOUS
 62
     7
 10
322.378219438178
 20
748.0285985213394
 30
0.0
  0
VERTEX
  5
62B
  8
0
  6
CONTINUOUS
 62
     7
 10
322.2858059991486
 20
747.8557117206849
 30
0.0
  0
VERTEX
  5
62C
  8
0
  6
CONTINUOUS
 62
     7
 10
322.2288980843776
 20
747.6681186103359
 30
0.0
  0
VERTEX
  5
62D
  8
0
  6
CONTINUOUS
 62
     7
 10
322.2096826331154
 20
747.4730282883198
 30
0.0
  0
SEQEND
  5
83E
  8
0
  6
CONTINUOUS
 62
     7
  0
LINE
  5
1BB
  8
0
  6
CONTINUOUS
 62
     7
 10
326.1747370835666
 20
748.4730282883198
 30
0.0
 11
323.2097207115011
 21
748.4730282883198
 31
0.0
  0
POLYLINE
  5
1BC
  8
0
  6
CONTINUOUS
 62
     7
 66
     1
 10
0.0
 20
0.0
 30
0.0
  0
VERTEX
  5
62E
  8
0
  6
CONTINUOUS
 62
     7
 10
327.1747751619523
 20
747.4730282883198
 30
0.0
  0
VERTEX
  5
62F
  8
0
  6
CONTINUOUS
 62
     7
 10
327.1555597106901
 20
747.6681186103359
 30
0.0
  0
VERTEX
  5
630
  8
0
  6
CONTINUOUS
 62
     7
 10
327.0986517959191
 20
747.8557117206849
 30
0.0
  0
VERTEX
  5
631
  8
0
  6
CONTINUOUS
 62
     7
 10
327.0062383568898
 20
748.0285985213394
 30
0.0
  0
VERTEX
  5
632
  8
0
  6
CONTINUOUS
 62
     7
 10
326.8818707902379
 20
748.1801350695064
 30
0.0
  0
VERTEX
  5
633
  8
0
  6
CONTINUOUS
 62
     7
 10
326.7303284718038
 20
748.3044979006223
 30
0.0
  0
VERTEX
  5
634
  8
0
  6
CONTINUOUS
 62
     7
 10
326.557435087899
 20
748.3969078208311
 30
0.0
  0
VERTEX
  5
635
  8
0
  6
CONTINUOUS
 62
     7
 10
326.3698348343073
 20
748.453813568723
 30
0.0
  0
VERTEX
  5
636
  8
0
  6
CONTINUOUS
 62
     7
 10
326.1747370835666
 20
748.4730282883198
 30
0.0
  0
SEQEND
  5
83F
  8
0
  6
CONTINUOUS
 62
     7
  0
LINE
  5
1BD
  8
0
  6
CONTINUOUS
 62
     7
 10
327.1747751619523
 20
733.4730282883197
 30
0.0
 11
327.1747751619523
 21
747.4730282883198
 31
0.0
  0
LINE
  5
1BE
  8
0
  6
CONTINUOUS
 62
     7
 10
327.1747751619523
 20
733.4730282883197
 30
0.0
 11
349.2096826331154
 21
733.4730282883197
 31
0.0
  0
LINE
  5
1BF
  8
0
  6
CONTINUOUS
 62
     7
 10
349.2096826331154
 20
733.4730282883197
 30
0.0
 11
349.2096826331154
 21
747.4730282883198
 31
0.0
  0
POLYLINE
  5
1C0
  8
0
  6
CONTINUOUS
 62
     7
 66
     1
 10
0.0
 20
0.0
 30
0.0
  0
VERTEX
  5
637
  8
0
  6
CONTINUOUS
 62
     7
 10
350.2097207115011
 20
748.4730282883198
 30
0.0
  0
VERTEX
  5
638
  8
0
  6
CONTINUOUS
 62
     7
 10
350.0146229607604
 20
748.453813568723
 30
0.0
  0
VERTEX
  5
639
  8
0
  6
CONTINUOUS
 62
     7
 10
349.8270227071687
 20
748.3969078208311
 30
0.0
  0
VERTEX
  5
63A
  8
0
  6
CONTINUOUS
 62
     7
 10
349.6541293232639
 20
748.3044979006223
 30
0.0
  0
VERTEX
  5
63B
  8
0
  6
CONTINUOUS
 62
     7
 10
349.5025870048298
 20
748.1801350695064
 30
0.0
  0
VERTEX
  5
63C
  8
0
  6
CONTINUOUS
 62
     7
 10
349.378219438178
 20
748.0285985213394
 30
0.0
  0
VERTEX
  5
63D
  8
0
  6
CONTINUOUS
 62
     7
 10
349.2858059991486
 20
747.8557117206849
 30
0.0
  0
VERTEX
  5
63E
  8
0
  6
CONTINUOUS
 62
     7
 10
349.2288980843776
 20
747.6681186103359
 30
0.0
  0
VERTEX
  5
63F
  8
0
  6
CONTINUOUS
 62
     7
 10
349.2096826331154
 20
747.4730282883198
 30
0.0
  0
SEQEND
  5
840
  8
0
  6
CONTINUOUS
 62
     7
  0
LINE
  5
1C1
  8
0
  6
CONTINUOUS
 62
     7
 10
350.2097207115011
 20
748.4730282883198
 30
0.0
 11
353.1747370835666
 21
748.4730282883198
 31
0.0
  0
POLYLINE
  5
1C2
  8
0
  6
CONTINUOUS
 62
     7
 66
     1
 10
0.0
 20
0.0
 30
0.0
  0
VERTEX
  5
640
  8
0
  6
CONTINUOUS
 62
     7
 10
354.1747751619523
 20
747.4730282883198
 30
0.0
  0
VERTEX
  5
641
  8
0
  6
CONTINUOUS
 62
     7
 10
354.1555597106901
 20
747.6681186103359
 30
0.0
  0
VERTEX
  5
642
  8
0
  6
CONTINUOUS
 62
     7
 10
354.0986517959191
 20
747.8557117206849
 30
0.0
  0
VERTEX
  5
643
  8
0
  6
CONTINUOUS
 62
     7
 10
354.0062383568898
 20
748.0285985213394
 30
0.0
  0
VERTEX
  5
644
  8
0
  6
CONTINUOUS
 62
     7
 10
353.8818707902379
 20
748.1801350695064
 30
0.0
  0
VERTEX
  5
645
  8
0
  6
CONTINUOUS
 62
     7
 10
353.7303284718038
 20
748.3044979006223
 30
0.0
  0
VERTEX
  5
646
  8
0
  6
CONTINUOUS
 62
     7
 10
353.557435087899
 20
748.3969078208311
 30
0.0
  0
VERTEX
  5
647
  8
0
  6
CONTINUOUS
 62
     7
 10
353.3698348343073
 20
748.453813568723
 30
0.0
  0
VERTEX
  5
648
  8
0
  6
CONTINUOUS
 62
     7
 10
353.1747370835666
 20
748.4730282883198
 30
0.0
  0
SEQEND
  5
841
  8
0
  6
CONTINUOUS
 62
     7
  0
LINE
  5
1C3
  8
0
  6
CONTINUOUS
 62
     7
 10
354.1747751619523
 20
733.4730282883197
 30
0.0
 11
354.1747751619523
 21
747.4730282883198
 31
0.0
  0
LINE
  5
1C4
  8
0
  6
CONTINUOUS
 62
     7
 10
354.1747751619523
 20
733.4730282883197
 30
0.0
 11
355.6922288975339
 21
733.4730282883197
 31
0.0
  0
CIRCLE
  5
1C5
  8
0
  6
CONTINUOUS
 62
     7
 10
338.1922288975339
 20
723.4730282883198
 30
0.0
 40
2.500000000000002
  0
LINE
  5
1C6
  8
0
  6
CONTINUOUS
 62
     7
 10
335.6922288975339
 20
616.6901714312341
 30
0.0
 11
335.6922288975339
 21
616.1828288305708
 31
0.0
  0
ARC
  5
1C7
  8
0
  6
CONTINUOUS
 62
     7
 10
338.1922288975339
 20
630.9730282883198
 30
0.0
 40
14.49999999999994
 50
99.9281918422865
 51
260.0718081577136
  0
LINE
  5
1C8
  8
0
  6
CONTINUOUS
 62
     7
 10
335.6922288975339
 20
645.7632277460689
 30
0.0
 11
335.6922288975339
 21
645.2558851454055
 31
0.0
  0
ARC
  5
1C9
  8
0
  6
CONTINUOUS
 62
     7
 10
338.1922288975339
 20
630.9730282883198
 30
0.0
 40
14.99999999999992
 50
99.59406822686049
 51
260.4059317731395
  0
ARC
  5
1CA
  8
0
  6
CONTINUOUS
 62
     7
 10
338.1922288975339
 20
630.9730282883198
 30
0.0
 40
14.50000000000005
 50
279.9281918422865
 51
80.07180815771352
  0
LINE
  5
1CB
  8
0
  6
CONTINUOUS
 62
     7
 10
340.6922288975339
 20
616.1828288305708
 30
0.0
 11
340.6922288975339
 21
616.6901714312341
 31
0.0
  0
ARC
  5
1CC
  8
0
  6
CONTINUOUS
 62
     7
 10
338.1922288975339
 20
630.9730282883198
 30
0.0
 40
15.00000000000002
 50
279.5940682268604
 51
80.40593177313951
  0
LINE
  5
1CD
  8
0
  6
CONTINUOUS
 62
     7
 10
340.6922288975339
 20
645.2558851454055
 30
0.0
 11
340.6922288975339
 21
645.7632277460689
 31
0.0
  0
LINE
  5
1CE
  8
0
  6
CONTINUOUS
 62
     7
 10
322.2096826331154
 20
733.4730282883197
 30
0.0
 11
320.6922288975338
 21
733.4730282883197
 31
0.0
  0
LINE
  5
1CF
  8
0
  6
CONTINUOUS
 62
     7
 10
320.6922288975338
 20
731.9730282883198
 30
0.0
 11
320.1922288975338
 21
731.4730282883198
 31
0.0
  0
LINE
  5
1D0
  8
0
  6
CONTINUOUS
 62
     7
 10
320.1922288975338
 20
731.4730282883198
 30
0.0
 11
320.1922288975338
 21
733.4730282883197
 31
0.0
  0
LINE
  5
1D1
  8
0
  6
CONTINUOUS
 62
     7
 10
320.1922288975338
 20
733.4730282883197
 30
0.0
 11
320.6922288975338
 21
733.4730282883197
 31
0.0
  0
ARC
  5
1D2
  8
0
  6
CONTINUOUS
 62
     7
 10
323.1966304098149
 20
747.4730282883198
 30
0.0
 40
1.000000000724955
 50
90.0
 51
180.0
  0
LINE
  5
1D3
  8
0
  6
CONTINUOUS
 62
     7
 10
323.1966304098149
 20
748.4730282883198
 30
0.0
 11
323.2097207115011
 21
748.4730282883198
 31
0.0
  0
LINE
  5
1D4
  8
0
  6
CONTINUOUS
 62
     7
 10
333.1922288975339
 20
731.4730282883198
 30
0.0
 11
333.6922288975339
 21
731.9730282883198
 31
0.0
  0
LINE
  5
1D5
  8
0
  6
CONTINUOUS
 62
     7
 10
333.1922288975339
 20
731.4730282883198
 30
0.0
 11
320.1922288975338
 21
731.4730282883198
 31
0.0
  0
LINE
  5
1D6
  8
0
  6
CONTINUOUS
 62
     7
 10
330.3336438268688
 20
725.6194748977266
 30
0.0
 11
330.6083829981394
 21
725.2659215071333
 31
0.0
  0
LINE
  5
1D7
  8
0
  6
CONTINUOUS
 62
     7
 10
320.3386755069405
 20
725.6194748977266
 30
0.0
 11
320.6922288975338
 21
725.2659215071333
 31
0.0
  0
LINE
  5
1D8
  8
0
  6
CONTINUOUS
 62
     7
 10
320.1922288975338
 20
609.286736787305
 30
0.0
 11
320.1922288975338
 21
725.9730282883198
 31
0.0
  0
LINE
  5
1D9
  8
0
  6
CONTINUOUS
 62
     7
 10
320.1922288975338
 20
725.9730282883198
 30
0.0
 11
320.3386755069405
 21
725.6194748977266
 31
0.0
  0
LINE
  5
1DA
  8
0
  6
CONTINUOUS
 62
     7
 10
327.1878273859777
 20
735.265921507133
 30
0.0
 11
327.1878273859777
 21
747.4730282883198
 31
0.0
  0
LINE
  5
1DB
  8
0
  6
CONTINUOUS
 62
     7
 10
327.2034737280612
 20
733.4730282883197
 30
0.0
 11
327.1878273859777
 21
735.265921507133
 31
0.0
  0
LINE
  5
1DC
  8
0
  6
CONTINUOUS
 62
     7
 10
326.1747370835666
 20
748.4730282883198
 30
0.0
 11
326.1878273852527
 21
748.4730282883198
 31
0.0
  0
ARC
  5
1DD
  8
0
  6
CONTINUOUS
 62
     7
 10
326.1878273852527
 20
747.4730282883198
 30
0.0
 40
1.000000000724954
 50
0.0
 51
90.0
  0
LINE
  5
1DE
  8
0
  6
CONTINUOUS
 62
     7
 10
333.3386755069406
 20
730.0157809081716
 30
0.0
 11
333.6922288975339
 21
729.8353537059505
 31
0.0
  0
LINE
  5
1DF
  8
0
  6
CONTINUOUS
 62
     7
 10
333.3386755069406
 20
730.0157809081716
 30
0.0
 11
333.1922288975339
 21
730.3468918307613
 31
0.0
  0
LINE
  5
1E0
  8
0
  6
CONTINUOUS
 62
     7
 10
333.1922288975339
 20
730.3468918307613
 30
0.0
 11
333.1922288975339
 21
731.4730282883198
 31
0.0
  0
LINE
  5
1E1
  8
0
  6
CONTINUOUS
 62
     7
 10
355.6922288975339
 20
731.9730282883198
 30
0.0
 11
356.1922288975339
 21
731.4730282883198
 31
0.0
  0
LINE
  5
1E2
  8
0
  6
CONTINUOUS
 62
     7
 10
343.1922288975339
 20
731.4730282883198
 30
0.0
 11
356.1922288975339
 21
731.4730282883198
 31
0.0
  0
LINE
  5
1E3
  8
0
  6
CONTINUOUS
 62
     7
 10
343.1922288975339
 20
731.4730282883198
 30
0.0
 11
342.6922288975339
 21
731.9730282883198
 31
0.0
  0
LINE
  5
1E4
  8
0
  6
CONTINUOUS
 62
     7
 10
343.0457822881271
 20
730.0157809081716
 30
0.0
 11
342.6922288975339
 21
729.8353537059505
 31
0.0
  0
LINE
  5
1E5
  8
0
  6
CONTINUOUS
 62
     7
 10
346.050813968199
 20
725.6194748977266
 30
0.0
 11
345.7760747969283
 21
725.2659215071333
 31
0.0
  0
LINE
  5
1E6
  8
0
  6
CONTINUOUS
 62
     7
 10
343.1922288975339
 20
730.3468918307613
 30
0.0
 11
343.1922288975339
 21
731.4730282883198
 31
0.0
  0
LINE
  5
1E7
  8
0
  6
CONTINUOUS
 62
     7
 10
343.0457822881271
 20
730.0157809081716
 30
0.0
 11
343.1922288975339
 21
730.3468918307613
 31
0.0
  0
LINE
  5
1E8
  8
0
  6
CONTINUOUS
 62
     7
 10
356.0457822881272
 20
725.6194748977266
 30
0.0
 11
355.6922288975339
 21
725.2659215071333
 31
0.0
  0
LINE
  5
1E9
  8
0
  6
CONTINUOUS
 62
     7
 10
349.1809840670065
 20
733.4730282883197
 30
0.0
 11
349.1966304090901
 21
735.265921507133
 31
0.0
  0
LINE
  5
1EA
  8
0
  6
CONTINUOUS
 62
     7
 10
349.1966304090901
 20
735.265921507133
 30
0.0
 11
349.1966304090901
 21
747.4730282883198
 31
0.0
  0
ARC
  5
1EB
  8
0
  6
CONTINUOUS
 62
     7
 10
350.196630409815
 20
747.4730282883198
 30
0.0
 40
1.000000000724954
 50
90.0
 51
180.0
  0
LINE
  5
1EC
  8
0
  6
CONTINUOUS
 62
     7
 10
350.2097207115011
 20
748.4730282883198
 30
0.0
 11
350.196630409815
 21
748.4730282883198
 31
0.0
  0
ARC
  5
1ED
  8
0
  6
CONTINUOUS
 62
     7
 10
353.1878273852528
 20
747.4730282883198
 30
0.0
 40
1.000000000724955
 50
0.0
 51
90.0
  0
LINE
  5
1EE
  8
0
  6
CONTINUOUS
 62
     7
 10
353.1878273852528
 20
748.4730282883198
 30
0.0
 11
353.1747370835666
 21
748.4730282883198
 31
0.0
  0
LINE
  5
1EF
  8
0
  6
CONTINUOUS
 62
     7
 10
356.1922288975339
 20
731.4730282883198
 30
0.0
 11
356.1922288975339
 21
733.4730282883197
 31
0.0
  0
LINE
  5
1F0
  8
0
  6
CONTINUOUS
 62
     7
 10
356.1922288975339
 20
733.4730282883197
 30
0.0
 11
355.6922288975339
 21
733.4730282883197
 31
0.0
  0
LINE
  5
1F1
  8
0
  6
CONTINUOUS
 62
     7
 10
354.1878273859777
 20
735.2659215071332
 30
0.0
 11
354.2034737280613
 21
733.4730282883197
 31
0.0
  0
LINE
  5
1F2
  8
0
  6
CONTINUOUS
 62
     7
 10
354.1878273859777
 20
747.4730282883198
 30
0.0
 11
354.1878273859777
 21
735.2659215071332
 31
0.0
  0
LINE
  5
1F3
  8
0
  6
CONTINUOUS
 62
     7
 10
356.1922288975339
 20
609.286736787305
 30
0.0
 11
356.1922288975339
 21
725.9730282883198
 31
0.0
  0
LINE
  5
1F4
  8
0
  6
CONTINUOUS
 62
     7
 10
356.1922288975339
 20
725.9730282883198
 30
0.0
 11
356.0457822881272
 21
725.6194748977266
 31
0.0
  0
LINE
  5
1F5
  8
0
  6
CONTINUOUS
 62
     7
 10
360.1922288975339
 20
725.9730282883198
 30
0.0
 11
360.1922288975339
 21
609.286736787305
 31
0.0
  0
LINE
  5
1F6
  8
0
  6
CONTINUOUS
 62
     7
 10
360.3386755069406
 20
725.6194748977266
 30
0.0
 11
360.1922288975339
 21
725.9730282883198
 31
0.0
  0
LINE
  5
1F7
  8
0
  6
CONTINUOUS
 62
     7
 10
360.6922288975339
 20
725.2659215071333
 30
0.0
 11
360.3386755069406
 21
725.6194748977266
 31
0.0
  0
LINE
  5
1F8
  8
0
  6
CONTINUOUS
 62
     7
 10
370.6922288975338
 20
608.9331833967118
 30
0.0
 11
370.6845539559513
 21
609.286736787305
 31
0.0
  0
LINE
  5
1F9
  8
0
  6
CONTINUOUS
 62
     7
 10
360.1922288975339
 20
731.4730282883198
 30
0.0
 11
360.6922288975339
 21
731.9730282883198
 31
0.0
  0
LINE
  5
1FA
  8
0
  6
CONTINUOUS
 62
     7
 10
367.1922288975339
 20
731.9730282883198
 30
0.0
 11
366.6922288975338
 21
731.4730282883198
 31
0.0
  0
LINE
  5
1FB
  8
0
  6
CONTINUOUS
 62
     7
 10
360.1922288975339
 20
731.4730282883198
 30
0.0
 11
366.6922288975338
 21
731.4730282883198
 31
0.0
  0
LINE
  5
1FC
  8
0
  6
CONTINUOUS
 62
     7
 10
367.1922288975339
 20
725.2659215071333
 30
0.0
 11
366.8386755069406
 21
725.6194748977266
 31
0.0
  0
LINE
  5
1FD
  8
0
  6
CONTINUOUS
 62
     7
 10
360.1922288975339
 20
733.4730282883197
 30
0.0
 11
360.1922288975339
 21
731.4730282883198
 31
0.0
  0
LINE
  5
1FE
  8
0
  6
CONTINUOUS
 62
     7
 10
360.6922288975339
 20
733.4730282883197
 30
0.0
 11
360.1922288975339
 21
733.4730282883197
 31
0.0
  0
LINE
  5
1FF
  8
0
  6
CONTINUOUS
 62
     7
 10
366.6922288975338
 20
731.4730282883198
 30
0.0
 11
366.6922288975338
 21
725.9730282883198
 31
0.0
  0
LINE
  5
200
  8
0
  6
CONTINUOUS
 62
     7
 10
366.6922288975338
 20
725.9730282883198
 30
0.0
 11
366.8386755069406
 21
725.6194748977266
 31
0.0
  0
LINE
  5
201
  8
0
  6
CONTINUOUS
 62
     7
 10
320.1922288975338
 20
609.286736787305
 30
0.0
 11
320.1922288975338
 21
598.9730282883198
 31
0.0
  0
LINE
  5
202
  8
0
  6
CONTINUOUS
 62
     7
 10
356.1922288975339
 20
609.286736787305
 30
0.0
 11
356.1922288975339
 21
598.9730282883198
 31
0.0
  0
LINE
  5
203
  8
0
  6
CONTINUOUS
 62
     7
 10
305.6922288975339
 20
608.8082014346895
 30
0.0
 11
305.6922288975339
 21
608.9331833967118
 31
0.0
  0
LINE
  5
204
  8
0
  6
CONTINUOUS
 62
     7
 10
320.1922288975338
 20
728.4730282883198
 30
0.0
 11
328.3942699264011
 21
728.4730282883198
 31
0.0
  0
LINE
  5
205
  8
0
  6
CONTINUOUS
 62
     7
 10
328.3942699264011
 20
728.4730282883198
 30
0.0
 11
330.3336438268688
 21
725.6194748977266
 31
0.0
  0
LINE
  5
206
  8
0
  6
CONTINUOUS
 62
     7
 10
320.1922288975338
 20
725.9730282883198
 30
0.0
 11
320.1922288975338
 21
728.4730282883198
 31
0.0
  0
ARC
  5
207
  8
0
  6
CONTINUOUS
 62
     7
 10
338.1922288975339
 20
723.4730282883198
 30
0.0
 40
11.0
 50
133.3417582272224
 51
152.9643082105877
  0
LINE
  5
208
  8
0
  6
CONTINUOUS
 62
     7
 10
316.1922288975338
 20
598.9730282883197
 30
0.0
 11
316.1922288975338
 21
609.286736787305
 31
0.0
  0
ARC
  5
209
  8
0
  6
CONTINUOUS
 62
     7
 10
338.1922288975339
 20
723.4730282883198
 30
0.0
 40
11.0
 50
27.03569178941228
 51
46.65824177277761
  0
LINE
  5
20A
  8
0
  6
CONTINUOUS
 62
     7
 10
347.9901878686666
 20
728.4730282883198
 30
0.0
 11
346.050813968199
 21
725.6194748977266
 31
0.0
  0
LINE
  5
20B
  8
0
  6
CONTINUOUS
 62
     7
 10
356.1922288975339
 20
728.4730282883198
 30
0.0
 11
347.9901878686666
 21
728.4730282883198
 31
0.0
  0
LINE
  5
20C
  8
0
  6
CONTINUOUS
 62
     7
 10
356.1922288975339
 20
725.9730282883198
 30
0.0
 11
356.1922288975339
 21
728.4730282883198
 31
0.0
  0
LINE
  5
20D
  8
0
  6
CONTINUOUS
 62
     7
 10
360.1922288975339
 20
598.9730282883197
 30
0.0
 11
360.1922288975339
 21
609.286736787305
 31
0.0
  0
LINE
  5
20E
  8
0
  6
CONTINUOUS
 62
     7
 10
370.6922288975338
 20
608.8082014346895
 30
0.0
 11
370.6922288975338
 21
608.9331833967118
 31
0.0
  0
LINE
  5
20F
  8
0
  6
CONTINUOUS
 62
     7
 10
309.6922288975339
 20
728.4730282883198
 30
0.0
 11
316.1922288975338
 21
728.4730282883198
 31
0.0
  0
LINE
  5
210
  8
0
  6
CONTINUOUS
 62
     7
 10
316.1922288975338
 20
728.4730282883198
 30
0.0
 11
316.1922288975338
 21
725.9730282883198
 31
0.0
  0
LINE
  5
211
  8
0
  6
CONTINUOUS
 62
     7
 10
360.1922288975339
 20
728.4730282883198
 30
0.0
 11
360.1922288975339
 21
725.9730282883198
 31
0.0
  0
LINE
  5
212
  8
0
  6
CONTINUOUS
 62
     7
 10
366.6922288975338
 20
728.4730282883198
 30
0.0
 11
360.1922288975339
 21
728.4730282883198
 31
0.0
  0
LINE
  5
213
  8
0
  6
CONTINUOUS
 62
     7
 10
316.1922288975338
 20
731.4730282883198
 30
0.0
 11
316.1922288975338
 21
728.4730282883198
 31
0.0
  0
ARC
  5
214
  8
0
  6
CONTINUOUS
 62
     7
 10
317.1922288975338
 20
612.0796300061181
 30
0.0
 40
1.000000000000002
 50
90.0
 51
179.9999999999809
  0
LINE
  5
215
  8
0
  6
CONTINUOUS
 62
     7
 10
316.1922288975338
 20
733.4730282883197
 30
0.0
 11
317.1922288975338
 21
733.4730282883197
 31
0.0
  0
LINE
  5
216
  8
0
  6
CONTINUOUS
 62
     7
 10
320.1922288975338
 20
731.4730282883198
 30
0.0
 11
320.1922288975338
 21
728.4730282883198
 31
0.0
  0
ARC
  5
217
  8
0
  6
CONTINUOUS
 62
     7
 10
319.1922288975338
 20
612.0796300061181
 30
0.0
 40
1.000000000000002
 50
0.0000000000127329
 51
90.0
  0
LINE
  5
218
  8
0
  6
CONTINUOUS
 62
     7
 10
319.1922288975338
 20
733.4730282883197
 30
0.0
 11
320.1922288975338
 21
733.4730282883197
 31
0.0
  0
LINE
  5
219
  8
0
  6
CONTINUOUS
 62
     7
 10
356.1922288975339
 20
731.4730282883198
 30
0.0
 11
356.1922288975339
 21
728.4730282883198
 31
0.0
  0
ARC
  5
21A
  8
0
  6
CONTINUOUS
 62
     7
 10
357.1922288975339
 20
612.0796300061181
 30
0.0
 40
1.000000000000002
 50
90.0
 51
179.9999999999873
  0
LINE
  5
21B
  8
0
  6
CONTINUOUS
 62
     7
 10
357.1922288975339
 20
733.4730282883197
 30
0.0
 11
356.1922288975339
 21
733.4730282883197
 31
0.0
  0
ARC
  5
21C
  8
0
  6
CONTINUOUS
 62
     7
 10
359.1922288975339
 20
612.0796300061181
 30
0.0
 40
1.000000000000002
 50
0.0000000000190833
 51
90.0
  0
LINE
  5
21D
  8
0
  6
CONTINUOUS
 62
     7
 10
360.1922288975339
 20
731.4730282883198
 30
0.0
 11
360.1922288975339
 21
728.4730282883198
 31
0.0
  0
LINE
  5
21E
  8
0
  6
CONTINUOUS
 62
     7
 10
360.1922288975339
 20
733.4730282883197
 30
0.0
 11
359.1922288975339
 21
733.4730282883197
 31
0.0
  0
ARC
  5
21F
  8
0
  6
CONTINUOUS
 62
     7
 10
319.1922288975338
 20
601.4730282883198
 30
0.0
 40
1.000000000000001
 50
0.0000000000127329
 51
90.0
  0
ARC
  5
220
  8
0
  6
CONTINUOUS
 62
     7
 10
357.1922288975339
 20
601.4730282883198
 30
0.0
 40
1.000000000000001
 50
90.0
 51
179.9999999999873
  0
ARC
  5
221
  8
0
  6
CONTINUOUS
 62
     7
 10
317.1922288975338
 20
601.4730282883198
 30
0.0
 40
1.000000000000001
 50
90.0
 51
179.9999999999873
  0
ARC
  5
222
  8
0
  6
CONTINUOUS
 62
     7
 10
359.1922288975339
 20
601.4730282883198
 30
0.0
 40
1.000000000000001
 50
0.0000000000127222
 51
90.0
  0
LINE
  5
223
  8
0
  6
CONTINUOUS
 62
     7
 10
305.6922288975339
 20
703.4730282883197
 30
0.0
 11
305.6922288975339
 21
708.4730282883199
 31
0.0
  0
LINE
  5
224
  8
0
  6
CONTINUOUS
 62
     7
 10
305.6922288975339
 20
732.4926188518409
 30
0.0
 11
305.6922288975339
 21
733.4730282883197
 31
0.0
  0
LINE
  5
225
  8
0
  6
CONTINUOUS
 62
     7
 10
307.6922288975339
 20
702.3183277499405
 30
0.0
 11
305.6922288975339
 21
703.4730282883197
 31
0.0
  0
LINE
  5
226
  8
0
  6
CONTINUOUS
 62
     7
 10
307.6922288975339
 20
733.4730282883197
 30
0.0
 11
305.6922288975339
 21
733.4730282883197
 31
0.0
  0
LINE
  5
227
  8
0
  6
CONTINUOUS
 62
     7
 10
370.6922288975338
 20
703.4730282883197
 30
0.0
 11
370.6922288975338
 21
708.4730282883199
 31
0.0
  0
LINE
  5
228
  8
0
  6
CONTINUOUS
 62
     7
 10
370.6922288975338
 20
732.4926188518409
 30
0.0
 11
370.6922288975338
 21
733.4730282883197
 31
0.0
  0
LINE
  5
229
  8
0
  6
CONTINUOUS
 62
     7
 10
368.6922288975339
 20
702.3183277499405
 30
0.0
 11
370.6922288975338
 21
703.4730282883197
 31
0.0
  0
LINE
  5
22A
  8
0
  6
CONTINUOUS
 62
     7
 10
368.6922288975339
 20
733.4730282883197
 30
0.0
 11
370.6922288975338
 21
733.4730282883197
 31
0.0
  0
LINE
  5
22B
  8
0
  6
CONTINUOUS
 62
     7
 10
317.1922288975338
 20
613.0796300061181
 30
0.0
 11
319.1922288975338
 21
613.0796300061181
 31
0.0
  0
LINE
  5
22C
  8
0
  6
CONTINUOUS
 62
     7
 10
319.1922288975338
 20
733.4730282883197
 30
0.0
 11
317.1922288975338
 21
733.4730282883197
 31
0.0
  0
LINE
  5
22D
  8
0
  6
CONTINUOUS
 62
     7
 10
317.1922288975338
 20
602.4730282883198
 30
0.0
 11
319.1922288975338
 21
602.4730282883198
 31
0.0
  0
LINE
  5
22E
  8
0
  6
CONTINUOUS
 62
     7
 10
359.1922288975339
 20
602.4730282883198
 30
0.0
 11
357.1922288975339
 21
602.4730282883198
 31
0.0
  0
LINE
  5
22F
  8
0
  6
CONTINUOUS
 62
     7
 10
359.1922288975339
 20
613.0796300061181
 30
0.0
 11
357.1922288975339
 21
613.0796300061181
 31
0.0
  0
LINE
  5
230
  8
0
  6
CONTINUOUS
 62
     7
 10
357.1922288975339
 20
733.4730282883197
 30
0.0
 11
359.1922288975339
 21
733.4730282883197
 31
0.0
  0
ARC
  5
231
  8
0
  6
CONTINUOUS
 62
     7
 10
320.6922288975338
 20
598.9730282883197
 30
0.0
 40
0.4999999999999449
 50
180.0
 51
270.0
  0
ARC
  5
232
  8
0
  6
CONTINUOUS
 62
     7
 10
355.6922288975339
 20
598.9730282883197
 30
0.0
 40
0.4999999999999449
 50
270.0
 51
0.0
  0
LINE
  5
233
  8
0
  6
CONTINUOUS
 62
     7
 10
309.789696832389
 20
598.4730282883198
 30
0.0
 11
315.6922288975338
 21
598.4730282883198
 31
0.0
  0
ARC
  5
234
  8
0
  6
CONTINUOUS
 62
     7
 10
315.6922288975338
 20
598.9730282883197
 30
0.0
 40
0.5000000000000004
 50
270.0
 51
0.0
  0
LINE
  5
235
  8
0
  6
CONTINUOUS
 62
     7
 10
355.6922288975339
 20
598.4730282883198
 30
0.0
 11
320.6922288975338
 21
598.4730282883198
 31
0.0
  0
LINE
  5
236
  8
0
  6
CONTINUOUS
 62
     7
 10
366.5947609626787
 20
598.4730282883198
 30
0.0
 11
360.6922288975339
 21
598.4730282883198
 31
0.0
  0
ARC
  5
237
  8
0
  6
CONTINUOUS
 62
     7
 10
360.6922288975339
 20
598.9730282883197
 30
0.0
 40
0.5000000000000004
 50
180.0
 51
270.0
  0
LINE
  5
238
  8
0
  6
CONTINUOUS
 62
     7
 10
355.1922288975338
 20
598.2730282883199
 30
0.0
 11
355.0422288975338
 21
598.2730282883199
 31
0.0
  0
LINE
  5
239
  8
0
  6
CONTINUOUS
 62
     7
 10
321.3422288975338
 20
598.2730282883199
 30
0.0
 11
355.0422288975338
 21
598.2730282883199
 31
0.0
  0
LINE
  5
23A
  8
0
  6
CONTINUOUS
 62
     7
 10
321.3422288975338
 20
598.2730282883199
 30
0.0
 11
321.1922288975338
 21
598.2730282883199
 31
0.0
  0
LINE
  5
23B
  8
0
  6
CONTINUOUS
 62
     7
 10
355.2922288975338
 20
598.4730282883198
 30
0.0
 11
355.2922288975338
 21
598.3730282883198
 31
0.0
  0
LINE
  5
23C
  8
0
  6
CONTINUOUS
 62
     7
 10
321.0922288975339
 20
598.3730282883198
 30
0.0
 11
321.0922288975339
 21
598.4730282883198
 31
0.0
  0
ARC
  5
23D
  8
0
  6
CONTINUOUS
 62
     7
 10
355.1922288975338
 20
598.3730282883198
 30
0.0
 40
0.1000000000000445
 50
270.0
 51
0.0
  0
ARC
  5
23E
  8
0
  6
CONTINUOUS
 62
     7
 10
321.1922288975338
 20
598.3730282883198
 30
0.0
 40
0.099999999999989
 50
180.0
 51
269.999999999998
  0
LINE
  5
23F
  8
0
  6
CONTINUOUS
 62
     7
 10
307.6922288975339
 20
694.5791018799549
 30
0.0
 11
305.3271313051858
 21
694.5791018799549
 31
0.0
  0
LINE
  5
240
  8
0
  6
CONTINUOUS
 62
     7
 10
305.3451664692618
 20
708.4730249935843
 30
0.0
 11
305.3271313051858
 21
694.5791018799549
 31
0.0
  0
LINE
  5
241
  8
0
  6
CONTINUOUS
 62
     7
 10
371.039291325806
 20
708.4730249935843
 30
0.0
 11
371.0573264898819
 21
694.5791018799549
 31
0.0
  0
LINE
  5
242
  8
0
  6
CONTINUOUS
 62
     7
 10
368.6922288975338
 20
694.5791018799549
 30
0.0
 11
371.0573264898819
 21
694.5791018799549
 31
0.0
  0
LINE
  5
243
  8
0
  6
CONTINUOUS
 62
     7
 10
309.550721393064
 20
683.3342426244233
 30
0.0
 11
309.5482658939973
 21
683.4730289150408
 31
0.0
  0
LINE
  5
244
  8
0
  6
CONTINUOUS
 62
     7
 10
309.0832276644977
 20
633.4730028069604
 30
0.0
 11
309.2586833152679
 21
670.3669546966846
 31
0.0
  0
LINE
  5
245
  8
0
  6
CONTINUOUS
 62
     7
 10
309.2586833152679
 20
670.3669546966846
 30
0.0
 11
309.550721393064
 21
681.8796850202145
 31
0.0
  0
LINE
  5
246
  8
0
  6
CONTINUOUS
 62
     7
 10
309.397329146712
 20
633.4730270171342
 30
0.0
 11
309.550721393064
 21
650.1039948884887
 31
0.0
  0
LINE
  5
247
  8
0
  6
CONTINUOUS
 62
     7
 10
305.2585310017253
 20
670.3669546966913
 30
0.0
 11
309.2586833152679
 21
670.3669546966846
 31
0.0
  0
LINE
  5
248
  8
0
  6
CONTINUOUS
 62
     7
 10
306.0403284752704
 20
618.4730282883199
 30
0.0
 11
305.062529158569
 21
618.4730282883198
 31
0.0
  0
LINE
  5
249
  8
0
  6
CONTINUOUS
 62
     7
 10
305.2585310017253
 20
670.3669546966913
 30
0.0
 11
305.1109845531248
 21
638.5141190772684
 31
0.0
  0
LINE
  5
24A
  8
0
  6
CONTINUOUS
 62
     7
 10
304.9949673554947
 20
618.5730281894508
 30
0.0
 11
304.9943504311869
 21
618.4730282883199
 31
0.0
  0
LINE
  5
24B
  8
0
  6
CONTINUOUS
 62
     7
 10
305.6846088606026
 20
682.4730282883198
 30
0.0
 11
305.5508737008074
 21
681.8917257104825
 31
0.0
  0
LINE
  5
24C
  8
0
  6
CONTINUOUS
 62
     7
 10
309.7531481838619
 20
682.4730282883198
 30
0.0
 11
305.6846088606026
 21
682.4730282883198
 31
0.0
  0
LINE
  5
24D
  8
0
  6
CONTINUOUS
 62
     7
 10
309.550721393064
 20
681.8796850202145
 30
0.0
 11
309.7531481838619
 21
682.4730282883198
 31
0.0
  0
LINE
  5
24E
  8
0
  6
CONTINUOUS
 62
     7
 10
305.5508737008074
 20
681.8917257104825
 30
0.0
 11
305.2585310017253
 21
670.3669546966913
 31
0.0
  0
LINE
  5
24F
  8
0
  6
CONTINUOUS
 62
     7
 10
305.5508737008073
 20
683.3169857009469
 30
0.0
 11
305.6846088606026
 21
682.4730282883198
 31
0.0
  0
LINE
  5
250
  8
0
  6
CONTINUOUS
 62
     7
 10
309.7531481838619
 20
682.4730282883198
 30
0.0
 11
309.550721393064
 21
683.3342426244233
 31
0.0
  0
LINE
  5
251
  8
0
  6
CONTINUOUS
 62
     7
 10
305.3271313051858
 20
694.5791018799549
 30
0.0
 11
305.5508737008073
 21
683.3169857009469
 31
0.0
  0
LINE
  5
252
  8
0
  6
CONTINUOUS
 62
     7
 10
366.6313096112058
 20
682.4730282883198
 30
0.0
 11
370.6998489344651
 21
682.4730282883198
 31
0.0
  0
LINE
  5
253
  8
0
  6
CONTINUOUS
 62
     7
 10
370.6998489344651
 20
682.4730282883198
 30
0.0
 11
370.8335840942603
 21
681.8917257104825
 31
0.0
  0
LINE
  5
254
  8
0
  6
CONTINUOUS
 62
     7
 10
370.8335840942603
 20
681.8917257104825
 30
0.0
 11
371.1259267933424
 21
670.3669546966913
 31
0.0
  0
LINE
  5
255
  8
0
  6
CONTINUOUS
 62
     7
 10
371.1259267933424
 20
670.3669546966913
 30
0.0
 11
367.1257744797998
 21
670.3669546966846
 31
0.0
  0
LINE
  5
256
  8
0
  6
CONTINUOUS
 62
     7
 10
367.1257744797998
 20
670.3669546966846
 30
0.0
 11
366.8337364020037
 21
681.8796850202145
 31
0.0
  0
LINE
  5
257
  8
0
  6
CONTINUOUS
 62
     7
 10
366.8337364020037
 20
681.8796850202145
 30
0.0
 11
366.6313096112058
 21
682.4730282883198
 31
0.0
  0
LINE
  5
258
  8
0
  6
CONTINUOUS
 62
     7
 10
366.8337364020037
 20
683.3342426244233
 30
0.0
 11
366.8361919010705
 21
683.4730289150408
 31
0.0
  0
LINE
  5
259
  8
0
  6
CONTINUOUS
 62
     7
 10
371.0573264898819
 20
694.5791018799549
 30
0.0
 11
370.8335840942603
 21
683.3169857009469
 31
0.0
  0
LINE
  5
25A
  8
0
  6
CONTINUOUS
 62
     7
 10
370.8335840942603
 20
683.3169857009469
 30
0.0
 11
370.6998489344651
 21
682.4730282883198
 31
0.0
  0
LINE
  5
25B
  8
0
  6
CONTINUOUS
 62
     7
 10
366.6313096112058
 20
682.4730282883198
 30
0.0
 11
366.8337364020037
 21
683.3342426244233
 31
0.0
  0
LINE
  5
25C
  8
0
  6
CONTINUOUS
 62
     7
 10
366.9871286483557
 20
633.4730270171342
 30
0.0
 11
366.8337364020037
 21
650.1039948884887
 31
0.0
  0
LINE
  5
25D
  8
0
  6
CONTINUOUS
 62
     7
 10
367.30123013057
 20
633.4730028069604
 30
0.0
 11
367.1257744797998
 21
670.3669546966846
 31
0.0
  0
LINE
  5
25E
  8
0
  6
CONTINUOUS
 62
     7
 10
371.1259267933424
 20
670.3669546966913
 30
0.0
 11
371.2734732419429
 21
638.5141190772684
 31
0.0
  0
LINE
  5
25F
  8
0
  6
CONTINUOUS
 62
     7
 10
371.389490439573
 20
618.5730281894508
 30
0.0
 11
371.3901073638808
 21
618.4730282883199
 31
0.0
  0
LINE
  5
260
  8
0
  6
CONTINUOUS
 62
     7
 10
370.3441293197973
 20
618.4730282883199
 30
0.0
 11
371.3219286364988
 21
618.4730282883198
 31
0.0
  0
ARC
  5
261
  8
0
  6
CONTINUOUS
 62
     7
 10
317.5504167775773
 20
641.6294736936128
 30
0.0
 40
7.999999999999964
 50
149.0118145762188
 51
179.5000000000001
  0
LINE
  5
262
  8
0
  6
CONTINUOUS
 62
     7
 10
309.7531481838619
 20
651.7341921195934
 30
0.0
 11
309.5732068428038
 21
650.0955108083559
 31
0.0
  0
LINE
  5
263
  8
0
  6
CONTINUOUS
 62
     7
 10
309.5732068428038
 20
650.0955108083559
 30
0.0
 11
309.550721393064
 21
649.368025177838
 31
0.0
  0
LINE
  5
264
  8
0
  6
CONTINUOUS
 62
     7
 10
309.550721393064
 20
650.1039948884887
 30
0.0
 11
309.7531481838619
 21
651.7341921195934
 31
0.0
  0
LINE
  5
265
  8
0
  6
CONTINUOUS
 62
     7
 10
366.6313096112058
 20
651.7341921195934
 30
0.0
 11
366.8112509522639
 21
650.0955108083559
 31
0.0
  0
LINE
  5
266
  8
0
  6
CONTINUOUS
 62
     7
 10
366.8112509522639
 20
650.0955108083559
 30
0.0
 11
366.8337364020037
 21
649.368025177838
 31
0.0
  0
ARC
  5
267
  8
0
  6
CONTINUOUS
 62
     7
 10
358.8340410174903
 20
641.6294736936128
 30
0.0
 40
8.000000000000012
 50
0.4999999999998863
 51
30.98818542378081
  0
LINE
  5
268
  8
0
  6
CONTINUOUS
 62
     7
 10
366.8337364020037
 20
650.1039948884887
 30
0.0
 11
366.6313096112058
 21
651.7341921195934
 31
0.0
  0
LINE
  5
269
  8
0
  6
CONTINUOUS
 62
     7
 10
309.550721393064
 20
649.368025177838
 30
0.0
 11
309.441068497234
 21
633.4729940968358
 31
0.0
  0
LINE
  5
26A
  8
0
  6
CONTINUOUS
 62
     7
 10
366.8337364020037
 20
649.368025177838
 30
0.0
 11
366.9433892978337
 21
633.4729940968358
 31
0.0
  0
LINE
  5
26B
  8
0
  6
CONTINUOUS
 62
     7
 10
366.8337364020037
 20
641.6992859775997
 30
0.0
 11
366.9055258652708
 21
633.4730282883198
 31
0.0
  0
LINE
  5
26C
  8
0
  6
CONTINUOUS
 62
     7
 10
309.550721393064
 20
641.6992859775997
 30
0.0
 11
309.4789319297969
 21
633.4730282883198
 31
0.0
  0
LINE
  5
26D
  8
0
  6
CONTINUOUS
 62
     7
 10
304.762944433174
 20
600.8812181720031
 30
0.0
 11
304.762504720163
 21
600.8956490058536
 31
0.0
  0
LINE
  5
26E
  8
0
  6
CONTINUOUS
 62
     7
 10
304.7612286864635
 20
600.8688433376929
 30
0.0
 11
304.6806124434073
 21
600.4730282883198
 31
0.0
  0
LINE
  5
26F
  8
0
  6
CONTINUOUS
 62
     7
 10
304.6806124434073
 20
600.4730282883198
 30
0.0
 11
304.7598061587809
 21
600.1842338185677
 31
0.0
  0
LINE
  5
270
  8
0
  6
CONTINUOUS
 62
     7
 10
304.7623899827603
 20
600.8957687176254
 30
0.0
 11
304.7612286864635
 21
600.8688433376929
 31
0.0
  0
LINE
  5
271
  8
0
  6
CONTINUOUS
 62
     7
 10
304.762504720163
 20
600.8956490058607
 30
0.0
 11
304.7623899827603
 21
600.8957687176254
 31
0.0
  0
LINE
  5
272
  8
0
  6
CONTINUOUS
 62
     7
 10
371.6232291086042
 20
600.8688433376925
 30
0.0
 11
371.7038453516604
 21
600.4730282883198
 31
0.0
  0
LINE
  5
273
  8
0
  6
CONTINUOUS
 62
     7
 10
371.6215131414227
 20
600.8812146233117
 30
0.0
 11
371.6219530749048
 21
600.8956490058536
 31
0.0
  0
LINE
  5
274
  8
0
  6
CONTINUOUS
 62
     7
 10
371.6220678123074
 20
600.8957687176254
 30
0.0
 11
371.6232291086042
 21
600.8688433376925
 31
0.0
  0
LINE
  5
275
  8
0
  6
CONTINUOUS
 62
     7
 10
371.7038453516604
 20
600.4730282883198
 30
0.0
 11
371.6246516362869
 21
600.1842338185677
 31
0.0
  0
LINE
  5
276
  8
0
  6
CONTINUOUS
 62
     7
 10
371.6219530749047
 20
600.8956490058607
 30
0.0
 11
371.6220678123074
 21
600.8957687176254
 31
0.0
  0
LINE
  5
277
  8
0
  6
CONTINUOUS
 62
     7
 10
304.7598061587809
 20
598.7618323280008
 30
0.0
 11
304.7598061587809
 21
600.1842242486389
 31
0.0
  0
LINE
  5
278
  8
0
  6
CONTINUOUS
 62
     7
 10
304.7598061587809
 20
598.7618227580718
 30
0.0
 11
304.6806124434073
 21
598.4730282883198
 31
0.0
  0
LINE
  5
279
  8
0
  6
CONTINUOUS
 62
     7
 10
301.9596995393008
 20
598.4730282883198
 30
0.0
 11
304.6806124434067
 21
598.4730282883198
 31
0.0
  0
LINE
  5
27A
  8
0
  6
CONTINUOUS
 62
     7
 10
301.9596995393008
 20
600.4730282883198
 30
0.0
 11
301.9596995393008
 21
598.4730282883198
 31
0.0
  0
LINE
  5
27B
  8
0
  6
CONTINUOUS
 62
     7
 10
304.6806124434073
 20
600.4730282883198
 30
0.0
 11
301.9596995393008
 21
600.4730282883198
 31
0.0
  0
LINE
  5
27C
  8
0
  6
CONTINUOUS
 62
     7
 10
374.4247582557669
 20
600.4730282883198
 30
0.0
 11
374.424758255767
 21
598.4730282883198
 31
0.0
  0
LINE
  5
27D
  8
0
  6
CONTINUOUS
 62
     7
 10
374.424758255767
 20
598.4730282883198
 30
0.0
 11
371.7038453516611
 21
598.4730282883198
 31
0.0
  0
LINE
  5
27E
  8
0
  6
CONTINUOUS
 62
     7
 10
371.6246516362869
 20
598.7618227580718
 30
0.0
 11
371.7038453516604
 21
598.4730282883198
 31
0.0
  0
LINE
  5
27F
  8
0
  6
CONTINUOUS
 62
     7
 10
371.6246516362869
 20
598.7618323280008
 30
0.0
 11
371.6246516362869
 21
600.1842242486389
 31
0.0
  0
LINE
  5
280
  8
0
  6
CONTINUOUS
 62
     7
 10
371.7038453516604
 20
600.4730282883198
 30
0.0
 11
374.4247582557669
 21
600.4730282883198
 31
0.0
  0
POLYLINE
  5
281
  8
0
  6
CONTINUOUS
 62
     7
 66
     1
 10
0.0
 20
0.0
 30
0.0
  0
VERTEX
  5
649
  8
0
  6
CONTINUOUS
 62
     7
 10
309.2922288975338
 20
604.8796300061181
 30
0.0
  0
VERTEX
  5
64A
  8
0
  6
CONTINUOUS
 62
     7
 10
309.3964668496805
 20
604.8951669074916
 30
0.0
  0
VERTEX
  5
64B
  8
0
  6
CONTINUOUS
 62
     7
 10
309.4961240657205
 20
604.9410948425858
 30
0.0
  0
VERTEX
  5
64C
  8
0
  6
CONTINUOUS
 62
     7
 10
309.5868211099649
 20
605.0153955086016
 30
0.0
  0
VERTEX
  5
64D
  8
0
  6
CONTINUOUS
 62
     7
 10
309.6645723014138
 20
605.1148037632703
 30
0.0
  0
VERTEX
  5
64E
  8
0
  6
CONTINUOUS
 62
     7
 10
309.7259608644815
 20
605.2349511115085
 30
0.0
  0
VERTEX
  5
64F
  8
0
  6
CONTINUOUS
 62
     7
 10
309.7682890791767
 20
605.3705576789054
 30
0.0
  0
VERTEX
  5
650
  8
0
  6
CONTINUOUS
 62
     7
 10
309.7896968323889
 20
605.515664235768
 30
0.0
  0
SEQEND
  5
842
  8
0
  6
CONTINUOUS
 62
     7
  0
LINE
  5
282
  8
0
  6
CONTINUOUS
 62
     7
 10
309.2922288975338
 20
604.8796300061181
 30
0.0
 11
305.2821562366395
 21
604.8796300061181
 31
0.0
  0
POLYLINE
  5
283
  8
0
  6
CONTINUOUS
 62
     7
 66
     1
 10
0.0
 20
0.0
 30
0.0
  0
VERTEX
  5
651
  8
0
  6
CONTINUOUS
 62
     7
 10
305.2821562366395
 20
604.8796300061181
 30
0.0
  0
VERTEX
  5
652
  8
0
  6
CONTINUOUS
 62
     7
 10
305.2657245825038
 20
604.8792453622242
 30
0.0
  0
VERTEX
  5
653
  8
0
  6
CONTINUOUS
 62
     7
 10
305.2493109060388
 20
604.8780978448166
 30
0.0
  0
VERTEX
  5
654
  8
0
  6
CONTINUOUS
 62
     7
 10
305.2329669160831
 20
604.876197075306
 30
0.0
  0
VERTEX
  5
655
  8
0
  6
CONTINUOUS
 62
     7
 10
305.2167443214747
 20
604.8735526751032
 30
0.0
  0
VERTEX
  5
656
  8
0
  6
CONTINUOUS
 62
     7
 10
305.2001003659223
 20
604.8700399610351
 30
0.0
  0
VERTEX
  5
657
  8
0
  6
CONTINUOUS
 62
     7
 10
305.1836192835603
 20
604.8657574687804
 30
0.0
  0
VERTEX
  5
658
  8
0
  6
CONTINUOUS
 62
     7
 10
305.1673477413643
 20
604.860733219038
 30
0.0
  0
VERTEX
  5
659
  8
0
  6
CONTINUOUS
 62
     7
 10
305.1513324063097
 20
604.854995232507
 30
0.0
  0
VERTEX
  5
65A
  8
0
  6
CONTINUOUS
 62
     7
 10
305.1309203971845
 20
604.84649469423
 30
0.0
  0
VERTEX
  5
65B
  8
0
  6
CONTINUOUS
 62
     7
 10
305.1109592410552
 20
604.8368581361167
 30
0.0
  0
VERTEX
  5
65C
  8
0
  6
CONTINUOUS
 62
     7
 10
305.0915027385144
 20
604.8261653674448
 30
0.0
  0
VERTEX
  5
65D
  8
0
  6
CONTINUOUS
 62
     7
 10
305.0726046901546
 20
604.8144961974922
 30
0.0
  0
VERTEX
  5
65E
  8
0
  6
CONTINUOUS
 62
     7
 10
305.0543188965686
 20
604.8019304355366
 30
0.0
  0
VERTEX
  5
65F
  8
0
  6
CONTINUOUS
 62
     7
 10
305.0366991583491
 20
604.7885478908557
 30
0.0
  0
VERTEX
  5
660
  8
0
  6
CONTINUOUS
 62
     7
 10
305.0189628308387
 20
604.7737198681617
 30
0.0
  0
VERTEX
  5
661
  8
0
  6
CONTINUOUS
 62
     7
 10
305.001900116683
 20
604.7580879785473
 30
0.0
  0
VERTEX
  5
662
  8
0
  6
CONTINUOUS
 62
     7
 10
304.9855289593231
 20
604.7417284187438
 30
0.0
  0
VERTEX
  5
663
  8
0
  6
CONTINUOUS
 62
     7
 10
304.9698673021999
 20
604.7247173854821
 30
0.0
  0
VERTEX
  5
664
  8
0
  6
CONTINUOUS
 62
     7
 10
304.9495202956939
 20
604.7004107377553
 30
0.0
  0
VERTEX
  5
665
  8
0
  6
CONTINUOUS
 62
     7
 10
304.9304449405765
 20
604.6750653065213
 30
0.0
  0
VERTEX
  5
666
  8
0
  6
CONTINUOUS
 62
     7
 10
304.9126463065386
 20
604.6488290631993
 30
0.0
  0
VERTEX
  5
667
  8
0
  6
CONTINUOUS
 62
     7
 10
304.8958946618465
 20
604.6214514199489
 30
0.0
  0
VERTEX
  5
668
  8
0
  6
CONTINUOUS
 62
     7
 10
304.8803778148382
 20
604.5933202049802
 30
0.0
  0
VERTEX
  5
669
  8
0
  6
CONTINUOUS
 62
     7
 10
304.866084077236
 20
604.5645428895384
 30
0.0
  0
VERTEX
  5
66A
  8
0
  6
CONTINUOUS
 62
     7
 10
304.8530017607625
 20
604.5352269448692
 30
0.0
  0
VERTEX
  5
66B
  8
0
  6
CONTINUOUS
 62
     7
 10
304.8369722667843
 20
604.4942502203846
 30
0.0
  0
VERTEX
  5
66C
  8
0
  6
CONTINUOUS
 62
     7
 10
304.8230805182318
 20
604.4524672410059
 30
0.0
  0
VERTEX
  5
66D
  8
0
  6
CONTINUOUS
 62
     7
 10
304.8112925070492
 20
604.4100695379266
 30
0.0
  0
VERTEX
  5
66E
  8
0
  6
CONTINUOUS
 62
     7
 10
304.8010261431581
 20
604.364525216204
 30
0.0
  0
VERTEX
  5
66F
  8
0
  6
CONTINUOUS
 62
     7
 10
304.7930112270484
 20
604.3184494819462
 30
0.0
  0
VERTEX
  5
670
  8
0
  6
CONTINUOUS
 62
     7
 10
304.7872291574419
 20
604.2720081465372
 30
0.0
  0
VERTEX
  5
671
  8
0
  6
CONTINUOUS
 62
     7
 10
304.7836613330605
 20
604.2253670213614
 30
0.0
  0
VERTEX
  5
672
  8
0
  6
CONTINUOUS
 62
     7
 10
304.7822891526263
 20
604.1786919178027
 30
0.0
  0
SEQEND
  5
843
  8
0
  6
CONTINUOUS
 62
     7
  0
LINE
  5
284
  8
0
  6
CONTINUOUS
 62
     7
 10
304.7822891526263
 20
604.1786919178027
 30
0.0
 11
304.7623899827603
 21
600.8957687176254
 31
0.0
  0
POLYLINE
  5
285
  8
0
  6
CONTINUOUS
 62
     7
 66
     1
 10
0.0
 20
0.0
 30
0.0
  0
VERTEX
  5
673
  8
0
  6
CONTINUOUS
 62
     7
 10
301.9596995393008
 20
600.4730282883198
 30
0.0
  0
VERTEX
  5
674
  8
0
  6
CONTINUOUS
 62
     7
 10
301.9880050327409
 20
605.1487680186623
 30
0.0
  0
VERTEX
  5
675
  8
0
  6
CONTINUOUS
 62
     7
 10
302.2646171670555
 20
660.7103951435429
 30
0.0
  0
VERTEX
  5
676
  8
0
  6
CONTINUOUS
 62
     7
 10
302.3732326240974
 20
716.2730282883198
 30
0.0
  0
SEQEND
  5
844
  8
0
  6
CONTINUOUS
 62
     7
  0
LINE
  5
286
  8
0
  6
CONTINUOUS
 62
     7
 10
302.3732326240974
 20
716.2730282883198
 30
0.0
 11
302.3732326240974
 21
756.4730282883198
 31
0.0
  0
LINE
  5
287
  8
0
  6
CONTINUOUS
 62
     7
 10
304.3733087808689
 20
758.4730282883198
 30
0.0
 11
302.3732326240974
 21
756.4730282883198
 31
0.0
  0
LINE
  5
288
  8
0
  6
CONTINUOUS
 62
     7
 10
305.1733392435774
 20
758.4730282883198
 30
0.0
 11
304.3733087808689
 21
758.4730282883198
 31
0.0
  0
LINE
  5
289
  8
0
  6
CONTINUOUS
 62
     7
 10
305.1733392435774
 20
728.9602041733838
 30
0.0
 11
305.1733392435774
 21
758.4730282883198
 31
0.0
  0
POLYLINE
  5
28A
  8
0
  6
CONTINUOUS
 62
     7
 66
     1
 10
0.0
 20
0.0
 30
0.0
  0
VERTEX
  5
677
  8
0
  6
CONTINUOUS
 62
     7
 10
305.1733392435775
 20
728.9602041733838
 30
0.0
  0
VERTEX
  5
678
  8
0
  6
CONTINUOUS
 62
     7
 10
305.1847866422593
 20
728.8098680396076
 30
0.0
  0
VERTEX
  5
679
  8
0
  6
CONTINUOUS
 62
     7
 10
305.2186046865173
 20
728.6666152590093
 30
0.0
  0
VERTEX
  5
67A
  8
0
  6
CONTINUOUS
 62
     7
 10
305.2732449207731
 20
728.5370050685907
 30
0.0
  0
VERTEX
  5
67B
  8
0
  6
CONTINUOUS
 62
     7
 10
305.3462054861111
 20
728.4269720404648
 30
0.0
  0
VERTEX
  5
67C
  8
0
  6
CONTINUOUS
 62
     7
 10
305.4341456750221
 20
728.3415543505502
 30
0.0
  0
SEQEND
  5
845
  8
0
  6
CONTINUOUS
 62
     7
  0
LINE
  5
28B
  8
0
  6
CONTINUOUS
 62
     7
 10
305.5922288975339
 20
728.0428112366017
 30
0.0
 11
305.4341456750221
 21
728.3415543505503
 31
0.0
  0
LINE
  5
28C
  8
0
  6
CONTINUOUS
 62
     7
 10
305.5922288975339
 20
727.1968004881666
 30
0.0
 11
305.5922288975339
 21
728.0428112366017
 31
0.0
  0
LINE
  5
28D
  8
0
  6
CONTINUOUS
 62
     7
 10
305.1733392435768
 20
726.4281614501322
 30
0.0
 11
305.2386755069405
 21
726.4896937069802
 31
0.0
  0
LINE
  5
28E
  8
0
  6
CONTINUOUS
 62
     7
 10
305.1733392435774
 20
716.2730282883198
 30
0.0
 11
305.1733392435775
 21
726.4281614501314
 31
0.0
  0
LINE
  5
28F
  8
0
  6
CONTINUOUS
 62
     7
 10
305.1733392435774
 20
716.2730282883198
 30
0.0
 11
304.9698565126579
 21
638.5741577892488
 31
0.0
  0
LINE
  5
290
  8
0
  6
CONTINUOUS
 62
     7
 10
304.9698565126579
 20
638.5741577892488
 30
0.0
 11
304.9696107785487
 21
638.5230282883199
 31
0.0
  0
LINE
  5
291
  8
0
  6
CONTINUOUS
 62
     7
 10
304.9696107785487
 20
638.5230282883199
 30
0.0
 11
305.0193722679807
 21
638.5230282883199
 31
0.0
  0
LINE
  5
292
  8
0
  6
CONTINUOUS
 62
     7
 10
305.0693730154402
 20
638.4727878286576
 30
0.0
 11
305.0193722679807
 21
638.5230282883199
 31
0.0
  0
LINE
  5
293
  8
0
  6
CONTINUOUS
 62
     7
 10
305.0193722679807
 20
638.4230282883199
 30
0.0
 11
305.0693730154402
 21
638.4727878286576
 31
0.0
  0
LINE
  5
294
  8
0
  6
CONTINUOUS
 62
     7
 10
305.0193722679807
 20
638.4230282883199
 30
0.0
 11
304.9691298419675
 21
638.4230282883199
 31
0.0
  0
LINE
  5
295
  8
0
  6
CONTINUOUS
 62
     7
 10
304.9691298419675
 20
638.4230282883199
 30
0.0
 11
304.8655004965982
 21
618.5230282883198
 31
0.0
  0
LINE
  5
296
  8
0
  6
CONTINUOUS
 62
     7
 10
304.8655004965982
 20
618.5230282883198
 30
0.0
 11
304.9152237196511
 21
618.5230282883198
 31
0.0
  0
LINE
  5
297
  8
0
  6
CONTINUOUS
 62
     7
 10
304.9652240698948
 20
618.4727495754104
 30
0.0
 11
304.9152237196511
 21
618.5230282883198
 31
0.0
  0
LINE
  5
298
  8
0
  6
CONTINUOUS
 62
     7
 10
304.9152237196511
 20
618.4230282883199
 30
0.0
 11
304.9652240698948
 21
618.4727495754104
 31
0.0
  0
LINE
  5
299
  8
0
  6
CONTINUOUS
 62
     7
 10
304.9152237196511
 20
618.4230282883199
 30
0.0
 11
304.8649430505114
 21
618.4230282883178
 31
0.0
  0
LINE
  5
29A
  8
0
  6
CONTINUOUS
 62
     7
 10
304.8649430505114
 20
618.4230282883178
 30
0.0
 11
304.816090302765
 21
609.8752292651745
 31
0.0
  0
POLYLINE
  5
29B
  8
0
  6
CONTINUOUS
 62
     7
 66
     1
 10
0.0
 20
0.0
 30
0.0
  0
VERTEX
  5
67D
  8
0
  6
CONTINUOUS
 62
     7
 10
304.816090302765
 20
609.8752292651745
 30
0.0
  0
VERTEX
  5
67E
  8
0
  6
CONTINUOUS
 62
     7
 10
304.8166625356426
 20
609.8350468102146
 30
0.0
  0
VERTEX
  5
67F
  8
0
  6
CONTINUOUS
 62
     7
 10
304.8188637897443
 20
609.7947548169731
 30
0.0
  0
VERTEX
  5
680
  8
0
  6
CONTINUOUS
 62
     7
 10
304.8227020914518
 20
609.75458590473
 30
0.0
  0
VERTEX
  5
681
  8
0
  6
CONTINUOUS
 62
     7
 10
304.828280410995
 20
609.7140386126329
 30
0.0
  0
VERTEX
  5
682
  8
0
  6
CONTINUOUS
 62
     7
 10
304.8355742329276
 20
609.6737650236961
 30
0.0
  0
VERTEX
  5
683
  8
0
  6
CONTINUOUS
 62
     7
 10
304.8447567504071
 20
609.6332499756461
 30
0.0
  0
VERTEX
  5
684
  8
0
  6
CONTINUOUS
 62
     7
 10
304.8557628409951
 20
609.5931927347751
 30
0.0
  0
VERTEX
  5
685
  8
0
  6
CONTINUOUS
 62
     7
 10
304.8687023367787
 20
609.5534886528337
 30
0.0
  0
VERTEX
  5
686
  8
0
  6
CONTINUOUS
 62
     7
 10
304.8838907880445
 20
609.513673374214
 30
0.0
  0
VERTEX
  5
687
  8
0
  6
CONTINUOUS
 62
     7
 10
304.901134470978
 20
609.4747061796446
 30
0.0
  0
VERTEX
  5
688
  8
0
  6
CONTINUOUS
 62
     7
 10
304.913961027891
 20
609.4489678954768
 30
0.0
  0
VERTEX
  5
689
  8
0
  6
CONTINUOUS
 62
     7
 10
304.9277675652243
 20
609.4237423618636
 30
0.0
  0
VERTEX
  5
68A
  8
0
  6
CONTINUOUS
 62
     7
 10
304.9427601904325
 20
609.3987923495614
 30
0.0
  0
VERTEX
  5
68B
  8
0
  6
CONTINUOUS
 62
     7
 10
304.9587947288136
 20
609.3744997508285
 30
0.0
  0
VERTEX
  5
68C
  8
0
  6
CONTINUOUS
 62
     7
 10
304.9759708247842
 20
609.3508349059803
 30
0.0
  0
VERTEX
  5
68D
  8
0
  6
CONTINUOUS
 62
     7
 10
304.9926286913659
 20
609.3299175146116
 30
0.0
  0
VERTEX
  5
68E
  8
0
  6
CONTINUOUS
 62
     7
 10
305.0102134391379
 20
609.3097564155089
 30
0.0
  0
VERTEX
  5
68F
  8
0
  6
CONTINUOUS
 62
     7
 10
305.0287133504061
 20
609.290453342075
 30
0.0
  0
VERTEX
  5
690
  8
0
  6
CONTINUOUS
 62
     7
 10
305.0434395732407
 20
609.2763629314022
 30
0.0
  0
VERTEX
  5
691
  8
0
  6
CONTINUOUS
 62
     7
 10
305.058716069121
 20
609.2628463630487
 30
0.0
  0
VERTEX
  5
692
  8
0
  6
CONTINUOUS
 62
     7
 10
305.0745246997653
 20
609.249959873548
 30
0.0
  0
VERTEX
  5
693
  8
0
  6
CONTINUOUS
 62
     7
 10
305.0908473268913
 20
609.2377596994342
 30
0.0
  0
SEQEND
  5
846
  8
0
  6
CONTINUOUS
 62
     7
  0
LINE
  5
29C
  8
0
  6
CONTINUOUS
 62
     7
 10
305.0908473268913
 20
609.2377596994342
 30
0.0
 11
309.5176463062007
 21
606.0757604284988
 31
0.0
  0
POLYLINE
  5
29D
  8
0
  6
CONTINUOUS
 62
     7
 66
     1
 10
0.0
 20
0.0
 30
0.0
  0
VERTEX
  5
694
  8
0
  6
CONTINUOUS
 62
     7
 10
309.789696832389
 20
605.5156642357681
 30
0.0
  0
VERTEX
  5
695
  8
0
  6
CONTINUOUS
 62
     7
 10
309.7697247347963
 20
605.6543426098416
 30
0.0
  0
VERTEX
  5
696
  8
0
  6
CONTINUOUS
 62
     7
 10
309.7306246688941
 20
605.7846185880305
 30
0.0
  0
VERTEX
  5
697
  8
0
  6
CONTINUOUS
 62
     7
 10
309.6739629411571
 20
605.901273455138
 30
0.0
  0
VERTEX
  5
698
  8
0
  6
CONTINUOUS
 62
     7
 10
309.6020093592944
 20
605.9996341429886
 30
0.0
  0
VERTEX
  5
699
  8
0
  6
CONTINUOUS
 62
     7
 10
309.5176463062007
 20
606.0757604284989
 30
0.0
  0
SEQEND
  5
847
  8
0
  6
CONTINUOUS
 62
     7
  0
LINE
  5
29E
  8
0
  6
CONTINUOUS
 62
     7
 10
309.789696832389
 20
603.1964277900611
 30
0.0
 11
309.789696832389
 21
605.5156642357681
 31
0.0
  0
LINE
  5
29F
  8
0
  6
CONTINUOUS
 62
     7
 10
309.789696832389
 20
598.4730282883198
 30
0.0
 11
309.789696832389
 21
600.7922647340268
 31
0.0
  0
LINE
  5
2A0
  8
0
  6
CONTINUOUS
 62
     7
 10
309.789696832389
 20
600.7922647340268
 30
0.0
 11
309.7898998201905
 21
600.8532399360047
 31
0.0
  0
LINE
  5
2A1
  8
0
  6
CONTINUOUS
 62
     7
 10
309.7922288975338
 20
602.8519247544084
 30
0.0
 11
309.789696832389
 21
603.1964277900611
 31
0.0
  0
LINE
  5
2A2
  8
0
  6
CONTINUOUS
 62
     7
 10
305.1733392435774
 20
728.9602041733838
 30
0.0
 11
305.2052331021503
 21
732.6148783746665
 31
0.0
  0
LINE
  5
2A3
  8
0
  6
CONTINUOUS
 62
     7
 10
305.5508737008074
 20
758.4730282883198
 30
0.0
 11
305.1733392435775
 21
758.4730282883198
 31
0.0
  0
POLYLINE
  5
2A4
  8
0
  6
CONTINUOUS
 62
     7
 66
     1
 10
0.0
 20
0.0
 30
0.0
  0
VERTEX
  5
69A
  8
0
  6
CONTINUOUS
 62
     7
 10
305.2386755069405
 20
726.4896937069802
 30
0.0
  0
VERTEX
  5
69B
  8
0
  6
CONTINUOUS
 62
     7
 10
305.358268905603
 20
726.6247390853491
 30
0.0
  0
VERTEX
  5
69C
  8
0
  6
CONTINUOUS
 62
     7
 10
305.4571835191649
 20
726.7693343123699
 30
0.0
  0
VERTEX
  5
69D
  8
0
  6
CONTINUOUS
 62
     7
 10
305.5310963043685
 20
726.917159882777
 30
0.0
  0
VERTEX
  5
69E
  8
0
  6
CONTINUOUS
 62
     7
 10
305.5767769178274
 20
727.0617551097979
 30
0.0
  0
VERTEX
  5
69F
  8
0
  6
CONTINUOUS
 62
     7
 10
305.5922288975337
 20
727.1968004881668
 30
0.0
  0
SEQEND
  5
848
  8
0
  6
CONTINUOUS
 62
     7
  0
LINE
  5
2A5
  8
0
  6
CONTINUOUS
 62
     7
 10
305.1943102078556
 20
716.2730282883198
 30
0.0
 11
305.1943102078556
 21
726.447112495941
 31
0.0
  0
LINE
  5
2A6
  8
0
  6
CONTINUOUS
 62
     7
 10
371.2936104681764
 20
609.2377596994342
 30
0.0
 11
366.866811488867
 21
606.0757604284988
 31
0.0
  0
POLYLINE
  5
2A7
  8
0
  6
CONTINUOUS
 62
     7
 66
     1
 10
0.0
 20
0.0
 30
0.0
  0
VERTEX
  5
6A0
  8
0
  6
CONTINUOUS
 62
     7
 10
371.5683674923027
 20
609.8752292651745
 30
0.0
  0
VERTEX
  5
6A1
  8
0
  6
CONTINUOUS
 62
     7
 10
371.5677952594251
 20
609.8350468102146
 30
0.0
  0
VERTEX
  5
6A2
  8
0
  6
CONTINUOUS
 62
     7
 10
371.5655940053235
 20
609.7947548169731
 30
0.0
  0
VERTEX
  5
6A3
  8
0
  6
CONTINUOUS
 62
     7
 10
371.5617557036159
 20
609.75458590473
 30
0.0
  0
VERTEX
  5
6A4
  8
0
  6
CONTINUOUS
 62
     7
 10
371.5561773840727
 20
609.7140386126329
 30
0.0
  0
VERTEX
  5
6A5
  8
0
  6
CONTINUOUS
 62
     7
 10
371.5488835621401
 20
609.6737650236961
 30
0.0
  0
VERTEX
  5
6A6
  8
0
  6
CONTINUOUS
 62
     7
 10
371.5397010446606
 20
609.6332499756461
 30
0.0
  0
VERTEX
  5
6A7
  8
0
  6
CONTINUOUS
 62
     7
 10
371.5286949540726
 20
609.5931927347751
 30
0.0
  0
VERTEX
  5
6A8
  8
0
  6
CONTINUOUS
 62
     7
 10
371.515755458289
 20
609.5534886528337
 30
0.0
  0
VERTEX
  5
6A9
  8
0
  6
CONTINUOUS
 62
     7
 10
371.5005670070232
 20
609.513673374214
 30
0.0
  0
VERTEX
  5
6AA
  8
0
  6
CONTINUOUS
 62
     7
 10
371.4833233240897
 20
609.4747061796446
 30
0.0
  0
VERTEX
  5
6AB
  8
0
  6
CONTINUOUS
 62
     7
 10
371.4704967671768
 20
609.4489678954768
 30
0.0
  0
VERTEX
  5
6AC
  8
0
  6
CONTINUOUS
 62
     7
 10
371.4566902298434
 20
609.4237423618636
 30
0.0
  0
VERTEX
  5
6AD
  8
0
  6
CONTINUOUS
 62
     7
 10
371.4416976046352
 20
609.3987923495614
 30
0.0
  0
VERTEX
  5
6AE
  8
0
  6
CONTINUOUS
 62
     7
 10
371.4256630662541
 20
609.3744997508285
 30
0.0
  0
VERTEX
  5
6AF
  8
0
  6
CONTINUOUS
 62
     7
 10
371.4084869702835
 20
609.3508349059803
 30
0.0
  0
VERTEX
  5
6B0
  8
0
  6
CONTINUOUS
 62
     7
 10
371.3918291037019
 20
609.3299175146116
 30
0.0
  0
VERTEX
  5
6B1
  8
0
  6
CONTINUOUS
 62
     7
 10
371.3742443559299
 20
609.3097564155089
 30
0.0
  0
VERTEX
  5
6B2
  8
0
  6
CONTINUOUS
 62
     7
 10
371.3557444446617
 20
609.290453342075
 30
0.0
  0
VERTEX
  5
6B3
  8
0
  6
CONTINUOUS
 62
     7
 10
371.341018221827
 20
609.2763629314022
 30
0.0
  0
VERTEX
  5
6B4
  8
0
  6
CONTINUOUS
 62
     7
 10
371.3257417259466
 20
609.2628463630487
 30
0.0
  0
VERTEX
  5
6B5
  8
0
  6
CONTINUOUS
 62
     7
 10
371.3099330953025
 20
609.249959873548
 30
0.0
  0
VERTEX
  5
6B6
  8
0
  6
CONTINUOUS
 62
     7
 10
371.2936104681764
 20
609.2377596994342
 30
0.0
  0
SEQEND
  5
849
  8
0
  6
CONTINUOUS
 62
     7
  0
LINE
  5
2A8
  8
0
  6
CONTINUOUS
 62
     7
 10
371.5195147445564
 20
618.4230282883178
 30
0.0
 11
371.5683674923027
 21
609.8752292651745
 31
0.0
  0
LINE
  5
2A9
  8
0
  6
CONTINUOUS
 62
     7
 10
371.4692340754166
 20
618.4230282883199
 30
0.0
 11
371.5195147445564
 21
618.4230282883178
 31
0.0
  0
LINE
  5
2AA
  8
0
  6
CONTINUOUS
 62
     7
 10
371.4692340754166
 20
618.4230282883199
 30
0.0
 11
371.4192337251729
 21
618.4727495754104
 31
0.0
  0
LINE
  5
2AB
  8
0
  6
CONTINUOUS
 62
     7
 10
371.4192337251729
 20
618.4727495754104
 30
0.0
 11
371.4692340754166
 21
618.5230282883198
 31
0.0
  0
LINE
  5
2AC
  8
0
  6
CONTINUOUS
 62
     7
 10
371.5189572984696
 20
618.5230282883198
 30
0.0
 11
371.4692340754166
 21
618.5230282883198
 31
0.0
  0
LINE
  5
2AD
  8
0
  6
CONTINUOUS
 62
     7
 10
371.4153279531002
 20
638.4230282883199
 30
0.0
 11
371.5189572984696
 21
618.5230282883198
 31
0.0
  0
LINE
  5
2AE
  8
0
  6
CONTINUOUS
 62
     7
 10
371.365085527087
 20
638.4230282883199
 30
0.0
 11
371.4153279531002
 21
638.4230282883199
 31
0.0
  0
LINE
  5
2AF
  8
0
  6
CONTINUOUS
 62
     7
 10
371.365085527087
 20
638.4230282883199
 30
0.0
 11
371.3150847796275
 21
638.4727878286576
 31
0.0
  0
LINE
  5
2B0
  8
0
  6
CONTINUOUS
 62
     7
 10
371.3150847796275
 20
638.4727878286576
 30
0.0
 11
371.365085527087
 21
638.5230282883199
 31
0.0
  0
LINE
  5
2B1
  8
0
  6
CONTINUOUS
 62
     7
 10
371.414847016519
 20
638.5230282883199
 30
0.0
 11
371.365085527087
 21
638.5230282883199
 31
0.0
  0
LINE
  5
2B2
  8
0
  6
CONTINUOUS
 62
     7
 10
371.2111185514903
 20
716.2730282883198
 30
0.0
 11
371.4146012824098
 21
638.5741577892488
 31
0.0
  0
LINE
  5
2B3
  8
0
  6
CONTINUOUS
 62
     7
 10
371.4146012824098
 20
638.5741577892488
 30
0.0
 11
371.414847016519
 21
638.5230282883199
 31
0.0
  0
LINE
  5
2B4
  8
0
  6
CONTINUOUS
 62
     7
 10
371.2111185514903
 20
716.2730282883198
 30
0.0
 11
371.2111185514903
 21
726.4281614501314
 31
0.0
  0
LINE
  5
2B5
  8
0
  6
CONTINUOUS
 62
     7
 10
371.1457822881272
 20
726.4896937069802
 30
0.0
 11
371.2111185514909
 21
726.4281614501323
 31
0.0
  0
LINE
  5
2B6
  8
0
  6
CONTINUOUS
 62
     7
 10
371.2111185514903
 20
758.4730282883198
 30
0.0
 11
372.0111490141988
 21
758.4730282883198
 31
0.0
  0
LINE
  5
2B7
  8
0
  6
CONTINUOUS
 62
     7
 10
372.0111490141988
 20
758.4730282883198
 30
0.0
 11
374.0112251709704
 21
756.4730282883198
 31
0.0
  0
LINE
  5
2B8
  8
0
  6
CONTINUOUS
 62
     7
 10
374.0112251709704
 20
716.2730282883198
 30
0.0
 11
374.0112251709704
 21
756.4730282883198
 31
0.0
  0
POLYLINE
  5
2B9
  8
0
  6
CONTINUOUS
 62
     7
 66
     1
 10
0.0
 20
0.0
 30
0.0
  0
VERTEX
  5
6B7
  8
0
  6
CONTINUOUS
 62
     7
 10
374.4247582557669
 20
600.4730282883198
 30
0.0
  0
VERTEX
  5
6B8
  8
0
  6
CONTINUOUS
 62
     7
 10
374.3964527623269
 20
605.1487680186623
 30
0.0
  0
VERTEX
  5
6B9
  8
0
  6
CONTINUOUS
 62
     7
 10
374.1198406280122
 20
660.7103951435429
 30
0.0
  0
VERTEX
  5
6BA
  8
0
  6
CONTINUOUS
 62
     7
 10
374.0112251709704
 20
716.2730282883198
 30
0.0
  0
SEQEND
  5
84A
  8
0
  6
CONTINUOUS
 62
     7
  0
LINE
  5
2BA
  8
0
  6
CONTINUOUS
 62
     7
 10
371.6021686424414
 20
604.1786919178027
 30
0.0
 11
371.6220678123074
 21
600.8957687176254
 31
0.0
  0
POLYLINE
  5
2BB
  8
0
  6
CONTINUOUS
 62
     7
 66
     1
 10
0.0
 20
0.0
 30
0.0
  0
VERTEX
  5
6BB
  8
0
  6
CONTINUOUS
 62
     7
 10
371.1023015584282
 20
604.8796300061181
 30
0.0
  0
VERTEX
  5
6BC
  8
0
  6
CONTINUOUS
 62
     7
 10
371.1187332125639
 20
604.8792453622242
 30
0.0
  0
VERTEX
  5
6BD
  8
0
  6
CONTINUOUS
 62
     7
 10
371.1351468890289
 20
604.8780978448166
 30
0.0
  0
VERTEX
  5
6BE
  8
0
  6
CONTINUOUS
 62
     7
 10
371.1514908789847
 20
604.876197075306
 30
0.0
  0
VERTEX
  5
6BF
  8
0
  6
CONTINUOUS
 62
     7
 10
371.167713473593
 20
604.8735526751032
 30
0.0
  0
VERTEX
  5
6C0
  8
0
  6
CONTINUOUS
 62
     7
 10
371.1843574291455
 20
604.8700399610351
 30
0.0
  0
VERTEX
  5
6C1
  8
0
  6
CONTINUOUS
 62
     7
 10
371.2008385115074
 20
604.8657574687804
 30
0.0
  0
VERTEX
  5
6C2
  8
0
  6
CONTINUOUS
 62
     7
 10
371.2171100537034
 20
604.860733219038
 30
0.0
  0
VERTEX
  5
6C3
  8
0
  6
CONTINUOUS
 62
     7
 10
371.233125388758
 20
604.854995232507
 30
0.0
  0
VERTEX
  5
6C4
  8
0
  6
CONTINUOUS
 62
     7
 10
371.2535373978832
 20
604.84649469423
 30
0.0
  0
VERTEX
  5
6C5
  8
0
  6
CONTINUOUS
 62
     7
 10
371.2734985540125
 20
604.8368581361167
 30
0.0
  0
VERTEX
  5
6C6
  8
0
  6
CONTINUOUS
 62
     7
 10
371.2929550565534
 20
604.8261653674448
 30
0.0
  0
VERTEX
  5
6C7
  8
0
  6
CONTINUOUS
 62
     7
 10
371.3118531049131
 20
604.8144961974922
 30
0.0
  0
VERTEX
  5
6C8
  8
0
  6
CONTINUOUS
 62
     7
 10
371.3301388984991
 20
604.8019304355366
 30
0.0
  0
VERTEX
  5
6C9
  8
0
  6
CONTINUOUS
 62
     7
 10
371.3477586367187
 20
604.7885478908557
 30
0.0
  0
VERTEX
  5
6CA
  8
0
  6
CONTINUOUS
 62
     7
 10
371.365494964229
 20
604.7737198681617
 30
0.0
  0
VERTEX
  5
6CB
  8
0
  6
CONTINUOUS
 62
     7
 10
371.3825576783847
 20
604.7580879785473
 30
0.0
  0
VERTEX
  5
6CC
  8
0
  6
CONTINUOUS
 62
     7
 10
371.3989288357446
 20
604.7417284187438
 30
0.0
  0
VERTEX
  5
6CD
  8
0
  6
CONTINUOUS
 62
     7
 10
371.4145904928678
 20
604.7247173854821
 30
0.0
  0
VERTEX
  5
6CE
  8
0
  6
CONTINUOUS
 62
     7
 10
371.4349374993739
 20
604.7004107377553
 30
0.0
  0
VERTEX
  5
6CF
  8
0
  6
CONTINUOUS
 62
     7
 10
371.4540128544912
 20
604.6750653065213
 30
0.0
  0
VERTEX
  5
6D0
  8
0
  6
CONTINUOUS
 62
     7
 10
371.4718114885291
 20
604.6488290631993
 30
0.0
  0
VERTEX
  5
6D1
  8
0
  6
CONTINUOUS
 62
     7
 10
371.4885631332212
 20
604.6214514199489
 30
0.0
  0
VERTEX
  5
6D2
  8
0
  6
CONTINUOUS
 62
     7
 10
371.5040799802296
 20
604.5933202049802
 30
0.0
  0
VERTEX
  5
6D3
  8
0
  6
CONTINUOUS
 62
     7
 10
371.5183737178318
 20
604.5645428895384
 30
0.0
  0
VERTEX
  5
6D4
  8
0
  6
CONTINUOUS
 62
     7
 10
371.5314560343053
 20
604.5352269448692
 30
0.0
  0
VERTEX
  5
6D5
  8
0
  6
CONTINUOUS
 62
     7
 10
371.5474855282834
 20
604.4942502203846
 30
0.0
  0
VERTEX
  5
6D6
  8
0
  6
CONTINUOUS
 62
     7
 10
371.5613772768359
 20
604.4524672410059
 30
0.0
  0
VERTEX
  5
6D7
  8
0
  6
CONTINUOUS
 62
     7
 10
371.5731652880185
 20
604.4100695379266
 30
0.0
  0
VERTEX
  5
6D8
  8
0
  6
CONTINUOUS
 62
     7
 10
371.5834316519097
 20
604.364525216204
 30
0.0
  0
VERTEX
  5
6D9
  8
0
  6
CONTINUOUS
 62
     7
 10
371.5914465680194
 20
604.3184494819462
 30
0.0
  0
VERTEX
  5
6DA
  8
0
  6
CONTINUOUS
 62
     7
 10
371.5972286376258
 20
604.2720081465372
 30
0.0
  0
VERTEX
  5
6DB
  8
0
  6
CONTINUOUS
 62
     7
 10
371.6007964620072
 20
604.2253670213614
 30
0.0
  0
VERTEX
  5
6DC
  8
0
  6
CONTINUOUS
 62
     7
 10
371.6021686424414
 20
604.1786919178027
 30
0.0
  0
SEQEND
  5
84B
  8
0
  6
CONTINUOUS
 62
     7
  0
LINE
  5
2BC
  8
0
  6
CONTINUOUS
 62
     7
 10
367.0922288975339
 20
604.8796300061181
 30
0.0
 11
371.1023015584282
 21
604.8796300061181
 31
0.0
  0
POLYLINE
  5
2BD
  8
0
  6
CONTINUOUS
 62
     7
 66
     1
 10
0.0
 20
0.0
 30
0.0
  0
VERTEX
  5
6DD
  8
0
  6
CONTINUOUS
 62
     7
 10
366.5947609626788
 20
605.515664235768
 30
0.0
  0
VERTEX
  5
6DE
  8
0
  6
CONTINUOUS
 62
     7
 10
366.6161687158911
 20
605.3705576789054
 30
0.0
  0
VERTEX
  5
6DF
  8
0
  6
CONTINUOUS
 62
     7
 10
366.6584969305862
 20
605.2349511115085
 30
0.0
  0
VERTEX
  5
6E0
  8
0
  6
CONTINUOUS
 62
     7
 10
366.719885493654
 20
605.1148037632703
 30
0.0
  0
VERTEX
  5
6E1
  8
0
  6
CONTINUOUS
 62
     7
 10
366.7976366851029
 20
605.0153955086016
 30
0.0
  0
VERTEX
  5
6E2
  8
0
  6
CONTINUOUS
 62
     7
 10
366.8883337293473
 20
604.9410948425858
 30
0.0
  0
VERTEX
  5
6E3
  8
0
  6
CONTINUOUS
 62
     7
 10
366.9879909453873
 20
604.8951669074916
 30
0.0
  0
VERTEX
  5
6E4
  8
0
  6
CONTINUOUS
 62
     7
 10
367.0922288975339
 20
604.8796300061181
 30
0.0
  0
SEQEND
  5
84C
  8
0
  6
CONTINUOUS
 62
     7
  0
POLYLINE
  5
2BE
  8
0
  6
CONTINUOUS
 62
     7
 66
     1
 10
0.0
 20
0.0
 30
0.0
  0
VERTEX
  5
6E5
  8
0
  6
CONTINUOUS
 62
     7
 10
366.866811488867
 20
606.0757604284989
 30
0.0
  0
VERTEX
  5
6E6
  8
0
  6
CONTINUOUS
 62
     7
 10
366.7824484357733
 20
605.9996341429886
 30
0.0
  0
VERTEX
  5
6E7
  8
0
  6
CONTINUOUS
 62
     7
 10
366.7104948539107
 20
605.901273455138
 30
0.0
  0
VERTEX
  5
6E8
  8
0
  6
CONTINUOUS
 62
     7
 10
366.6538331261737
 20
605.7846185880305
 30
0.0
  0
VERTEX
  5
6E9
  8
0
  6
CONTINUOUS
 62
     7
 10
366.6147330602715
 20
605.6543426098416
 30
0.0
  0
VERTEX
  5
6EA
  8
0
  6
CONTINUOUS
 62
     7
 10
366.5947609626787
 20
605.5156642357681
 30
0.0
  0
SEQEND
  5
84D
  8
0
  6
CONTINUOUS
 62
     7
  0
LINE
  5
2BF
  8
0
  6
CONTINUOUS
 62
     7
 10
366.5947609626787
 20
603.1964277900611
 30
0.0
 11
366.5947609626787
 21
605.5156642357681
 31
0.0
  0
LINE
  5
2C0
  8
0
  6
CONTINUOUS
 62
     7
 10
304.9152237196511
 20
618.5230282883198
 30
0.0
 11
305.0124813213822
 21
618.5230282883198
 31
0.0
  0
LINE
  5
2C1
  8
0
  6
CONTINUOUS
 62
     7
 10
305.1255917720048
 20
638.4230282883199
 30
0.0
 11
305.0193722679807
 21
638.4230282883199
 31
0.0
  0
LINE
  5
2C2
  8
0
  6
CONTINUOUS
 62
     7
 10
366.5947609626787
 20
600.7922647340268
 30
0.0
 11
366.5945579748772
 21
600.8532399360047
 31
0.0
  0
LINE
  5
2C3
  8
0
  6
CONTINUOUS
 62
     7
 10
366.5947609626787
 20
598.4730282883198
 30
0.0
 11
366.5947609626787
 21
600.7922647340268
 31
0.0
  0
LINE
  5
2C4
  8
0
  6
CONTINUOUS
 62
     7
 10
366.5922288975339
 20
602.8519247544084
 30
0.0
 11
366.5947609626787
 21
603.1964277900611
 31
0.0
  0
POLYLINE
  5
2C5
  8
0
  6
CONTINUOUS
 62
     7
 66
     1
 10
0.0
 20
0.0
 30
0.0
  0
VERTEX
  5
6EB
  8
0
  6
CONTINUOUS
 62
     7
 10
305.0124813213822
 20
618.4230282883199
 30
0.0
  0
VERTEX
  5
6EC
  8
0
  6
CONTINUOUS
 62
     7
 10
305.0221987880088
 20
618.4239817077666
 30
0.0
  0
VERTEX
  5
6ED
  8
0
  6
CONTINUOUS
 62
     7
 10
305.0315456617691
 20
618.4268056057616
 30
0.0
  0
VERTEX
  5
6EE
  8
0
  6
CONTINUOUS
 62
     7
 10
305.0401654830149
 20
618.431392287934
 30
0.0
  0
VERTEX
  5
6EF
  8
0
  6
CONTINUOUS
 62
     7
 10
305.0477295195378
 20
618.4375668330048
 30
0.0
  0
VERTEX
  5
6F0
  8
0
  6
CONTINUOUS
 62
     7
 10
305.0539493033571
 20
618.44509376372
 30
0.0
  0
VERTEX
  5
6F1
  8
0
  6
CONTINUOUS
 62
     7
 10
305.058587631959
 20
618.453686027195
 30
0.0
  0
VERTEX
  5
6F2
  8
0
  6
CONTINUOUS
 62
     7
 10
305.0614676144357
 20
618.463015942186
 30
0.0
  0
VERTEX
  5
6F3
  8
0
  6
CONTINUOUS
 62
     7
 10
305.0624794175354
 20
618.4727276957975
 30
0.0
  0
SEQEND
  5
84E
  8
0
  6
CONTINUOUS
 62
     7
  0
LINE
  5
2C6
  8
0
  6
CONTINUOUS
 62
     7
 10
305.0124813213822
 20
618.4230282883199
 30
0.0
 11
304.9152237196511
 21
618.4230282883199
 31
0.0
  0
POLYLINE
  5
2C7
  8
0
  6
CONTINUOUS
 62
     7
 66
     1
 10
0.0
 20
0.0
 30
0.0
  0
VERTEX
  5
6F4
  8
0
  6
CONTINUOUS
 62
     7
 10
305.175589868158
 20
638.4727651412802
 30
0.0
  0
VERTEX
  5
6F5
  8
0
  6
CONTINUOUS
 62
     7
 10
305.1746742471556
 20
638.4825568713449
 30
0.0
  0
VERTEX
  5
6F6
  8
0
  6
CONTINUOUS
 62
     7
 10
305.1718597944239
 20
638.4919799733864
 30
0.0
  0
VERTEX
  5
6F7
  8
0
  6
CONTINUOUS
 62
     7
 10
305.1672553914351
 20
638.5006699000772
 30
0.0
  0
VERTEX
  5
6F8
  8
0
  6
CONTINUOUS
 62
     7
 10
305.161039166665
 20
638.5082904681165
 30
0.0
  0
VERTEX
  5
6F9
  8
0
  6
CONTINUOUS
 62
     7
 10
305.1534516044166
 20
638.5145468640019
 30
0.0
  0
VERTEX
  5
6FA
  8
0
  6
CONTINUOUS
 62
     7
 10
305.1447862413117
 20
638.5191970493485
 30
0.0
  0
VERTEX
  5
6FB
  8
0
  6
CONTINUOUS
 62
     7
 10
305.1353783103712
 20
638.5220611245188
 30
0.0
  0
VERTEX
  5
6FC
  8
0
  6
CONTINUOUS
 62
     7
 10
305.1255917720048
 20
638.5230282883198
 30
0.0
  0
SEQEND
  5
84F
  8
0
  6
CONTINUOUS
 62
     7
  0
LINE
  5
2C8
  8
0
  6
CONTINUOUS
 62
     7
 10
305.0193722679807
 20
638.5230282883199
 30
0.0
 11
305.1255917720048
 21
638.5230282883199
 31
0.0
  0
LINE
  5
2C9
  8
0
  6
CONTINUOUS
 62
     7
 10
305.3478765993926
 20
618.4730282883198
 30
0.0
 11
305.2661886453308
 21
609.1125159005488
 31
0.0
  0
LINE
  5
2CA
  8
0
  6
CONTINUOUS
 62
     7
 10
305.0753266572336
 20
638.4230282883199
 30
0.0
 11
305.0754112026783
 21
638.3730282883199
 31
0.0
  0
LINE
  5
2CB
  8
0
  6
CONTINUOUS
 62
     7
 10
305.0754112026783
 20
638.3730282883199
 30
0.0
 11
304.9633968605289
 21
618.5730282883198
 31
0.0
  0
LINE
  5
2CC
  8
0
  6
CONTINUOUS
 62
     7
 10
304.9633968605289
 20
618.5730282883198
 30
0.0
 11
304.9627799810494
 21
618.5230282883198
 31
0.0
  0
LINE
  5
2CD
  8
0
  6
CONTINUOUS
 62
     7
 10
371.1901475872122
 20
716.2730282883198
 30
0.0
 11
371.1901475872122
 21
726.447112495941
 31
0.0
  0
LINE
  5
2CE
  8
0
  6
CONTINUOUS
 62
     7
 10
370.8335840942603
 20
758.4730282883198
 30
0.0
 11
371.2111185514903
 21
758.4730282883198
 31
0.0
  0
LINE
  5
2CF
  8
0
  6
CONTINUOUS
 62
     7
 10
371.0365811956751
 20
618.4730282883198
 30
0.0
 11
371.1182691497369
 21
609.1125159005488
 31
0.0
  0
LINE
  5
2D0
  8
0
  6
CONTINUOUS
 62
     7
 10
371.258866023063
 20
638.4230282883199
 30
0.0
 11
371.365085527087
 21
638.4230282883199
 31
0.0
  0
LINE
  5
2D1
  8
0
  6
CONTINUOUS
 62
     7
 10
371.4210609345388
 20
618.5730282883198
 30
0.0
 11
371.4216778140184
 21
618.5230282883198
 31
0.0
  0
LINE
  5
2D2
  8
0
  6
CONTINUOUS
 62
     7
 10
371.3090465923894
 20
638.3730282883199
 30
0.0
 11
371.4210609345388
 21
618.5730282883198
 31
0.0
  0
LINE
  5
2D3
  8
0
  6
CONTINUOUS
 62
     7
 10
371.3091311378341
 20
638.4230282883199
 30
0.0
 11
371.3090465923894
 21
638.3730282883199
 31
0.0
  0
POLYLINE
  5
2D4
  8
0
  6
CONTINUOUS
 62
     7
 66
     1
 10
0.0
 20
0.0
 30
0.0
  0
VERTEX
  5
6FD
  8
0
  6
CONTINUOUS
 62
     7
 10
371.3219783775323
 20
618.4727276957975
 30
0.0
  0
VERTEX
  5
6FE
  8
0
  6
CONTINUOUS
 62
     7
 10
371.322990180632
 20
618.463015942186
 30
0.0
  0
VERTEX
  5
6FF
  8
0
  6
CONTINUOUS
 62
     7
 10
371.3258701631087
 20
618.453686027195
 30
0.0
  0
VERTEX
  5
700
  8
0
  6
CONTINUOUS
 62
     7
 10
371.3305084917106
 20
618.44509376372
 30
0.0
  0
VERTEX
  5
701
  8
0
  6
CONTINUOUS
 62
     7
 10
371.3367282755299
 20
618.4375668330048
 30
0.0
  0
VERTEX
  5
702
  8
0
  6
CONTINUOUS
 62
     7
 10
371.3442923120528
 20
618.431392287934
 30
0.0
  0
VERTEX
  5
703
  8
0
  6
CONTINUOUS
 62
     7
 10
371.3529121332985
 20
618.4268056057616
 30
0.0
  0
VERTEX
  5
704
  8
0
  6
CONTINUOUS
 62
     7
 10
371.3622590070589
 20
618.4239817077666
 30
0.0
  0
VERTEX
  5
705
  8
0
  6
CONTINUOUS
 62
     7
 10
371.3719764736855
 20
618.4230282883199
 30
0.0
  0
SEQEND
  5
850
  8
0
  6
CONTINUOUS
 62
     7
  0
LINE
  5
2D5
  8
0
  6
CONTINUOUS
 62
     7
 10
371.3719764736855
 20
618.4230282883199
 30
0.0
 11
371.4692340754166
 21
618.4230282883199
 31
0.0
  0
POLYLINE
  5
2D6
  8
0
  6
CONTINUOUS
 62
     7
 66
     1
 10
0.0
 20
0.0
 30
0.0
  0
VERTEX
  5
706
  8
0
  6
CONTINUOUS
 62
     7
 10
371.258866023063
 20
638.5230282883198
 30
0.0
  0
VERTEX
  5
707
  8
0
  6
CONTINUOUS
 62
     7
 10
371.2490794846966
 20
638.5220611245188
 30
0.0
  0
VERTEX
  5
708
  8
0
  6
CONTINUOUS
 62
     7
 10
371.239671553756
 20
638.5191970493485
 30
0.0
  0
VERTEX
  5
709
  8
0
  6
CONTINUOUS
 62
     7
 10
371.2310061906512
 20
638.5145468640019
 30
0.0
  0
VERTEX
  5
70A
  8
0
  6
CONTINUOUS
 62
     7
 10
371.2234186284028
 20
638.5082904681165
 30
0.0
  0
VERTEX
  5
70B
  8
0
  6
CONTINUOUS
 62
     7
 10
371.2172024036327
 20
638.5006699000772
 30
0.0
  0
VERTEX
  5
70C
  8
0
  6
CONTINUOUS
 62
     7
 10
371.2125980006438
 20
638.4919799733864
 30
0.0
  0
VERTEX
  5
70D
  8
0
  6
CONTINUOUS
 62
     7
 10
371.2097835479122
 20
638.4825568713449
 30
0.0
  0
VERTEX
  5
70E
  8
0
  6
CONTINUOUS
 62
     7
 10
371.2088679269098
 20
638.4727651412802
 30
0.0
  0
SEQEND
  5
851
  8
0
  6
CONTINUOUS
 62
     7
  0
LINE
  5
2D7
  8
0
  6
CONTINUOUS
 62
     7
 10
371.365085527087
 20
638.5230282883199
 30
0.0
 11
371.258866023063
 21
638.5230282883199
 31
0.0
  0
LINE
  5
2D8
  8
0
  6
CONTINUOUS
 62
     7
 10
371.4692340754166
 20
618.5230282883198
 30
0.0
 11
371.3719764736855
 21
618.5230282883198
 31
0.0
  0
LINE
  5
2D9
  8
0
  6
CONTINUOUS
 62
     7
 10
304.7623899827603
 20
598.4730282883198
 30
0.0
 11
304.762504720163
 21
598.4915495713749
 31
0.0
  0
LINE
  5
2DA
  8
0
  6
CONTINUOUS
 62
     7
 10
304.6806124434066
 20
598.4730282883198
 30
0.0
 11
304.7623899827603
 21
598.4730282883198
 31
0.0
  0
LINE
  5
2DB
  8
0
  6
CONTINUOUS
 62
     7
 10
371.7038453516611
 20
598.4730282883198
 30
0.0
 11
371.6220678123074
 21
598.4730282883198
 31
0.0
  0
LINE
  5
2DC
  8
0
  6
CONTINUOUS
 62
     7
 10
371.6220678123074
 20
598.4730282883198
 30
0.0
 11
371.6219530749048
 21
598.4915495713749
 31
0.0
  0
LINE
  5
2DD
  8
0
  6
CONTINUOUS
 62
     7
 10
307.4922288975338
 20
731.1647132327048
 30
0.0
 11
307.4922288975338
 21
729.6574606599464
 31
0.0
  0
LINE
  5
2DE
  8
0
  6
CONTINUOUS
 62
     7
 10
368.8922288975339
 20
731.1647132327048
 30
0.0
 11
368.8922288975339
 21
729.6574606599464
 31
0.0
  0
LINE
  5
2DF
  8
0
  6
CONTINUOUS
 62
     7
 10
307.4922288975338
 20
729.6574606599464
 30
0.0
 11
307.4922288975338
 21
728.311023844691
 31
0.0
  0
LINE
  5
2E0
  8
0
  6
CONTINUOUS
 62
     7
 10
368.8922288975339
 20
729.6574606599464
 30
0.0
 11
368.8922288975339
 21
728.311023844691
 31
0.0
  0
LINE
  5
2E1
  8
0
  6
CONTINUOUS
 62
     7
 10
309.7922288975338
 20
602.8519247544084
 30
0.0
 11
309.7922288975338
 21
601.8981677056897
 31
0.0
  0
LINE
  5
2E2
  8
0
  6
CONTINUOUS
 62
     7
 10
366.5922288975339
 20
602.8519247544084
 30
0.0
 11
366.5922288975339
 21
601.8981677056897
 31
0.0
  0
LINE
  5
2E3
  8
0
  6
CONTINUOUS
 62
     7
 10
307.4922288975338
 20
727.33206802374
 30
0.0
 11
307.4922288975338
 21
728.311023844691
 31
0.0
  0
LINE
  5
2E4
  8
0
  6
CONTINUOUS
 62
     7
 10
368.8922288975339
 20
727.33206802374
 30
0.0
 11
368.8922288975339
 21
728.311023844691
 31
0.0
  0
LINE
  5
2E5
  8
0
  6
CONTINUOUS
 62
     7
 10
309.7922288975338
 20
600.8999632268574
 30
0.0
 11
309.7922288975338
 21
601.8981677056897
 31
0.0
  0
LINE
  5
2E6
  8
0
  6
CONTINUOUS
 62
     7
 10
366.5922288975339
 20
600.8999632268574
 30
0.0
 11
366.5922288975339
 21
601.8981677056897
 31
0.0
  0
LINE
  5
2E7
  8
0
  6
CONTINUOUS
 62
     7
 10
304.762504720163
 20
598.4915495713749
 30
0.0
 11
304.762753637519
 21
598.5117195292604
 31
0.0
  0
LINE
  5
2E8
  8
0
  6
CONTINUOUS
 62
     7
 10
371.6219530749048
 20
598.4915495713749
 30
0.0
 11
371.621683108601
 21
598.5134251411143
 31
0.0
  0
LINE
  5
2E9
  8
0
  6
CONTINUOUS
 62
     7
 10
306.9922288975338
 20
708.4730282883199
 30
0.0
 11
305.1986736417509
 21
708.4730282883199
 31
0.0
  0
ARC
  5
2EA
  8
0
  6
CONTINUOUS
 62
     7
 10
306.9922288975338
 20
708.9730282883198
 30
0.0
 40
0.5000000000000004
 50
270.0
 51
0.0
  0
LINE
  5
2EB
  8
0
  6
CONTINUOUS
 62
     7
 10
307.4922288975338
 20
727.33206802374
 30
0.0
 11
307.4922288975338
 21
708.9730282883198
 31
0.0
  0
LINE
  5
2EC
  8
0
  6
CONTINUOUS
 62
     7
 10
369.3922288975339
 20
708.4730282883199
 30
0.0
 11
371.1857841533168
 21
708.4730282883199
 31
0.0
  0
LINE
  5
2ED
  8
0
  6
CONTINUOUS
 62
     7
 10
368.8922288975339
 20
727.33206802374
 30
0.0
 11
368.8922288975339
 21
708.9730282883198
 31
0.0
  0
ARC
  5
2EE
  8
0
  6
CONTINUOUS
 62
     7
 10
369.3922288975339
 20
708.9730282883198
 30
0.0
 40
0.5000000000000004
 50
180.0
 51
270.0
  0
LINE
  5
2EF
  8
0
  6
CONTINUOUS
 62
     7
 10
304.8821817247909
 20
598.4730282883198
 30
0.0
 11
305.2821562366395
 21
598.4730282883198
 31
0.0
  0
LINE
  5
2F0
  8
0
  6
CONTINUOUS
 62
     7
 10
371.5022657158465
 20
598.4730282883198
 30
0.0
 11
371.1023015584282
 21
598.4730282883198
 31
0.0
  0
LINE
  5
2F1
  8
0
  6
CONTINUOUS
 62
     7
 10
309.2922288975338
 20
598.4730282883198
 30
0.0
 11
305.2821562366395
 21
598.4730282883198
 31
0.0
  0
LINE
  5
2F2
  8
0
  6
CONTINUOUS
 62
     7
 10
309.2922288975338
 20
598.4730282883198
 30
0.0
 11
309.789696832389
 21
598.4730282883198
 31
0.0
  0
LINE
  5
2F3
  8
0
  6
CONTINUOUS
 62
     7
 10
367.0922288975339
 20
598.4730282883198
 30
0.0
 11
371.1023015584282
 21
598.4730282883198
 31
0.0
  0
LINE
  5
2F4
  8
0
  6
CONTINUOUS
 62
     7
 10
367.0922288975339
 20
598.4730282883198
 30
0.0
 11
366.5947609626787
 21
598.4730282883198
 31
0.0
  0
LINE
  5
2F5
  8
0
  6
CONTINUOUS
 62
     7
 10
305.175759004938
 20
638.3727647634529
 30
0.0
 11
305.1755898681579
 21
638.4727651412802
 31
0.0
  0
LINE
  5
2F6
  8
0
  6
CONTINUOUS
 62
     7
 10
371.2086987901297
 20
638.3727647634529
 30
0.0
 11
371.2088679269098
 21
638.4727651412802
 31
0.0
  0
LINE
  5
2F7
  8
0
  6
CONTINUOUS
 62
     7
 10
305.0624794175354
 20
618.4727276957975
 30
0.0
 11
305.0626683161819
 21
618.4762953763124
 31
0.0
  0
LINE
  5
2F8
  8
0
  6
CONTINUOUS
 62
     7
 10
305.0626683161819
 20
618.4762953763124
 30
0.0
 11
305.0637131843459
 21
618.572727703809
 31
0.0
  0
LINE
  5
2F9
  8
0
  6
CONTINUOUS
 62
     7
 10
371.3219783775323
 20
618.4727276957975
 30
0.0
 11
371.3217236628034
 21
618.4788493374301
 31
0.0
  0
LINE
  5
2FA
  8
0
  6
CONTINUOUS
 62
     7
 10
371.3217236628034
 20
618.4788493374301
 30
0.0
 11
371.3207446107218
 21
618.572727703809
 31
0.0
  0
LINE
  5
2FB
  8
0
  6
CONTINUOUS
 62
     7
 10
305.0637131843459
 20
618.572727703809
 30
0.0
 11
305.1757590049379
 21
638.3727647634529
 31
0.0
  0
LINE
  5
2FC
  8
0
  6
CONTINUOUS
 62
     7
 10
371.3207446107218
 20
618.572727703809
 30
0.0
 11
371.2086987901297
 21
638.3727647634529
 31
0.0
  0
LINE
  5
2FD
  8
0
  6
CONTINUOUS
 62
     7
 10
305.5508737008073
 20
758.4730282883198
 30
0.0
 11
308.8603423671919
 21
758.4730282883198
 31
0.0
  0
LINE
  5
2FE
  8
0
  6
CONTINUOUS
 62
     7
 10
370.8335840942604
 20
758.4730282883198
 30
0.0
 11
367.5241154278758
 21
758.4730282883198
 31
0.0
  0
LINE
  5
2FF
  8
0
  6
CONTINUOUS
 62
     7
 10
321.1922288975339
 20
733.4730282883197
 30
0.0
 11
321.1922288975339
 21
758.4730282883198
 31
0.0
  0
LINE
  5
300
  8
0
  6
CONTINUOUS
 62
     7
 10
321.1922288975339
 20
758.4730282883198
 30
0.0
 11
308.8603423671919
 21
758.4730282883198
 31
0.0
  0
LINE
  5
301
  8
0
  6
CONTINUOUS
 62
     7
 10
355.1922288975338
 20
733.4730282883197
 30
0.0
 11
355.1922288975338
 21
758.4730282883198
 31
0.0
  0
LINE
  5
302
  8
0
  6
CONTINUOUS
 62
     7
 10
355.1922288975338
 20
758.4730282883198
 30
0.0
 11
367.5241154278758
 21
758.4730282883198
 31
0.0
  0
LINE
  5
303
  8
0
  6
CONTINUOUS
 62
     7
 10
355.1922288975341
 20
758.4730282883198
 30
0.0
 11
321.1922288975339
 21
758.4730282883198
 31
0.0
  0
LINE
  5
304
  8
0
  6
CONTINUOUS
 62
     7
 10
305.2386755069406
 20
726.4896937069801
 30
0.0
 11
306.4346032142938
 21
727.6856214143334
 31
0.0
  0
LINE
  5
305
  8
0
  6
CONTINUOUS
 62
     7
 10
369.9498545807739
 20
727.6856214143334
 30
0.0
 11
371.1457822881272
 21
726.4896937069801
 31
0.0
  0
LINE
  5
306
  8
0
  6
CONTINUOUS
 62
     7
 10
306.4346032142938
 20
727.6856214143334
 30
0.0
 11
306.7881462061329
 21
727.832068023713
 31
0.0
  0
LINE
  5
307
  8
0
  6
CONTINUOUS
 62
     7
 10
369.5963115889348
 20
727.832068023713
 30
0.0
 11
369.9498545807739
 21
727.6856214143334
 31
0.0
  0
POLYLINE
  5
308
  8
0
  6
CONTINUOUS
 62
     7
 66
     1
 10
0.0
 20
0.0
 30
0.0
  0
VERTEX
  5
70F
  8
0
  6
CONTINUOUS
 62
     7
 10
304.7632453682457
 20
598.5111770276818
 30
0.0
  0
VERTEX
  5
710
  8
0
  6
CONTINUOUS
 62
     7
 10
304.8068884780154
 20
598.60591879371
 30
0.0
  0
VERTEX
  5
711
  8
0
  6
CONTINUOUS
 62
     7
 10
304.8668763837662
 20
598.6909221695319
 30
0.0
  0
VERTEX
  5
712
  8
0
  6
CONTINUOUS
 62
     7
 10
304.9367593604891
 20
598.7676772852035
 30
0.0
  0
SEQEND
  5
852
  8
0
  6
CONTINUOUS
 62
     7
  0
ARC
  5
309
  8
0
  6
CONTINUOUS
 62
     7
 10
305.8472946172644
 20
597.8315511735293
 30
0.0
 40
1.305912152784042
 50
108.7695557626543
 51
134.2060514420508
  0
ARC
  5
30A
  8
0
  6
CONTINUOUS
 62
     7
 10
370.549921755229
 20
597.8576969047497
 30
0.0
 40
1.277056874275751
 50
40.84264024330991
 51
71.39498241514337
  0
POLYLINE
  5
30B
  8
0
  6
CONTINUOUS
 62
     7
 66
     1
 10
0.0
 20
0.0
 30
0.0
  0
VERTEX
  5
713
  8
0
  6
CONTINUOUS
 62
     7
 10
371.5160262150252
 20
598.6928713972342
 30
0.0
  0
VERTEX
  5
714
  8
0
  6
CONTINUOUS
 62
     7
 10
371.5775758067293
 20
598.6065664982141
 30
0.0
  0
VERTEX
  5
715
  8
0
  6
CONTINUOUS
 62
     7
 10
371.6201529145729
 20
598.5154143520426
 30
0.0
  0
VERTEX
  5
716
  8
0
  6
CONTINUOUS
 62
     7
 10
371.6212124268221
 20
598.5111770276818
 30
0.0
  0
SEQEND
  5
853
  8
0
  6
CONTINUOUS
 62
     7
  0
LINE
  5
30C
  8
0
  6
CONTINUOUS
 62
     7
 10
305.4270562274641
 20
599.0680002576829
 30
0.0
 11
309.2271297570798
 21
600.3541935770617
 31
0.0
  0
LINE
  5
30D
  8
0
  6
CONTINUOUS
 62
     7
 10
367.157328037988
 20
600.3541935770617
 30
0.0
 11
370.9574015676036
 21
599.0680002576829
 31
0.0
  0
LINE
  5
30E
  8
0
  6
CONTINUOUS
 62
     7
 10
309.2271743976625
 20
600.35420871152
 30
0.0
 11
309.4366568357602
 21
600.4212769306172
 31
0.0
  0
LINE
  5
30F
  8
0
  6
CONTINUOUS
 62
     7
 10
366.9478009593075
 20
600.4212769306172
 30
0.0
 11
367.1572833974052
 21
600.35420871152
 31
0.0
  0
ARC
  5
310
  8
0
  6
CONTINUOUS
 62
     7
 10
309.2922288975338
 20
600.8999632268574
 30
0.0
 40
0.5000000000000973
 50
286.7903461738115
 51
359.9999999999998
  0
ARC
  5
311
  8
0
  6
CONTINUOUS
 62
     7
 10
367.0922288975339
 20
600.8999632268574
 30
0.0
 40
0.5000000000000004
 50
180.0000000000002
 51
253.2096538261885
  0
LINE
  5
312
  8
0
  6
CONTINUOUS
 62
     7
 10
307.2422288975339
 20
731.597725934597
 30
0.0
 11
305.4638605558097
 21
732.6244673754096
 31
0.0
  0
ARC
  5
313
  8
0
  6
CONTINUOUS
 62
     7
 10
306.9922288975338
 20
731.1647132327048
 30
0.0
 40
0.5000000000000004
 50
0.0
 51
60.00000000000823
  0
LINE
  5
314
  8
0
  6
CONTINUOUS
 62
     7
 10
370.920597239258
 20
732.6244673754096
 30
0.0
 11
369.1422288975338
 21
731.597725934597
 31
0.0
  0
ARC
  5
315
  8
0
  6
CONTINUOUS
 62
     7
 10
369.3922288975339
 20
731.1647132327048
 30
0.0
 40
0.4999999999999603
 50
119.9999999999918
 51
180.0
  0
LINE
  5
316
  8
0
  6
CONTINUOUS
 62
     7
 10
305.4638632070346
 20
732.6244658446643
 30
0.0
 11
305.2220745345987
 21
732.9490081301781
 31
0.0
  0
LINE
  5
317
  8
0
  6
CONTINUOUS
 62
     7
 10
371.162383260469
 20
732.9490081301781
 30
0.0
 11
370.9205945880331
 21
732.6244658446643
 31
0.0
  0
ENDBLK
  8
0
  0
BLOCK
  8
0
  2
D_FRAME_VIEW_2048
 70
     0
 10
0.0
 20
0.0
 30
0.0
  0
ARC
  5
31C
  8
0
  6
CONTINUOUS
 62
     7
 10
147.1977683857644
 20
598.3730282883198
 30
0.0
 40
0.1000000000000029
 50
180.0
 51
270.0
  0
LINE
  5
31D
  8
0
  6
CONTINUOUS
 62
     7
 10
181.1977683857644
 20
598.2730282883199
 30
0.0
 11
181.0477683857644
 21
598.2730282883199
 31
0.0
  0
LINE
  5
31E
  8
0
  6
CONTINUOUS
 62
     7
 10
147.3477683857644
 20
598.2730282883199
 30
0.0
 11
181.0477683857644
 21
598.2730282883199
 31
0.0
  0
LINE
  5
31F
  8
0
  6
CONTINUOUS
 62
     7
 10
147.3477683857644
 20
598.2730282883199
 30
0.0
 11
147.1977683857644
 21
598.2730282883199
 31
0.0
  0
ARC
  5
320
  8
0
  6
CONTINUOUS
 62
     7
 10
181.1977683857644
 20
598.3730282883198
 30
0.0
 40
0.099999999999989
 50
270.0
 51
0.0
  0
LINE
  5
321
  8
0
  6
CONTINUOUS
 62
     7
 10
181.2977683857644
 20
598.4730282883198
 30
0.0
 11
181.2977683857644
 21
598.3730282883198
 31
0.0
  0
LINE
  5
322
  8
0
  6
CONTINUOUS
 62
     7
 10
147.0977683857644
 20
598.3730282883198
 30
0.0
 11
147.0977683857644
 21
598.4730282883198
 31
0.0
  0
ARC
  5
323
  8
0
  6
CONTINUOUS
 62
     7
 10
257.2977683857644
 20
708.4730282883198
 30
0.0
 40
0.099999999999989
 50
0.0
 51
90.0
  0
LINE
  5
324
  8
0
  6
CONTINUOUS
 62
     7
 10
257.1977683857643
 20
674.3730282883198
 30
0.0
 11
257.2977683857644
 21
674.3730282883198
 31
0.0
  0
ARC
  5
325
  8
0
  6
CONTINUOUS
 62
     7
 10
257.2977683857644
 20
674.4730282883198
 30
0.0
 40
0.1000000000000167
 50
270.0
 51
0.0
  0
LINE
  5
326
  8
0
  6
CONTINUOUS
 62
     7
 10
257.3977683857644
 20
708.3230282883198
 30
0.0
 11
257.3977683857644
 21
708.4730282883198
 31
0.0
  0
LINE
  5
327
  8
0
  6
CONTINUOUS
 62
     7
 10
257.3977683857644
 20
708.3230282883198
 30
0.0
 11
257.3977683857644
 21
674.6230282883199
 31
0.0
  0
LINE
  5
328
  8
0
  6
CONTINUOUS
 62
     7
 10
257.3977683857644
 20
674.4730282883198
 30
0.0
 11
257.3977683857644
 21
674.6230282883199
 31
0.0
  0
LINE
  5
329
  8
0
  6
CONTINUOUS
 62
     7
 10
257.2977683857644
 20
708.5730282883198
 30
0.0
 11
257.1977683857643
 21
708.5730282883198
 31
0.0
  0
LINE
  5
32A
  8
0
  6
CONTINUOUS
 62
     7
 10
257.1977683857643
 20
600.4730282883198
 30
0.0
 11
255.1977683857644
 21
598.4730282883198
 31
0.0
  0
LINE
  5
32B
  8
0
  6
CONTINUOUS
 62
     7
 10
257.1977683857643
 20
600.4730282883198
 30
0.0
 11
257.1977683857643
 21
716.2730282883198
 31
0.0
  0
LINE
  5
32C
  8
0
  6
CONTINUOUS
 62
     7
 10
255.1977683857644
 20
598.4730282883198
 30
0.0
 11
139.3977683857644
 21
598.4730282883198
 31
0.0
  0
LINE
  5
32D
  8
0
  6
CONTINUOUS
 62
     7
 10
97.19776838576438
 20
641.9386248550222
 30
0.0
 11
97.19776838576438
 21
598.4730282883198
 31
0.0
  0
LINE
  5
32E
  8
0
  6
CONTINUOUS
 62
     7
 10
99.19776838576438
 20
598.4730282883198
 30
0.0
 11
99.19776838576438
 21
641.9560779260189
 31
0.0
  0
LINE
  5
32F
  8
0
  6
CONTINUOUS
 62
     7
 10
97.19776838576438
 20
598.4730282883198
 30
0.0
 11
99.19776838576438
 21
598.4730282883198
 31
0.0
  0
LINE
  5
330
  8
0
  6
CONTINUOUS
 62
     7
 10
139.3977683857644
 20
598.4730282883198
 30
0.0
 11
99.19776838576438
 21
598.4730282883198
 31
0.0
  0
LINE
  5
331
  8
0
  6
CONTINUOUS
 62
     7
 10
257.1977683857643
 20
756.4730282883198
 30
0.0
 11
213.7147187480652
 21
756.4730282883198
 31
0.0
  0
LINE
  5
332
  8
0
  6
CONTINUOUS
 62
     7
 10
213.732171819062
 20
758.4730282883198
 30
0.0
 11
257.1977683857643
 21
758.4730282883198
 31
0.0
  0
LINE
  5
333
  8
0
  6
CONTINUOUS
 62
     7
 10
257.1977683857643
 20
758.4730282883198
 30
0.0
 11
257.1977683857643
 21
756.4730282883198
 31
0.0
  0
LINE
  5
334
  8
0
  6
CONTINUOUS
 62
     7
 10
257.1977683857643
 20
716.2730282883198
 30
0.0
 11
257.1977683857643
 21
756.4730282883198
 31
0.0
  0
LINE
  5
335
  8
0
  6
CONTINUOUS
 62
     7
 10
99.19776838576438
 20
641.9560779260189
 30
0.0
 11
99.19776838576438
 21
651.6928328357906
 31
0.0
  0
LINE
  5
336
  8
0
  6
CONTINUOUS
 62
     7
 10
97.19776838576438
 20
650.3135958613293
 30
0.0
 11
97.19776838576438
 21
641.9386248550222
 31
0.0
  0
LINE
  5
337
  8
0
  6
CONTINUOUS
 62
     7
 10
213.7147187480652
 20
756.4730282883198
 30
0.0
 11
203.9779638382936
 21
756.4730282883198
 31
0.0
  0
LINE
  5
338
  8
0
  6
CONTINUOUS
 62
     7
 10
205.3572008127549
 20
758.4730282883198
 30
0.0
 11
213.732171819062
 21
758.4730282883198
 31
0.0
  0
LINE
  5
339
  8
0
  6
CONTINUOUS
 62
     7
 10
99.19776838576438
 20
651.6928328357906
 30
0.0
 11
99.19776838576435
 21
665.5660554052167
 31
0.0
  0
LINE
  5
33A
  8
0
  6
CONTINUOUS
 62
     7
 10
139.3977683857644
 20
665.5660554052167
 30
0.0
 11
99.19776838576435
 21
665.5660554052167
 31
0.0
  0
LINE
  5
33B
  8
0
  6
CONTINUOUS
 62
     7
 10
97.19776838576438
 20
663.6299103792511
 30
0.0
 11
99.19776838576435
 21
665.5660554052167
 31
0.0
  0
LINE
  5
33C
  8
0
  6
CONTINUOUS
 62
     7
 10
97.19776838576438
 20
663.6299103792511
 30
0.0
 11
97.19776838576438
 21
650.3135958613293
 31
0.0
  0
ARC
  5
33D
  8
0
  6
CONTINUOUS
 62
     7
 10
139.3977683857644
 20
716.2730282883198
 30
0.0
 40
50.70697288310315
 50
270.0
 51
0.0000000000000568
  0
LINE
  5
33E
  8
0
  6
CONTINUOUS
 62
     7
 10
203.9779638382936
 20
756.4730282883198
 30
0.0
 11
190.1047412688675
 21
756.4730282883198
 31
0.0
  0
LINE
  5
33F
  8
0
  6
CONTINUOUS
 62
     7
 10
192.040886294833
 20
758.4730282883198
 30
0.0
 11
190.1047412688675
 21
756.4730282883198
 31
0.0
  0
LINE
  5
340
  8
0
  6
CONTINUOUS
 62
     7
 10
192.040886294833
 20
758.4730282883198
 30
0.0
 11
205.3572008127549
 21
758.4730282883198
 31
0.0
  0
LINE
  5
341
  8
0
  6
CONTINUOUS
 62
     7
 10
190.1047412688675
 20
716.2730282883198
 30
0.0
 11
190.1047412688675
 21
756.4730282883198
 31
0.0
  0
LINE
  5
342
  8
0
  6
CONTINUOUS
 62
     7
 10
99.19776838576435
 20
666.2730282883198
 30
0.0
 11
99.19776838576435
 21
665.5660554052167
 31
0.0
  0
LINE
  5
343
  8
0
  6
CONTINUOUS
 62
     7
 10
97.19776838576438
 20
663.6299103792511
 30
0.0
 11
97.19776838576438
 21
664.2730282883198
 31
0.0
  0
LINE
  5
344
  8
0
  6
CONTINUOUS
 62
     7
 10
189.3977683857643
 20
756.4730282883198
 30
0.0
 11
190.1047412688675
 21
756.4730282883198
 31
0.0
  0
LINE
  5
345
  8
0
  6
CONTINUOUS
 62
     7
 10
192.0408862948333
 20
758.4730282883198
 30
0.0
 11
191.3977683857646
 21
758.4730282883198
 31
0.0
  0
LINE
  5
346
  8
0
  6
CONTINUOUS
 62
     7
 10
139.3977683857644
 20
666.2730282883198
 30
0.0
 11
99.19776838576435
 21
666.2730282883198
 31
0.0
  0
LINE
  5
347
  8
0
  6
CONTINUOUS
 62
     7
 10
99.19776838576435
 20
666.2730282883198
 30
0.0
 11
97.19776838576438
 21
664.2730282883198
 31
0.0
  0
ARC
  5
348
  8
0
  6
CONTINUOUS
 62
     7
 10
139.3977683857644
 20
716.2730282883198
 30
0.0
 40
50.00000000000004
 50
270.0
 51
0.0000000000000568
  0
LINE
  5
349
  8
0
  6
CONTINUOUS
 62
     7
 10
189.3977683857644
 20
756.4730282883198
 30
0.0
 11
189.3977683857644
 21
716.2730282883198
 31
0.0
  0
LINE
  5
34A
  8
0
  6
CONTINUOUS
 62
     7
 10
191.3977683857644
 20
758.4730282883198
 30
0.0
 11
189.3977683857644
 21
756.4730282883198
 31
0.0
  0
ENDBLK
  8
0
  0
BLOCK
  8
0
  2
D_FRAME_VIEW_2467
 70
     0
 10
0.0
 20
0.0
 30
0.0
  0
LINE
  5
34F
  8
0
  6
CONTINUOUS
 62
     7
 10
16.00348936302062
 20
509.8880128442891
 30
0.0
 11
-17.69651063697938
 21
509.8880128442891
 31
0.0
  0
ARC
  5
350
  8
0
  6
CONTINUOUS
 62
     7
 10
16.00348936302062
 20
509.838012844289
 30
0.0
 40
0.0500000000000014
 50
0.0
 51
90.0
  0
ARC
  5
351
  8
0
  6
CONTINUOUS
 62
     7
 10
-17.69651063697938
 20
509.838012844289
 30
0.0
 40
0.0499999999999945
 50
90.0
 51
180.0
  0
LINE
  5
352
  8
0
  6
CONTINUOUS
 62
     7
 10
-17.94651063697937
 20
475.988012844289
 30
0.0
 11
-17.94651063697937
 21
509.9880128442891
 31
0.0
  0
ARC
  5
353
  8
0
  6
CONTINUOUS
 62
     7
 10
16.15348936302063
 20
509.9880128442891
 30
0.0
 40
0.099999999999989
 50
0.0
 51
90.0
  0
ARC
  5
354
  8
0
  6
CONTINUOUS
 62
     7
 10
-17.84651063697937
 20
509.9880128442891
 30
0.0
 40
0.099999999999989
 50
90.0
 51
180.0
  0
LINE
  5
355
  8
0
  6
CONTINUOUS
 62
     7
 10
16.25348936302063
 20
509.9880128442891
 30
0.0
 11
16.25348936302063
 21
475.988012844289
 31
0.0
  0
LINE
  5
356
  8
0
  6
CONTINUOUS
 62
     7
 10
16.05348936302062
 20
476.1380128442891
 30
0.0
 11
16.05348936302062
 21
509.838012844289
 31
0.0
  0
LINE
  5
357
  8
0
  6
CONTINUOUS
 62
     7
 10
-17.84651063697937
 20
510.088012844289
 30
0.0
 11
16.15348936302063
 21
510.088012844289
 31
0.0
  0
LINE
  5
358
  8
0
  6
CONTINUOUS
 62
     7
 10
-17.74651063697938
 20
509.838012844289
 30
0.0
 11
-17.74651063697938
 21
476.138012844289
 31
0.0
  0
ARC
  5
359
  8
0
  6
CONTINUOUS
 62
     7
 10
16.00348936302062
 20
476.1380128442891
 30
0.0
 40
0.0500000000001055
 50
270.0
 51
0.0
  0
ARC
  5
35A
  8
0
  6
CONTINUOUS
 62
     7
 10
-17.69651063697938
 20
476.1380128442891
 30
0.0
 40
0.0500000000000014
 50
180.0
 51
270.0
  0
LINE
  5
35B
  8
0
  6
CONTINUOUS
 62
     7
 10
16.15348936302064
 20
475.888012844289
 30
0.0
 11
-17.84651063697936
 21
475.888012844289
 31
0.0
  0
LINE
  5
35C
  8
0
  6
CONTINUOUS
 62
     7
 10
-17.69651063697938
 20
476.088012844289
 30
0.0
 11
16.00348936302062
 21
476.088012844289
 31
0.0
  0
ARC
  5
35D
  8
0
  6
CONTINUOUS
 62
     7
 10
16.15348936302064
 20
475.988012844289
 30
0.0
 40
0.099999999999989
 50
270.0
 51
0.0
  0
ARC
  5
35E
  8
0
  6
CONTINUOUS
 62
     7
 10
-17.84651063697937
 20
475.988012844289
 30
0.0
 40
0.0999999999999994
 50
180.0
 51
270.0
  0
LINE
  5
35F
  8
0
  6
CONTINUOUS
 62
     7
 10
-32.44254261747337
 20
434.9880128442891
 30
0.0
 11
-33.33883569539683
 21
410.8017213432743
 31
0.0
  0
LINE
  5
360
  8
0
  6
CONTINUOUS
 62
     7
 10
-28.34651063697963
 20
434.9880128442891
 30
0.0
 11
-32.44254261747337
 21
434.9880128442891
 31
0.0
  0
LINE
  5
361
  8
0
  6
CONTINUOUS
 62
     7
 10
-28.34651063697936
 20
484.9880128442889
 30
0.0
 11
-28.34651063697963
 21
434.9880128442891
 31
0.0
  0
LINE
  5
362
  8
0
  6
CONTINUOUS
 62
     7
 10
-28.34651063697936
 20
484.9880128442889
 30
0.0
 11
-30.84651063697925
 21
484.9880128442889
 31
0.0
  0
POLYLINE
  5
363
  8
0
  6
CONTINUOUS
 62
     7
 66
     1
 10
0.0
 20
0.0
 30
0.0
  0
VERTEX
  5
719
  8
0
  6
CONTINUOUS
 62
     7
 10
-31.34651063697937
 20
485.6951196254755
 30
0.0
  0
VERTEX
  5
71A
  8
0
  6
CONTINUOUS
 62
     7
 10
-31.33690327718098
 20
485.557169935834
 30
0.0
  0
VERTEX
  5
71B
  8
0
  6
CONTINUOUS
 62
     7
 10
-31.30845040323501
 20
485.4245215754024
 30
0.0
  0
VERTEX
  5
71C
  8
0
  6
CONTINUOUS
 62
     7
 10
-31.26224544313063
 20
485.3022721462819
 30
0.0
  0
VERTEX
  5
71D
  8
0
  6
CONTINUOUS
 62
     7
 10
-31.20006402757262
 20
485.1951196254755
 30
0.0
  0
VERTEX
  5
71E
  8
0
  6
CONTINUOUS
 62
     7
 10
-31.12429575348914
 20
485.1071818242658
 30
0.0
  0
VERTEX
  5
71F
  8
0
  6
CONTINUOUS
 62
     7
 10
-31.03785235316188
 20
485.0418381430372
 30
0.0
  0
VERTEX
  5
720
  8
0
  6
CONTINUOUS
 62
     7
 10
-30.94405579798739
 20
485.0015997028144
 30
0.0
  0
VERTEX
  5
721
  8
0
  6
CONTINUOUS
 62
     7
 10
-30.84651063697931
 20
484.9880128442889
 30
0.0
  0
SEQEND
  5
854
  8
0
  6
CONTINUOUS
 62
     7
  0
LINE
  5
364
  8
0
  6
CONTINUOUS
 62
     7
 10
-31.34651063697931
 20
485.6951196254755
 30
0.0
 11
-31.3465106369793
 21
499.9880128442889
 31
0.0
  0
LINE
  5
365
  8
0
  6
CONTINUOUS
 62
     7
 10
-31.3465106369793
 20
499.9880128442889
 30
0.0
 11
-31.34651063697939
 21
534.9880128442887
 31
0.0
  0
LINE
  5
366
  8
0
  6
CONTINUOUS
 62
     7
 10
-23.34651063697939
 20
534.9880128442887
 30
0.0
 11
-31.34651063697939
 21
534.9880128442887
 31
0.0
  0
LINE
  5
367
  8
0
  6
CONTINUOUS
 62
     7
 10
21.65348936302063
 20
534.9880128442887
 30
0.0
 11
29.65348936302063
 21
534.9880128442887
 31
0.0
  0
LINE
  5
368
  8
0
  6
CONTINUOUS
 62
     7
 10
29.65348936302054
 20
499.9880128442889
 30
0.0
 11
29.65348936302063
 21
534.9880128442887
 31
0.0
  0
LINE
  5
369
  8
0
  6
CONTINUOUS
 62
     7
 10
29.65348936302055
 20
485.6951196254755
 30
0.0
 11
29.65348936302054
 21
499.9880128442889
 31
0.0
  0
POLYLINE
  5
36A
  8
0
  6
CONTINUOUS
 62
     7
 66
     1
 10
0.0
 20
0.0
 30
0.0
  0
VERTEX
  5
722
  8
0
  6
CONTINUOUS
 62
     7
 10
29.15348936302055
 20
484.9880128442889
 30
0.0
  0
VERTEX
  5
723
  8
0
  6
CONTINUOUS
 62
     7
 10
29.25103452402862
 20
485.0015997028144
 30
0.0
  0
VERTEX
  5
724
  8
0
  6
CONTINUOUS
 62
     7
 10
29.34483107920311
 20
485.0418381430372
 30
0.0
  0
VERTEX
  5
725
  8
0
  6
CONTINUOUS
 62
     7
 10
29.43127447953038
 20
485.1071818242658
 30
0.0
  0
VERTEX
  5
726
  8
0
  6
CONTINUOUS
 62
     7
 10
29.50704275361386
 20
485.1951196254755
 30
0.0
  0
VERTEX
  5
727
  8
0
  6
CONTINUOUS
 62
     7
 10
29.56922416917187
 20
485.3022721462819
 30
0.0
  0
VERTEX
  5
728
  8
0
  6
CONTINUOUS
 62
     7
 10
29.61542912927624
 20
485.4245215754024
 30
0.0
  0
VERTEX
  5
729
  8
0
  6
CONTINUOUS
 62
     7
 10
29.64388200322222
 20
485.557169935834
 30
0.0
  0
VERTEX
  5
72A
  8
0
  6
CONTINUOUS
 62
     7
 10
29.6534893630206
 20
485.6951196254755
 30
0.0
  0
SEQEND
  5
855
  8
0
  6
CONTINUOUS
 62
     7
  0
LINE
  5
36B
  8
0
  6
CONTINUOUS
 62
     7
 10
26.6534893630206
 20
484.9880128442889
 30
0.0
 11
29.15348936302049
 21
484.9880128442889
 31
0.0
  0
LINE
  5
36C
  8
0
  6
CONTINUOUS
 62
     7
 10
26.6534893630206
 20
484.9880128442889
 30
0.0
 11
26.65348936302086
 21
434.9880128442891
 31
0.0
  0
LINE
  5
36D
  8
0
  6
CONTINUOUS
 62
     7
 10
26.65348936302086
 20
434.9880128442891
 30
0.0
 11
30.74952134351461
 21
434.9880128442891
 31
0.0
  0
LINE
  5
36E
  8
0
  6
CONTINUOUS
 62
     7
 10
30.74952134351461
 20
434.9880128442891
 30
0.0
 11
31.64581442143807
 21
410.8017213432743
 31
0.0
  0
POLYLINE
  5
36F
  8
0
  6
CONTINUOUS
 62
     7
 66
     1
 10
0.0
 20
0.0
 30
0.0
  0
VERTEX
  5
72B
  8
0
  6
CONTINUOUS
 62
     7
 10
-11.86396437256092
 20
548.988012844289
 30
0.0
  0
VERTEX
  5
72C
  8
0
  6
CONTINUOUS
 62
     7
 10
-11.8831798238232
 20
549.183103166305
 30
0.0
  0
VERTEX
  5
72D
  8
0
  6
CONTINUOUS
 62
     7
 10
-11.94008773859416
 20
549.370696276654
 30
0.0
  0
VERTEX
  5
72E
  8
0
  6
CONTINUOUS
 62
     7
 10
-12.03250117762349
 20
549.5435830773085
 30
0.0
  0
VERTEX
  5
72F
  8
0
  6
CONTINUOUS
 62
     7
 10
-12.15686874427534
 20
549.6951196254755
 30
0.0
  0
VERTEX
  5
730
  8
0
  6
CONTINUOUS
 62
     7
 10
-12.30841106270942
 20
549.8194824565915
 30
0.0
  0
VERTEX
  5
731
  8
0
  6
CONTINUOUS
 62
     7
 10
-12.48130444661422
 20
549.9118923768002
 30
0.0
  0
VERTEX
  5
732
  8
0
  6
CONTINUOUS
 62
     7
 10
-12.668904700206
 20
549.9687981246922
 30
0.0
  0
VERTEX
  5
733
  8
0
  6
CONTINUOUS
 62
     7
 10
-12.86400245094666
 20
549.988012844289
 30
0.0
  0
SEQEND
  5
856
  8
0
  6
CONTINUOUS
 62
     7
  0
LINE
  5
370
  8
0
  6
CONTINUOUS
 62
     7
 10
-12.86400245094666
 20
549.9880128442891
 30
0.0
 11
-12.85091214926052
 21
549.9880128442891
 31
0.0
  0
ARC
  5
371
  8
0
  6
CONTINUOUS
 62
     7
 10
-12.85091214926052
 20
548.988012844289
 30
0.0
 40
1.000000000724954
 50
0.0
 51
90.0
  0
LINE
  5
372
  8
0
  6
CONTINUOUS
 62
     7
 10
-16.82905690139788
 20
534.9880128442887
 30
0.0
 11
-16.82905690139788
 21
548.9880128442888
 31
0.0
  0
POLYLINE
  5
373
  8
0
  6
CONTINUOUS
 62
     7
 66
     1
 10
0.0
 20
0.0
 30
0.0
  0
VERTEX
  5
734
  8
0
  6
CONTINUOUS
 62
     7
 10
-15.82901882301215
 20
549.988012844289
 30
0.0
  0
VERTEX
  5
735
  8
0
  6
CONTINUOUS
 62
     7
 10
-16.02411657375281
 20
549.9687981246922
 30
0.0
  0
VERTEX
  5
736
  8
0
  6
CONTINUOUS
 62
     7
 10
-16.21171682734459
 20
549.9118923768002
 30
0.0
  0
VERTEX
  5
737
  8
0
  6
CONTINUOUS
 62
     7
 10
-16.38461021124938
 20
549.8194824565915
 30
0.0
  0
VERTEX
  5
738
  8
0
  6
CONTINUOUS
 62
     7
 10
-16.53615252968346
 20
549.6951196254755
 30
0.0
  0
VERTEX
  5
739
  8
0
  6
CONTINUOUS
 62
     7
 10
-16.66052009633531
 20
549.5435830773085
 30
0.0
  0
VERTEX
  5
73A
  8
0
  6
CONTINUOUS
 62
     7
 10
-16.75293353536464
 20
549.370696276654
 30
0.0
  0
VERTEX
  5
73B
  8
0
  6
CONTINUOUS
 62
     7
 10
-16.80984145013561
 20
549.183103166305
 30
0.0
  0
VERTEX
  5
73C
  8
0
  6
CONTINUOUS
 62
     7
 10
-16.82905690139788
 20
548.988012844289
 30
0.0
  0
SEQEND
  5
857
  8
0
  6
CONTINUOUS
 62
     7
  0
LINE
  5
374
  8
0
  6
CONTINUOUS
 62
     7
 10
-12.86400245094666
 20
549.9880128442891
 30
0.0
 11
-15.82901882301215
 21
549.9880128442891
 31
0.0
  0
LINE
  5
375
  8
0
  6
CONTINUOUS
 62
     7
 10
-11.86396437256092
 20
534.9880128442887
 30
0.0
 11
-11.86396437256093
 21
548.9880128442888
 31
0.0
  0
LINE
  5
376
  8
0
  6
CONTINUOUS
 62
     7
 10
10.17094309860216
 20
534.9880128442887
 30
0.0
 11
-11.86396437256092
 21
534.9880128442887
 31
0.0
  0
LINE
  5
377
  8
0
  6
CONTINUOUS
 62
     7
 10
10.17094309860216
 20
534.9880128442887
 30
0.0
 11
10.17094309860216
 21
548.9880128442888
 31
0.0
  0
POLYLINE
  5
378
  8
0
  6
CONTINUOUS
 62
     7
 66
     1
 10
0.0
 20
0.0
 30
0.0
  0
VERTEX
  5
73D
  8
0
  6
CONTINUOUS
 62
     7
 10
11.1709811769879
 20
549.988012844289
 30
0.0
  0
VERTEX
  5
73E
  8
0
  6
CONTINUOUS
 62
     7
 10
10.97588342624724
 20
549.9687981246922
 30
0.0
  0
VERTEX
  5
73F
  8
0
  6
CONTINUOUS
 62
     7
 10
10.78828317265546
 20
549.9118923768002
 30
0.0
  0
VERTEX
  5
740
  8
0
  6
CONTINUOUS
 62
     7
 10
10.61538978875066
 20
549.8194824565915
 30
0.0
  0
VERTEX
  5
741
  8
0
  6
CONTINUOUS
 62
     7
 10
10.46384747031658
 20
549.6951196254755
 30
0.0
  0
VERTEX
  5
742
  8
0
  6
CONTINUOUS
 62
     7
 10
10.33947990366473
 20
549.5435830773085
 30
0.0
  0
VERTEX
  5
743
  8
0
  6
CONTINUOUS
 62
     7
 10
10.2470664646354
 20
549.370696276654
 30
0.0
  0
VERTEX
  5
744
  8
0
  6
CONTINUOUS
 62
     7
 10
10.19015854986444
 20
549.183103166305
 30
0.0
  0
VERTEX
  5
745
  8
0
  6
CONTINUOUS
 62
     7
 10
10.17094309860216
 20
548.988012844289
 30
0.0
  0
SEQEND
  5
858
  8
0
  6
CONTINUOUS
 62
     7
  0
LINE
  5
379
  8
0
  6
CONTINUOUS
 62
     7
 10
11.1709811769879
 20
549.9880128442891
 30
0.0
 11
14.13599754905338
 21
549.9880128442891
 31
0.0
  0
POLYLINE
  5
37A
  8
0
  6
CONTINUOUS
 62
     7
 66
     1
 10
0.0
 20
0.0
 30
0.0
  0
VERTEX
  5
746
  8
0
  6
CONTINUOUS
 62
     7
 10
15.13603562743912
 20
548.988012844289
 30
0.0
  0
VERTEX
  5
747
  8
0
  6
CONTINUOUS
 62
     7
 10
15.11682017617685
 20
549.183103166305
 30
0.0
  0
VERTEX
  5
748
  8
0
  6
CONTINUOUS
 62
     7
 10
15.05991226140588
 20
549.370696276654
 30
0.0
  0
VERTEX
  5
749
  8
0
  6
CONTINUOUS
 62
     7
 10
14.96749882237656
 20
549.5435830773085
 30
0.0
  0
VERTEX
  5
74A
  8
0
  6
CONTINUOUS
 62
     7
 10
14.8431312557247
 20
549.6951196254755
 30
0.0
  0
VERTEX
  5
74B
  8
0
  6
CONTINUOUS
 62
     7
 10
14.69158893729062
 20
549.8194824565915
 30
0.0
  0
VERTEX
  5
74C
  8
0
  6
CONTINUOUS
 62
     7
 10
14.51869555338583
 20
549.9118923768002
 30
0.0
  0
VERTEX
  5
74D
  8
0
  6
CONTINUOUS
 62
     7
 10
14.33109529979405
 20
549.9687981246922
 30
0.0
  0
VERTEX
  5
74E
  8
0
  6
CONTINUOUS
 62
     7
 10
14.13599754905338
 20
549.988012844289
 30
0.0
  0
SEQEND
  5
859
  8
0
  6
CONTINUOUS
 62
     7
  0
LINE
  5
37B
  8
0
  6
CONTINUOUS
 62
     7
 10
15.13603562743912
 20
534.9880128442887
 30
0.0
 11
15.13603562743912
 21
548.9880128442888
 31
0.0
  0
LINE
  5
37C
  8
0
  6
CONTINUOUS
 62
     7
 10
15.13603562743912
 20
534.9880128442887
 30
0.0
 11
16.65348936302063
 21
534.9880128442887
 31
0.0
  0
LINE
  5
37D
  8
0
  6
CONTINUOUS
 62
     7
 10
-16.82905690139788
 20
534.9880128442887
 30
0.0
 11
-18.34651063697939
 21
534.9880128442887
 31
0.0
  0
CIRCLE
  5
37E
  8
0
  6
CONTINUOUS
 62
     7
 10
-0.8465106369793732
 20
524.988012844289
 30
0.0
 40
2.500000000000002
  0
ARC
  5
37F
  8
0
  6
CONTINUOUS
 62
     7
 10
11.15789087530176
 20
548.988012844289
 30
0.0
 40
1.000000000724954
 50
90.0
 51
180.0
  0
LINE
  5
380
  8
0
  6
CONTINUOUS
 62
     7
 10
11.1709811769879
 20
549.9880128442891
 30
0.0
 11
11.15789087530176
 21
549.9880128442891
 31
0.0
  0
ARC
  5
381
  8
0
  6
CONTINUOUS
 62
     7
 10
-15.84210912469828
 20
548.988012844289
 30
0.0
 40
1.000000000724955
 50
89.99999999999982
 51
180.0
  0
LINE
  5
382
  8
0
  6
CONTINUOUS
 62
     7
 10
-15.84210912469828
 20
549.9880128442891
 30
0.0
 11
-15.82901882301215
 21
549.9880128442891
 31
0.0
  0
ARC
  5
383
  8
0
  6
CONTINUOUS
 62
     7
 10
14.14908785073952
 20
548.988012844289
 30
0.0
 40
1.000000000724955
 50
0.0
 51
90.00000000000011
  0
LINE
  5
384
  8
0
  6
CONTINUOUS
 62
     7
 10
14.14908785073952
 20
549.9880128442891
 30
0.0
 11
14.13599754905338
 21
549.9880128442891
 31
0.0
  0
LINE
  5
385
  8
0
  6
CONTINUOUS
 62
     7
 10
-11.85091214853557
 20
536.7809060631023
 30
0.0
 11
-11.85091214853557
 21
548.988012844289
 31
0.0
  0
LINE
  5
386
  8
0
  6
CONTINUOUS
 62
     7
 10
-11.83526580645204
 20
534.9880128442887
 30
0.0
 11
-11.85091214853557
 21
536.7809060631023
 31
0.0
  0
LINE
  5
387
  8
0
  6
CONTINUOUS
 62
     7
 10
15.14908785146447
 20
536.7809060631023
 30
0.0
 11
15.16473419354801
 21
534.9880128442888
 31
0.0
  0
LINE
  5
388
  8
0
  6
CONTINUOUS
 62
     7
 10
15.14908785146447
 20
548.988012844289
 30
0.0
 11
15.14908785146447
 21
536.7809060631023
 31
0.0
  0
LINE
  5
389
  8
0
  6
CONTINUOUS
 62
     7
 10
-16.84210912542324
 20
536.7809060631023
 30
0.0
 11
-16.85775546750677
 21
534.9880128442888
 31
0.0
  0
LINE
  5
38A
  8
0
  6
CONTINUOUS
 62
     7
 10
-16.84210912542324
 20
548.988012844289
 30
0.0
 11
-16.84210912542324
 21
536.7809060631023
 31
0.0
  0
LINE
  5
38B
  8
0
  6
CONTINUOUS
 62
     7
 10
10.14224453249328
 20
534.9880128442887
 30
0.0
 11
10.15789087457681
 21
536.7809060631023
 31
0.0
  0
LINE
  5
38C
  8
0
  6
CONTINUOUS
 62
     7
 10
10.15789087457681
 20
536.7809060631023
 30
0.0
 11
10.15789087457681
 21
548.988012844289
 31
0.0
  0
LINE
  5
38D
  8
0
  6
CONTINUOUS
 62
     7
 10
17.15348936302062
 20
532.988012844289
 30
0.0
 11
17.15348936302062
 21
534.9880128442887
 31
0.0
  0
LINE
  5
38E
  8
0
  6
CONTINUOUS
 62
     7
 10
16.65348936302062
 20
533.4880128442892
 30
0.0
 11
17.15348936302062
 21
532.9880128442891
 31
0.0
  0
LINE
  5
38F
  8
0
  6
CONTINUOUS
 62
     7
 10
17.15348936302062
 20
534.9880128442887
 30
0.0
 11
16.65348936302063
 21
534.9880128442887
 31
0.0
  0
LINE
  5
390
  8
0
  6
CONTINUOUS
 62
     7
 10
-22.84651063697938
 20
534.9880128442887
 30
0.0
 11
-22.84651063697938
 21
532.988012844289
 31
0.0
  0
LINE
  5
391
  8
0
  6
CONTINUOUS
 62
     7
 10
-22.84651063697938
 20
532.988012844289
 30
0.0
 11
-23.34651063697938
 21
533.4880128442891
 31
0.0
  0
LINE
  5
392
  8
0
  6
CONTINUOUS
 62
     7
 10
-23.34651063697939
 20
534.9880128442887
 30
0.0
 11
-22.84651063697938
 21
534.9880128442887
 31
0.0
  0
LINE
  5
393
  8
0
  6
CONTINUOUS
 62
     7
 10
-18.34651063697938
 20
533.4880128442892
 30
0.0
 11
-18.84651063697938
 21
532.9880128442891
 31
0.0
  0
LINE
  5
394
  8
0
  6
CONTINUOUS
 62
     7
 10
-18.84651063697938
 20
532.988012844289
 30
0.0
 11
-18.84651063697938
 21
534.9880128442887
 31
0.0
  0
LINE
  5
395
  8
0
  6
CONTINUOUS
 62
     7
 10
-18.84651063697938
 20
534.9880128442887
 30
0.0
 11
-18.34651063697939
 21
534.9880128442887
 31
0.0
  0
LINE
  5
396
  8
0
  6
CONTINUOUS
 62
     7
 10
21.15348936302062
 20
534.9880128442887
 30
0.0
 11
21.15348936302062
 21
532.988012844289
 31
0.0
  0
LINE
  5
397
  8
0
  6
CONTINUOUS
 62
     7
 10
21.15348936302062
 20
532.988012844289
 30
0.0
 11
21.65348936302062
 21
533.4880128442891
 31
0.0
  0
LINE
  5
398
  8
0
  6
CONTINUOUS
 62
     7
 10
21.65348936302063
 20
534.9880128442887
 30
0.0
 11
21.15348936302062
 21
534.9880128442887
 31
0.0
  0
LINE
  5
399
  8
0
  6
CONTINUOUS
 62
     7
 10
4.153489363020611
 20
532.988012844289
 30
0.0
 11
3.653489363020612
 21
533.4880128442891
 31
0.0
  0
LINE
  5
39A
  8
0
  6
CONTINUOUS
 62
     7
 10
4.153489363020611
 20
531.8618763867304
 30
0.0
 11
4.15348936302061
 21
532.988012844289
 31
0.0
  0
LINE
  5
39B
  8
0
  6
CONTINUOUS
 62
     7
 10
4.007042753613864
 20
531.5307654641406
 30
0.0
 11
4.153489363020611
 21
531.8618763867304
 31
0.0
  0
LINE
  5
39C
  8
0
  6
CONTINUOUS
 62
     7
 10
4.007042753613864
 20
531.5307654641406
 30
0.0
 11
3.653489363020617
 21
531.3503382619195
 31
0.0
  0
LINE
  5
39D
  8
0
  6
CONTINUOUS
 62
     7
 10
-29.84651063697938
 20
526.7809060631025
 30
0.0
 11
-29.4929572463861
 21
527.1344594536959
 31
0.0
  0
LINE
  5
39E
  8
0
  6
CONTINUOUS
 62
     7
 10
-29.84651063697938
 20
533.4880128442892
 30
0.0
 11
-29.34651063697938
 21
532.9880128442891
 31
0.0
  0
LINE
  5
39F
  8
0
  6
CONTINUOUS
 62
     7
 10
-29.34651063697938
 20
532.988012844289
 30
0.0
 11
-29.34651063697938
 21
527.4880128442891
 31
0.0
  0
LINE
  5
3A0
  8
0
  6
CONTINUOUS
 62
     7
 10
-29.34651063697938
 20
527.4880128442892
 30
0.0
 11
-29.4929572463861
 21
527.1344594536959
 31
0.0
  0
LINE
  5
3A1
  8
0
  6
CONTINUOUS
 62
     7
 10
-5.846510636979373
 20
532.988012844289
 30
0.0
 11
-5.346510636979374
 21
533.4880128442891
 31
0.0
  0
LINE
  5
3A2
  8
0
  6
CONTINUOUS
 62
     7
 10
-5.846510636979371
 20
532.988012844289
 30
0.0
 11
-18.84651063697938
 21
532.988012844289
 31
0.0
  0
LINE
  5
3A3
  8
0
  6
CONTINUOUS
 62
     7
 10
-22.84651063697938
 20
532.988012844289
 30
0.0
 11
-29.34651063697938
 21
532.988012844289
 31
0.0
  0
LINE
  5
3A4
  8
0
  6
CONTINUOUS
 62
     7
 10
28.15348936302062
 20
533.4880128442892
 30
0.0
 11
27.65348936302062
 21
532.9880128442891
 31
0.0
  0
LINE
  5
3A5
  8
0
  6
CONTINUOUS
 62
     7
 10
21.15348936302062
 20
532.988012844289
 30
0.0
 11
27.65348936302062
 21
532.988012844289
 31
0.0
  0
LINE
  5
3A6
  8
0
  6
CONTINUOUS
 62
     7
 10
4.15348936302061
 20
532.988012844289
 30
0.0
 11
17.15348936302062
 21
532.988012844289
 31
0.0
  0
LINE
  5
3A7
  8
0
  6
CONTINUOUS
 62
     7
 10
27.65348936302062
 20
532.988012844289
 30
0.0
 11
27.65348936302062
 21
527.4880128442891
 31
0.0
  0
LINE
  5
3A8
  8
0
  6
CONTINUOUS
 62
     7
 10
28.15348936302062
 20
526.7809060631025
 30
0.0
 11
27.79993597242734
 21
527.1344594536959
 31
0.0
  0
LINE
  5
3A9
  8
0
  6
CONTINUOUS
 62
     7
 10
27.65348936302062
 20
527.4880128442892
 30
0.0
 11
27.79993597242734
 21
527.1344594536959
 31
0.0
  0
LINE
  5
3AA
  8
0
  6
CONTINUOUS
 62
     7
 10
-5.700064027572625
 20
531.5307654641406
 30
0.0
 11
-5.846510636979373
 21
531.8618763867304
 31
0.0
  0
LINE
  5
3AB
  8
0
  6
CONTINUOUS
 62
     7
 10
-5.846510636979373
 20
531.8618763867304
 30
0.0
 11
-5.846510636979371
 21
532.988012844289
 31
0.0
  0
LINE
  5
3AC
  8
0
  6
CONTINUOUS
 62
     7
 10
-5.700064027572625
 20
531.5307654641406
 30
0.0
 11
-5.346510636979379
 21
531.3503382619195
 31
0.0
  0
LINE
  5
3AD
  8
0
  6
CONTINUOUS
 62
     7
 10
7.012074433685759
 20
527.1344594536957
 30
0.0
 11
6.737335262415034
 21
526.7809060631025
 31
0.0
  0
LINE
  5
3AE
  8
0
  6
CONTINUOUS
 62
     7
 10
-8.70509570764452
 20
527.1344594536957
 30
0.0
 11
-8.430356536373797
 21
526.7809060631025
 31
0.0
  0
LINE
  5
3AF
  8
0
  6
CONTINUOUS
 62
     7
 10
21.15348936302062
 20
527.4880128442892
 30
0.0
 11
21.15348936302062
 21
410.8017213432743
 31
0.0
  0
LINE
  5
3B0
  8
0
  6
CONTINUOUS
 62
     7
 10
21.29993597242733
 20
527.1344594536957
 30
0.0
 11
21.15348936302062
 21
527.4880128442891
 31
0.0
  0
LINE
  5
3B1
  8
0
  6
CONTINUOUS
 62
     7
 10
21.65348936302062
 20
526.7809060631025
 30
0.0
 11
21.29993597242733
 21
527.1344594536959
 31
0.0
  0
LINE
  5
3B2
  8
0
  6
CONTINUOUS
 62
     7
 10
17.15348936302062
 20
410.8017213432743
 30
0.0
 11
17.15348936302062
 21
527.4880128442891
 31
0.0
  0
LINE
  5
3B3
  8
0
  6
CONTINUOUS
 62
     7
 10
17.0070427536139
 20
527.1344594536957
 30
0.0
 11
16.65348936302062
 21
526.7809060631024
 31
0.0
  0
LINE
  5
3B4
  8
0
  6
CONTINUOUS
 62
     7
 10
17.15348936302062
 20
527.4880128442892
 30
0.0
 11
17.00704275361391
 21
527.1344594536959
 31
0.0
  0
LINE
  5
3B5
  8
0
  6
CONTINUOUS
 62
     7
 10
-18.70006402757267
 20
527.1344594536957
 30
0.0
 11
-18.34651063697938
 21
526.7809060631024
 31
0.0
  0
LINE
  5
3B6
  8
0
  6
CONTINUOUS
 62
     7
 10
-18.84651063697938
 20
410.8017213432743
 30
0.0
 11
-18.84651063697938
 21
527.4880128442891
 31
0.0
  0
LINE
  5
3B7
  8
0
  6
CONTINUOUS
 62
     7
 10
-18.84651063697938
 20
527.4880128442892
 30
0.0
 11
-18.70006402757267
 21
527.1344594536959
 31
0.0
  0
LINE
  5
3B8
  8
0
  6
CONTINUOUS
 62
     7
 10
-22.99295724638609
 20
527.1344594536957
 30
0.0
 11
-22.84651063697938
 21
527.4880128442891
 31
0.0
  0
LINE
  5
3B9
  8
0
  6
CONTINUOUS
 62
     7
 10
-22.84651063697938
 20
527.4880128442892
 30
0.0
 11
-22.84651063697938
 21
410.8017213432743
 31
0.0
  0
LINE
  5
3BA
  8
0
  6
CONTINUOUS
 62
     7
 10
-23.34651063697938
 20
526.7809060631025
 30
0.0
 11
-22.9929572463861
 21
527.1344594536959
 31
0.0
  0
LINE
  5
3BB
  8
0
  6
CONTINUOUS
 62
     7
 10
31.65348936302062
 20
410.448167952681
 30
0.0
 11
31.64581442143808
 21
410.8017213432743
 31
0.0
  0
LINE
  5
3BC
  8
0
  6
CONTINUOUS
 62
     7
 10
-33.34651063697938
 20
410.448167952681
 30
0.0
 11
-33.33883569539684
 21
410.8017213432743
 31
0.0
  0
LINE
  5
3BD
  8
0
  6
CONTINUOUS
 62
     7
 10
17.15348936302062
 20
400.488012844289
 30
0.0
 11
17.15348936302062
 21
410.8017213432743
 31
0.0
  0
LINE
  5
3BE
  8
0
  6
CONTINUOUS
 62
     7
 10
-18.84651063697938
 20
400.488012844289
 30
0.0
 11
-18.84651063697938
 21
410.8017213432743
 31
0.0
  0
ARC
  5
3BF
  8
0
  6
CONTINUOUS
 62
     7
 10
-0.8465106369793729
 20
524.988012844289
 30
0.0
 40
11.00000000000001
 50
133.3417582272224
 51
152.9643082105877
  0
LINE
  5
3C0
  8
0
  6
CONTINUOUS
 62
     7
 10
-10.64446960811209
 20
529.9880128442891
 30
0.0
 11
-8.70509570764452
 21
527.1344594536957
 31
0.0
  0
ARC
  5
3C1
  8
0
  6
CONTINUOUS
 62
     7
 10
-0.8465106369793884
 20
524.988012844289
 30
0.0
 40
11.00000000000001
 50
27.03569178941234
 51
46.65824177277761
  0
LINE
  5
3C2
  8
0
  6
CONTINUOUS
 62
     7
 10
8.951448334153326
 20
529.9880128442891
 30
0.0
 11
7.012074433685759
 21
527.1344594536957
 31
0.0
  0
LINE
  5
3C3
  8
0
  6
CONTINUOUS
 62
     7
 10
17.15348936302064
 20
529.9880128442891
 30
0.0
 11
8.951448334153326
 21
529.9880128442891
 31
0.0
  0
LINE
  5
3C4
  8
0
  6
CONTINUOUS
 62
     7
 10
17.15348936302062
 20
527.4880128442892
 30
0.0
 11
17.15348936302064
 21
529.9880128442891
 31
0.0
  0
LINE
  5
3C5
  8
0
  6
CONTINUOUS
 62
     7
 10
-18.8465106369794
 20
529.9880128442891
 30
0.0
 11
-10.64446960811209
 21
529.9880128442891
 31
0.0
  0
LINE
  5
3C6
  8
0
  6
CONTINUOUS
 62
     7
 10
-18.84651063697938
 20
527.4880128442892
 30
0.0
 11
-18.8465106369794
 21
529.9880128442891
 31
0.0
  0
LINE
  5
3C7
  8
0
  6
CONTINUOUS
 62
     7
 10
21.15348936302062
 20
410.8017213432743
 30
0.0
 11
21.15348936302061
 21
400.488012844289
 31
0.0
  0
LINE
  5
3C8
  8
0
  6
CONTINUOUS
 62
     7
 10
-22.84651063697938
 20
410.8017213432743
 30
0.0
 11
-22.84651063697937
 21
400.488012844289
 31
0.0
  0
LINE
  5
3C9
  8
0
  6
CONTINUOUS
 62
     7
 10
31.65348936302061
 20
410.448167952681
 30
0.0
 11
31.65348936302061
 21
410.3231859906587
 31
0.0
  0
LINE
  5
3CA
  8
0
  6
CONTINUOUS
 62
     7
 10
-33.34651063697937
 20
410.448167952681
 30
0.0
 11
-33.34651063697937
 21
410.3231859906587
 31
0.0
  0
LINE
  5
3CB
  8
0
  6
CONTINUOUS
 62
     7
 10
-29.34651063697938
 20
529.9880128442891
 30
0.0
 11
-22.84651063697938
 21
529.9880128442891
 31
0.0
  0
LINE
  5
3CC
  8
0
  6
CONTINUOUS
 62
     7
 10
-22.84651063697938
 20
529.9880128442891
 30
0.0
 11
-22.84651063697938
 21
527.4880128442892
 31
0.0
  0
LINE
  5
3CD
  8
0
  6
CONTINUOUS
 62
     7
 10
21.15348936302062
 20
529.9880128442891
 30
0.0
 11
21.15348936302062
 21
527.4880128442892
 31
0.0
  0
LINE
  5
3CE
  8
0
  6
CONTINUOUS
 62
     7
 10
27.65348936302062
 20
529.9880128442891
 30
0.0
 11
21.15348936302062
 21
529.9880128442891
 31
0.0
  0
LINE
  5
3CF
  8
0
  6
CONTINUOUS
 62
     7
 10
-18.8465106369794
 20
532.988012844289
 30
0.0
 11
-18.8465106369794
 21
529.988012844289
 31
0.0
  0
ARC
  5
3D0
  8
0
  6
CONTINUOUS
 62
     7
 10
-19.8465106369794
 20
413.5946145620873
 30
0.0
 40
1.000000000000001
 50
0.0000000000127329
 51
90.0
  0
LINE
  5
3D1
  8
0
  6
CONTINUOUS
 62
     7
 10
-19.8465106369794
 20
534.9880128442887
 30
0.0
 11
-18.8465106369794
 21
534.9880128442887
 31
0.0
  0
ARC
  5
3D2
  8
0
  6
CONTINUOUS
 62
     7
 10
20.15348936302062
 20
413.5946145620873
 30
0.0
 40
1.000000000000001
 50
0.0000000000159028
 51
89.99999999999841
  0
LINE
  5
3D3
  8
0
  6
CONTINUOUS
 62
     7
 10
21.15348936302062
 20
532.988012844289
 30
0.0
 11
21.15348936302062
 21
529.988012844289
 31
0.0
  0
LINE
  5
3D4
  8
0
  6
CONTINUOUS
 62
     7
 10
21.15348936302062
 20
534.9880128442887
 30
0.0
 11
20.15348936302062
 21
534.9880128442887
 31
0.0
  0
LINE
  5
3D5
  8
0
  6
CONTINUOUS
 62
     7
 10
-22.84651063697938
 20
532.988012844289
 30
0.0
 11
-22.84651063697938
 21
529.988012844289
 31
0.0
  0
ARC
  5
3D6
  8
0
  6
CONTINUOUS
 62
     7
 10
-21.84651063697938
 20
413.5946145620873
 30
0.0
 40
1.000000000000001
 50
90.00000000000159
 51
179.9999999999841
  0
LINE
  5
3D7
  8
0
  6
CONTINUOUS
 62
     7
 10
-22.84651063697938
 20
534.9880128442887
 30
0.0
 11
-21.84651063697938
 21
534.9880128442887
 31
0.0
  0
ARC
  5
3D8
  8
0
  6
CONTINUOUS
 62
     7
 10
18.15348936302064
 20
413.5946145620873
 30
0.0
 40
1.000000000000001
 50
90.0
 51
179.9999999999873
  0
LINE
  5
3D9
  8
0
  6
CONTINUOUS
 62
     7
 10
17.15348936302064
 20
532.988012844289
 30
0.0
 11
17.15348936302064
 21
529.988012844289
 31
0.0
  0
LINE
  5
3DA
  8
0
  6
CONTINUOUS
 62
     7
 10
18.15348936302064
 20
534.9880128442887
 30
0.0
 11
17.15348936302064
 21
534.9880128442887
 31
0.0
  0
ARC
  5
3DB
  8
0
  6
CONTINUOUS
 62
     7
 10
18.15348936302063
 20
402.988012844289
 30
0.0
 40
1.000000000000002
 50
90.0
 51
179.9999999999873
  0
ARC
  5
3DC
  8
0
  6
CONTINUOUS
 62
     7
 10
-19.84651063697939
 20
402.988012844289
 30
0.0
 40
1.000000000000002
 50
0.0000000000127329
 51
90.0
  0
ARC
  5
3DD
  8
0
  6
CONTINUOUS
 62
     7
 10
-21.84651063697937
 20
402.988012844289
 30
0.0
 40
1.000000000000002
 50
90.00000000000159
 51
179.9999999999841
  0
ARC
  5
3DE
  8
0
  6
CONTINUOUS
 62
     7
 10
20.15348936302061
 20
402.988012844289
 30
0.0
 40
1.000000000000002
 50
0.0000000000159028
 51
89.99999999999841
  0
LINE
  5
3DF
  8
0
  6
CONTINUOUS
 62
     7
 10
-33.34651063697937
 20
504.988012844289
 30
0.0
 11
-33.34651063697937
 21
509.9880128442891
 31
0.0
  0
LINE
  5
3E0
  8
0
  6
CONTINUOUS
 62
     7
 10
-33.34651063697937
 20
534.00760340781
 30
0.0
 11
-33.34651063697937
 21
534.9880128442888
 31
0.0
  0
LINE
  5
3E1
  8
0
  6
CONTINUOUS
 62
     7
 10
-31.34651063697939
 20
503.8333123059095
 30
0.0
 11
-33.34651063697937
 21
504.9880128442888
 31
0.0
  0
LINE
  5
3E2
  8
0
  6
CONTINUOUS
 62
     7
 10
-31.34651063697939
 20
534.9880128442887
 30
0.0
 11
-33.34651063697937
 21
534.9880128442887
 31
0.0
  0
LINE
  5
3E3
  8
0
  6
CONTINUOUS
 62
     7
 10
31.65348936302061
 20
504.988012844289
 30
0.0
 11
31.65348936302061
 21
509.9880128442891
 31
0.0
  0
LINE
  5
3E4
  8
0
  6
CONTINUOUS
 62
     7
 10
31.65348936302061
 20
534.00760340781
 30
0.0
 11
31.65348936302061
 21
534.9880128442888
 31
0.0
  0
LINE
  5
3E5
  8
0
  6
CONTINUOUS
 62
     7
 10
29.65348936302063
 20
503.8333123059095
 30
0.0
 11
31.65348936302061
 21
504.9880128442888
 31
0.0
  0
LINE
  5
3E6
  8
0
  6
CONTINUOUS
 62
     7
 10
29.65348936302063
 20
534.9880128442887
 30
0.0
 11
31.65348936302061
 21
534.9880128442887
 31
0.0
  0
LINE
  5
3E7
  8
0
  6
CONTINUOUS
 62
     7
 10
-21.84651063697941
 20
414.5946145620873
 30
0.0
 11
-19.8465106369794
 21
414.5946145620873
 31
0.0
  0
LINE
  5
3E8
  8
0
  6
CONTINUOUS
 62
     7
 10
-19.8465106369794
 20
534.9880128442887
 30
0.0
 11
-21.84651063697938
 21
534.9880128442887
 31
0.0
  0
LINE
  5
3E9
  8
0
  6
CONTINUOUS
 62
     7
 10
20.15348936302064
 20
414.5946145620873
 30
0.0
 11
18.15348936302064
 21
414.5946145620873
 31
0.0
  0
LINE
  5
3EA
  8
0
  6
CONTINUOUS
 62
     7
 10
18.15348936302064
 20
534.9880128442887
 30
0.0
 11
20.15348936302062
 21
534.9880128442887
 31
0.0
  0
LINE
  5
3EB
  8
0
  6
CONTINUOUS
 62
     7
 10
20.15348936302064
 20
403.988012844289
 30
0.0
 11
18.15348936302063
 21
403.988012844289
 31
0.0
  0
LINE
  5
3EC
  8
0
  6
CONTINUOUS
 62
     7
 10
-21.8465106369794
 20
403.988012844289
 30
0.0
 11
-19.84651063697939
 21
403.988012844289
 31
0.0
  0
ARC
  5
3ED
  8
0
  6
CONTINUOUS
 62
     7
 10
16.65348936302062
 20
400.488012844289
 30
0.0
 40
0.5000000000000004
 50
270.0
 51
0.0000000000000568
  0
ARC
  5
3EE
  8
0
  6
CONTINUOUS
 62
     7
 10
-18.34651063697938
 20
400.488012844289
 30
0.0
 40
0.5000000000000004
 50
180.0
 51
270.0
  0
LINE
  5
3EF
  8
0
  6
CONTINUOUS
 62
     7
 10
27.55602142816549
 20
399.988012844289
 30
0.0
 11
21.65348936302061
 21
399.988012844289
 31
0.0
  0
LINE
  5
3F0
  8
0
  6
CONTINUOUS
 62
     7
 10
-29.24904270212425
 20
399.988012844289
 30
0.0
 11
-23.34651063697937
 21
399.988012844289
 31
0.0
  0
ARC
  5
3F1
  8
0
  6
CONTINUOUS
 62
     7
 10
21.65348936302061
 20
400.488012844289
 30
0.0
 40
0.5000000000000004
 50
180.0
 51
270.0
  0
LINE
  5
3F2
  8
0
  6
CONTINUOUS
 62
     7
 10
-18.34651063697938
 20
399.988012844289
 30
0.0
 11
16.65348936302062
 21
399.988012844289
 31
0.0
  0
ARC
  5
3F3
  8
0
  6
CONTINUOUS
 62
     7
 10
-23.34651063697937
 20
400.488012844289
 30
0.0
 40
0.5000000000000004
 50
270.0
 51
0.0
  0
LINE
  5
3F4
  8
0
  6
CONTINUOUS
 62
     7
 10
16.25348936302063
 20
399.8880128442891
 30
0.0
 11
16.25348936302063
 21
399.988012844289
 31
0.0
  0
LINE
  5
3F5
  8
0
  6
CONTINUOUS
 62
     7
 10
-17.94651063697937
 20
399.988012844289
 30
0.0
 11
-17.94651063697937
 21
399.8880128442891
 31
0.0
  0
ARC
  5
3F6
  8
0
  6
CONTINUOUS
 62
     7
 10
-17.84651063697936
 20
399.8880128442891
 30
0.0
 40
0.0999999999999994
 50
180.0
 51
270.0
  0
ARC
  5
3F7
  8
0
  6
CONTINUOUS
 62
     7
 10
16.15348936302063
 20
399.8880128442891
 30
0.0
 40
0.099999999999989
 50
270.000000000002
 51
0.0
  0
LINE
  5
3F8
  8
0
  6
CONTINUOUS
 62
     7
 10
16.00348936302061
 20
399.788012844289
 30
0.0
 11
16.15348936302063
 21
399.788012844289
 31
0.0
  0
LINE
  5
3F9
  8
0
  6
CONTINUOUS
 62
     7
 10
16.00348936302061
 20
399.788012844289
 30
0.0
 11
-17.69651063697937
 21
399.788012844289
 31
0.0
  0
LINE
  5
3FA
  8
0
  6
CONTINUOUS
 62
     7
 10
-17.84651063697936
 20
399.788012844289
 30
0.0
 11
-17.69651063697937
 21
399.788012844289
 31
0.0
  0
LINE
  5
3FB
  8
0
  6
CONTINUOUS
 62
     7
 10
32.00055179129276
 20
509.9880095495535
 30
0.0
 11
32.01858695536867
 21
496.0940864359241
 31
0.0
  0
LINE
  5
3FC
  8
0
  6
CONTINUOUS
 62
     7
 10
29.65348936302054
 20
496.0940864359241
 30
0.0
 11
32.01858695536867
 21
496.0940864359242
 31
0.0
  0
LINE
  5
3FD
  8
0
  6
CONTINUOUS
 62
     7
 10
-31.34651063697931
 20
496.0940864359241
 30
0.0
 11
-33.71160822932743
 21
496.0940864359242
 31
0.0
  0
LINE
  5
3FE
  8
0
  6
CONTINUOUS
 62
     7
 10
-33.69357306525151
 20
509.9880095495535
 30
0.0
 11
-33.71160822932743
 21
496.0940864359241
 31
0.0
  0
LINE
  5
3FF
  8
0
  6
CONTINUOUS
 62
     7
 10
27.79499686749048
 20
484.8492271803925
 30
0.0
 11
27.79745236655722
 21
484.98801347101
 31
0.0
  0
LINE
  5
400
  8
0
  6
CONTINUOUS
 62
     7
 10
-29.28559135065137
 20
483.988012844289
 30
0.0
 11
-33.35413067391069
 21
483.988012844289
 31
0.0
  0
LINE
  5
401
  8
0
  6
CONTINUOUS
 62
     7
 10
-33.48786583370593
 20
484.8319702569161
 30
0.0
 11
-33.35413067391069
 21
483.988012844289
 31
0.0
  0
LINE
  5
402
  8
0
  6
CONTINUOUS
 62
     7
 10
-29.48801814144924
 20
484.8492271803925
 30
0.0
 11
-29.49047364051598
 21
484.98801347101
 31
0.0
  0
LINE
  5
403
  8
0
  6
CONTINUOUS
 62
     7
 10
-29.28559135065137
 20
483.988012844289
 30
0.0
 11
-29.48801814144924
 21
484.8492271803925
 31
0.0
  0
LINE
  5
404
  8
0
  6
CONTINUOUS
 62
     7
 10
-33.71160822932743
 20
496.0940864359242
 30
0.0
 11
-33.48786583370593
 21
484.8319702569161
 31
0.0
  0
LINE
  5
405
  8
0
  6
CONTINUOUS
 62
     7
 10
31.79484455974717
 20
484.8319702569161
 30
0.0
 11
31.66110939995193
 21
483.988012844289
 31
0.0
  0
LINE
  5
406
  8
0
  6
CONTINUOUS
 62
     7
 10
27.59257007669261
 20
483.988012844289
 30
0.0
 11
31.66110939995193
 21
483.988012844289
 31
0.0
  0
LINE
  5
407
  8
0
  6
CONTINUOUS
 62
     7
 10
27.59257007669261
 20
483.988012844289
 30
0.0
 11
27.79499686749048
 21
484.8492271803925
 31
0.0
  0
LINE
  5
408
  8
0
  6
CONTINUOUS
 62
     7
 10
32.01858695536867
 20
496.0940864359242
 30
0.0
 11
31.79484455974717
 21
484.8319702569161
 31
0.0
  0
LINE
  5
409
  8
0
  6
CONTINUOUS
 62
     7
 10
31.66110939995193
 20
483.988012844289
 30
0.0
 11
31.79484455974716
 21
483.4067102664516
 31
0.0
  0
LINE
  5
40A
  8
0
  6
CONTINUOUS
 62
     7
 10
31.79484455974716
 20
483.4067102664516
 30
0.0
 11
32.08718725882922
 21
471.8819392526605
 31
0.0
  0
LINE
  5
40B
  8
0
  6
CONTINUOUS
 62
     7
 10
32.08718725882922
 20
471.8819392526605
 30
0.0
 11
28.08703494528653
 21
471.8819392526538
 31
0.0
  0
LINE
  5
40C
  8
0
  6
CONTINUOUS
 62
     7
 10
28.08703494528653
 20
471.8819392526538
 30
0.0
 11
27.79499686749048
 21
483.3946695761837
 31
0.0
  0
LINE
  5
40D
  8
0
  6
CONTINUOUS
 62
     7
 10
27.79499686749048
 20
483.3946695761837
 30
0.0
 11
27.59257007669261
 21
483.988012844289
 31
0.0
  0
LINE
  5
40E
  8
0
  6
CONTINUOUS
 62
     7
 10
31.30538978528411
 20
419.988012844289
 30
0.0
 11
32.28318910198557
 21
419.9880128442891
 31
0.0
  0
LINE
  5
40F
  8
0
  6
CONTINUOUS
 62
     7
 10
28.2624905960568
 20
434.9879873629296
 30
0.0
 11
28.08703494528653
 21
471.8819392526538
 31
0.0
  0
LINE
  5
410
  8
0
  6
CONTINUOUS
 62
     7
 10
32.08718725882922
 20
471.8819392526605
 30
0.0
 11
32.23473370742972
 21
440.0291036332377
 31
0.0
  0
LINE
  5
411
  8
0
  6
CONTINUOUS
 62
     7
 10
32.35075090505973
 20
420.08801274542
 30
0.0
 11
32.35136782936762
 21
419.988012844289
 31
0.0
  0
LINE
  5
412
  8
0
  6
CONTINUOUS
 62
     7
 10
-29.78005621924529
 20
471.8819392526538
 30
0.0
 11
-29.48801814144924
 21
483.3946695761837
 31
0.0
  0
LINE
  5
413
  8
0
  6
CONTINUOUS
 62
     7
 10
-33.78020853278799
 20
471.8819392526605
 30
0.0
 11
-29.78005621924529
 21
471.8819392526538
 31
0.0
  0
LINE
  5
414
  8
0
  6
CONTINUOUS
 62
     7
 10
-33.48786583370592
 20
483.4067102664516
 30
0.0
 11
-33.78020853278799
 21
471.8819392526605
 31
0.0
  0
LINE
  5
415
  8
0
  6
CONTINUOUS
 62
     7
 10
-33.35413067391069
 20
483.988012844289
 30
0.0
 11
-33.48786583370592
 21
483.4067102664516
 31
0.0
  0
LINE
  5
416
  8
0
  6
CONTINUOUS
 62
     7
 10
-29.48801814144924
 20
483.3946695761837
 30
0.0
 11
-29.28559135065137
 21
483.988012844289
 31
0.0
  0
LINE
  5
417
  8
0
  6
CONTINUOUS
 62
     7
 10
-29.95551187001557
 20
434.9879873629296
 30
0.0
 11
-29.78005621924529
 21
471.8819392526538
 31
0.0
  0
LINE
  5
418
  8
0
  6
CONTINUOUS
 62
     7
 10
-32.99841105924287
 20
419.988012844289
 30
0.0
 11
-33.97621037594433
 21
419.9880128442891
 31
0.0
  0
LINE
  5
419
  8
0
  6
CONTINUOUS
 62
     7
 10
-33.78020853278799
 20
471.8819392526605
 30
0.0
 11
-33.92775498138848
 21
440.0291036332377
 31
0.0
  0
LINE
  5
41A
  8
0
  6
CONTINUOUS
 62
     7
 10
-34.0437721790185
 20
420.08801274542
 30
0.0
 11
-34.04438910332637
 21
419.988012844289
 31
0.0
  0
LINE
  5
41B
  8
0
  6
CONTINUOUS
 62
     7
 10
-29.64141038780124
 20
434.9880115731033
 30
0.0
 11
-29.48801814144924
 21
451.618979444458
 31
0.0
  0
LINE
  5
41C
  8
0
  6
CONTINUOUS
 62
     7
 10
27.94838911384248
 20
434.9880115731033
 30
0.0
 11
27.79499686749048
 21
451.618979444458
 31
0.0
  0
LINE
  5
41D
  8
0
  6
CONTINUOUS
 62
     7
 10
27.79499686749048
 20
451.618979444458
 30
0.0
 11
27.5925700766926
 21
453.2491766755627
 31
0.0
  0
LINE
  5
41E
  8
0
  6
CONTINUOUS
 62
     7
 10
27.5925700766926
 20
453.2491766755627
 30
0.0
 11
27.79499686749048
 21
450.8830097338073
 31
0.0
  0
ARC
  5
41F
  8
0
  6
CONTINUOUS
 62
     7
 10
19.7953014829771
 20
443.144458249582
 30
0.0
 40
8.000000000000005
 50
0.4999999999998863
 51
30.98818542378092
  0
ARC
  5
420
  8
0
  6
CONTINUOUS
 62
     7
 10
-21.48832275693587
 20
443.144458249582
 30
0.0
 40
8.000000000000005
 50
149.0118145762191
 51
179.5000000000001
  0
LINE
  5
421
  8
0
  6
CONTINUOUS
 62
     7
 10
-29.28559135065137
 20
453.2491766755627
 30
0.0
 11
-29.48801814144924
 21
450.8830097338073
 31
0.0
  0
LINE
  5
422
  8
0
  6
CONTINUOUS
 62
     7
 10
-29.48801814144924
 20
451.618979444458
 30
0.0
 11
-29.28559135065137
 21
453.2491766755627
 31
0.0
  0
LINE
  5
423
  8
0
  6
CONTINUOUS
 62
     7
 10
-29.48801814144924
 20
450.8830097338073
 30
0.0
 11
-29.59767103727925
 21
434.9879786528049
 31
0.0
  0
LINE
  5
424
  8
0
  6
CONTINUOUS
 62
     7
 10
27.79499686749048
 20
450.8830097338073
 30
0.0
 11
27.90464976332049
 21
434.9879786528049
 31
0.0
  0
LINE
  5
425
  8
0
  6
CONTINUOUS
 62
     7
 10
27.79499686749048
 20
443.2142705335689
 30
0.0
 11
27.86678633075754
 21
434.9880128442891
 31
0.0
  0
LINE
  5
426
  8
0
  6
CONTINUOUS
 62
     7
 10
-29.48801814144924
 20
443.2142705335689
 30
0.0
 11
-29.5598076047163
 21
434.9880128442891
 31
0.0
  0
LINE
  5
427
  8
0
  6
CONTINUOUS
 62
     7
 10
32.58448959181293
 20
402.3838274895466
 30
0.0
 11
32.58332827779423
 21
402.4107532735944
 31
0.0
  0
LINE
  5
428
  8
0
  6
CONTINUOUS
 62
     7
 10
32.58332827779422
 20
402.4107532735944
 30
0.0
 11
32.58321354039153
 21
402.4106335618228
 31
0.0
  0
LINE
  5
429
  8
0
  6
CONTINUOUS
 62
     7
 10
32.66510581714734
 20
401.9880128442887
 30
0.0
 11
32.58448959181293
 21
402.3838274895466
 31
0.0
  0
LINE
  5
42A
  8
0
  6
CONTINUOUS
 62
     7
 10
32.58591210177366
 20
401.699218374537
 30
0.0
 11
32.66510581714721
 21
401.988012844289
 31
0.0
  0
LINE
  5
42B
  8
0
  6
CONTINUOUS
 62
     7
 10
-34.27751086577169
 20
402.3838274895466
 30
0.0
 11
-34.27634955175299
 21
402.4107532735944
 31
0.0
  0
LINE
  5
42C
  8
0
  6
CONTINUOUS
 62
     7
 10
-34.35812709110611
 20
401.9880128442887
 30
0.0
 11
-34.27751086577169
 21
402.3838274895466
 31
0.0
  0
LINE
  5
42D
  8
0
  6
CONTINUOUS
 62
     7
 10
-34.27634955175298
 20
402.4107532735944
 30
0.0
 11
-34.2762348143503
 21
402.4106335618228
 31
0.0
  0
LINE
  5
42E
  8
0
  6
CONTINUOUS
 62
     7
 10
-34.27893337573242
 20
401.699218374537
 30
0.0
 11
-34.35812709110597
 21
401.988012844289
 31
0.0
  0
LINE
  5
42F
  8
0
  6
CONTINUOUS
 62
     7
 10
32.66510581714724
 20
399.988012844289
 30
0.0
 11
32.58591210177366
 21
400.2768073140412
 31
0.0
  0
LINE
  5
430
  8
0
  6
CONTINUOUS
 62
     7
 10
32.58591210177367
 20
401.6992088046082
 30
0.0
 11
32.58591210177367
 21
400.2768168839698
 31
0.0
  0
LINE
  5
431
  8
0
  6
CONTINUOUS
 62
     7
 10
35.38601872125372
 20
401.988012844289
 30
0.0
 11
32.66510581714781
 21
401.988012844289
 31
0.0
  0
LINE
  5
432
  8
0
  6
CONTINUOUS
 62
     7
 10
35.38601872125371
 20
399.988012844289
 30
0.0
 11
35.38601872125372
 21
401.988012844289
 31
0.0
  0
LINE
  5
433
  8
0
  6
CONTINUOUS
 62
     7
 10
32.66510581714724
 20
399.988012844289
 30
0.0
 11
35.38601872125371
 21
399.988012844289
 31
0.0
  0
LINE
  5
434
  8
0
  6
CONTINUOUS
 62
     7
 10
-37.07903999521248
 20
399.988012844289
 30
0.0
 11
-37.07903999521248
 21
401.988012844289
 31
0.0
  0
LINE
  5
435
  8
0
  6
CONTINUOUS
 62
     7
 10
-37.07903999521248
 20
401.988012844289
 30
0.0
 11
-34.35812709110657
 21
401.988012844289
 31
0.0
  0
LINE
  5
436
  8
0
  6
CONTINUOUS
 62
     7
 10
-34.27893337573243
 20
401.6992088046082
 30
0.0
 11
-34.27893337573243
 21
400.2768168839698
 31
0.0
  0
LINE
  5
437
  8
0
  6
CONTINUOUS
 62
     7
 10
-34.358127091106
 20
399.988012844289
 30
0.0
 11
-34.27893337573242
 21
400.2768073140412
 31
0.0
  0
LINE
  5
438
  8
0
  6
CONTINUOUS
 62
     7
 10
-34.358127091106
 20
399.988012844289
 30
0.0
 11
-37.07903999521248
 21
399.988012844289
 31
0.0
  0
POLYLINE
  5
439
  8
0
  6
CONTINUOUS
 62
     7
 66
     1
 10
0.0
 20
0.0
 30
0.0
  0
VERTEX
  5
74F
  8
0
  6
CONTINUOUS
 62
     7
 10
-34.25645038188691
 20
405.693676473772
 30
0.0
  0
VERTEX
  5
750
  8
0
  6
CONTINUOUS
 62
     7
 10
-34.25540375448249
 20
405.7337819267997
 30
0.0
  0
VERTEX
  5
751
  8
0
  6
CONTINUOUS
 62
     7
 10
-34.25274067420485
 20
405.773845702758
 30
0.0
  0
VERTEX
  5
752
  8
0
  6
CONTINUOUS
 62
     7
 10
-34.24845277234603
 20
405.8137669942457
 30
0.0
  0
VERTEX
  5
753
  8
0
  6
CONTINUOUS
 62
     7
 10
-34.24253168019803
 20
405.8534449938617
 30
0.0
  0
VERTEX
  5
754
  8
0
  6
CONTINUOUS
 62
     7
 10
-34.23470609472184
 20
405.8939999574974
 30
0.0
  0
VERTEX
  5
755
  8
0
  6
CONTINUOUS
 62
     7
 10
-34.22508882435706
 20
405.9342111154598
 30
0.0
  0
VERTEX
  5
756
  8
0
  6
CONTINUOUS
 62
     7
 10
-34.21365539940933
 20
405.9739388835229
 30
0.0
  0
VERTEX
  5
757
  8
0
  6
CONTINUOUS
 62
     7
 10
-34.20038135018423
 20
406.0130436774612
 30
0.0
  0
VERTEX
  5
758
  8
0
  6
CONTINUOUS
 62
     7
 10
-34.18660465233302
 20
406.0481437409372
 30
0.0
  0
VERTEX
  5
759
  8
0
  6
CONTINUOUS
 62
     7
 10
-34.17116320979989
 20
406.0826645680287
 30
0.0
  0
VERTEX
  5
75A
  8
0
  6
CONTINUOUS
 62
     7
 10
-34.15404059994023
 20
406.1164245931312
 30
0.0
  0
VERTEX
  5
75B
  8
0
  6
CONTINUOUS
 62
     7
 10
-34.13522040010948
 20
406.1492422506396
 30
0.0
  0
VERTEX
  5
75C
  8
0
  6
CONTINUOUS
 62
     7
 10
-34.11468618766303
 20
406.1809359749493
 30
0.0
  0
VERTEX
  5
75D
  8
0
  6
CONTINUOUS
 62
     7
 10
-34.09242153995628
 20
406.2113242004555
 30
0.0
  0
VERTEX
  5
75E
  8
0
  6
CONTINUOUS
 62
     7
 10
-34.07491126424297
 20
406.2327585741988
 30
0.0
  0
VERTEX
  5
75F
  8
0
  6
CONTINUOUS
 62
     7
 10
-34.05640365510721
 20
406.2533571867796
 30
0.0
  0
VERTEX
  5
760
  8
0
  6
CONTINUOUS
 62
     7
 10
-34.03691425994833
 20
406.2730040604832
 30
0.0
  0
VERTEX
  5
761
  8
0
  6
CONTINUOUS
 62
     7
 10
-34.0212621218847
 20
406.2873982128282
 30
0.0
  0
VERTEX
  5
762
  8
0
  6
CONTINUOUS
 62
     7
 10
-34.00501083796382
 20
406.3011424529201
 30
0.0
  0
VERTEX
  5
763
  8
0
  6
CONTINUOUS
 62
     7
 10
-33.98818414189687
 20
406.3141712189182
 30
0.0
  0
VERTEX
  5
764
  8
0
  6
CONTINUOUS
 62
     7
 10
-33.970805767395
 20
406.3264189489815
 30
0.0
  0
VERTEX
  5
765
  8
0
  6
CONTINUOUS
 62
     7
 10
-33.95219097437201
 20
406.3382499269309
 30
0.0
  0
VERTEX
  5
766
  8
0
  6
CONTINUOUS
 62
     7
 10
-33.93299278802498
 20
406.3491357064917
 30
0.0
  0
VERTEX
  5
767
  8
0
  6
CONTINUOUS
 62
     7
 10
-33.91326626552716
 20
406.358996478902
 30
0.0
  0
VERTEX
  5
768
  8
0
  6
CONTINUOUS
 62
     7
 10
-33.8977268561403
 20
406.3658522227563
 30
0.0
  0
VERTEX
  5
769
  8
0
  6
CONTINUOUS
 62
     7
 10
-33.8818932127758
 20
406.3720423182455
 30
0.0
  0
VERTEX
  5
76A
  8
0
  6
CONTINUOUS
 62
     7
 10
-33.86580553518669
 20
406.3775343784692
 30
0.0
  0
VERTEX
  5
76B
  8
0
  6
CONTINUOUS
 62
     7
 10
-33.84950402312595
 20
406.3822960165271
 30
0.0
  0
VERTEX
  5
76C
  8
0
  6
CONTINUOUS
 62
     7
 10
-33.83124934344319
 20
406.3866775504491
 30
0.0
  0
VERTEX
  5
76D
  8
0
  6
CONTINUOUS
 62
     7
 10
-33.81275516044235
 20
406.390120100396
 30
0.0
  0
VERTEX
  5
76E
  8
0
  6
CONTINUOUS
 62
     7
 10
-33.7940962447577
 20
406.3926037379379
 30
0.0
  0
VERTEX
  5
76F
  8
0
  6
CONTINUOUS
 62
     7
 10
-33.77534736702339
 20
406.3941085346449
 30
0.0
  0
VERTEX
  5
770
  8
0
  6
CONTINUOUS
 62
     7
 10
-33.75658329787367
 20
406.3946145620873
 30
0.0
  0
SEQEND
  5
85A
  8
0
  6
CONTINUOUS
 62
     7
  0
LINE
  5
43A
  8
0
  6
CONTINUOUS
 62
     7
 10
-34.25645038188691
 20
405.693676473772
 30
0.0
 11
-34.27634955175298
 21
402.4107532735944
 31
0.0
  0
POLYLINE
  5
43B
  8
0
  6
CONTINUOUS
 62
     7
 66
     1
 10
0.0
 20
0.0
 30
0.0
  0
VERTEX
  5
771
  8
0
  6
CONTINUOUS
 62
     7
 10
-37.07903999521248
 20
401.988012844289
 30
0.0
  0
VERTEX
  5
772
  8
0
  6
CONTINUOUS
 62
     7
 10
-37.05073450177237
 20
406.6637525746314
 30
0.0
  0
VERTEX
  5
773
  8
0
  6
CONTINUOUS
 62
     7
 10
-36.77412236745773
 20
462.2253796995121
 30
0.0
  0
VERTEX
  5
774
  8
0
  6
CONTINUOUS
 62
     7
 10
-36.66550691041586
 20
517.7880128442891
 30
0.0
  0
SEQEND
  5
85B
  8
0
  6
CONTINUOUS
 62
     7
  0
LINE
  5
43C
  8
0
  6
CONTINUOUS
 62
     7
 10
-36.66550691041586
 20
517.7880128442891
 30
0.0
 11
-36.66550691041587
 21
557.9880128442891
 31
0.0
  0
LINE
  5
43D
  8
0
  6
CONTINUOUS
 62
     7
 10
-34.66543075364439
 20
559.9880128442891
 30
0.0
 11
-36.66550691041587
 21
557.9880128442891
 31
0.0
  0
LINE
  5
43E
  8
0
  6
CONTINUOUS
 62
     7
 10
-33.86540029093582
 20
559.9880128442891
 30
0.0
 11
-34.66543075364439
 21
559.9880128442891
 31
0.0
  0
LINE
  5
43F
  8
0
  6
CONTINUOUS
 62
     7
 10
-33.86540029093582
 20
530.475188729353
 30
0.0
 11
-33.86540029093582
 21
559.9880128442891
 31
0.0
  0
POLYLINE
  5
440
  8
0
  6
CONTINUOUS
 62
     7
 66
     1
 10
0.0
 20
0.0
 30
0.0
  0
VERTEX
  5
775
  8
0
  6
CONTINUOUS
 62
     7
 10
-33.86540029093584
 20
530.4751887293529
 30
0.0
  0
VERTEX
  5
776
  8
0
  6
CONTINUOUS
 62
     7
 10
-33.85395289225401
 20
530.3248525955768
 30
0.0
  0
VERTEX
  5
777
  8
0
  6
CONTINUOUS
 62
     7
 10
-33.82013484799602
 20
530.1815998149784
 30
0.0
  0
VERTEX
  5
778
  8
0
  6
CONTINUOUS
 62
     7
 10
-33.76549461374019
 20
530.0519896245598
 30
0.0
  0
VERTEX
  5
779
  8
0
  6
CONTINUOUS
 62
     7
 10
-33.69253404840218
 20
529.9419565964339
 30
0.0
  0
VERTEX
  5
77A
  8
0
  6
CONTINUOUS
 62
     7
 10
-33.60459385949112
 20
529.8565389065193
 30
0.0
  0
SEQEND
  5
85C
  8
0
  6
CONTINUOUS
 62
     7
  0
LINE
  5
441
  8
0
  6
CONTINUOUS
 62
     7
 10
-33.44651063697939
 20
529.5577957925708
 30
0.0
 11
-33.60459385949109
 21
529.8565389065194
 31
0.0
  0
LINE
  5
442
  8
0
  6
CONTINUOUS
 62
     7
 10
-33.44651063697939
 20
528.7117850441358
 30
0.0
 11
-33.44651063697939
 21
529.5577957925709
 31
0.0
  0
LINE
  5
443
  8
0
  6
CONTINUOUS
 62
     7
 10
-33.86540029093634
 20
527.9431460061012
 30
0.0
 11
-33.80006402757267
 21
528.0046782629491
 31
0.0
  0
LINE
  5
444
  8
0
  6
CONTINUOUS
 62
     7
 10
-33.86540029093582
 20
517.7880128442891
 30
0.0
 11
-33.86540029093581
 21
527.9431460061006
 31
0.0
  0
LINE
  5
445
  8
0
  6
CONTINUOUS
 62
     7
 10
-33.86540029093582
 20
517.7880128442891
 30
0.0
 11
-34.06888302185529
 21
440.0891423452181
 31
0.0
  0
LINE
  5
446
  8
0
  6
CONTINUOUS
 62
     7
 10
-34.06888302185529
 20
440.0891423452181
 30
0.0
 11
-34.06912875596452
 21
440.038012844289
 31
0.0
  0
LINE
  5
447
  8
0
  6
CONTINUOUS
 62
     7
 10
-34.06912875596452
 20
440.038012844289
 30
0.0
 11
-34.0193672665326
 21
440.038012844289
 31
0.0
  0
LINE
  5
448
  8
0
  6
CONTINUOUS
 62
     7
 10
-33.96936651907308
 20
439.9877723846267
 30
0.0
 11
-34.0193672665326
 21
440.038012844289
 31
0.0
  0
LINE
  5
449
  8
0
  6
CONTINUOUS
 62
     7
 10
-34.0193672665326
 20
439.9380128442891
 30
0.0
 11
-33.96936651907308
 21
439.9877723846267
 31
0.0
  0
LINE
  5
44A
  8
0
  6
CONTINUOUS
 62
     7
 10
-34.0193672665326
 20
439.9380128442891
 30
0.0
 11
-34.06960969254575
 21
439.9380128442891
 31
0.0
  0
LINE
  5
44B
  8
0
  6
CONTINUOUS
 62
     7
 10
-34.06960969254575
 20
439.9380128442891
 30
0.0
 11
-34.17323903791507
 21
420.038012844289
 31
0.0
  0
LINE
  5
44C
  8
0
  6
CONTINUOUS
 62
     7
 10
-34.17323903791507
 20
420.038012844289
 30
0.0
 11
-34.12351581486215
 21
420.038012844289
 31
0.0
  0
LINE
  5
44D
  8
0
  6
CONTINUOUS
 62
     7
 10
-34.07351546461842
 20
419.9877341313796
 30
0.0
 11
-34.12351581486215
 21
420.038012844289
 31
0.0
  0
LINE
  5
44E
  8
0
  6
CONTINUOUS
 62
     7
 10
-34.12351581486215
 20
419.9380128442891
 30
0.0
 11
-34.07351546461842
 21
419.9877341313796
 31
0.0
  0
LINE
  5
44F
  8
0
  6
CONTINUOUS
 62
     7
 10
-34.12351581486215
 20
419.9380128442891
 30
0.0
 11
-34.17379648400187
 21
419.9380128442871
 31
0.0
  0
LINE
  5
450
  8
0
  6
CONTINUOUS
 62
     7
 10
-34.17379648400187
 20
419.9380128442871
 30
0.0
 11
-34.22264923174838
 21
411.3902138211221
 31
0.0
  0
POLYLINE
  5
451
  8
0
  6
CONTINUOUS
 62
     7
 66
     1
 10
0.0
 20
0.0
 30
0.0
  0
VERTEX
  5
77B
  8
0
  6
CONTINUOUS
 62
     7
 10
-33.94789220762198
 20
410.7527442554033
 30
0.0
  0
VERTEX
  5
77C
  8
0
  6
CONTINUOUS
 62
     7
 10
-33.96715269153415
 20
410.767256344154
 30
0.0
  0
VERTEX
  5
77D
  8
0
  6
CONTINUOUS
 62
     7
 10
-33.9856737967587
 20
410.7827023129246
 30
0.0
  0
VERTEX
  5
77E
  8
0
  6
CONTINUOUS
 62
     7
 10
-34.00381622569315
 20
410.7993652727874
 30
0.0
  0
VERTEX
  5
77F
  8
0
  6
CONTINUOUS
 62
     7
 10
-34.02118858696206
 20
410.8168646345869
 30
0.0
  0
VERTEX
  5
780
  8
0
  6
CONTINUOUS
 62
     7
 10
-34.03777629968152
 20
410.8351147883496
 30
0.0
  0
VERTEX
  5
781
  8
0
  6
CONTINUOUS
 62
     7
 10
-34.05356478296763
 20
410.8540301241015
 30
0.0
  0
VERTEX
  5
782
  8
0
  6
CONTINUOUS
 62
     7
 10
-34.06886648052198
 20
410.8739628861373
 30
0.0
  0
VERTEX
  5
783
  8
0
  6
CONTINUOUS
 62
     7
 10
-34.08337011633736
 20
410.8944843124523
 30
0.0
  0
VERTEX
  5
784
  8
0
  6
CONTINUOUS
 62
     7
 10
-34.10039278829278
 20
410.9208813107939
 30
0.0
  0
VERTEX
  5
785
  8
0
  6
CONTINUOUS
 62
     7
 10
-34.11620849544677
 20
410.9480198382665
 30
0.0
  0
VERTEX
  5
786
  8
0
  6
CONTINUOUS
 62
     7
 10
-34.13094885598252
 20
410.9760309719816
 30
0.0
  0
VERTEX
  5
787
  8
0
  6
CONTINUOUS
 62
     7
 10
-34.14451241065331
 20
411.0046313190038
 30
0.0
  0
VERTEX
  5
788
  8
0
  6
CONTINUOUS
 62
     7
 10
-34.15717220971308
 20
411.0343696831534
 30
0.0
  0
VERTEX
  5
789
  8
0
  6
CONTINUOUS
 62
     7
 10
-34.16865423522746
 20
411.0645829656641
 30
0.0
  0
VERTEX
  5
78A
  8
0
  6
CONTINUOUS
 62
     7
 10
-34.1790388367927
 20
411.0953932937138
 30
0.0
  0
VERTEX
  5
78B
  8
0
  6
CONTINUOUS
 62
     7
 10
-34.18827564320225
 20
411.1265674172201
 30
0.0
  0
VERTEX
  5
78C
  8
0
  6
CONTINUOUS
 62
     7
 10
-34.19648126504594
 20
411.1584635308068
 30
0.0
  0
VERTEX
  5
78D
  8
0
  6
CONTINUOUS
 62
     7
 10
-34.20354620034592
 20
411.190631868059
 30
0.0
  0
VERTEX
  5
78E
  8
0
  6
CONTINUOUS
 62
     7
 10
-34.2095122548915
 20
411.2231881911632
 30
0.0
  0
VERTEX
  5
78F
  8
0
  6
CONTINUOUS
 62
     7
 10
-34.21435452303422
 20
411.2559307384695
 30
0.0
  0
VERTEX
  5
790
  8
0
  6
CONTINUOUS
 62
     7
 10
-34.21812969152442
 20
411.2892990333439
 30
0.0
  0
VERTEX
  5
791
  8
0
  6
CONTINUOUS
 62
     7
 10
-34.22076733406235
 20
411.3227765806354
 30
0.0
  0
VERTEX
  5
792
  8
0
  6
CONTINUOUS
 62
     7
 10
-34.22227766751187
 20
411.3564792939509
 30
0.0
  0
VERTEX
  5
793
  8
0
  6
CONTINUOUS
 62
     7
 10
-34.22264923174838
 20
411.3902138211221
 30
0.0
  0
SEQEND
  5
85D
  8
0
  6
CONTINUOUS
 62
     7
  0
LINE
  5
452
  8
0
  6
CONTINUOUS
 62
     7
 10
-33.94789220762198
 20
410.7527442554033
 30
0.0
 11
-29.52109322831255
 21
407.5907449844681
 31
0.0
  0
POLYLINE
  5
453
  8
0
  6
CONTINUOUS
 62
     7
 66
     1
 10
0.0
 20
0.0
 30
0.0
  0
VERTEX
  5
794
  8
0
  6
CONTINUOUS
 62
     7
 10
-29.24904270212425
 20
407.0306487917373
 30
0.0
  0
VERTEX
  5
795
  8
0
  6
CONTINUOUS
 62
     7
 10
-29.26901479971703
 20
407.1693271658108
 30
0.0
  0
VERTEX
  5
796
  8
0
  6
CONTINUOUS
 62
     7
 10
-29.3081148656192
 20
407.2996031439997
 30
0.0
  0
VERTEX
  5
797
  8
0
  6
CONTINUOUS
 62
     7
 10
-29.3647765933562
 20
407.4162580111072
 30
0.0
  0
VERTEX
  5
798
  8
0
  6
CONTINUOUS
 62
     7
 10
-29.43673017521888
 20
407.5146186989577
 30
0.0
  0
VERTEX
  5
799
  8
0
  6
CONTINUOUS
 62
     7
 10
-29.52109322831254
 20
407.5907449844681
 30
0.0
  0
SEQEND
  5
85E
  8
0
  6
CONTINUOUS
 62
     7
  0
POLYLINE
  5
454
  8
0
  6
CONTINUOUS
 62
     7
 66
     1
 10
0.0
 20
0.0
 30
0.0
  0
VERTEX
  5
79A
  8
0
  6
CONTINUOUS
 62
     7
 10
-29.7465106369794
 20
406.3946145620873
 30
0.0
  0
VERTEX
  5
79B
  8
0
  6
CONTINUOUS
 62
     7
 10
-29.64227268483279
 20
406.4101514634608
 30
0.0
  0
VERTEX
  5
79C
  8
0
  6
CONTINUOUS
 62
     7
 10
-29.54261546879273
 20
406.456079398555
 30
0.0
  0
VERTEX
  5
79D
  8
0
  6
CONTINUOUS
 62
     7
 10
-29.45191842454834
 20
406.5303800645708
 30
0.0
  0
VERTEX
  5
79E
  8
0
  6
CONTINUOUS
 62
     7
 10
-29.37416723309942
 20
406.6297883192395
 30
0.0
  0
VERTEX
  5
79F
  8
0
  6
CONTINUOUS
 62
     7
 10
-29.31277867003165
 20
406.7499356674778
 30
0.0
  0
VERTEX
  5
7A0
  8
0
  6
CONTINUOUS
 62
     7
 10
-29.27045045533649
 20
406.8855422348747
 30
0.0
  0
VERTEX
  5
7A1
  8
0
  6
CONTINUOUS
 62
     7
 10
-29.24904270212425
 20
407.0306487917373
 30
0.0
  0
SEQEND
  5
85F
  8
0
  6
CONTINUOUS
 62
     7
  0
LINE
  5
455
  8
0
  6
CONTINUOUS
 62
     7
 10
-29.7465106369794
 20
406.3946145620873
 30
0.0
 11
-33.75658329787367
 21
406.3946145620873
 31
0.0
  0
POLYLINE
  5
456
  8
0
  6
CONTINUOUS
 62
     7
 66
     1
 10
0.0
 20
0.0
 30
0.0
  0
VERTEX
  5
7A2
  8
0
  6
CONTINUOUS
 62
     7
 10
27.55602142816549
 20
407.0306487917373
 30
0.0
  0
VERTEX
  5
7A3
  8
0
  6
CONTINUOUS
 62
     7
 10
27.57742918137774
 20
406.8855422348747
 30
0.0
  0
VERTEX
  5
7A4
  8
0
  6
CONTINUOUS
 62
     7
 10
27.6197573960729
 20
406.7499356674778
 30
0.0
  0
VERTEX
  5
7A5
  8
0
  6
CONTINUOUS
 62
     7
 10
27.68114595914066
 20
406.6297883192395
 30
0.0
  0
VERTEX
  5
7A6
  8
0
  6
CONTINUOUS
 62
     7
 10
27.75889715058958
 20
406.5303800645708
 30
0.0
  0
VERTEX
  5
7A7
  8
0
  6
CONTINUOUS
 62
     7
 10
27.84959419483397
 20
406.456079398555
 30
0.0
  0
VERTEX
  5
7A8
  8
0
  6
CONTINUOUS
 62
     7
 10
27.94925141087403
 20
406.4101514634608
 30
0.0
  0
VERTEX
  5
7A9
  8
0
  6
CONTINUOUS
 62
     7
 10
28.05348936302064
 20
406.3946145620873
 30
0.0
  0
SEQEND
  5
860
  8
0
  6
CONTINUOUS
 62
     7
  0
POLYLINE
  5
457
  8
0
  6
CONTINUOUS
 62
     7
 66
     1
 10
0.0
 20
0.0
 30
0.0
  0
VERTEX
  5
7AA
  8
0
  6
CONTINUOUS
 62
     7
 10
27.82807195435378
 20
407.5907449844681
 30
0.0
  0
VERTEX
  5
7AB
  8
0
  6
CONTINUOUS
 62
     7
 10
27.74370890126012
 20
407.5146186989577
 30
0.0
  0
VERTEX
  5
7AC
  8
0
  6
CONTINUOUS
 62
     7
 10
27.67175531939744
 20
407.4162580111072
 30
0.0
  0
VERTEX
  5
7AD
  8
0
  6
CONTINUOUS
 62
     7
 10
27.61509359166044
 20
407.2996031439997
 30
0.0
  0
VERTEX
  5
7AE
  8
0
  6
CONTINUOUS
 62
     7
 10
27.57599352575827
 20
407.1693271658108
 30
0.0
  0
VERTEX
  5
7AF
  8
0
  6
CONTINUOUS
 62
     7
 10
27.55602142816549
 20
407.0306487917373
 30
0.0
  0
SEQEND
  5
861
  8
0
  6
CONTINUOUS
 62
     7
  0
LINE
  5
458
  8
0
  6
CONTINUOUS
 62
     7
 10
32.25487093366322
 20
410.7527442554033
 30
0.0
 11
27.82807195435378
 21
407.5907449844681
 31
0.0
  0
POLYLINE
  5
459
  8
0
  6
CONTINUOUS
 62
     7
 66
     1
 10
0.0
 20
0.0
 30
0.0
  0
VERTEX
  5
7B0
  8
0
  6
CONTINUOUS
 62
     7
 10
32.25487093366322
 20
410.7527442554033
 30
0.0
  0
VERTEX
  5
7B1
  8
0
  6
CONTINUOUS
 62
     7
 10
32.2741314175754
 20
410.767256344154
 30
0.0
  0
VERTEX
  5
7B2
  8
0
  6
CONTINUOUS
 62
     7
 10
32.29265252279995
 20
410.7827023129246
 30
0.0
  0
VERTEX
  5
7B3
  8
0
  6
CONTINUOUS
 62
     7
 10
32.31079495173439
 20
410.7993652727874
 30
0.0
  0
VERTEX
  5
7B4
  8
0
  6
CONTINUOUS
 62
     7
 10
32.3281673130033
 20
410.8168646345869
 30
0.0
  0
VERTEX
  5
7B5
  8
0
  6
CONTINUOUS
 62
     7
 10
32.34475502572276
 20
410.8351147883496
 30
0.0
  0
VERTEX
  5
7B6
  8
0
  6
CONTINUOUS
 62
     7
 10
32.36054350900888
 20
410.8540301241015
 30
0.0
  0
VERTEX
  5
7B7
  8
0
  6
CONTINUOUS
 62
     7
 10
32.37584520656323
 20
410.8739628861373
 30
0.0
  0
VERTEX
  5
7B8
  8
0
  6
CONTINUOUS
 62
     7
 10
32.3903488423786
 20
410.8944843124523
 30
0.0
  0
VERTEX
  5
7B9
  8
0
  6
CONTINUOUS
 62
     7
 10
32.40737151433402
 20
410.9208813107939
 30
0.0
  0
VERTEX
  5
7BA
  8
0
  6
CONTINUOUS
 62
     7
 10
32.42318722148801
 20
410.9480198382665
 30
0.0
  0
VERTEX
  5
7BB
  8
0
  6
CONTINUOUS
 62
     7
 10
32.43792758202376
 20
410.9760309719816
 30
0.0
  0
VERTEX
  5
7BC
  8
0
  6
CONTINUOUS
 62
     7
 10
32.45149113669455
 20
411.0046313190038
 30
0.0
  0
VERTEX
  5
7BD
  8
0
  6
CONTINUOUS
 62
     7
 10
32.46415093575432
 20
411.0343696831534
 30
0.0
  0
VERTEX
  5
7BE
  8
0
  6
CONTINUOUS
 62
     7
 10
32.47563296126869
 20
411.0645829656641
 30
0.0
  0
VERTEX
  5
7BF
  8
0
  6
CONTINUOUS
 62
     7
 10
32.48601756283394
 20
411.0953932937138
 30
0.0
  0
VERTEX
  5
7C0
  8
0
  6
CONTINUOUS
 62
     7
 10
32.49525436924348
 20
411.1265674172201
 30
0.0
  0
VERTEX
  5
7C1
  8
0
  6
CONTINUOUS
 62
     7
 10
32.50345999108718
 20
411.1584635308068
 30
0.0
  0
VERTEX
  5
7C2
  8
0
  6
CONTINUOUS
 62
     7
 10
32.51052492638716
 20
411.190631868059
 30
0.0
  0
VERTEX
  5
7C3
  8
0
  6
CONTINUOUS
 62
     7
 10
32.51649098093274
 20
411.2231881911632
 30
0.0
  0
VERTEX
  5
7C4
  8
0
  6
CONTINUOUS
 62
     7
 10
32.52133324907545
 20
411.2559307384695
 30
0.0
  0
VERTEX
  5
7C5
  8
0
  6
CONTINUOUS
 62
     7
 10
32.52510841756567
 20
411.2892990333439
 30
0.0
  0
VERTEX
  5
7C6
  8
0
  6
CONTINUOUS
 62
     7
 10
32.52774606010359
 20
411.3227765806354
 30
0.0
  0
VERTEX
  5
7C7
  8
0
  6
CONTINUOUS
 62
     7
 10
32.5292563935531
 20
411.3564792939509
 30
0.0
  0
VERTEX
  5
7C8
  8
0
  6
CONTINUOUS
 62
     7
 10
32.52962795778962
 20
411.3902138211221
 30
0.0
  0
SEQEND
  5
862
  8
0
  6
CONTINUOUS
 62
     7
  0
LINE
  5
45A
  8
0
  6
CONTINUOUS
 62
     7
 10
32.48077521004311
 20
419.9380128442871
 30
0.0
 11
32.52962795778962
 21
411.3902138211221
 31
0.0
  0
LINE
  5
45B
  8
0
  6
CONTINUOUS
 62
     7
 10
32.43049454090338
 20
419.9380128442891
 30
0.0
 11
32.48077521004311
 21
419.9380128442871
 31
0.0
  0
LINE
  5
45C
  8
0
  6
CONTINUOUS
 62
     7
 10
32.43049454090338
 20
419.9380128442891
 30
0.0
 11
32.38049419065966
 21
419.9877341313796
 31
0.0
  0
LINE
  5
45D
  8
0
  6
CONTINUOUS
 62
     7
 10
32.38049419065966
 20
419.9877341313796
 30
0.0
 11
32.43049454090338
 21
420.038012844289
 31
0.0
  0
LINE
  5
45E
  8
0
  6
CONTINUOUS
 62
     7
 10
32.48021776395631
 20
420.038012844289
 30
0.0
 11
32.43049454090338
 21
420.038012844289
 31
0.0
  0
LINE
  5
45F
  8
0
  6
CONTINUOUS
 62
     7
 10
32.376588418587
 20
439.9380128442891
 30
0.0
 11
32.48021776395631
 21
420.038012844289
 31
0.0
  0
LINE
  5
460
  8
0
  6
CONTINUOUS
 62
     7
 10
32.32634599257383
 20
439.9380128442891
 30
0.0
 11
32.376588418587
 21
439.9380128442891
 31
0.0
  0
LINE
  5
461
  8
0
  6
CONTINUOUS
 62
     7
 10
32.32634599257383
 20
439.9380128442891
 30
0.0
 11
32.27634524511431
 21
439.9877723846267
 31
0.0
  0
LINE
  5
462
  8
0
  6
CONTINUOUS
 62
     7
 10
32.27634524511431
 20
439.9877723846267
 30
0.0
 11
32.32634599257383
 21
440.038012844289
 31
0.0
  0
LINE
  5
463
  8
0
  6
CONTINUOUS
 62
     7
 10
32.37610748200576
 20
440.038012844289
 30
0.0
 11
32.32634599257383
 21
440.038012844289
 31
0.0
  0
LINE
  5
464
  8
0
  6
CONTINUOUS
 62
     7
 10
32.17237901697706
 20
517.7880128442891
 30
0.0
 11
32.37586174789652
 21
440.0891423452181
 31
0.0
  0
LINE
  5
465
  8
0
  6
CONTINUOUS
 62
     7
 10
32.37586174789652
 20
440.0891423452181
 30
0.0
 11
32.37610748200576
 21
440.038012844289
 31
0.0
  0
LINE
  5
466
  8
0
  6
CONTINUOUS
 62
     7
 10
32.17237901697706
 20
517.7880128442891
 30
0.0
 11
32.17237901697705
 21
527.9431460061006
 31
0.0
  0
LINE
  5
467
  8
0
  6
CONTINUOUS
 62
     7
 10
32.1070427536139
 20
528.0046782629491
 30
0.0
 11
32.17237901697757
 21
527.9431460061012
 31
0.0
  0
LINE
  5
468
  8
0
  6
CONTINUOUS
 62
     7
 10
31.75348936302063
 20
528.7117850441358
 30
0.0
 11
31.75348936302063
 21
529.5577957925709
 31
0.0
  0
LINE
  5
469
  8
0
  6
CONTINUOUS
 62
     7
 10
31.75348936302063
 20
529.5577957925708
 30
0.0
 11
31.91157258553233
 21
529.8565389065194
 31
0.0
  0
POLYLINE
  5
46A
  8
0
  6
CONTINUOUS
 62
     7
 66
     1
 10
0.0
 20
0.0
 30
0.0
  0
VERTEX
  5
7C9
  8
0
  6
CONTINUOUS
 62
     7
 10
31.91157258553236
 20
529.8565389065193
 30
0.0
  0
VERTEX
  5
7CA
  8
0
  6
CONTINUOUS
 62
     7
 10
31.99951277444341
 20
529.9419565964339
 30
0.0
  0
VERTEX
  5
7CB
  8
0
  6
CONTINUOUS
 62
     7
 10
32.07247333978143
 20
530.0519896245598
 30
0.0
  0
VERTEX
  5
7CC
  8
0
  6
CONTINUOUS
 62
     7
 10
32.12711357403725
 20
530.1815998149784
 30
0.0
  0
VERTEX
  5
7CD
  8
0
  6
CONTINUOUS
 62
     7
 10
32.16093161829525
 20
530.3248525955768
 30
0.0
  0
VERTEX
  5
7CE
  8
0
  6
CONTINUOUS
 62
     7
 10
32.17237901697707
 20
530.4751887293529
 30
0.0
  0
SEQEND
  5
863
  8
0
  6
CONTINUOUS
 62
     7
  0
LINE
  5
46B
  8
0
  6
CONTINUOUS
 62
     7
 10
32.17237901697706
 20
530.475188729353
 30
0.0
 11
32.17237901697706
 21
559.9880128442891
 31
0.0
  0
LINE
  5
46C
  8
0
  6
CONTINUOUS
 62
     7
 10
32.17237901697706
 20
559.9880128442891
 30
0.0
 11
32.97240947968563
 21
559.9880128442891
 31
0.0
  0
LINE
  5
46D
  8
0
  6
CONTINUOUS
 62
     7
 10
32.97240947968563
 20
559.9880128442891
 30
0.0
 11
34.97248563645712
 21
557.9880128442891
 31
0.0
  0
LINE
  5
46E
  8
0
  6
CONTINUOUS
 62
     7
 10
34.97248563645711
 20
517.7880128442891
 30
0.0
 11
34.97248563645712
 21
557.9880128442891
 31
0.0
  0
POLYLINE
  5
46F
  8
0
  6
CONTINUOUS
 62
     7
 66
     1
 10
0.0
 20
0.0
 30
0.0
  0
VERTEX
  5
7CF
  8
0
  6
CONTINUOUS
 62
     7
 10
35.38601872125372
 20
401.988012844289
 30
0.0
  0
VERTEX
  5
7D0
  8
0
  6
CONTINUOUS
 62
     7
 10
35.3577132278136
 20
406.6637525746314
 30
0.0
  0
VERTEX
  5
7D1
  8
0
  6
CONTINUOUS
 62
     7
 10
35.08110109349897
 20
462.2253796995121
 30
0.0
  0
VERTEX
  5
7D2
  8
0
  6
CONTINUOUS
 62
     7
 10
34.97248563645711
 20
517.7880128442891
 30
0.0
  0
SEQEND
  5
864
  8
0
  6
CONTINUOUS
 62
     7
  0
LINE
  5
470
  8
0
  6
CONTINUOUS
 62
     7
 10
32.56342910792814
 20
405.693676473772
 30
0.0
 11
32.58332827779422
 21
402.4107532735944
 31
0.0
  0
POLYLINE
  5
471
  8
0
  6
CONTINUOUS
 62
     7
 66
     1
 10
0.0
 20
0.0
 30
0.0
  0
VERTEX
  5
7D3
  8
0
  6
CONTINUOUS
 62
     7
 10
32.56342910792814
 20
405.693676473772
 30
0.0
  0
VERTEX
  5
7D4
  8
0
  6
CONTINUOUS
 62
     7
 10
32.56238248052373
 20
405.7337819267997
 30
0.0
  0
VERTEX
  5
7D5
  8
0
  6
CONTINUOUS
 62
     7
 10
32.5597194002461
 20
405.773845702758
 30
0.0
  0
VERTEX
  5
7D6
  8
0
  6
CONTINUOUS
 62
     7
 10
32.55543149838726
 20
405.8137669942457
 30
0.0
  0
VERTEX
  5
7D7
  8
0
  6
CONTINUOUS
 62
     7
 10
32.54951040623926
 20
405.8534449938617
 30
0.0
  0
VERTEX
  5
7D8
  8
0
  6
CONTINUOUS
 62
     7
 10
32.54168482076307
 20
405.8939999574974
 30
0.0
  0
VERTEX
  5
7D9
  8
0
  6
CONTINUOUS
 62
     7
 10
32.5320675503983
 20
405.9342111154598
 30
0.0
  0
VERTEX
  5
7DA
  8
0
  6
CONTINUOUS
 62
     7
 10
32.52063412545057
 20
405.9739388835229
 30
0.0
  0
VERTEX
  5
7DB
  8
0
  6
CONTINUOUS
 62
     7
 10
32.50736007622547
 20
406.0130436774612
 30
0.0
  0
VERTEX
  5
7DC
  8
0
  6
CONTINUOUS
 62
     7
 10
32.49358337837426
 20
406.0481437409372
 30
0.0
  0
VERTEX
  5
7DD
  8
0
  6
CONTINUOUS
 62
     7
 10
32.47814193584113
 20
406.0826645680287
 30
0.0
  0
VERTEX
  5
7DE
  8
0
  6
CONTINUOUS
 62
     7
 10
32.46101932598147
 20
406.1164245931312
 30
0.0
  0
VERTEX
  5
7DF
  8
0
  6
CONTINUOUS
 62
     7
 10
32.44219912615072
 20
406.1492422506396
 30
0.0
  0
VERTEX
  5
7E0
  8
0
  6
CONTINUOUS
 62
     7
 10
32.42166491370427
 20
406.1809359749493
 30
0.0
  0
VERTEX
  5
7E1
  8
0
  6
CONTINUOUS
 62
     7
 10
32.39940026599752
 20
406.2113242004555
 30
0.0
  0
VERTEX
  5
7E2
  8
0
  6
CONTINUOUS
 62
     7
 10
32.38188999028421
 20
406.2327585741988
 30
0.0
  0
VERTEX
  5
7E3
  8
0
  6
CONTINUOUS
 62
     7
 10
32.36338238114845
 20
406.2533571867796
 30
0.0
  0
VERTEX
  5
7E4
  8
0
  6
CONTINUOUS
 62
     7
 10
32.34389298598957
 20
406.2730040604832
 30
0.0
  0
VERTEX
  5
7E5
  8
0
  6
CONTINUOUS
 62
     7
 10
32.32824084792594
 20
406.2873982128282
 30
0.0
  0
VERTEX
  5
7E6
  8
0
  6
CONTINUOUS
 62
     7
 10
32.31198956400506
 20
406.3011424529201
 30
0.0
  0
VERTEX
  5
7E7
  8
0
  6
CONTINUOUS
 62
     7
 10
32.2951628679381
 20
406.3141712189182
 30
0.0
  0
VERTEX
  5
7E8
  8
0
  6
CONTINUOUS
 62
     7
 10
32.27778449343624
 20
406.3264189489815
 30
0.0
  0
VERTEX
  5
7E9
  8
0
  6
CONTINUOUS
 62
     7
 10
32.25916970041325
 20
406.3382499269309
 30
0.0
  0
VERTEX
  5
7EA
  8
0
  6
CONTINUOUS
 62
     7
 10
32.23997151406621
 20
406.3491357064917
 30
0.0
  0
VERTEX
  5
7EB
  8
0
  6
CONTINUOUS
 62
     7
 10
32.2202449915684
 20
406.358996478902
 30
0.0
  0
VERTEX
  5
7EC
  8
0
  6
CONTINUOUS
 62
     7
 10
32.20470558218153
 20
406.3658522227563
 30
0.0
  0
VERTEX
  5
7ED
  8
0
  6
CONTINUOUS
 62
     7
 10
32.18887193881704
 20
406.3720423182455
 30
0.0
  0
VERTEX
  5
7EE
  8
0
  6
CONTINUOUS
 62
     7
 10
32.17278426122792
 20
406.3775343784692
 30
0.0
  0
VERTEX
  5
7EF
  8
0
  6
CONTINUOUS
 62
     7
 10
32.1564827491672
 20
406.3822960165271
 30
0.0
  0
VERTEX
  5
7F0
  8
0
  6
CONTINUOUS
 62
     7
 10
32.13822806948443
 20
406.3866775504491
 30
0.0
  0
VERTEX
  5
7F1
  8
0
  6
CONTINUOUS
 62
     7
 10
32.11973388648359
 20
406.390120100396
 30
0.0
  0
VERTEX
  5
7F2
  8
0
  6
CONTINUOUS
 62
     7
 10
32.10107497079893
 20
406.3926037379379
 30
0.0
  0
VERTEX
  5
7F3
  8
0
  6
CONTINUOUS
 62
     7
 10
32.08232609306463
 20
406.3941085346449
 30
0.0
  0
VERTEX
  5
7F4
  8
0
  6
CONTINUOUS
 62
     7
 10
32.0635620239149
 20
406.3946145620873
 30
0.0
  0
SEQEND
  5
865
  8
0
  6
CONTINUOUS
 62
     7
  0
LINE
  5
472
  8
0
  6
CONTINUOUS
 62
     7
 10
28.05348936302064
 20
406.3946145620873
 30
0.0
 11
32.0635620239149
 21
406.3946145620873
 31
0.0
  0
LINE
  5
473
  8
0
  6
CONTINUOUS
 62
     7
 10
-33.86540029093582
 20
530.475188729353
 30
0.0
 11
-33.83350643236292
 21
534.1298629306358
 31
0.0
  0
LINE
  5
474
  8
0
  6
CONTINUOUS
 62
     7
 10
-33.48786583370592
 20
559.9880128442891
 30
0.0
 11
-33.86540029093582
 21
559.9880128442891
 31
0.0
  0
LINE
  5
475
  8
0
  6
CONTINUOUS
 62
     7
 10
31.79484455974716
 20
559.9880128442891
 30
0.0
 11
32.17237901697706
 21
559.9880128442891
 31
0.0
  0
LINE
  5
476
  8
0
  6
CONTINUOUS
 62
     7
 10
32.17237901697706
 20
530.475188729353
 30
0.0
 11
32.14048515840415
 21
534.1298629306358
 31
0.0
  0
POLYLINE
  5
477
  8
0
  6
CONTINUOUS
 62
     7
 66
     1
 10
0.0
 20
0.0
 30
0.0
  0
VERTEX
  5
7F5
  8
0
  6
CONTINUOUS
 62
     7
 10
31.75348936302064
 20
528.7117850441357
 30
0.0
  0
VERTEX
  5
7F6
  8
0
  6
CONTINUOUS
 62
     7
 10
31.76894134272696
 20
528.5767396657668
 30
0.0
  0
VERTEX
  5
7F7
  8
0
  6
CONTINUOUS
 62
     7
 10
31.81462195618593
 20
528.432144438746
 30
0.0
  0
VERTEX
  5
7F8
  8
0
  6
CONTINUOUS
 62
     7
 10
31.8885347413895
 20
528.2843188683389
 30
0.0
  0
VERTEX
  5
7F9
  8
0
  6
CONTINUOUS
 62
     7
 10
31.98744935495136
 20
528.1397236413181
 30
0.0
  0
VERTEX
  5
7FA
  8
0
  6
CONTINUOUS
 62
     7
 10
32.1070427536139
 20
528.0046782629491
 30
0.0
  0
SEQEND
  5
866
  8
0
  6
CONTINUOUS
 62
     7
  0
POLYLINE
  5
478
  8
0
  6
CONTINUOUS
 62
     7
 66
     1
 10
0.0
 20
0.0
 30
0.0
  0
VERTEX
  5
7FB
  8
0
  6
CONTINUOUS
 62
     7
 10
-33.80006402757267
 20
528.0046782629491
 30
0.0
  0
VERTEX
  5
7FC
  8
0
  6
CONTINUOUS
 62
     7
 10
-33.68047062891012
 20
528.1397236413181
 30
0.0
  0
VERTEX
  5
7FD
  8
0
  6
CONTINUOUS
 62
     7
 10
-33.58155601534826
 20
528.2843188683389
 30
0.0
  0
VERTEX
  5
7FE
  8
0
  6
CONTINUOUS
 62
     7
 10
-33.50764323014469
 20
528.432144438746
 30
0.0
  0
VERTEX
  5
7FF
  8
0
  6
CONTINUOUS
 62
     7
 10
-33.46196261668572
 20
528.5767396657668
 30
0.0
  0
VERTEX
  5
800
  8
0
  6
CONTINUOUS
 62
     7
 10
-33.4465106369794
 20
528.7117850441357
 30
0.0
  0
SEQEND
  5
867
  8
0
  6
CONTINUOUS
 62
     7
  0
LINE
  5
479
  8
0
  6
CONTINUOUS
 62
     7
 10
32.15140805269893
 20
517.7880128442891
 30
0.0
 11
32.15140805269893
 21
527.9620970519103
 31
0.0
  0
LINE
  5
47A
  8
0
  6
CONTINUOUS
 62
     7
 10
-33.8444293266577
 20
517.7880128442891
 30
0.0
 11
-33.8444293266577
 21
527.9620970519103
 31
0.0
  0
LINE
  5
47B
  8
0
  6
CONTINUOUS
 62
     7
 10
-29.24904270212425
 20
407.0306487917373
 30
0.0
 11
-29.24904270212425
 21
404.7114123460303
 31
0.0
  0
LINE
  5
47C
  8
0
  6
CONTINUOUS
 62
     7
 10
27.55602142816549
 20
407.0306487917373
 30
0.0
 11
27.55602142816549
 21
404.7114123460303
 31
0.0
  0
LINE
  5
47D
  8
0
  6
CONTINUOUS
 62
     7
 10
27.55602142816549
 20
402.307249289996
 30
0.0
 11
27.55602142816549
 21
399.988012844289
 31
0.0
  0
LINE
  5
47E
  8
0
  6
CONTINUOUS
 62
     7
 10
27.55602142816549
 20
404.7114123460303
 30
0.0
 11
27.55348936302064
 21
404.3669093103775
 31
0.0
  0
LINE
  5
47F
  8
0
  6
CONTINUOUS
 62
     7
 10
27.55581834102795
 20
402.3682393678952
 30
0.0
 11
27.55602142816223
 21
402.3072492899955
 31
0.0
  0
LINE
  5
480
  8
0
  6
CONTINUOUS
 62
     7
 10
-29.24904270212425
 20
404.7114123460303
 30
0.0
 11
-29.2465106369794
 21
404.3669093103775
 31
0.0
  0
LINE
  5
481
  8
0
  6
CONTINUOUS
 62
     7
 10
-29.24904270212425
 20
402.307249289996
 30
0.0
 11
-29.24904270212425
 21
399.988012844289
 31
0.0
  0
LINE
  5
482
  8
0
  6
CONTINUOUS
 62
     7
 10
-29.24883961498671
 20
402.3682393678952
 30
0.0
 11
-29.24904270212098
 21
402.3072492899955
 31
0.0
  0
LINE
  5
483
  8
0
  6
CONTINUOUS
 62
     7
 10
31.99784166116186
 20
419.988012844289
 30
0.0
 11
32.0795296152237
 21
410.627500456518
 31
0.0
  0
LINE
  5
484
  8
0
  6
CONTINUOUS
 62
     7
 10
-33.69086293512062
 20
419.988012844289
 30
0.0
 11
-33.77255088918246
 21
410.627500456518
 31
0.0
  0
POLYLINE
  5
485
  8
0
  6
CONTINUOUS
 62
     7
 66
     1
 10
0.0
 20
0.0
 30
0.0
  0
VERTEX
  5
801
  8
0
  6
CONTINUOUS
 62
     7
 10
-33.86314966635528
 20
439.9877496972495
 30
0.0
  0
VERTEX
  5
802
  8
0
  6
CONTINUOUS
 62
     7
 10
-33.8640652873577
 20
439.997541427314
 30
0.0
  0
VERTEX
  5
803
  8
0
  6
CONTINUOUS
 62
     7
 10
-33.86687974008935
 20
440.0069645293556
 30
0.0
  0
VERTEX
  5
804
  8
0
  6
CONTINUOUS
 62
     7
 10
-33.87148414307815
 20
440.0156544560465
 30
0.0
  0
VERTEX
  5
805
  8
0
  6
CONTINUOUS
 62
     7
 10
-33.87770036784828
 20
440.0232750240857
 30
0.0
  0
VERTEX
  5
806
  8
0
  6
CONTINUOUS
 62
     7
 10
-33.88528793009665
 20
440.0295314199711
 30
0.0
  0
VERTEX
  5
807
  8
0
  6
CONTINUOUS
 62
     7
 10
-33.89395329320148
 20
440.0341816053177
 30
0.0
  0
VERTEX
  5
808
  8
0
  6
CONTINUOUS
 62
     7
 10
-33.90336122414207
 20
440.037045680488
 30
0.0
  0
VERTEX
  5
809
  8
0
  6
CONTINUOUS
 62
     7
 10
-33.91314776250847
 20
440.0380128442891
 30
0.0
  0
SEQEND
  5
868
  8
0
  6
CONTINUOUS
 62
     7
  0
LINE
  5
486
  8
0
  6
CONTINUOUS
 62
     7
 10
-34.0193672665326
 20
440.038012844289
 30
0.0
 11
-33.91314776250848
 21
440.038012844289
 31
0.0
  0
POLYLINE
  5
487
  8
0
  6
CONTINUOUS
 62
     7
 66
     1
 10
0.0
 20
0.0
 30
0.0
  0
VERTEX
  5
80A
  8
0
  6
CONTINUOUS
 62
     7
 10
32.2201264885497
 20
440.0380128442891
 30
0.0
  0
VERTEX
  5
80B
  8
0
  6
CONTINUOUS
 62
     7
 10
32.2103399501833
 20
440.037045680488
 30
0.0
  0
VERTEX
  5
80C
  8
0
  6
CONTINUOUS
 62
     7
 10
32.20093201924272
 20
440.0341816053177
 30
0.0
  0
VERTEX
  5
80D
  8
0
  6
CONTINUOUS
 62
     7
 10
32.19226665613789
 20
440.0295314199711
 30
0.0
  0
VERTEX
  5
80E
  8
0
  6
CONTINUOUS
 62
     7
 10
32.18467909388951
 20
440.0232750240857
 30
0.0
  0
VERTEX
  5
80F
  8
0
  6
CONTINUOUS
 62
     7
 10
32.17846286911939
 20
440.0156544560465
 30
0.0
  0
VERTEX
  5
810
  8
0
  6
CONTINUOUS
 62
     7
 10
32.17385846613058
 20
440.0069645293556
 30
0.0
  0
VERTEX
  5
811
  8
0
  6
CONTINUOUS
 62
     7
 10
32.17104401339893
 20
439.997541427314
 30
0.0
  0
VERTEX
  5
812
  8
0
  6
CONTINUOUS
 62
     7
 10
32.17012839239652
 20
439.9877496972495
 30
0.0
  0
SEQEND
  5
869
  8
0
  6
CONTINUOUS
 62
     7
  0
LINE
  5
488
  8
0
  6
CONTINUOUS
 62
     7
 10
32.32634599257383
 20
440.038012844289
 30
0.0
 11
32.22012648854972
 21
440.038012844289
 31
0.0
  0
LINE
  5
489
  8
0
  6
CONTINUOUS
 62
     7
 10
32.22012648854973
 20
439.9380128442891
 30
0.0
 11
32.32634599257383
 21
439.9380128442891
 31
0.0
  0
LINE
  5
48A
  8
0
  6
CONTINUOUS
 62
     7
 10
32.38232140002561
 20
420.088012844289
 30
0.0
 11
32.38293827950518
 21
420.038012844289
 31
0.0
  0
LINE
  5
48B
  8
0
  6
CONTINUOUS
 62
     7
 10
32.27030705787615
 20
439.8880128442891
 30
0.0
 11
32.38232140002561
 21
420.088012844289
 31
0.0
  0
LINE
  5
48C
  8
0
  6
CONTINUOUS
 62
     7
 10
32.27039160332094
 20
439.9380128442891
 30
0.0
 11
32.27030705787615
 21
439.8880128442891
 31
0.0
  0
LINE
  5
48D
  8
0
  6
CONTINUOUS
 62
     7
 10
-33.96332833183491
 20
439.8880128442891
 30
0.0
 11
-34.07534267398437
 21
420.088012844289
 31
0.0
  0
LINE
  5
48E
  8
0
  6
CONTINUOUS
 62
     7
 10
-34.07534267398437
 20
420.088012844289
 30
0.0
 11
-34.07595955346395
 21
420.038012844289
 31
0.0
  0
LINE
  5
48F
  8
0
  6
CONTINUOUS
 62
     7
 10
-33.9634128772797
 20
439.9380128442891
 30
0.0
 11
-33.96332833183491
 21
439.8880128442891
 31
0.0
  0
LINE
  5
490
  8
0
  6
CONTINUOUS
 62
     7
 10
-33.91314776250849
 20
439.9380128442891
 30
0.0
 11
-34.0193672665326
 21
439.9380128442891
 31
0.0
  0
LINE
  5
491
  8
0
  6
CONTINUOUS
 62
     7
 10
32.43049454090338
 20
420.038012844289
 30
0.0
 11
32.33323693917232
 21
420.038012844289
 31
0.0
  0
LINE
  5
492
  8
0
  6
CONTINUOUS
 62
     7
 10
-34.12351581486215
 20
420.038012844289
 30
0.0
 11
-34.02625821313109
 21
420.038012844289
 31
0.0
  0
POLYLINE
  5
493
  8
0
  6
CONTINUOUS
 62
     7
 66
     1
 10
0.0
 20
0.0
 30
0.0
  0
VERTEX
  5
813
  8
0
  6
CONTINUOUS
 62
     7
 10
32.28323884301911
 20
419.9877122517667
 30
0.0
  0
VERTEX
  5
814
  8
0
  6
CONTINUOUS
 62
     7
 10
32.28425064611877
 20
419.9780004981552
 30
0.0
  0
VERTEX
  5
815
  8
0
  6
CONTINUOUS
 62
     7
 10
32.28713062859552
 20
419.9686705831641
 30
0.0
  0
VERTEX
  5
816
  8
0
  6
CONTINUOUS
 62
     7
 10
32.29176895719736
 20
419.9600783196892
 30
0.0
  0
VERTEX
  5
817
  8
0
  6
CONTINUOUS
 62
     7
 10
32.2979887410167
 20
419.952551388974
 30
0.0
  0
VERTEX
  5
818
  8
0
  6
CONTINUOUS
 62
     7
 10
32.30555277753958
 20
419.9463768439032
 30
0.0
  0
VERTEX
  5
819
  8
0
  6
CONTINUOUS
 62
     7
 10
32.31417259878531
 20
419.9417901617308
 30
0.0
  0
VERTEX
  5
81A
  8
0
  6
CONTINUOUS
 62
     7
 10
32.3235194725457
 20
419.9389662637359
 30
0.0
  0
VERTEX
  5
81B
  8
0
  6
CONTINUOUS
 62
     7
 10
32.33323693917234
 20
419.938012844289
 30
0.0
  0
SEQEND
  5
86A
  8
0
  6
CONTINUOUS
 62
     7
  0
LINE
  5
494
  8
0
  6
CONTINUOUS
 62
     7
 10
32.33323693917234
 20
419.9380128442891
 30
0.0
 11
32.43049454090338
 21
419.9380128442891
 31
0.0
  0
POLYLINE
  5
495
  8
0
  6
CONTINUOUS
 62
     7
 66
     1
 10
0.0
 20
0.0
 30
0.0
  0
VERTEX
  5
81C
  8
0
  6
CONTINUOUS
 62
     7
 10
-34.0262582131311
 20
419.938012844289
 30
0.0
  0
VERTEX
  5
81D
  8
0
  6
CONTINUOUS
 62
     7
 10
-34.01654074650446
 20
419.9389662637359
 30
0.0
  0
VERTEX
  5
81E
  8
0
  6
CONTINUOUS
 62
     7
 10
-34.00719387274407
 20
419.9417901617308
 30
0.0
  0
VERTEX
  5
81F
  8
0
  6
CONTINUOUS
 62
     7
 10
-33.99857405149834
 20
419.9463768439032
 30
0.0
  0
VERTEX
  5
820
  8
0
  6
CONTINUOUS
 62
     7
 10
-33.99101001497546
 20
419.952551388974
 30
0.0
  0
VERTEX
  5
821
  8
0
  6
CONTINUOUS
 62
     7
 10
-33.98479023115613
 20
419.9600783196892
 30
0.0
  0
VERTEX
  5
822
  8
0
  6
CONTINUOUS
 62
     7
 10
-33.98015190255428
 20
419.9686705831641
 30
0.0
  0
VERTEX
  5
823
  8
0
  6
CONTINUOUS
 62
     7
 10
-33.97727192007753
 20
419.9780004981552
 30
0.0
  0
VERTEX
  5
824
  8
0
  6
CONTINUOUS
 62
     7
 10
-33.97626011697788
 20
419.9877122517667
 30
0.0
  0
SEQEND
  5
86B
  8
0
  6
CONTINUOUS
 62
     7
  0
LINE
  5
496
  8
0
  6
CONTINUOUS
 62
     7
 10
-34.0262582131311
 20
419.9380128442891
 30
0.0
 11
-34.12351581486215
 21
419.9380128442891
 31
0.0
  0
LINE
  5
497
  8
0
  6
CONTINUOUS
 62
     7
 10
32.58245311549263
 20
400.0264289048999
 30
0.0
 11
32.58321354039153
 21
400.0065341273441
 31
0.0
  0
LINE
  5
498
  8
0
  6
CONTINUOUS
 62
     7
 10
32.58332827779421
 20
399.988012844289
 30
0.0
 11
32.66510581714724
 21
399.988012844289
 31
0.0
  0
LINE
  5
499
  8
0
  6
CONTINUOUS
 62
     7
 10
32.58321354039145
 20
400.0065341273512
 30
0.0
 11
32.58332827779421
 21
399.988012844289
 31
0.0
  0
LINE
  5
49A
  8
0
  6
CONTINUOUS
 62
     7
 10
-34.2754743894514
 20
400.0264289048998
 30
0.0
 11
-34.2762348143503
 21
400.0065341273441
 31
0.0
  0
LINE
  5
49B
  8
0
  6
CONTINUOUS
 62
     7
 10
-34.27634955175297
 20
399.988012844289
 30
0.0
 11
-34.358127091106
 21
399.988012844289
 31
0.0
  0
LINE
  5
49C
  8
0
  6
CONTINUOUS
 62
     7
 10
-34.2762348143502
 20
400.0065341273512
 30
0.0
 11
-34.27634955175297
 21
399.988012844289
 31
0.0
  0
LINE
  5
49D
  8
0
  6
CONTINUOUS
 62
     7
 10
29.85348936302063
 20
532.679697788674
 30
0.0
 11
29.85348936302063
 21
531.1724452159157
 31
0.0
  0
LINE
  5
49E
  8
0
  6
CONTINUOUS
 62
     7
 10
-31.54651063697939
 20
532.679697788674
 30
0.0
 11
-31.54651063697939
 21
531.1724452159157
 31
0.0
  0
LINE
  5
49F
  8
0
  6
CONTINUOUS
 62
     7
 10
-31.54651063697939
 20
531.1724452159157
 30
0.0
 11
-31.54651063697939
 21
529.8260084006603
 31
0.0
  0
LINE
  5
4A0
  8
0
  6
CONTINUOUS
 62
     7
 10
29.85348936302063
 20
531.1724452159157
 30
0.0
 11
29.85348936302063
 21
529.8260084006603
 31
0.0
  0
LINE
  5
4A1
  8
0
  6
CONTINUOUS
 62
     7
 10
27.55348936302064
 20
403.413152261659
 30
0.0
 11
27.55348936302064
 21
404.3669093103775
 31
0.0
  0
LINE
  5
4A2
  8
0
  6
CONTINUOUS
 62
     7
 10
-29.2465106369794
 20
403.413152261659
 30
0.0
 11
-29.2465106369794
 21
404.3669093103775
 31
0.0
  0
LINE
  5
4A3
  8
0
  6
CONTINUOUS
 62
     7
 10
-31.54651063697939
 20
528.8470525797093
 30
0.0
 11
-31.54651063697939
 21
529.8260084006603
 31
0.0
  0
LINE
  5
4A4
  8
0
  6
CONTINUOUS
 62
     7
 10
29.85348936302063
 20
528.8470525797093
 30
0.0
 11
29.85348936302063
 21
529.8260084006603
 31
0.0
  0
LINE
  5
4A5
  8
0
  6
CONTINUOUS
 62
     7
 10
-29.2465106369794
 20
403.413152261659
 30
0.0
 11
-29.2465106369794
 21
402.4149477828265
 31
0.0
  0
LINE
  5
4A6
  8
0
  6
CONTINUOUS
 62
     7
 10
27.55348936302064
 20
403.413152261659
 30
0.0
 11
27.55348936302064
 21
402.4149477828265
 31
0.0
  0
LINE
  5
4A7
  8
0
  6
CONTINUOUS
 62
     7
 10
-31.54651063697939
 20
528.8470525797093
 30
0.0
 11
-31.54651063697939
 21
510.4880128442891
 31
0.0
  0
LINE
  5
4A8
  8
0
  6
CONTINUOUS
 62
     7
 10
29.85348936302063
 20
528.8470525797093
 30
0.0
 11
29.85348936302063
 21
510.4880128442891
 31
0.0
  0
ARC
  5
4A9
  8
0
  6
CONTINUOUS
 62
     7
 10
30.35348936302063
 20
510.488012844289
 30
0.0
 40
0.5000000000000004
 50
180.0
 51
270.0
  0
ARC
  5
4AA
  8
0
  6
CONTINUOUS
 62
     7
 10
-32.04651063697939
 20
510.488012844289
 30
0.0
 40
0.5000000000000004
 50
270.0
 51
0.0
  0
LINE
  5
4AB
  8
0
  6
CONTINUOUS
 62
     7
 10
30.35348936302063
 20
509.9880128442891
 30
0.0
 11
32.14704461880355
 21
509.9880128442891
 31
0.0
  0
LINE
  5
4AC
  8
0
  6
CONTINUOUS
 62
     7
 10
-32.04651063697939
 20
509.9880128442891
 30
0.0
 11
-33.84006589276231
 21
509.9880128442891
 31
0.0
  0
LINE
  5
4AD
  8
0
  6
CONTINUOUS
 62
     7
 10
32.0635620239149
 20
399.988012844289
 30
0.0
 11
32.4694299129416
 21
399.988012844289
 31
0.0
  0
LINE
  5
4AE
  8
0
  6
CONTINUOUS
 62
     7
 10
-33.75658329787367
 20
399.988012844289
 30
0.0
 11
-34.16246137561594
 21
399.988012844289
 31
0.0
  0
LINE
  5
4AF
  8
0
  6
CONTINUOUS
 62
     7
 10
-29.24904270212425
 20
399.988012844289
 30
0.0
 11
-29.7465106369794
 21
399.988012844289
 31
0.0
  0
LINE
  5
4B0
  8
0
  6
CONTINUOUS
 62
     7
 10
-29.7465106369794
 20
399.988012844289
 30
0.0
 11
-33.75658329787367
 21
399.988012844289
 31
0.0
  0
LINE
  5
4B1
  8
0
  6
CONTINUOUS
 62
     7
 10
28.05348936302064
 20
399.988012844289
 30
0.0
 11
32.0635620239149
 21
399.988012844289
 31
0.0
  0
LINE
  5
4B2
  8
0
  6
CONTINUOUS
 62
     7
 10
27.55602142816549
 20
399.988012844289
 30
0.0
 11
28.05348936302064
 21
399.988012844289
 31
0.0
  0
LINE
  5
4B3
  8
0
  6
CONTINUOUS
 62
     7
 10
-33.8629805295753
 20
439.8877493194221
 30
0.0
 11
-33.86314966635528
 21
439.9877496972495
 31
0.0
  0
LINE
  5
4B4
  8
0
  6
CONTINUOUS
 62
     7
 10
32.16995925561653
 20
439.8877493194221
 30
0.0
 11
32.17012839239651
 21
439.9877496972495
 31
0.0
  0
LINE
  5
4B5
  8
0
  6
CONTINUOUS
 62
     7
 10
32.28323884301911
 20
419.9877122517667
 30
0.0
 11
32.28301250722096
 21
419.9926635554443
 31
0.0
  0
LINE
  5
4B6
  8
0
  6
CONTINUOUS
 62
     7
 10
32.28301250722096
 20
419.9926635554443
 30
0.0
 11
32.28200507620858
 21
420.0877122597783
 31
0.0
  0
LINE
  5
4B7
  8
0
  6
CONTINUOUS
 62
     7
 10
-33.97626011697787
 20
419.9877122517667
 30
0.0
 11
-33.97603378117972
 21
419.9926635554443
 31
0.0
  0
LINE
  5
4B8
  8
0
  6
CONTINUOUS
 62
     7
 10
-33.97603378117972
 20
419.9926635554443
 30
0.0
 11
-33.97502635016734
 21
420.0877122597783
 31
0.0
  0
LINE
  5
4B9
  8
0
  6
CONTINUOUS
 62
     7
 10
32.28200507620858
 20
420.0877122597783
 30
0.0
 11
32.16995925561653
 21
439.8877493194221
 31
0.0
  0
LINE
  5
4BA
  8
0
  6
CONTINUOUS
 62
     7
 10
-33.97502635016734
 20
420.0877122597783
 30
0.0
 11
-33.8629805295753
 21
439.8877493194221
 31
0.0
  0
LINE
  5
4BB
  8
0
  6
CONTINUOUS
 62
     7
 10
31.79484455974714
 20
559.9880128442891
 30
0.0
 11
28.48537589336259
 21
559.9880128442891
 31
0.0
  0
LINE
  5
4BC
  8
0
  6
CONTINUOUS
 62
     7
 10
-33.4878658337059
 20
559.9880128442891
 30
0.0
 11
-30.17839716732136
 21
559.9880128442891
 31
0.0
  0
LINE
  5
4BD
  8
0
  6
CONTINUOUS
 62
     7
 10
-17.84651063697929
 20
534.988012844289
 30
0.0
 11
-17.84651063697929
 21
559.9880128442891
 31
0.0
  0
LINE
  5
4BE
  8
0
  6
CONTINUOUS
 62
     7
 10
-17.84651063697929
 20
559.9880128442891
 30
0.0
 11
-30.17839716732137
 21
559.9880128442891
 31
0.0
  0
LINE
  5
4BF
  8
0
  6
CONTINUOUS
 62
     7
 10
16.15348936302052
 20
534.988012844289
 30
0.0
 11
16.15348936302052
 21
559.9880128442891
 31
0.0
  0
LINE
  5
4C0
  8
0
  6
CONTINUOUS
 62
     7
 10
16.15348936302052
 20
559.9880128442891
 30
0.0
 11
28.4853758933626
 21
559.9880128442891
 31
0.0
  0
LINE
  5
4C1
  8
0
  6
CONTINUOUS
 62
     7
 10
-17.84651063697958
 20
559.9880128442891
 30
0.0
 11
16.15348936302051
 21
559.9880128442891
 31
0.0
  0
LINE
  5
4C2
  8
0
  6
CONTINUOUS
 62
     7
 10
32.58449219898566
 20
402.3837438354582
 30
0.0
 11
32.58265109574334
 21
402.3943537293625
 31
0.0
  0
LINE
  5
4C3
  8
0
  6
CONTINUOUS
 62
     7
 10
-34.27567236970211
 20
402.3943537293625
 30
0.0
 11
-34.27751347294442
 21
402.3837438354582
 31
0.0
  0
LINE
  5
4C4
  8
0
  6
CONTINUOUS
 62
     7
 10
30.91111504626069
 20
529.2006059703025
 30
0.0
 11
32.10704275361392
 21
528.0046782629493
 31
0.0
  0
LINE
  5
4C5
  8
0
  6
CONTINUOUS
 62
     7
 10
-33.80006402757267
 20
528.0046782629493
 30
0.0
 11
-32.60413632021943
 21
529.2006059703025
 31
0.0
  0
LINE
  5
4C6
  8
0
  6
CONTINUOUS
 62
     7
 10
-32.60413632021947
 20
529.2006059703025
 30
0.0
 11
-32.25059332838033
 21
529.3470525796821
 31
0.0
  0
LINE
  5
4C7
  8
0
  6
CONTINUOUS
 62
     7
 10
30.55757205442156
 20
529.3470525796822
 30
0.0
 11
30.91111504626073
 21
529.2006059703026
 31
0.0
  0
ARC
  5
4C8
  8
0
  6
CONTINUOUS
 62
     7
 10
31.51118222071665
 20
399.3726814607202
 30
0.0
 40
1.277056874274208
 50
40.84264024329116
 51
71.39498241516173
  0
POLYLINE
  5
4C9
  8
0
  6
CONTINUOUS
 62
     7
 66
     1
 10
0.0
 20
0.0
 30
0.0
  0
VERTEX
  5
825
  8
0
  6
CONTINUOUS
 62
     7
 10
32.47728668051203
 20
400.2078559532034
 30
0.0
  0
VERTEX
  5
826
  8
0
  6
CONTINUOUS
 62
     7
 10
32.53883627221602
 20
400.1215510541833
 30
0.0
  0
VERTEX
  5
827
  8
0
  6
CONTINUOUS
 62
     7
 10
32.58141338005961
 20
400.0303989080119
 30
0.0
  0
VERTEX
  5
828
  8
0
  6
CONTINUOUS
 62
     7
 10
32.58247289230879
 20
400.0261615836513
 30
0.0
  0
SEQEND
  5
86C
  8
0
  6
CONTINUOUS
 62
     7
  0
POLYLINE
  5
4CA
  8
0
  6
CONTINUOUS
 62
     7
 66
     1
 10
0.0
 20
0.0
 30
0.0
  0
VERTEX
  5
829
  8
0
  6
CONTINUOUS
 62
     7
 10
-34.27549416626756
 20
400.0261615836511
 30
0.0
  0
VERTEX
  5
82A
  8
0
  6
CONTINUOUS
 62
     7
 10
-34.23185105649777
 20
400.1209033496793
 30
0.0
  0
VERTEX
  5
82B
  8
0
  6
CONTINUOUS
 62
     7
 10
-34.1718631507468
 20
400.2059067255014
 30
0.0
  0
VERTEX
  5
82C
  8
0
  6
CONTINUOUS
 62
     7
 10
-34.10198017402391
 20
400.2826618411729
 30
0.0
  0
SEQEND
  5
86D
  8
0
  6
CONTINUOUS
 62
     7
  0
ARC
  5
4CB
  8
0
  6
CONTINUOUS
 62
     7
 10
-33.19144491724956
 20
399.3465357294999
 30
0.0
 40
1.305912152782584
 50
108.7695557626391
 51
134.2060514420548
  0
LINE
  5
4CC
  8
0
  6
CONTINUOUS
 62
     7
 10
-33.61168330704866
 20
400.5829848136522
 30
0.0
 11
-29.81160977743324
 21
401.869178133031
 31
0.0
  0
LINE
  5
4CD
  8
0
  6
CONTINUOUS
 62
     7
 10
28.11858850347448
 20
401.869178133031
 30
0.0
 11
31.91866203308991
 21
400.5829848136522
 31
0.0
  0
LINE
  5
4CE
  8
0
  6
CONTINUOUS
 62
     7
 10
27.90906142479427
 20
401.9362614865864
 30
0.0
 11
28.11854386289219
 21
401.8691932674892
 31
0.0
  0
LINE
  5
4CF
  8
0
  6
CONTINUOUS
 62
     7
 10
-29.81156513685095
 20
401.8691932674892
 30
0.0
 11
-29.60208269875303
 21
401.9362614865864
 31
0.0
  0
ARC
  5
4D0
  8
0
  6
CONTINUOUS
 62
     7
 10
-29.7465106369794
 20
402.4149477828265
 30
0.0
 40
0.5000000000000381
 50
286.790346173809
 51
0.0000000000003411
  0
ARC
  5
4D1
  8
0
  6
CONTINUOUS
 62
     7
 10
28.05348936302064
 20
402.4149477828265
 30
0.0
 40
0.5000000000000004
 50
180.0000000000002
 51
253.209653826191
  0
ARC
  5
4D2
  8
0
  6
CONTINUOUS
 62
     7
 10
-32.04651063697938
 20
532.6796977886738
 30
0.0
 40
0.5000000000000004
 50
0.0
 51
60.00000000000891
  0
ARC
  5
4D3
  8
0
  6
CONTINUOUS
 62
     7
 10
30.35348936302062
 20
532.6796977886738
 30
0.0
 40
0.499999999999969
 50
119.9999999999911
 51
180.0
  0
LINE
  5
4D4
  8
0
  6
CONTINUOUS
 62
     7
 10
-31.7965106369793
 20
533.1127104905662
 30
0.0
 11
-33.57487897870337
 21
534.1394519313789
 31
0.0
  0
LINE
  5
4D5
  8
0
  6
CONTINUOUS
 62
     7
 10
31.88185770474461
 20
534.1394519313789
 30
0.0
 11
30.10348936302054
 21
533.1127104905662
 31
0.0
  0
LINE
  5
4D6
  8
0
  6
CONTINUOUS
 62
     7
 10
-33.57487632747861
 20
534.1394504006336
 30
0.0
 11
-33.81666499991454
 21
534.4639926861473
 31
0.0
  0
LINE
  5
4D7
  8
0
  6
CONTINUOUS
 62
     7
 10
32.12364372595578
 20
534.4639926861472
 30
0.0
 11
31.88185505351984
 21
534.1394504006335
 31
0.0
  0
ENDBLK
  8
0
  0
ENDSEC
  0
SECTION
  2
ENTITIES
  0
TEXT
  5
6F
  8
0
  6
CONTINUOUS
 62
     7
 10
333.2140339494283
 20
578.0582665026502
 30
0.0
 40
3.0
  1
RMI-40
  0
INSERT
  5
186
  8
0
  6
CENTER
 62
     7
  2
D_FRAME_VIEW_1713
 10
0.0
 20
0.0
 30
0.0
  0
INSERT
  5
318
  8
0
  6
CENTER
 62
     7
  2
D_FRAME_VIEW_2890
 10
0.0
 20
0.0
 30
0.0
  0
INSERT
  5
34B
  8
0
  6
CENTER
 62
     7
  2
D_FRAME_VIEW_2048
 10
0.0
 20
0.0
 30
0.0
  0
INSERT
  5
4D8
  8
0
  6
CENTER
 62
     7
  2
D_FRAME_VIEW_2467
 10
0.0
 20
0.0
 30
0.0
  0
LINE
  5
4D9
  8
0
  6
CENTER
 62
     7
 10
-0.8465106369793828
 20
595.2730282883198
 30
0.0
 11
-0.8465106369793727
 21
761.4730282883197
 31
0.0
  0
LINE
  5
4DA
  8
0
  6
CENTER
 62
     7
 10
-0.8465106369793858
 20
396.788012844289
 30
0.0
 11
-0.8465106369793756
 21
562.988012844289
 31
0.0
  0
LINE
  5
4DB
  8
0
  6
CENTER
 62
     7
 10
338.1922288975339
 20
595.2730282883198
 30
0.0
 11
338.1922288975339
 21
761.4730282883198
 31
0.0
  0
LINE
  5
4DC
  8
0
  6
CENTER
 62
     1
 10
-0.8465106369793807
 20
611.9730282883198
 30
0.0
 11
-0.8465106369793807
 21
649.9730282883198
 31
0.0
  0
LINE
  5
4DD
  8
0
  6
CENTER
 62
     1
 10
-19.84651063697938
 20
630.9730282883198
 30
0.0
 11
18.15348936302062
 21
630.9730282883198
 31
0.0
  0
LINE
  5
4DE
  8
0
  6
CENTER
 62
     1
 10
338.1922288975339
 20
613.9730282883198
 30
0.0
 11
338.1922288975339
 21
647.9730282883198
 31
0.0
  0
LINE
  5
4DF
  8
0
  6
CENTER
 62
     1
 10
321.1922288975338
 20
630.9730282883198
 30
0.0
 11
355.1922288975339
 21
630.9730282883198
 31
0.0
  0
POINT
  5
4E0
  8
0
 62
     7
 10
-0.8465106369793807
 20
630.9730282883198
 30
0.0
  0
POINT
  5
4E1
  8
0
 62
     7
 10
-0.8465106369793807
 20
479.888012844289
 30
0.0
  0
POINT
  5
4E2
  8
0
 62
     7
 10
338.1922288975339
 20
678.3730282883198
 30
0.0
  0
ENDSEC
  0
EOF
