  0
SECTION
  2
HEADER
  9
$ACADVER
  1
AC1006
  9
$DWGCODEPAGE
  3
ansi_932
  9
$INSBASE
 10
0.0
 20
0.0
 30
0.0
  9
$EXTMIN
 10
512.5
 20
77.50000000000001
  9
$EXTMAX
 10
680.8333323333383
 20
288.3333333333333
  9
$LIMMIN
 10
0.0
 20
0.0
  9
$LIMMAX
 10
12.0
 20
9.0
  9
$ORTHOMODE
 70
     0
  9
$REGENMODE
 70
     1
  9
$FILLMODE
 70
     1
  9
$QTEXTMODE
 70
     0
  9
$MIRRTEXT
 70
     1
  9
$DRAGMODE
 70
     2
  9
$LTSCALE
 40
1.0
  9
$OSMODE
 70
    37
  9
$ATTMODE
 70
     1
  9
$TEXTSIZE
 40
0.2
  9
$TRACEWID
 40
0.05
  9
$TEXTSTYLE
  7
STANDARD
  9
$CLAYER
  8
0
  9
$CELTYPE
  6
BYLAYER
  9
$CECOLOR
 62
   256
  9
$DIMSCALE
 40
1.0
  9
$DIMASZ
 40
3.0
  9
$DIMEXO
 40
0.0625
  9
$DIMDLI
 40
0.38
  9
$DIMRND
 40
0.0
  9
$DIMDLE
 40
0.0
  9
$DIMEXE
 40
0.18
  9
$DIMTP
 40
0.0
  9
$DIMTM
 40
0.0
  9
$DIMTXT
 40
3.0
  9
$DIMCEN
 40
0.09
  9
$DIMTSZ
 40
0.0
  9
$DIMTOL
 70
     0
  9
$DIMLIM
 70
     0
  9
$DIMTIH
 70
     1
  9
$DIMTOH
 70
     1
  9
$DIMSE1
 70
     0
  9
$DIMSE2
 70
     0
  9
$DIMTAD
 70
     1
  9
$DIMZIN
 70
     0
  9
$DIMBLK
  1

  9
$DIMASO
 70
     1
  9
$DIMSHO
 70
     1
  9
$DIMPOST
  1

  9
$DIMAPOST
  1

  9
$DIMALT
 70
     0
  9
$DIMALTD
 70
     2
  9
$DIMALTF
 40
25.4
  9
$DIMLFAC
 40
1.0
  9
$DIMTOFL
 70
     0
  9
$DIMTVP
 40
0.0
  9
$DIMTIX
 70
     0
  9
$DIMSOXD
 70
     0
  9
$DIMSAH
 70
     0
  9
$DIMBLK1
  1

  9
$DIMBLK2
  1

  9
$LUNITS
 70
     2
  9
$LUPREC
 70
     4
  9
$SKETCHINC
 40
0.1
  9
$FILLETRAD
 40
0.5
  9
$AUNITS
 70
     0
  9
$AUPREC
 70
     0
  9
$MENU
  1
.
  9
$ELEVATION
 40
0.0
  9
$THICKNESS
 40
0.0
  9
$LIMCHECK
 70
     0
  9
$CHAMFERA
 40
0.5
  9
$CHAMFERB
 40
0.5
  9
$SKPOLY
 70
     0
  9
$TDCREATE
 40
2460780.388006667
  9
$TDUPDATE
 40
2460780.388006678
  9
$TDINDWG
 40
0.0000000116
  9
$TDUSRTIMER
 40
0.0000000116
  9
$USRTIMER
 70
     1
  9
$ANGBASE
 50
0.0
  9
$ANGDIR
 70
     0
  9
$PDMODE
 70
     0
  9
$PDSIZE
 40
0.0
  9
$PLINEWID
 40
0.0
  9
$COORDS
 70
     1
  9
$SPLFRAME
 70
     0
  9
$SPLINETYPE
 70
     6
  9
$SPLINESEGS
 70
     8
  9
$ATTDIA
 70
     0
  9
$ATTREQ
 70
     1
  9
$HANDLING
 70
     1
  9
$HANDSEED
  5
170
  9
$SURFTAB1
 70
     6
  9
$SURFTAB2
 70
     6
  9
$SURFTYPE
 70
     6
  9
$SURFU
 70
     6
  9
$SURFV
 70
     6
  9
$UCSNAME
  2

  9
$UCSORG
 10
0.0
 20
0.0
 30
0.0
  9
$UCSXDIR
 10
1.0
 20
0.0
 30
0.0
  9
$UCSYDIR
 10
0.0
 20
1.0
 30
0.0
  9
$USERI1
 70
     0
  9
$USERI2
 70
     0
  9
$USERI3
 70
     0
  9
$USERI4
 70
     0
  9
$USERI5
 70
     0
  9
$USERR1
 40
0.0
  9
$USERR2
 40
0.0
  9
$USERR3
 40
0.0
  9
$USERR4
 40
0.0
  9
$USERR5
 40
0.0
  9
$WORLDVIEW
 70
     1
  0
ENDSEC
  0
SECTION
  2
TABLES
  0
TABLE
  2
VPORT
 70
     1
  0
VPORT
  2
*ACTIVE
 70
     0
 10
0.0
 20
0.0
 11
1.0
 21
1.0
 12
596.6666661666691
 22
182.9166666666667
 13
0.0
 23
0.0
 14
0.5
 24
0.5
 15
0.5
 25
0.5
 16
0.0
 26
0.0
 36
1.0
 17
0.0
 27
0.0
 37
0.0
 40
210.8333333333333
 41
1.6
 42
50.0
 43
0.0
 44
0.0
 50
0.0
 51
0.0
 71
     0
 72
   100
 73
     1
 74
     3
 75
     0
 76
     0
 77
     0
 78
     0
  0
ENDTAB
  0
TABLE
  2
LTYPE
 70
     3
  0
LTYPE
  2
CONTINUOUS
 70
     0
  3
Solid line
 72
    65
 73
     0
 40
0.0
  0
LTYPE
  2
________________
 70
     0
  3

 72
    65
 73
     0
 40
0.0
  0
LTYPE
  2
________________0
 70
     0
  3

 72
    65
 73
     4
 40
7.2
 49
2.7
 49
-1.8
 49
0.8999999999999999
 49
-1.8
  0
ENDTAB
  0
TABLE
  2
LAYER
 70
     2
  0
LAYER
  2
0
 70
     0
 62
     7
  6
CONTINUOUS
  0
LAYER
  2
1
 70
     0
 62
     7
  6
CONTINUOUS
  0
ENDTAB
  0
TABLE
  2
STYLE
 70
     2
  0
STYLE
  2
STANDARD
 70
     0
 40
0.0
 41
1.0
 50
0.0
 71
     0
 42
0.2
  3
txt
  4

  0
STYLE
  2
EXPLODED0
 70
     0
 40
0.2
 41
1.0
 50
0.0
 71
     0
 42
0.2
  3
ＭＳ ゴシック
  4

  0
ENDTAB
  0
TABLE
  2
VIEW
 70
     0
  0
ENDTAB
  0
TABLE
  2
UCS
 70
     0
  0
ENDTAB
  0
ENDSEC
  0
SECTION
  2
BLOCKS
  0
BLOCK
  8
0
  2
_1483
 70
     0
 10
0.0
 20
0.0
 30
0.0
  0
LINE
  5
3D
  8
1
  6
________________
 62
     7
 10
517.5
 20
207.3333333333333
 30
0.0
 11
517.5
 21
220.7324831885771
 31
0.0
  0
LINE
  5
3F
  8
1
  6
________________
 62
     7
 10
534.0
 20
285.8333333333334
 30
0.0
 11
570.9999999999999
 21
285.8333333333334
 31
0.0
  0
LINE
  5
40
  8
1
  6
________________
 62
     7
 10
587.5
 20
269.3333333333334
 30
0.0
 11
587.5
 21
220.7324831885771
 31
0.0
  0
ARC
  5
41
  8
1
  6
________________
 62
     7
 10
-570.9999999999999
 20
269.3333333333334
 30
0.0
 40
16.50000000000001
 50
90.0
 51
180.0
210
0.0
220
0.0
230
-1.0
  0
LINE
  5
42
  8
1
  6
________________
 62
     7
 10
517.5
 20
220.7324831885771
 30
0.0
 11
517.5
 21
269.3333333333334
 31
0.0
  0
LINE
  5
43
  8
1
  6
________________
 62
     7
 10
587.5
 20
220.7324831885771
 30
0.0
 11
587.5
 21
207.3333333333334
 31
0.0
  0
ARC
  5
44
  8
1
  6
________________
 62
     7
 10
-534.0
 20
269.3333333333334
 30
0.0
 40
16.50000000000007
 50
0.0
 51
90.0
210
0.0
220
0.0
230
-1.0
  0
LINE
  5
45
  8
1
  6
________________
 62
     7
 10
587.5
 20
207.3333333333334
 30
0.0
 11
587.426686232112
 21
205.7796347036947
 31
0.0
  0
LINE
  5
46
  8
1
  6
________________
 62
     7
 10
517.573313767888
 20
205.7796347036947
 30
0.0
 11
517.5
 21
207.3333333333333
 31
0.0
  0
ARC
  5
47
  8
1
  6
________________
 62
     7
 10
-570.9999999999999
 20
207.3333333333334
 30
0.0
 40
16.5
 50
185.4031791358742
 51
269.9999999999999
210
0.0
220
0.0
230
-1.0
  0
ARC
  5
48
  8
1
  6
________________
 62
     7
 10
-534.0
 20
207.3333333333334
 30
0.0
 40
16.5
 50
270.0
 51
354.5968208641257
210
0.0
220
0.0
230
-1.0
  0
LINE
  5
49
  8
1
  6
________________
 62
     7
 10
563.3275337845736
 20
193.4234462300446
 30
0.0
 11
563.3945228477571
 21
190.9074519834713
 31
0.0
  0
LINE
  5
4A
  8
1
  6
________________
 62
     7
 10
563.5264551157078
 20
190.8771081960425
 30
0.0
 11
563.3945228477573
 21
190.9074519834705
 31
0.0
  0
LINE
  5
4B
  8
1
  6
________________
 62
     7
 10
541.605477152243
 20
190.9074519834698
 30
0.0
 11
541.4735448842914
 21
190.8771081960428
 31
0.0
  0
LINE
  5
4C
  8
1
  6
________________
 62
     7
 10
541.6724662154264
 20
193.4234462300446
 30
0.0
 11
541.6054771522425
 21
190.9074519834699
 31
0.0
  0
LINE
  5
4D
  8
1
  6
________________
 62
     7
 10
540.7060978176087
 20
190.8333333333333
 30
0.0
 11
534.0
 21
190.8333333333333
 31
0.0
  0
LINE
  5
4E
  8
1
  6
________________
 62
     7
 10
570.9999999999999
 20
190.8333333333333
 30
0.0
 11
564.2939021823913
 21
190.8333333333333
 31
0.0
  0
LINE
  5
4F
  8
1
  6
________________
 62
     7
 10
541.4735448842921
 20
190.8771081960426
 30
0.0
 11
541.4681825988505
 21
190.8763479706278
 31
0.0
  0
LINE
  5
50
  8
1
  6
________________
 62
     7
 10
563.5318174011511
 20
190.8763479706275
 30
0.0
 11
563.5264551157078
 21
190.8771081960425
 31
0.0
  0
LINE
  5
51
  8
1
  6
________________
 62
     7
 10
563.4004518205684
 20
190.384691126848
 30
0.0
 11
563.5469411114872
 21
190.8731587770237
 31
0.0
  0
LINE
  5
52
  8
1
  6
________________
 62
     7
 10
541.4679596641791
 20
190.8771823395423
 30
0.0
 11
541.5995481794315
 21
190.384691126848
 31
0.0
  0
LINE
  5
53
  8
1
  6
________________
 62
     7
 10
563.4
 20
190.3677247011483
 30
0.0
 11
563.4004518205684
 21
190.384691126848
 31
0.0
  0
LINE
  5
54
  8
1
  6
________________
 62
     7
 10
541.5995481794315
 20
190.384691126848
 30
0.0
 11
541.5999999999999
 21
190.3677247011483
 31
0.0
  0
LINE
  5
55
  8
1
  6
________________
 62
     7
 10
563.3997575177563
 20
174.3837751139319
 30
0.0
 11
563.4
 21
174.4052646496125
 31
0.0
  0
LINE
  5
56
  8
1
  6
________________
 62
     7
 10
541.5999999999999
 20
174.4052646496125
 30
0.0
 11
541.6002424822436
 21
174.3837751139319
 31
0.0
  0
LINE
  5
57
  8
1
  6
________________
 62
     7
 10
541.5999999999999
 20
190.3677247011483
 30
0.0
 11
541.5999999999999
 21
174.4052646496125
 31
0.0
  0
LINE
  5
58
  8
1
  6
________________
 62
     7
 10
563.4
 20
190.3677247011483
 30
0.0
 11
563.4
 21
174.4052646496125
 31
0.0
  0
ARC
  5
59
  8
1
  6
________________
 62
     7
 10
-560.9600137336392
 20
174.3503330343434
 30
0.0
 40
2.439972972150502
 50
179.2146839182958
 51
211.2066231555717
210
0.0
220
0.0
230
-1.0
  0
POLYLINE
  5
5A
  8
1
  6
________________
 62
     7
 10
0.0
 20
0.0
 30
0.0
 66
     1
 70
     8
  0
VERTEX
  5
5B
  8
1
  6
________________
 62
     7
 10
563.0469332858969
 20
173.0861198848985
 30
0.0
 70
    32
  0
VERTEX
  5
5C
  8
1
  6
________________
 62
     7
 10
562.9726763426489
 20
173.0028934302107
 30
0.0
 70
    32
  0
VERTEX
  5
5D
  8
1
  6
________________
 62
     7
 10
562.8604168981825
 20
172.9214392709501
 30
0.0
 70
    32
  0
VERTEX
  5
5E
  8
1
  6
________________
 62
     7
 10
562.7568355727773
 20
172.8884154148319
 30
0.0
 70
    32
  0
VERTEX
  5
5F
  8
1
  6
________________
 62
     7
 10
562.7528947509584
 20
172.8879229570607
 30
0.0
 70
    32
  0
SEQEND
  5
60
  8
1
  6
________________
 62
     7
  0
ARC
  5
61
  8
1
  6
________________
 62
     7
 10
544.039986266362
 20
174.3503330343435
 30
0.0
 40
2.43997297215172
 50
179.2146839183002
 51
211.2066231555588
  0
POLYLINE
  5
62
  8
1
  6
________________
 62
     7
 10
0.0
 20
0.0
 30
0.0
 66
     1
 70
     8
  0
VERTEX
  5
63
  8
1
  6
________________
 62
     7
 10
541.9530667141029
 20
173.0861198848985
 30
0.0
 70
    32
  0
VERTEX
  5
64
  8
1
  6
________________
 62
     7
 10
542.0273236573511
 20
173.0028934302107
 30
0.0
 70
    32
  0
VERTEX
  5
65
  8
1
  6
________________
 62
     7
 10
542.1395831018173
 20
172.9214392709501
 30
0.0
 70
    32
  0
VERTEX
  5
66
  8
1
  6
________________
 62
     7
 10
542.2431644272165
 20
172.8884154148317
 30
0.0
 70
    32
  0
VERTEX
  5
67
  8
1
  6
________________
 62
     7
 10
542.2471052490416
 20
172.8879229570607
 30
0.0
 70
    32
  0
SEQEND
  5
68
  8
1
  6
________________
 62
     7
  0
LINE
  5
69
  8
1
  6
________________
 62
     7
 10
571.9443242079593
 20
172.2014724054078
 30
0.0
 11
572.4
 21
170.8333333333333
 31
0.0
  0
POLYLINE
  5
6A
  8
1
  6
________________
 62
     7
 66
     1
 10
0.0
 20
0.0
 30
0.0
  0
VERTEX
  5
14D
  8
1
  6
________________
 62
     7
 10
569.4666778945033
 20
172.4975644750703
 30
0.0
  0
VERTEX
  5
14E
  8
1
  6
________________
 62
     7
 10
570.4972375807134
 20
172.4347480408814
 30
0.0
  0
VERTEX
  5
14F
  8
1
  6
________________
 62
     7
 10
571.2720030529711
 20
172.3625382757753
 30
0.0
  0
VERTEX
  5
150
  8
1
  6
________________
 62
     7
 10
571.7607255700011
 20
172.2837544258081
 30
0.0
  0
VERTEX
  5
151
  8
1
  6
________________
 62
     7
 10
571.9443242079593
 20
172.2014724054078
 30
0.0
  0
SEQEND
  5
152
  8
1
  6
________________
 62
     7
  0
LINE
  5
6B
  8
1
  6
________________
 62
     7
 10
562.4517123285098
 20
172.8481683343809
 30
0.0
 11
569.4666778945033
 21
172.4975644750702
 31
0.0
  0
LINE
  5
6C
  8
1
  6
________________
 62
     7
 10
542.5482876714902
 20
172.8481683343809
 30
0.0
 11
562.4517123285099
 21
172.8481683343809
 31
0.0
  0
LINE
  5
6D
  8
1
  6
________________
 62
     7
 10
542.5482876714902
 20
172.8481683343809
 30
0.0
 11
535.5333221054966
 21
172.4975644750702
 31
0.0
  0
POLYLINE
  5
6E
  8
1
  6
________________
 62
     7
 66
     1
 10
0.0
 20
0.0
 30
0.0
  0
VERTEX
  5
153
  8
1
  6
________________
 62
     7
 10
533.0556757920407
 20
172.2014724054078
 30
0.0
  0
VERTEX
  5
154
  8
1
  6
________________
 62
     7
 10
533.239274429999
 20
172.2837544258081
 30
0.0
  0
VERTEX
  5
155
  8
1
  6
________________
 62
     7
 10
533.7279969470289
 20
172.3625382757753
 30
0.0
  0
VERTEX
  5
156
  8
1
  6
________________
 62
     7
 10
534.5027624192866
 20
172.4347480408814
 30
0.0
  0
VERTEX
  5
157
  8
1
  6
________________
 62
     7
 10
535.5333221054966
 20
172.4975644750702
 30
0.0
  0
SEQEND
  5
158
  8
1
  6
________________
 62
     7
  0
LINE
  5
6F
  8
1
  6
________________
 62
     7
 10
533.0556757920406
 20
172.2014724054078
 30
0.0
 11
532.5999999999999
 21
170.8333333333333
 31
0.0
  0
LINE
  5
70
  8
1
  6
________________
 62
     7
 10
531.9
 20
170.8333333333333
 30
0.0
 11
532.5999999999999
 21
170.8333333333333
 31
0.0
  0
LINE
  5
71
  8
1
  6
________________
 62
     7
 10
573.0999999999999
 20
170.8333333333333
 30
0.0
 11
572.4
 21
170.8333333333333
 31
0.0
  0
ARC
  5
72
  8
1
  6
________________
 62
     7
 10
-575.0999999999999
 20
190.8351516153379
 30
0.0
 40
0.4999999999999449
 50
0.0
 51
76.04401299573763
210
0.0
220
0.0
230
-1.0
  0
ARC
  5
73
  8
1
  6
________________
 62
     7
 10
-529.9
 20
190.8351516153379
 30
0.0
 40
0.5000000000000023
 50
103.9559870042622
 51
179.9999999999992
210
0.0
220
0.0
230
-1.0
  0
LINE
  5
74
  8
1
  6
________________
 62
     7
 10
530.4
 20
173.6779882028608
 30
0.0
 11
530.4
 21
190.8351516153379
 31
0.0
  0
LINE
  5
75
  8
1
  6
________________
 62
     7
 10
574.6
 20
190.8351516153379
 30
0.0
 11
574.6
 21
173.6779882028608
 31
0.0
  0
LINE
  5
76
  8
1
  6
________________
 62
     7
 10
530.4
 20
172.3353918523303
 30
0.0
 11
530.4
 21
173.6779882028608
 31
0.0
  0
POLYLINE
  5
77
  8
1
  6
________________
 62
     7
 66
     1
 10
0.0
 20
0.0
 30
0.0
  0
VERTEX
  5
159
  8
1
  6
________________
 62
     7
 10
531.9
 20
170.8333333333333
 30
0.0
  0
VERTEX
  5
15A
  8
1
  6
________________
 62
     7
 10
531.6073645169757
 20
170.8621949665938
 30
0.0
  0
VERTEX
  5
15B
  8
1
  6
________________
 62
     7
 10
531.3259748514523
 20
170.9476707299948
 30
0.0
  0
VERTEX
  5
15C
  8
1
  6
________________
 62
     7
 10
531.0666446504706
 20
171.0864758378842
 30
0.0
  0
VERTEX
  5
15D
  8
1
  6
________________
 62
     7
 10
530.8393398282201
 20
171.2732760878085
 30
0.0
  0
VERTEX
  5
15E
  8
1
  6
________________
 62
     7
 10
530.6527955815461
 20
171.5008928509221
 30
0.0
  0
VERTEX
  5
15F
  8
1
  6
________________
 62
     7
 10
530.514180701233
 20
171.7605789426673
 30
0.0
  0
VERTEX
  5
160
  8
1
  6
________________
 62
     7
 10
530.4288220793951
 20
172.0423547721721
 30
0.0
  0
VERTEX
  5
161
  8
1
  6
________________
 62
     7
 10
530.4
 20
172.3353918523303
 30
0.0
  0
SEQEND
  5
162
  8
1
  6
________________
 62
     7
  0
LINE
  5
78
  8
1
  6
________________
 62
     7
 10
574.6
 20
173.6779882028608
 30
0.0
 11
574.6
 21
172.3353918523303
 31
0.0
  0
POLYLINE
  5
79
  8
1
  6
________________
 62
     7
 66
     1
 10
0.0
 20
0.0
 30
0.0
  0
VERTEX
  5
163
  8
1
  6
________________
 62
     7
 10
574.5999999999999
 20
172.3353918523303
 30
0.0
  0
VERTEX
  5
164
  8
1
  6
________________
 62
     7
 10
574.5711779206048
 20
172.0423547721721
 30
0.0
  0
VERTEX
  5
165
  8
1
  6
________________
 62
     7
 10
574.4858192987668
 20
171.7605789426673
 30
0.0
  0
VERTEX
  5
166
  8
1
  6
________________
 62
     7
 10
574.3472044184538
 20
171.5008928509221
 30
0.0
  0
VERTEX
  5
167
  8
1
  6
________________
 62
     7
 10
574.1606601717798
 20
171.2732760878085
 30
0.0
  0
VERTEX
  5
168
  8
1
  6
________________
 62
     7
 10
573.9333553495293
 20
171.0864758378842
 30
0.0
  0
VERTEX
  5
169
  8
1
  6
________________
 62
     7
 10
573.6740251485476
 20
170.9476707299948
 30
0.0
  0
VERTEX
  5
16A
  8
1
  6
________________
 62
     7
 10
573.3926354830242
 20
170.8621949665938
 30
0.0
  0
VERTEX
  5
16B
  8
1
  6
________________
 62
     7
 10
573.0999999999999
 20
170.8333333333333
 30
0.0
  0
SEQEND
  5
16C
  8
1
  6
________________
 62
     7
  0
ENDBLK
  8
0
  0
BLOCK
  8
0
  2
_1565
 70
     0
 10
0.0
 20
0.0
 30
0.0
  0
ARC
  5
7E
  8
1
  6
________________
 62
     7
 10
-688.8333323333383
 20
220.7324831885771
 30
0.0
 40
60.00000000000001
 50
346.2814255962128
 51
0.0
210
0.0
220
0.0
230
-1.0
  0
LINE
  5
7F
  8
1
  6
________________
 62
     7
 10
630.8777827559943
 20
205.2033404824259
 30
0.0
 11
630.5449949519606
 21
206.5032975015926
 31
0.0
  0
LINE
  5
80
  8
1
  6
________________
 62
     7
 10
628.8333323333383
 20
269.3333333333334
 30
0.0
 11
628.8333323333383
 21
282.3333333333333
 31
0.0
  0
ARC
  5
81
  8
1
  6
________________
 62
     7
 10
632.3333323333383
 20
282.3333333333333
 30
0.0
 40
3.500000000000059
 50
90.0
 51
180.0
  0
LINE
  5
82
  8
1
  6
________________
 62
     7
 10
643.8092231332903
 20
190.8333333333333
 30
0.0
 11
637.4138590247493
 21
190.8333333333333
 31
0.0
  0
LINE
  5
83
  8
1
  6
________________
 62
     7
 10
677.8333323333383
 20
207.3333333333334
 30
0.0
 11
677.8333323333383
 21
191.3203922541025
 31
0.0
  0
LINE
  5
84
  8
1
  6
________________
 62
     7
 10
628.8333323333383
 20
220.7324831885771
 30
0.0
 11
628.8333323333383
 21
269.3333333333334
 31
0.0
  0
LINE
  5
85
  8
1
  6
________________
 62
     7
 10
632.3333323333383
 20
285.8333333333334
 30
0.0
 11
677.8333323333383
 21
285.8333333333334
 31
0.0
  0
LINE
  5
86
  8
1
  6
________________
 62
     7
 10
677.8333323333383
 20
285.8333333333334
 30
0.0
 11
677.8333323333383
 21
269.3333333333334
 31
0.0
  0
LINE
  5
87
  8
1
  6
________________
 62
     7
 10
677.8333323333383
 20
269.3333333333334
 30
0.0
 11
677.8333323333383
 21
207.3333333333334
 31
0.0
  0
LINE
  5
88
  8
1
  6
________________
 62
     7
 10
633.8936167908398
 20
193.948094637187
 30
0.0
 11
630.8777827559943
 21
205.2033404824259
 31
0.0
  0
LINE
  5
89
  8
1
  6
________________
 62
     7
 10
677.8333323333383
 20
190.8351516153379
 30
0.0
 11
677.8333323333383
 21
191.3203922541025
 31
0.0
  0
LINE
  5
8A
  8
1
  6
________________
 62
     7
 10
652.1365639180557
 20
172.1800439007289
 30
0.0
 11
645.9853343816214
 21
172.5024161805937
 31
0.0
  0
LINE
  5
8B
  8
1
  6
________________
 62
     7
 10
677.8333323333383
 20
190.8351516153379
 30
0.0
 11
677.8333323333383
 21
172.3353918523303
 31
0.0
  0
LINE
  5
8C
  8
1
  6
________________
 62
     7
 10
677.8333323333383
 20
170.8333333333333
 30
0.0
 11
652.1365639180557
 21
172.1800439007289
 31
0.0
  0
LINE
  5
8D
  8
1
  6
________________
 62
     7
 10
677.8333323333383
 20
172.3353918523303
 30
0.0
 11
677.8333323333383
 21
170.8333333333333
 31
0.0
  0
LINE
  5
8E
  8
1
  6
________________
 62
     7
 10
637.2522767995766
 20
174.3837751139319
 30
0.0
 11
637.2522954675208
 21
174.4052646496125
 31
0.0
  0
ARC
  5
8F
  8
1
  6
________________
 62
     7
 10
638.737715138698
 20
174.3654161300057
 30
0.0
 40
1.485551786920454
 50
179.2919000993612
 51
256.4128748581173
  0
POLYLINE
  5
90
  8
1
  6
________________
 62
     7
 10
0.0
 20
0.0
 30
0.0
 66
     1
 70
     8
  0
VERTEX
  5
91
  8
1
  6
________________
 62
     7
 10
638.3887238176966
 20
172.9214392709501
 30
0.0
 70
    32
  0
VERTEX
  5
92
  8
1
  6
________________
 62
     7
 10
638.5425514302004
 20
172.8951660022431
 30
0.0
 70
    32
  0
VERTEX
  5
93
  8
1
  6
________________
 62
     7
 10
638.6294268858086
 20
172.8879229570607
 30
0.0
 70
    32
  0
SEQEND
  5
94
  8
1
  6
________________
 62
     7
  0
LINE
  5
95
  8
1
  6
________________
 62
     7
 10
645.9853343816214
 20
172.5024161805937
 30
0.0
 11
638.6294268858087
 21
172.8879229570607
 31
0.0
  0
LINE
  5
96
  8
1
  6
________________
 62
     7
 10
637.2522954675208
 20
190.3677247011483
 30
0.0
 11
637.2522954675208
 21
174.4052646496125
 31
0.0
  0
LINE
  5
97
  8
1
  6
________________
 62
     7
 10
637.2522954675208
 20
190.3677247011483
 30
0.0
 11
637.2523302528774
 21
190.384691126848
 31
0.0
  0
POLYLINE
  5
98
  8
1
  6
________________
 62
     7
 10
0.0
 20
0.0
 30
0.0
 66
     1
 70
     8
  0
VERTEX
  5
99
  8
1
  6
________________
 62
     7
 10
637.2523302528774
 20
190.384691126848
 30
0.0
 70
    32
  0
VERTEX
  5
9A
  8
1
  6
________________
 62
     7
 10
637.2519095693757
 20
190.4077159159521
 30
0.0
 70
    32
  0
VERTEX
  5
9B
  8
1
  6
________________
 62
     7
 10
637.2504623840069
 20
190.430666033211
 30
0.0
 70
    32
  0
VERTEX
  5
9C
  8
1
  6
________________
 62
     7
 10
637.2479654803373
 20
190.4537057520267
 30
0.0
 70
    32
  0
VERTEX
  5
9D
  8
1
  6
________________
 62
     7
 10
637.2444392078663
 20
190.4765600589946
 30
0.0
 70
    32
  0
VERTEX
  5
9E
  8
1
  6
________________
 62
     7
 10
637.2397430313742
 20
190.4998516396424
 30
0.0
 70
    32
  0
VERTEX
  5
9F
  8
1
  6
________________
 62
     7
 10
637.2339859475172
 20
190.5228339763184
 30
0.0
 70
    32
  0
VERTEX
  5
A0
  8
1
  6
________________
 62
     7
 10
637.2271140100681
 20
190.5456757507504
 30
0.0
 70
    32
  0
VERTEX
  5
A1
  8
1
  6
________________
 62
     7
 10
637.2192043444916
 20
190.5680932228578
 30
0.0
 70
    32
  0
VERTEX
  5
A2
  8
1
  6
________________
 62
     7
 10
637.211081142462
 20
190.5881844126447
 30
0.0
 70
    32
  0
VERTEX
  5
A3
  8
1
  6
________________
 62
     7
 10
637.202132942171
 20
190.6078405065392
 30
0.0
 70
    32
  0
VERTEX
  5
A4
  8
1
  6
________________
 62
     7
 10
637.1923007495949
 20
190.627177071199
 30
0.0
 70
    32
  0
VERTEX
  5
A5
  8
1
  6
________________
 62
     7
 10
637.1816781686725
 20
190.6460014730728
 30
0.0
 70
    32
  0
VERTEX
  5
A6
  8
1
  6
________________
 62
     7
 10
637.170001364608
 20
190.6647220316396
 30
0.0
 70
    32
  0
VERTEX
  5
A7
  8
1
  6
________________
 62
     7
 10
637.1575498252436
 20
190.6828387454727
 30
0.0
 70
    32
  0
VERTEX
  5
A8
  8
1
  6
________________
 62
     7
 10
637.1442431596515
 20
190.700457704459
 30
0.0
 70
    32
  0
VERTEX
  5
A9
  8
1
  6
________________
 62
     7
 10
637.1302078855038
 20
190.7174034966215
 30
0.0
 70
    32
  0
VERTEX
  5
AA
  8
1
  6
________________
 62
     7
 10
637.1160349386942
 20
190.7330554653853
 30
0.0
 70
    32
  0
VERTEX
  5
AB
  8
1
  6
________________
 62
     7
 10
637.101239686963
 20
190.7480368097644
 30
0.0
 70
    32
  0
VERTEX
  5
AC
  8
1
  6
________________
 62
     7
 10
637.0857360933868
 20
190.7624250942415
 30
0.0
 70
    32
  0
VERTEX
  5
AD
  8
1
  6
________________
 62
     7
 10
637.0696506692154
 20
190.7760939050575
 30
0.0
 70
    32
  0
VERTEX
  5
AE
  8
1
  6
________________
 62
     7
 10
637.0526378079967
 20
190.789298102053
 30
0.0
 70
    32
  0
VERTEX
  5
AF
  8
1
  6
________________
 62
     7
 10
637.0350601949194
 20
190.8017171339901
 30
0.0
 70
    32
  0
VERTEX
  5
B0
  8
1
  6
________________
 62
     7
 10
637.0167987071571
 20
190.8134179103487
 30
0.0
 70
    32
  0
VERTEX
  5
B1
  8
1
  6
________________
 62
     7
 10
636.9979847180506
 20
190.8242951822089
 30
0.0
 70
    32
  0
VERTEX
  5
B2
  8
1
  6
________________
 62
     7
 10
636.9784270911531
 20
190.8344293285703
 30
0.0
 70
    32
  0
VERTEX
  5
B3
  8
1
  6
________________
 62
     7
 10
636.9582677882045
 20
190.8437061764986
 30
0.0
 70
    32
  0
VERTEX
  5
B4
  8
1
  6
________________
 62
     7
 10
636.9477867408737
 20
190.8480849353243
 30
0.0
 70
    32
  0
VERTEX
  5
B5
  8
1
  6
________________
 62
     7
 10
636.9371113351834
 20
190.8522443122824
 30
0.0
 70
    32
  0
VERTEX
  5
B6
  8
1
  6
________________
 62
     7
 10
636.9262450714137
 20
190.8561752182674
 30
0.0
 70
    32
  0
VERTEX
  5
B7
  8
1
  6
________________
 62
     7
 10
636.9151914498439
 20
190.8598685641735
 30
0.0
 70
    32
  0
VERTEX
  5
B8
  8
1
  6
________________
 62
     7
 10
636.9105584391839
 20
190.8613267703217
 30
0.0
 70
    32
  0
VERTEX
  5
B9
  8
1
  6
________________
 62
     7
 10
636.9058946521291
 20
190.8627420715831
 30
0.0
 70
    32
  0
VERTEX
  5
BA
  8
1
  6
________________
 62
     7
 10
636.9012099865367
 20
190.864111170742
 30
0.0
 70
    32
  0
VERTEX
  5
BB
  8
1
  6
________________
 62
     7
 10
636.8976113610853
 20
190.8651272082947
 30
0.0
 70
    32
  0
VERTEX
  5
BC
  8
1
  6
________________
 62
     7
 10
636.8940069117007
 20
190.8661143666
 30
0.0
 70
    32
  0
VERTEX
  5
BD
  8
1
  6
________________
 62
     7
 10
636.8904094702277
 20
190.8670696535416
 30
0.0
 70
    32
  0
VERTEX
  5
BE
  8
1
  6
________________
 62
     7
 10
636.8868318685114
 20
190.8679900770029
 30
0.0
 70
    32
  0
VERTEX
  5
BF
  8
1
  6
________________
 62
     7
 10
636.8842755483445
 20
190.8686297009277
 30
0.0
 70
    32
  0
VERTEX
  5
C0
  8
1
  6
________________
 62
     7
 10
636.881738613582
 20
190.8692498518557
 30
0.0
 70
    32
  0
VERTEX
  5
C1
  8
1
  6
________________
 62
     7
 10
636.8792090109617
 20
190.8698538045074
 30
0.0
 70
    32
  0
VERTEX
  5
C2
  8
1
  6
________________
 62
     7
 10
636.8767099456476
 20
190.8704364974379
 30
0.0
 70
    32
  0
VERTEX
  5
C3
  8
1
  6
________________
 62
     7
 10
636.8741907566693
 20
190.8710099408191
 30
0.0
 70
    32
  0
VERTEX
  5
C4
  8
1
  6
________________
 62
     7
 10
636.871714612385
 20
190.8715601126924
 30
0.0
 70
    32
  0
VERTEX
  5
C5
  8
1
  6
________________
 62
     7
 10
636.8692670909105
 20
190.8720909227706
 30
0.0
 70
    32
  0
VERTEX
  5
C6
  8
1
  6
________________
 62
     7
 10
636.8668722258041
 20
190.8725979648924
 30
0.0
 70
    32
  0
VERTEX
  5
C7
  8
1
  6
________________
 62
     7
 10
636.8641543656998
 20
190.8731587770237
 30
0.0
 70
    32
  0
VERTEX
  5
C8
  8
1
  6
________________
 62
     7
 10
636.8615123226331
 20
190.8736892677435
 30
0.0
 70
    32
  0
VERTEX
  5
C9
  8
1
  6
________________
 62
     7
 10
636.8589489927695
 20
190.8741903363744
 30
0.0
 70
    32
  0
VERTEX
  5
CA
  8
1
  6
________________
 62
     7
 10
636.8564672722747
 20
190.8746628822394
 30
0.0
 70
    32
  0
VERTEX
  5
CB
  8
1
  6
________________
 62
     7
 10
636.8531941609397
 20
190.8752676231414
 30
0.0
 70
    32
  0
VERTEX
  5
CC
  8
1
  6
________________
 62
     7
 10
636.8500558618798
 20
190.875827983023
 30
0.0
 70
    32
  0
VERTEX
  5
CD
  8
1
  6
________________
 62
     7
 10
636.847045615898
 20
190.8763479706275
 30
0.0
 70
    32
  0
SEQEND
  5
CE
  8
1
  6
________________
 62
     7
  0
LINE
  5
CF
  8
1
  6
________________
 62
     7
 10
636.847045615898
 20
190.8763479706275
 30
0.0
 11
636.8424611735651
 21
190.8771081960425
 31
0.0
  0
ARC
  5
D0
  8
1
  6
________________
 62
     7
 10
637.4146229362457
 20
194.3292706738634
 30
0.0
 40
3.499686388431067
 50
195.0006602512323
 51
257.8909439314003
  0
LINE
  5
D1
  8
1
  6
________________
 62
     7
 10
634.0341959078438
 20
193.4234462300446
 30
0.0
 11
634.0331186327376
 21
193.4274666754745
 31
0.0
  0
LINE
  5
D2
  8
1
  6
________________
 62
     7
 10
636.8424611735651
 20
190.8771081960425
 30
0.0
 11
636.6804828491724
 21
190.9074519834705
 31
0.0
  0
LINE
  5
D3
  8
1
  6
________________
 62
     7
 10
638.6294268858085
 20
172.8879229570608
 30
0.0
 11
638.2548283989737
 21
172.9075548318785
 31
0.0
  0
ARC
  5
D4
  8
1
  6
________________
 62
     7
 10
637.4620437539185
 20
194.4203044955361
 30
0.0
 40
3.587294786688099
 50
189.0169085800309
 51
269.2303769815442
  0
ARC
  5
D5
  8
1
  6
________________
 62
     7
 10
-636.3333323333383
 20
190.4350873466745
 30
0.0
 40
0.5000000000000031
 50
105.8746951619052
 51
180.0
210
0.0
220
0.0
230
-1.0
  0
ARC
  5
D6
  8
1
  6
________________
 62
     7
 10
637.4274700785442
 20
194.2825361890265
 30
0.0
 40
3.500000000000004
 50
194.9999999999999
 51
254.4994577507485
  0
ARC
  5
D7
  8
1
  6
________________
 62
     7
 10
638.3333323333383
 20
174.4054991340104
 30
0.0
 40
1.499999999999946
 50
180.0
 51
266.9999999999999
  0
LINE
  5
D8
  8
1
  6
________________
 62
     7
 10
636.8333323333383
 20
190.4350873466745
 30
0.0
 11
636.8333323333383
 21
174.4054991340104
 31
0.0
  0
ENDBLK
  8
0
  0
BLOCK
  8
0
  2
_1642
 70
     0
 10
0.0
 20
0.0
 30
0.0
  0
LINE
  5
DD
  8
1
  6
________________
 62
     7
 10
547.0
 20
83.00000099999501
 30
0.0
 11
546.0
 21
83.00000099999501
 31
0.0
  0
LINE
  5
DE
  8
1
  6
________________
 62
     7
 10
546.0
 20
83.00000099999501
 30
0.0
 11
546.0
 21
84.50000099999501
 31
0.0
  0
LINE
  5
DF
  8
1
  6
________________
 62
     7
 10
546.0
 20
84.50000099999501
 30
0.0
 11
547.0
 21
84.50000099999501
 31
0.0
  0
LINE
  5
E0
  8
1
  6
________________
 62
     7
 10
557.9999999999999
 20
84.50000099999501
 30
0.0
 11
558.9999999999999
 21
84.50000099999501
 31
0.0
  0
LINE
  5
E1
  8
1
  6
________________
 62
     7
 10
558.9999999999999
 20
84.50000099999501
 30
0.0
 11
558.9999999999999
 21
83.00000099999501
 31
0.0
  0
LINE
  5
E2
  8
1
  6
________________
 62
     7
 10
558.9999999999999
 20
83.00000099999501
 30
0.0
 11
557.9999999999999
 21
83.00000099999501
 31
0.0
  0
LINE
  5
E3
  8
1
  6
________________
 62
     7
 10
552.2
 20
84.50000099999501
 30
0.0
 11
552.5
 21
84.20000099999501
 31
0.0
  0
LINE
  5
E4
  8
1
  6
________________
 62
     7
 10
552.5
 20
84.20000099999501
 30
0.0
 11
552.8
 21
84.50000099999501
 31
0.0
  0
LINE
  5
E5
  8
1
  6
________________
 62
     7
 10
547.0
 20
83.00000099999501
 30
0.0
 11
557.9999999999999
 21
83.00000099999501
 31
0.0
  0
LINE
  5
E6
  8
1
  6
________________
 62
     7
 10
557.9999999999999
 20
84.50000099999501
 30
0.0
 11
552.8
 21
84.50000099999501
 31
0.0
  0
LINE
  5
E7
  8
1
  6
________________
 62
     7
 10
552.2
 20
84.50000099999501
 30
0.0
 11
547.0
 21
84.50000099999501
 31
0.0
  0
LINE
  5
E8
  8
1
  6
________________
 62
     7
 10
537.4999999999999
 20
96.54597524205735
 30
0.0
 11
537.4999999999999
 21
83.00000099999485
 31
0.0
  0
ARC
  5
E9
  8
1
  6
________________
 62
     7
 10
552.5
 20
104.000000999995
 30
0.0
 40
16.75000000000004
 50
206.4243920788183
 51
333.5756079211811
  0
LINE
  5
EA
  8
1
  6
________________
 62
     7
 10
567.4999999999999
 20
83.00000099999485
 30
0.0
 11
567.5
 21
96.54597524205722
 31
0.0
  0
LINE
  5
EB
  8
1
  6
________________
 62
     7
 10
558.9999999999999
 20
83.00000099999485
 30
0.0
 11
567.4999999999999
 21
83.00000099999485
 31
0.0
  0
LINE
  5
EC
  8
1
  6
________________
 62
     7
 10
537.4999999999999
 20
83.00000099999485
 30
0.0
 11
545.9999999999999
 21
83.00000099999485
 31
0.0
  0
ARC
  5
ED
  8
1
  6
________________
 62
     7
 10
552.5
 20
104.000000999995
 30
0.0
 40
16.74999999999995
 50
333.5756079211807
 51
353.1423515846494
  0
LINE
  5
EE
  8
1
  6
________________
 62
     7
 10
567.4999999999999
 20
83.00000099999487
 30
0.0
 11
572.0500000000001
 21
83.00000099999501
 31
0.0
  0
ARC
  5
EF
  8
1
  6
________________
 62
     7
 10
552.5
 20
104.000000999995
 30
0.0
 40
16.75000000000007
 50
186.8576484153505
 51
206.4243920788188
  0
LINE
  5
F0
  8
1
  6
________________
 62
     7
 10
532.95
 20
83.00000099999501
 30
0.0
 11
537.4999999999999
 21
83.00000099999501
 31
0.0
  0
LINE
  5
F1
  8
1
  6
________________
 62
     7
 10
569.2499999999999
 20
104.000000999995
 30
0.0
 11
572.0334436365074
 21
104.000000999995
 31
0.0
  0
LINE
  5
F2
  8
1
  6
________________
 62
     7
 10
569.2499999999999
 20
104.000000999995
 30
0.0
 11
569.1301683695625
 21
102.000000999995
 31
0.0
  0
LINE
  5
F3
  8
1
  6
________________
 62
     7
 10
572.4
 20
83.00000099999501
 30
0.0
 11
572.0500000000001
 21
83.00000099999501
 31
0.0
  0
LINE
  5
F4
  8
1
  6
________________
 62
     7
 10
532.9665563634925
 20
104.000000999995
 30
0.0
 11
535.7499999999999
 21
104.000000999995
 31
0.0
  0
LINE
  5
F5
  8
1
  6
________________
 62
     7
 10
535.8698316304374
 20
102.000000999995
 30
0.0
 11
535.7499999999999
 21
104.000000999995
 31
0.0
  0
LINE
  5
F6
  8
1
  6
________________
 62
     7
 10
532.95
 20
83.00000099999501
 30
0.0
 11
532.5999999999999
 21
83.00000099999501
 31
0.0
  0
ARC
  5
F7
  8
1
  6
________________
 62
     7
 10
-552.5
 20
104.000000999995
 30
0.0
 40
16.6
 50
359.9999999999999
 51
180.0
210
0.0
220
0.0
230
-1.0
  0
LINE
  5
F8
  8
1
  6
________________
 62
     7
 10
535.9
 20
104.000000999995
 30
0.0
 11
535.7499999999999
 21
104.000000999995
 31
0.0
  0
LINE
  5
F9
  8
1
  6
________________
 62
     7
 10
569.0999999999999
 20
104.000000999995
 30
0.0
 11
569.2499999999999
 21
104.000000999995
 31
0.0
  0
LINE
  5
FA
  8
1
  6
________________
 62
     7
 10
530.4
 20
83.00000099999501
 30
0.0
 11
530.4
 21
108.6182654809131
 31
0.0
  0
LINE
  5
FB
  8
1
  6
________________
 62
     7
 10
531.9
 20
83.00000099999501
 30
0.0
 11
530.4
 21
83.00000099999501
 31
0.0
  0
ARC
  5
FC
  8
1
  6
________________
 62
     7
 10
-563.9455426467082
 20
108.9660303905718
 30
0.0
 40
8.0
 50
133.6413430045973
 51
179.0
210
0.0
220
0.0
230
-1.0
  0
LINE
  5
FD
  8
1
  6
________________
 62
     7
 10
562.4517123285098
 20
121.4453430582028
 30
0.0
 11
569.4666778945033
 21
114.7554228954512
 31
0.0
  0
ARC
  5
FE
  8
1
  6
________________
 62
     7
 10
-552.5
 20
-17.999999000005
 30
0.0
 40
139.8000000000001
 50
85.91792720412329
 51
94.08207279587667
210
0.0
220
0.0
230
-1.0
  0
LINE
  5
FF
  8
1
  6
________________
 62
     7
 10
542.5482876714902
 20
121.4453430582028
 30
0.0
 11
535.5333221054966
 21
114.7554228954512
 31
0.0
  0
ARC
  5
100
  8
1
  6
________________
 62
     7
 10
-541.0544573532918
 20
108.9660303905718
 30
0.0
 40
8.0
 50
0.9999999999999324
 51
46.35865699540277
210
0.0
220
0.0
230
-1.0
  0
LINE
  5
101
  8
1
  6
________________
 62
     7
 10
571.9443242079593
 20
109.1056496420701
 30
0.0
 11
572.4
 21
83.00000099999501
 31
0.0
  0
LINE
  5
102
  8
1
  6
________________
 62
     7
 10
533.0556757920406
 20
109.1056496420701
 30
0.0
 11
532.5999999999999
 21
83.00000099999501
 31
0.0
  0
LINE
  5
103
  8
1
  6
________________
 62
     7
 10
531.9
 20
83.00000099999501
 30
0.0
 11
532.5999999999999
 21
83.00000099999501
 31
0.0
  0
LINE
  5
104
  8
1
  6
________________
 62
     7
 10
573.0999999999999
 20
83.00000099999501
 30
0.0
 11
572.4
 21
83.00000099999501
 31
0.0
  0
LINE
  5
105
  8
1
  6
________________
 62
     7
 10
574.6
 20
108.6182654809131
 30
0.0
 11
574.6
 21
83.00000099999501
 31
0.0
  0
LINE
  5
106
  8
1
  6
________________
 62
     7
 10
574.6
 20
83.00000099999501
 30
0.0
 11
573.0999999999999
 21
83.00000099999501
 31
0.0
  0
ARC
  5
107
  8
1
  6
________________
 62
     7
 10
-540.4
 20
108.6182654809131
 30
0.0
 40
10.0
 50
0.0
 51
46.3586569954028
210
0.0
220
0.0
230
-1.0
  0
ARC
  5
108
  8
1
  6
________________
 62
     7
 10
-564.6
 20
108.6182654809131
 30
0.0
 40
10.0
 50
133.6413430045972
 51
180.0
210
0.0
220
0.0
230
-1.0
  0
LINE
  5
109
  8
1
  6
________________
 62
     7
 10
563.3997575177563
 20
123.5810565337567
 30
0.0
 11
563.4
 21
123.5810378658126
 31
0.0
  0
LINE
  5
10A
  8
1
  6
________________
 62
     7
 10
563.4
 20
123.5810378658126
 30
0.0
 11
571.501419059744
 21
115.8550061120124
 31
0.0
  0
LINE
  5
10B
  8
1
  6
________________
 62
     7
 10
533.498580940256
 20
115.8550061120124
 30
0.0
 11
541.5999999999999
 21
123.5810378658126
 31
0.0
  0
LINE
  5
10C
  8
1
  6
________________
 62
     7
 10
541.5999999999999
 20
123.5810378658126
 30
0.0
 11
541.6002424822436
 21
123.5810565337567
 31
0.0
  0
ARC
  5
10D
  8
1
  6
________________
 62
     7
 10
-552.5
 20
-17.999999000005
 30
0.0
 40
142.0
 50
85.59771129589107
 51
94.40228870410893
210
0.0
220
0.0
230
-1.0
  0
LINE
  5
10E
  8
1
  6
________________
 62
     7
 10
563.5318174011511
 20
123.9862877174353
 30
0.0
 11
563.5264551157078
 21
123.9908721597681
 31
0.0
  0
LINE
  5
10F
  8
1
  6
________________
 62
     7
 10
587.5
 20
126.888185367459
 30
0.0
 11
587.5
 21
83.00000099999501
 31
0.0
  0
LINE
  5
110
  8
1
  6
________________
 62
     7
 10
587.5
 20
83.00000099999501
 30
0.0
 11
574.9794117647059
 21
83.00000099999501
 31
0.0
  0
LINE
  5
111
  8
1
  6
________________
 62
     7
 10
517.5
 20
126.888185367459
 30
0.0
 11
517.5
 21
83.00000099999501
 31
0.0
  0
LINE
  5
112
  8
1
  6
________________
 62
     7
 10
517.5
 20
83.00000099999501
 30
0.0
 11
530.0205882352941
 21
83.00000099999501
 31
0.0
  0
LINE
  5
113
  8
1
  6
________________
 62
     7
 10
530.0205882352941
 20
83.00000099999501
 30
0.0
 11
530.4
 21
83.00000099999501
 31
0.0
  0
LINE
  5
114
  8
1
  6
________________
 62
     7
 10
574.6
 20
83.00000099999501
 30
0.0
 11
574.9794117647059
 21
83.00000099999501
 31
0.0
  0
LINE
  5
115
  8
1
  6
________________
 62
     7
 10
521.0
 20
132.000000999995
 30
0.0
 11
584.0
 21
132.000000999995
 31
0.0
  0
LINE
  5
116
  8
1
  6
________________
 62
     7
 10
517.5
 20
126.8881853674591
 30
0.0
 11
517.5
 21
128.5000009999951
 31
0.0
  0
ARC
  5
117
  8
1
  6
________________
 62
     7
 10
521.0
 20
128.500000999995
 30
0.0
 40
3.500000000000003
 50
90.0
 51
180.0
  0
LINE
  5
118
  8
1
  6
________________
 62
     7
 10
587.5
 20
128.500000999995
 30
0.0
 11
587.5
 21
126.888185367459
 31
0.0
  0
ARC
  5
119
  8
1
  6
________________
 62
     7
 10
584.0
 20
128.500000999995
 30
0.0
 40
3.500000000000059
 50
0.0
 51
90.0
  0
ENDBLK
  8
0
  0
ENDSEC
  0
SECTION
  2
ENTITIES
  0
INSERT
  5
7A
  8
1
  6
________________
 62
     7
  2
_1483
 10
0.0
 20
0.0
 30
0.0
  0
INSERT
  5
D9
  8
1
  6
________________
 62
     7
  2
_1565
 10
0.0
 20
0.0
 30
0.0
  0
INSERT
  5
11A
  8
1
  6
________________
 62
     7
  2
_1642
 10
0.0
 20
0.0
 30
0.0
  0
LINE
  5
11B
  8
1
  6
________________0
 62
     1
 10
512.5
 20
104.000000999995
 30
0.0
 11
592.5
 21
104.000000999995
 31
0.0
  0
LINE
  5
11D
  8
1
  6
________________0
 62
     1
 10
552.5
 20
77.50000000000001
 30
0.0
 11
552.5
 21
137.5
 31
0.0
  0
LINE
  5
11E
  8
1
  6
________________0
 62
     1
 10
552.5
 20
168.3333333333334
 30
0.0
 11
552.5
 21
288.3333333333333
 31
0.0
  0
LINE
  5
11F
  8
1
  6
________________0
 62
     1
 10
625.8333323333383
 20
251.3333333333333
 30
0.0
 11
680.8333323333383
 21
251.3333333333333
 31
0.0
  0
POINT
  5
120
  8
1
 62
     1
 10
625.8333323333383
 20
251.3333333333333
 30
0.0
  0
LINE
  5
121
  8
1
  6
________________0
 62
     1
 10
514.5
 20
251.3333333333333
 30
0.0
 11
590.5
 21
251.3333333333333
 31
0.0
  0
POINT
  5
122
  8
1
 62
     1
 10
552.5
 20
288.3333333333333
 30
0.0
  0
POINT
  5
123
  8
1
 62
     1
 10
552.5
 20
168.3333333333334
 30
0.0
  0
POINT
  5
124
  8
1
 62
     1
 10
552.5
 20
77.50000000000001
 30
0.0
  0
POINT
  5
125
  8
1
 62
     1
 10
552.5
 20
137.5
 30
0.0
  0
TEXT
  5
126
  8
1
 62
     7
 10
632.4806363636363
 20
122.1863636363637
 30
0.0
 40
3.0
  1
RMKWN-25
  7
EXPLODED0
  0
ENDSEC
  0
EOF
