  0
SECTION
  2
HEADER
  9
$ACADVER
  1
AC1006
  9
$DWGCODEPAGE
  3
ansi_932
  9
$INSBASE
 10
0.0
 20
0.0
 30
0.0
  9
$EXTMIN
 10
-116.9349184576
 20
50.60108854545454
  9
$EXTMAX
 10
1935.2968297516
 20
160.6001181222
  9
$LIMMIN
 10
0.0
 20
0.0
  9
$LIMMAX
 10
12.0
 20
9.0
  9
$ORTHOMODE
 70
     0
  9
$REGENMODE
 70
     1
  9
$FILLMODE
 70
     1
  9
$QTEXTMODE
 70
     0
  9
$MIRRTEXT
 70
     1
  9
$DRAGMODE
 70
     2
  9
$LTSCALE
 40
1.0
  9
$OSMODE
 70
    37
  9
$ATTMODE
 70
     1
  9
$TEXTSIZE
 40
0.2
  9
$TRACEWID
 40
0.05
  9
$TEXTSTYLE
  7
STANDARD
  9
$CLAYER
  8
0
  9
$CELTYPE
  6
BYLAYER
  9
$CECOLOR
 62
   256
  9
$DIMSCALE
 40
1.0
  9
$DIMASZ
 40
3.0
  9
$DIMEXO
 40
0.0625
  9
$DIMDLI
 40
0.38
  9
$DIMRND
 40
0.0
  9
$DIMDLE
 40
0.0
  9
$DIMEXE
 40
1.5
  9
$DIMTP
 40
0.0
  9
$DIMTM
 40
0.0
  9
$DIMTXT
 40
5.0
  9
$DIMCEN
 40
0.09
  9
$DIMTSZ
 40
0.0
  9
$DIMTOL
 70
     0
  9
$DIMLIM
 70
     0
  9
$DIMTIH
 70
     1
  9
$DIMTOH
 70
     1
  9
$DIMSE1
 70
     0
  9
$DIMSE2
 70
     0
  9
$DIMTAD
 70
     1
  9
$DIMZIN
 70
     0
  9
$DIMBLK
  1

  9
$DIMASO
 70
     1
  9
$DIMSHO
 70
     1
  9
$DIMPOST
  1

  9
$DIMAPOST
  1

  9
$DIMALT
 70
     0
  9
$DIMALTD
 70
     2
  9
$DIMALTF
 40
25.4
  9
$DIMLFAC
 40
1.0
  9
$DIMTOFL
 70
     0
  9
$DIMTVP
 40
0.0
  9
$DIMTIX
 70
     0
  9
$DIMSOXD
 70
     0
  9
$DIMSAH
 70
     0
  9
$DIMBLK1
  1

  9
$DIMBLK2
  1

  9
$LUNITS
 70
     2
  9
$LUPREC
 70
     4
  9
$SKETCHINC
 40
0.1
  9
$FILLETRAD
 40
0.5
  9
$AUNITS
 70
     0
  9
$AUPREC
 70
     0
  9
$MENU
  1
.
  9
$ELEVATION
 40
0.0
  9
$THICKNESS
 40
0.0
  9
$LIMCHECK
 70
     0
  9
$CHAMFERA
 40
0.0
  9
$CHAMFERB
 40
0.0
  9
$SKPOLY
 70
     0
  9
$TDCREATE
 40
2460222.410689236
  9
$TDUPDATE
 40
2460222.410689387
  9
$TDINDWG
 40
0.0000000116
  9
$TDUSRTIMER
 40
0.0000000116
  9
$USRTIMER
 70
     1
  9
$ANGBASE
 50
0.0
  9
$ANGDIR
 70
     0
  9
$PDMODE
 70
     0
  9
$PDSIZE
 40
0.0
  9
$PLINEWID
 40
0.0
  9
$COORDS
 70
     1
  9
$SPLFRAME
 70
     0
  9
$SPLINETYPE
 70
     6
  9
$SPLINESEGS
 70
     8
  9
$ATTDIA
 70
     0
  9
$ATTREQ
 70
     1
  9
$HANDLING
 70
     1
  9
$HANDSEED
  5
E9
  9
$SURFTAB1
 70
     6
  9
$SURFTAB2
 70
     6
  9
$SURFTYPE
 70
     6
  9
$SURFU
 70
     6
  9
$SURFV
 70
     6
  9
$UCSNAME
  2

  9
$UCSORG
 10
0.0
 20
0.0
 30
0.0
  9
$UCSXDIR
 10
1.0
 20
0.0
 30
0.0
  9
$UCSYDIR
 10
0.0
 20
1.0
 30
0.0
  9
$USERI1
 70
     0
  9
$USERI2
 70
     0
  9
$USERI3
 70
     0
  9
$USERI4
 70
     0
  9
$USERI5
 70
     0
  9
$USERR1
 40
0.0
  9
$USERR2
 40
0.0
  9
$USERR3
 40
0.0
  9
$USERR4
 40
0.0
  9
$USERR5
 40
0.0
  9
$WORLDVIEW
 70
     1
  0
ENDSEC
  0
SECTION
  2
TABLES
  0
TABLE
  2
VPORT
 70
     1
  0
VPORT
  2
*ACTIVE
 70
     0
 10
0.0
 20
0.0
 11
1.0
 21
1.0
 12
909.180955647
 22
105.6006033338273
 13
0.0
 23
0.0
 14
0.5
 24
0.5
 15
0.5
 25
0.5
 16
0.0
 26
0.0
 36
1.0
 17
0.0
 27
0.0
 37
0.0
 40
109.9990295767455
 41
1.6
 42
50.0
 43
0.0
 44
0.0
 50
0.0
 51
0.0
 71
     0
 72
   100
 73
     1
 74
     3
 75
     0
 76
     0
 77
     0
 78
     0
  0
ENDTAB
  0
TABLE
  2
LTYPE
 70
     2
  0
LTYPE
  2
CONTINUOUS
 70
     0
  3
Solid line
 72
    65
 73
     0
 40
0.0
  0
LTYPE
  2
CENTER
 70
     0
  3

 72
    65
 73
     0
 40
0.0
  0
ENDTAB
  0
TABLE
  2
LAYER
 70
     2
  0
LAYER
  2
0
 70
     0
 62
     7
  6
CONTINUOUS
  0
LAYER
  2
1
 70
     0
 62
     7
  6
CONTINUOUS
  0
ENDTAB
  0
TABLE
  2
STYLE
 70
     2
  0
STYLE
  2
STANDARD
 70
     0
 40
0.0
 41
1.0
 50
0.0
 71
     0
 42
0.2
  3
txt
  4

  0
STYLE
  2
ＭＳ_ゴシック
 70
     0
 40
0.0
 41
1.0
 50
0.0
 71
     0
 42
0.2
  3
ＭＳ ゴシック.shx
  4

  0
ENDTAB
  0
TABLE
  2
VIEW
 70
     0
  0
ENDTAB
  0
TABLE
  2
UCS
 70
     0
  0
ENDTAB
  0
ENDSEC
  0
SECTION
  2
BLOCKS
  0
ENDSEC
  0
SECTION
  2
ENTITIES
  0
ARC
  5
70
  8
1
  6
CONTINUOUS
 62
     7
 10
1920.2968297516
 20
100.3703703704
 30
0.0
 40
10.2
 50
142.3415379938
 51
180.0
  0
LINE
  5
71
  8
1
  6
CONTINUOUS
 62
     7
 10
1913.2968297516
 20
84.3703703704
 30
0.0
 11
1913.2968297516
 21
85.3703703704
 31
0.0
  0
LINE
  5
72
  8
1
  6
CONTINUOUS
 62
     7
 10
1913.2968297516
 20
84.3703703704
 30
0.0
 11
1912.3968297516
 21
84.3703703704
 31
0.0
  0
LINE
  5
73
  8
1
  6
CONTINUOUS
 62
     7
 10
1929.0468297516
 20
94.0735536645
 30
0.0
 11
1927.5468297516
 21
93.2075282607
 31
0.0
  0
LINE
  5
74
  8
1
  6
CONTINUOUS
 62
     7
 10
1929.2968297516
 20
94.5065663664
 30
0.0
 11
1929.2968297516
 21
100.3703703704
 31
0.0
  0
LINE
  5
75
  8
1
  6
CONTINUOUS
 62
     7
 10
1930.4968297516
 20
99.0703703704
 30
0.0
 11
1930.4968297516
 21
96.7560110164
 31
0.0
  0
LINE
  5
76
  8
1
  6
CONTINUOUS
 62
     7
 10
1927.2968297516
 20
84.3703703704
 30
0.0
 11
1927.2968297516
 21
85.3703703704
 31
0.0
  0
LINE
  5
77
  8
1
  6
CONTINUOUS
 62
     7
 10
1913.2968297516
 20
89.8703703704
 30
0.0
 11
1913.2968297516
 21
92.7745155588
 31
0.0
  0
ARC
  5
78
  8
1
  6
CONTINUOUS
 62
     7
 10
1926.2968297516
 20
89.8703703704
 30
0.0
 40
1.0
 50
270.0
 51
0.0
  0
ARC
  5
79
  8
1
  6
CONTINUOUS
 62
     7
 10
1920.2968297516
 20
100.3703703704
 30
0.0
 40
9.0
 50
0.0
 51
37.6584620062
  0
LINE
  5
7A
  8
1
  6
CONTINUOUS
 62
     7
 10
1928.9968297516
 20
92.659045505
 30
0.0
 11
1931.2968297516
 21
93.9869511241
 31
0.0
  0
LINE
  5
7B
  8
1
  6
CONTINUOUS
 62
     7
 10
1929.6968297516
 20
84.3703703704
 30
0.0
 11
1935.2968297516
 21
84.3703703704
 31
0.0
  0
ARC
  5
7C
  8
1
  6
CONTINUOUS
 62
     7
 10
1911.7968297516
 20
94.5065663664
 30
0.0
 40
0.5
 50
180.0
 51
240.0
  0
LINE
  5
7D
  8
1
  6
CONTINUOUS
 62
     7
 10
1919.7968297516
 20
88.8703703704
 30
0.0
 11
1920.2968297516
 21
88.3703703704
 31
0.0
  0
ARC
  5
7E
  8
1
  6
CONTINUOUS
 62
     7
 10
1920.2968297516
 20
100.3703703704
 30
0.0
 40
9.0
 50
142.3415379938
 51
180.0
  0
LINE
  5
7F
  8
1
  6
CONTINUOUS
 62
     7
 10
1930.4968297516
 20
100.3703703704
 30
0.0
 11
1930.4968297516
 21
99.6703703704
 31
0.0
  0
ARC
  5
80
  8
1
  6
CONTINUOUS
 62
     7
 10
1914.2968297516
 20
89.8703703704
 30
0.0
 40
1.0
 50
180.0
 51
270.0
  0
LINE
  5
81
  8
1
  6
CONTINUOUS
 62
     7
 10
1927.2968297516
 20
89.8703703704
 30
0.0
 11
1927.2968297516
 21
92.7745155588
 31
0.0
  0
LINE
  5
82
  8
1
  6
CONTINUOUS
 62
     7
 10
1912.0968297516
 20
91.7930201012
 30
0.0
 11
1912.0968297516
 21
88.7774771515
 31
0.0
  0
LINE
  5
83
  8
1
  6
CONTINUOUS
 62
     7
 10
1910.8968297516
 20
84.3703703704
 30
0.0
 11
1905.2968297516
 21
84.3703703704
 31
0.0
  0
LINE
  5
84
  8
1
  6
CONTINUOUS
 62
     7
 10
1931.2968297516
 20
95.3703703704
 30
0.0
 11
1930.4968297516
 21
96.7560110164
 31
0.0
  0
LINE
  5
85
  8
1
  6
CONTINUOUS
 62
     7
 10
1909.2968297516
 20
95.3703703704
 30
0.0
 11
1910.0968297516
 21
96.7560110164
 31
0.0
  0
LINE
  5
86
  8
1
  6
CONTINUOUS
 62
     7
 10
1926.2968297516
 20
88.8703703704
 30
0.0
 11
1920.7968297516
 21
88.8703703704
 31
0.0
  0
LINE
  5
87
  8
1
  6
CONTINUOUS
 62
     7
 10
1927.2968297516
 20
84.3703703704
 30
0.0
 11
1928.1968297516
 21
84.3703703704
 31
0.0
  0
LINE
  5
88
  8
1
  6
CONTINUOUS
 62
     7
 10
1906.9968297516
 20
86.0703703704
 30
0.0
 11
1906.9968297516
 21
84.3703703704
 31
0.0
  0
ARC
  5
89
  8
1
  6
CONTINUOUS
 62
     7
 10
1927.7968297516
 20
92.7745155588
 30
0.0
 40
0.5
 50
120.0
 51
180.0
  0
LINE
  5
8A
  8
1
  6
CONTINUOUS
 62
     7
 10
1933.5968297516
 20
86.0703703704
 30
0.0
 11
1933.5968297516
 21
84.3703703704
 31
0.0
  0
ARC
  5
8B
  8
1
  6
CONTINUOUS
 62
     7
 10
1912.7968297516
 20
92.7745155588
 30
0.0
 40
0.5
 50
0.0
 51
60.0
  0
ARC
  5
8C
  8
1
  6
CONTINUOUS
 62
     7
 10
1911.0968297516
 20
91.7930201012
 30
0.0
 40
1.0
 50
0.0
 51
60.0
  0
ARC
  5
8D
  8
1
  6
CONTINUOUS
 62
     7
 10
1929.4968297516
 20
91.7930201012
 30
0.0
 40
1.0
 50
120.0
 51
180.0
  0
LINE
  5
8E
  8
1
  6
CONTINUOUS
 62
     7
 10
1914.2968297516
 20
88.8703703704
 30
0.0
 11
1919.7968297516
 21
88.8703703704
 31
0.0
  0
LINE
  5
8F
  8
1
  6
CONTINUOUS
 62
     7
 10
1930.8503831422
 20
86.2168169798
 30
0.0
 11
1928.643276361
 21
88.4239237609
 31
0.0
  0
ARC
  5
90
  8
1
  6
CONTINUOUS
 62
     7
 10
1928.9968297516
 20
88.7774771515
 30
0.0
 40
0.5
 50
179.9999999999
 51
225.0
  0
LINE
  5
91
  8
1
  6
CONTINUOUS
 62
     7
 10
1911.5468297516
 20
94.0735536645
 30
0.0
 11
1913.0468297516
 21
93.2075282607
 31
0.0
  0
ARC
  5
92
  8
1
  6
CONTINUOUS
 62
     7
 10
1931.2039365328
 20
86.5703703704
 30
0.0
 40
0.5
 50
225.0
 51
270.0
  0
LINE
  5
93
  8
1
  6
CONTINUOUS
 62
     7
 10
1929.6968297516
 20
84.3703703704
 30
0.0
 11
1929.6968297516
 21
85.3703703704
 31
0.0
  0
LINE
  5
94
  8
1
  6
CONTINUOUS
 62
     7
 10
1929.1968297516
 20
85.8703703704
 30
0.0
 11
1928.6968297516
 21
85.8703703704
 31
0.0
  0
LINE
  5
95
  8
1
  6
CONTINUOUS
 62
     7
 10
1928.1968297516
 20
85.3703703704
 30
0.0
 11
1928.1968297516
 21
84.3703703704
 31
0.0
  0
ARC
  5
96
  8
1
  6
CONTINUOUS
 62
     7
 10
1928.6968297516
 20
85.3703703704
 30
0.0
 40
0.5
 50
90.0
 51
180.0
  0
ARC
  5
97
  8
1
  6
CONTINUOUS
 62
     7
 10
1926.7968297516
 20
85.3703703704
 30
0.0
 40
0.5
 50
0.0
 51
90.0
  0
LINE
  5
98
  8
1
  6
CONTINUOUS
 62
     7
 10
1911.5968297516
 20
92.659045505
 30
0.0
 11
1909.2968297516
 21
93.9869511241
 31
0.0
  0
ARC
  5
99
  8
1
  6
CONTINUOUS
 62
     7
 10
1913.7968297516
 20
85.3703703704
 30
0.0
 40
0.5
 50
90.0
 51
180.0
  0
LINE
  5
9A
  8
1
  6
CONTINUOUS
 62
     7
 10
1910.8968297516
 20
84.3703703704
 30
0.0
 11
1910.8968297516
 21
85.3703703704
 31
0.0
  0
ARC
  5
9B
  8
1
  6
CONTINUOUS
 62
     7
 10
1928.7968297516
 20
94.5065663664
 30
0.0
 40
0.5
 50
300.0
 51
0.0
  0
LINE
  5
9C
  8
1
  6
CONTINUOUS
 62
     7
 10
1911.3968297516
 20
85.8703703704
 30
0.0
 11
1911.8968297516
 21
85.8703703704
 31
0.0
  0
LINE
  5
9D
  8
1
  6
CONTINUOUS
 62
     7
 10
1909.3897229704
 20
86.0703703704
 30
0.0
 11
1906.9968297516
 21
86.0703703704
 31
0.0
  0
LINE
  5
9E
  8
1
  6
CONTINUOUS
 62
     7
 10
1911.2968297516
 20
94.5065663664
 30
0.0
 11
1911.2968297516
 21
100.3703703704
 31
0.0
  0
ARC
  5
9F
  8
1
  6
CONTINUOUS
 62
     7
 10
1920.2968297516
 20
100.3703703704
 30
0.0
 40
10.2
 50
0.0
 51
37.6584620062
  0
LINE
  5
A0
  8
1
  6
CONTINUOUS
 62
     7
 10
1928.4968297516
 20
91.7930201012
 30
0.0
 11
1928.4968297516
 21
88.7774771515
 31
0.0
  0
LINE
  5
A1
  8
1
  6
CONTINUOUS
 62
     7
 10
1909.2968297516
 20
93.9869511241
 30
0.0
 11
1909.2968297516
 21
95.3703703704
 31
0.0
  0
LINE
  5
A2
  8
1
  6
CONTINUOUS
 62
     7
 10
1931.2968297516
 20
93.9869511241
 30
0.0
 11
1931.2968297516
 21
95.3703703704
 31
0.0
  0
LINE
  5
A3
  8
1
  6
CONTINUOUS
 62
     7
 10
1913.7968297516
 20
85.8703703704
 30
0.0
 11
1926.7968297516
 21
85.8703703704
 31
0.0
  0
LINE
  5
A4
  8
1
  6
CONTINUOUS
 62
     7
 10
1920.2968297516
 20
88.3703703704
 30
0.0
 11
1920.7968297516
 21
88.8703703704
 31
0.0
  0
LINE
  5
A5
  8
1
  6
CONTINUOUS
 62
     7
 10
1910.0968297516
 20
99.0703703704
 30
0.0
 11
1910.0968297516
 21
96.7560110164
 31
0.0
  0
LINE
  5
A6
  8
1
  6
CONTINUOUS
 62
     7
 10
1931.2039365328
 20
86.0703703704
 30
0.0
 11
1933.5968297516
 21
86.0703703704
 31
0.0
  0
LINE
  5
A7
  8
1
  6
CONTINUOUS
 62
     7
 10
1910.0968297516
 20
100.3703703704
 30
0.0
 11
1910.0968297516
 21
99.6703703704
 31
0.0
  0
LINE
  5
A8
  8
1
  6
CONTINUOUS
 62
     7
 10
1929.2968297516
 20
92.6703703704
 30
0.0
 11
1933.5968297516
 21
95.1529765279
 31
0.0
  0
LINE
  5
A9
  8
1
  6
CONTINUOUS
 62
     7
 10
1912.3968297516
 20
85.3703703704
 30
0.0
 11
1912.3968297516
 21
84.3703703704
 31
0.0
  0
LINE
  5
AA
  8
1
  6
CONTINUOUS
 62
     7
 10
1930.9968297516
 20
88.7745334264
 30
0.0
 11
1932.0009928076
 21
87.7703703704
 31
0.0
  0
LINE
  5
AB
  8
1
  6
CONTINUOUS
 62
     7
 10
1933.5968297516
 20
95.1529765279
 30
0.0
 11
1933.5968297516
 21
104.6548276036
 31
0.0
  0
LINE
  5
AC
  8
1
  6
CONTINUOUS
 62
     7
 10
-116.9349184576
 20
114.3665431795
 30
0.0
 11
1883.0650815424
 21
114.3665431795
 31
0.0
  0
ARC
  5
AD
  8
1
  6
CONTINUOUS
 62
     7
 10
1930.2968297516
 20
104.6548276036
 30
0.0
 40
3.3
 50
0.0
 51
47.797083363
  0
LINE
  5
AE
  8
1
  6
CONTINUOUS
 62
     7
 10
1883.0650815424
 20
114.3665431795
 30
0.0
 11
1883.0650815424
 21
84.3703703704
 31
0.0
  0
LINE
  5
AF
  8
1
  6
CONTINUOUS
 62
     7
 10
1932.5136321384
 20
107.0993699284
 30
0.0
 11
1926.5928742257
 21
112.4685345937
 31
0.0
  0
LINE
  5
B0
  8
1
  6
CONTINUOUS
 62
     7
 10
1883.0650815424
 20
84.3703703704
 30
0.0
 11
-116.9349184575998
 21
84.3703703704
 31
0.0
  0
LINE
  5
B1
  8
1
  6
CONTINUOUS
 62
     7
 10
-116.9349184576
 20
84.3703703704
 30
0.0
 11
-116.9349184576
 21
114.3665431795
 31
0.0
  0
ARC
  5
B2
  8
1
  6
CONTINUOUS
 62
     7
 10
1911.5968297515
 20
88.7774771515
 30
0.0
 40
0.5
 50
315.0
 51
0.0000000000999876
  0
ARC
  5
B3
  8
1
  6
CONTINUOUS
 62
     7
 10
1912.6968297516
 20
106.2355216898
 30
0.0
 40
0.6
 50
322.3415379938
 51
142.3415379938
  0
LINE
  5
B4
  8
1
  6
CONTINUOUS
 62
     7
 10
1930.4968297516
 20
99.6703703704
 30
0.0
 11
1930.1968297516
 21
99.3703703704
 31
0.0
  0
LINE
  5
B5
  8
1
  6
CONTINUOUS
 62
     7
 10
-116.9349184576
 20
160.6001181222
 30
0.0
 11
1883.0650815424
 21
160.6001181222
 31
0.0
  0
LINE
  5
B6
  8
1
  6
CONTINUOUS
 62
     7
 10
1911.2968297516
 20
88.0703703704
 30
0.0
 11
1909.2968297516
 21
86.0703703704
 31
0.0
  0
LINE
  5
B7
  8
1
  6
CONTINUOUS
 62
     7
 10
1883.0650815424
 20
160.6001181222
 30
0.0
 11
1883.0650815424
 21
130.6001181222
 31
0.0
  0
LINE
  5
B8
  8
1
  6
CONTINUOUS
 62
     7
 10
1908.0800273647
 20
107.0993699284
 30
0.0
 11
1914.0007852774
 21
112.4685345937
 31
0.0
  0
LINE
  5
B9
  8
1
  6
CONTINUOUS
 62
     7
 10
1933.6556212468
 20
108.3586796108
 30
0.0
 11
1927.2968297516
 21
114.1250695078
 31
0.0
  0
LINE
  5
BA
  8
1
  6
CONTINUOUS
 62
     7
 10
1906.9380382563
 20
108.3586796108
 30
0.0
 11
1913.2968297516
 21
114.1250695078
 31
0.0
  0
LINE
  5
BB
  8
1
  6
CONTINUOUS
 62
     7
 10
1932.0009928076
 20
87.7703703704
 30
0.0
 11
1933.5968297516
 21
87.7703703704
 31
0.0
  0
LINE
  5
BC
  8
1
  6
CONTINUOUS
 62
     7
 10
1933.5968297516
 20
93.1899856126
 30
0.0
 11
1930.9968297516
 21
91.6888749127
 31
0.0
  0
LINE
  5
BD
  8
1
  6
CONTINUOUS
 62
     7
 10
1930.1968297516
 20
99.3703703704
 30
0.0
 11
1930.4968297516
 21
99.0703703704
 31
0.0
  0
ARC
  5
BE
  8
1
  6
CONTINUOUS
 62
     7
 10
1911.8968297516
 20
85.3703703704
 30
0.0
 40
0.5
 50
0.0
 51
90.0
  0
LINE
  5
BF
  8
1
  6
CONTINUOUS
 62
     7
 10
1908.5926666955
 20
87.7703703704
 30
0.0
 11
1906.9968297516
 21
87.7703703704
 31
0.0
  0
ARC
  5
C0
  8
1
  6
CONTINUOUS
 62
     7
 10
1910.2968297516
 20
104.6548276036
 30
0.0
 40
5.0
 50
132.202916637
 51
180.0
  0
LINE
  5
C1
  8
1
  6
CONTINUOUS
 62
     7
 10
1909.5968297516
 20
91.6888749127
 30
0.0
 11
1909.5968297516
 21
88.7745334264
 31
0.0
  0
LINE
  5
C2
  8
1
  6
CONTINUOUS
 62
     7
 10
1911.2968297516
 20
92.6703703704
 30
0.0
 11
1911.2968297516
 21
88.0703703704
 31
0.0
  0
ARC
  5
C3
  8
1
  6
CONTINUOUS
 62
     7
 10
1911.3968297516
 20
85.3703703704
 30
0.0
 40
0.5
 50
90.0
 51
180.0
  0
LINE
  5
C4
  8
1
  6
CONTINUOUS
 62
     7
 10
1909.743276361
 20
86.2168169798
 30
0.0
 11
1911.9503831421
 21
88.4239237609
 31
0.0
  0
ARC
  5
C5
  8
1
  6
CONTINUOUS
 62
     7
 10
1930.2968297516
 20
104.6548276036
 30
0.0
 40
5.0
 50
0.0
 51
47.797083363
  0
LINE
  5
C6
  8
1
  6
CONTINUOUS
 62
     7
 10
1929.2968297516
 20
92.6703703704
 30
0.0
 11
1929.2968297516
 21
88.0703703704
 31
0.0
  0
LINE
  5
C7
  8
1
  6
CONTINUOUS
 62
     7
 10
1910.0968297516
 20
99.6703703704
 30
0.0
 11
1910.3968297516
 21
99.3703703704
 31
0.0
  0
ARC
  5
C8
  8
1
  6
CONTINUOUS
 62
     7
 10
1920.2968297516
 20
14.3703703704
 30
0.0
 40
98.3
 50
86.327732708
 51
93.67226729200002
  0
ARC
  5
C9
  8
1
  6
CONTINUOUS
 62
     7
 10
1909.3897229704
 20
86.5703703704
 30
0.0
 40
0.5
 50
270.0
 51
315.0
  0
LINE
  5
CA
  8
1
  6
CONTINUOUS
 62
     7
 10
1905.2968297516
 20
104.6548276036
 30
0.0
 11
1905.2968297516
 21
84.3703703704
 31
0.0
  0
LINE
  5
CB
  8
1
  6
CONTINUOUS
 62
     7
 10
1929.2968297516
 20
88.0703703704
 30
0.0
 11
1931.2968297516
 21
86.0703703704
 31
0.0
  0
ARC
  5
CC
  8
1
  6
CONTINUOUS
 62
     7
 10
1929.1968297516
 20
85.3703703704
 30
0.0
 40
0.5
 50
0.0
 51
90.0
  0
LINE
  5
CD
  8
1
  6
CONTINUOUS
 62
     7
 10
1935.2968297516
 20
104.6548276036
 30
0.0
 11
1935.2968297516
 21
84.3703703704
 31
0.0
  0
LINE
  5
CE
  8
1
  6
CONTINUOUS
 62
     7
 10
1909.5968297516
 20
88.7745334264
 30
0.0
 11
1908.5926666955
 21
87.7703703704
 31
0.0
  0
LINE
  5
CF
  8
1
  6
CONTINUOUS
 62
     7
 10
1906.9968297516
 20
87.7703703704
 30
0.0
 11
1906.9968297516
 21
93.1899856126
 31
0.0
  0
ARC
  5
D0
  8
1
  6
CONTINUOUS
 62
     7
 10
1920.2968297516
 20
14.3703703704
 30
0.0
 40
100.0
 50
85.98601278190002
 51
94.0139872181
  0
LINE
  5
D1
  8
1
  6
CONTINUOUS
 62
     7
 10
1906.9968297516
 20
95.1529765279
 30
0.0
 11
1906.9968297516
 21
104.6548276036
 31
0.0
  0
ARC
  5
D2
  8
1
  6
CONTINUOUS
 62
     7
 10
1927.8968297516
 20
106.2355216898
 30
0.0
 40
0.6
 50
37.6584620062
 51
217.6584620062
  0
LINE
  5
D3
  8
1
  6
CONTINUOUS
 62
     7
 10
1906.9968297516
 20
93.1899856126
 30
0.0
 11
1909.5968297516
 21
91.6888749127
 31
0.0
  0
LINE
  5
D4
  8
1
  6
CONTINUOUS
 62
     7
 10
1911.2968297516
 20
92.6703703704
 30
0.0
 11
1906.9968297516
 21
95.1529765279
 31
0.0
  0
LINE
  5
D5
  8
1
  6
CONTINUOUS
 62
     7
 10
1933.5968297516
 20
87.7703703704
 30
0.0
 11
1933.5968297516
 21
93.1899856126
 31
0.0
  0
LINE
  5
D6
  8
1
  6
CONTINUOUS
 62
     7
 10
1930.9968297516
 20
91.6888749127
 30
0.0
 11
1930.9968297516
 21
88.7745334264
 31
0.0
  0
LINE
  5
D7
  8
1
  6
CONTINUOUS
 62
     7
 10
1910.3968297516
 20
99.3703703704
 30
0.0
 11
1910.0968297516
 21
99.0703703704
 31
0.0
  0
ARC
  5
D8
  8
1
  6
CONTINUOUS
 62
     7
 10
1910.2968297516
 20
104.6548276036
 30
0.0
 40
3.3
 50
132.202916637
 51
180.0
  0
LINE
  5
D9
  8
1
  6
CONTINUOUS
 62
     7
 10
1883.0650815424
 20
130.6001181222
 30
0.0
 11
-116.9349184575998
 21
130.6001181222
 31
0.0
  0
LINE
  5
DA
  8
1
  6
CONTINUOUS
 62
     7
 10
1883.0650815424
 20
138.6001181222
 30
0.0
 11
-116.9349184575998
 21
138.6001181222
 31
0.0
  0
LINE
  5
DB
  8
1
  6
CONTINUOUS
 62
     7
 10
-116.9349184576
 20
130.6001181222
 30
0.0
 11
-116.9349184576
 21
160.6001181222
 31
0.0
  0
LINE
  5
DC
  8
1
  6
CONTINUOUS
 62
     7
 10
-116.9349184576
 20
152.6001181222
 30
0.0
 11
1883.0650815424
 21
152.6001181222
 31
0.0
  0
POINT
  5
DD
  8
0
 62
     7
 10
1930.0
 20
75.0
 30
0.0
  0
POINT
  5
DE
  8
0
 62
     7
 10
1915.0
 20
125.0
 30
0.0
  0
TEXT
  5
DF
  8
1
  6
CONTINUOUS
 62
     7
 10
1854.119850664202
 20
50.03103102388395
 30
0.0
 40
5.0
  1
RMN-13M
 41
1.038961
  0
LINE
  5
E0
  8
0
  6
CENTER
 62
     1
 10
1920.2968297516
 20
125.0
 30
0.0
 11
1920.2968297516
 21
75.0
 31
0.0
  0
ENDSEC
  0
EOF
