  0
SECTION
  2
HEADER
  9
$ACADVER
  1
AC1004
  9
$INSBASE
 10
0.0
 20
0.0
  9
$EXTMIN
 10
-965.5000000000001
 20
563.6704545454545
  9
$EXTMAX
 10
1115.0
 20
715.0000000000001
  9
$LIMMIN
 10
0.0
 20
0.0
  9
$LIMMAX
 10
12.0
 20
9.0
  9
$ORTHOMODE
 70
     0
  9
$REGENMODE
 70
     1
  9
$FILLMODE
 70
     1
  9
$QTEXTMODE
 70
     0
  9
$DRAGMODE
 70
     2
  9
$LTSCALE
 40
1.0
  9
$OSMODE
 70
    37
  9
$ATTMODE
 70
     1
  9
$TEXTSIZE
 40
0.2
  9
$TRACEWID
 40
0.05
  9
$TEXTSTYLE
  7
STANDARD
  9
$CLAYER
  8
0
  9
$CELTYPE
  6
BYLAYER
  9
$CECOLOR
 62
   256
  9
$DIMSCALE
 40
1.0
  9
$DIMASZ
 40
3.0
  9
$DIMEXO
 40
0.0625
  9
$DIMDLI
 40
0.38
  9
$DIMRND
 40
0.0
  9
$DIMDLE
 40
0.0
  9
$DIMEXE
 40
1.5
  9
$DIMTP
 40
0.0
  9
$DIMTM
 40
0.0
  9
$DIMTXT
 40
3.0
  9
$DIMCEN
 40
0.09
  9
$DIMTSZ
 40
0.0
  9
$DIMTOL
 70
     0
  9
$DIMLIM
 70
     0
  9
$DIMTIH
 70
     1
  9
$DIMTOH
 70
     1
  9
$DIMSE1
 70
     0
  9
$DIMSE2
 70
     0
  9
$DIMTAD
 70
     1
  9
$DIMZIN
 70
     0
  9
$DIMBLK
  1

  9
$DIMASO
 70
     1
  9
$DIMSHO
 70
     1
  9
$DIMPOST
  1

  9
$DIMAPOST
  1

  9
$DIMALT
 70
     0
  9
$DIMALTD
 70
     2
  9
$DIMALTF
 40
25.4
  9
$DIMLFAC
 40
1.0
  9
$DIMTOFL
 70
     0
  9
$DIMTVP
 40
0.0
  9
$DIMTIX
 70
     0
  9
$DIMSOXD
 70
     0
  9
$DIMSAH
 70
     0
  9
$DIMBLK1
  1

  9
$DIMBLK2
  1

  9
$LUNITS
 70
     2
  9
$LUPREC
 70
     4
  9
$SKETCHINC
 40
0.1
  9
$FILLETRAD
 40
0.5
  9
$AUNITS
 70
     0
  9
$AUPREC
 70
     0
  9
$MENU
  1
.
  9
$ELEVATION
 40
0.0
  9
$THICKNESS
 40
0.0
  9
$LIMCHECK
 70
     0
  9
$CHAMFERA
 40
0.0
  9
$CHAMFERB
 40
0.0
  9
$SKPOLY
 70
     0
  9
$TDCREATE
 40
2460774.40965
  9
$TDUPDATE
 40
2460774.409650081
  9
$TDINDWG
 40
0.0000000116
  9
$TDUSRTIMER
 40
0.0000000116
  9
$USRTIMER
 70
     1
  9
$ANGBASE
 50
0.0
  9
$ANGDIR
 70
     0
  9
$PDMODE
 70
     0
  9
$PDSIZE
 40
0.0
  9
$PLINEWID
 40
0.0
  9
$COORDS
 70
     1
  9
$SPLFRAME
 70
     0
  9
$SPLINETYPE
 70
     6
  9
$SPLINESEGS
 70
     8
  9
$ATTDIA
 70
     0
  9
$ATTREQ
 70
     1
  9
$SURFTAB1
 70
     6
  9
$SURFTAB2
 70
     6
  9
$SURFTYPE
 70
     6
  9
$SURFU
 70
     6
  9
$SURFV
 70
     6
  9
$UCSNAME
  2

  9
$UCSORG
 10
0.0
 20
0.0
 30
0.0
  9
$UCSXDIR
 10
1.0
 20
0.0
 30
0.0
  9
$UCSYDIR
 10
0.0
 20
1.0
 30
0.0
  9
$USERI1
 70
     0
  9
$USERI2
 70
     0
  9
$USERI3
 70
     0
  9
$USERI4
 70
     0
  9
$USERI5
 70
     0
  9
$USERR1
 40
0.0
  9
$USERR2
 40
0.0
  9
$USERR3
 40
0.0
  9
$USERR4
 40
0.0
  9
$USERR5
 40
0.0
  9
$WORLDVIEW
 70
     1
  0
ENDSEC
  0
SECTION
  2
TABLES
  0
TABLE
  2
LTYPE
 70
     2
  0
LTYPE
  2
CONTINUOUS
 70
     0
  3
Solid line
 72
    65
 73
     0
 40
0.0
  0
LTYPE
  2
CENTER
 70
     0
  3

 72
    65
 73
     0
 40
0.0
  0
ENDTAB
  0
TABLE
  2
LAYER
 70
     2
  0
LAYER
  2
0
 70
     0
 62
     7
  6
CONTINUOUS
  0
LAYER
  2
1
 70
     0
 62
     7
  6
CONTINUOUS
  0
ENDTAB
  0
TABLE
  2
STYLE
 70
     2
  0
STYLE
  2
STANDARD
 70
     0
 40
0.0
 41
1.0
 50
0.0
 71
     0
 42
0.2
  3
txt
  4

  0
STYLE
  2
ＭＳ_ゴシック
 70
     0
 40
0.0
 41
1.0
 50
0.0
 71
     0
 42
0.2
  3
ＭＳ ゴシック.shx
  4

  0
ENDTAB
  0
TABLE
  2
VIEW
 70
     0
  0
ENDTAB
  0
ENDSEC
  0
SECTION
  2
BLOCKS
  0
ENDSEC
  0
SECTION
  2
ENTITIES
  0
TEXT
  8
1
  6
CONTINUOUS
 62
     7
 10
32.27180505189447
 20
563.3284200325121
 40
3.0
  1
RMN-20
  0
LINE
  8
1
  6
CONTINUOUS
 62
     7
 10
1084.0
 20
585.5
 11
1084.91990201013
 21
585.5
  0
LINE
  8
1
  6
CONTINUOUS
 62
     7
 10
1106.0
 20
585.5
 11
1105.08009798987
 21
585.5
  0
LINE
  8
1
  6
CONTINUOUS
 62
     7
 10
-962.4999999999999
 20
705.0
 11
1037.5
 21
705.0
  0
LINE
  8
1
  6
CONTINUOUS
 62
     7
 10
1037.5
 20
619.1424004376895
 11
1037.5
 21
619.5
  0
LINE
  8
1
  6
CONTINUOUS
 62
     7
 10
1037.5
 20
715.0000000000001
 11
1037.5
 21
712.552948277031
  0
LINE
  8
1
  6
CONTINUOUS
 62
     7
 10
-962.5
 20
580.5
 11
1037.5
 21
580.5
  0
LINE
  8
1
  6
CONTINUOUS
 62
     7
 10
-962.5
 20
611.8595452604605
 11
-962.5
 21
619.1424004376894
  0
LINE
  8
1
  6
CONTINUOUS
 62
     7
 10
1037.5
 20
677.4470517229691
 11
1037.5
 21
685.0
  0
LINE
  8
1
  6
CONTINUOUS
 62
     7
 10
1115.0
 20
580.5
 11
1115.0
 21
606.1006594799801
  0
LINE
  8
1
  6
CONTINUOUS
 62
     7
 10
1037.5
 20
685.0
 11
1037.5
 21
704.9999999999999
  0
LINE
  8
1
  6
CONTINUOUS
 62
     7
 10
1113.5
 20
580.5
 11
1115.0
 21
580.5
  0
ARC
  8
1
  6
CONTINUOUS
 62
     7
 10
1113.5
 20
581.0
 40
0.4999999999999449
 50
180.0
 51
270.0
  0
LINE
  8
1
  6
CONTINUOUS
 62
     7
 10
1113.0
 20
582.5
 11
1113.0
 21
582.0000000000001
  0
LINE
  8
1
  6
CONTINUOUS
 62
     7
 10
1037.5
 20
611.8595452604605
 11
1037.5
 21
619.1424004376894
  0
LINE
  8
1
  6
CONTINUOUS
 62
     7
 10
-962.4999999999999
 20
677.4470517229694
 11
-962.4999999999999
 21
685.0000000000002
  0
LINE
  8
1
  6
CONTINUOUS
 62
     7
 10
1113.0
 20
582.0000000000001
 11
1113.0
 21
581.0
  0
LINE
  8
1
  6
CONTINUOUS
 62
     7
 10
1112.5
 20
582.5
 11
1113.0
 21
582.5
  0
LINE
  8
1
  6
CONTINUOUS
 62
     7
 10
1112.214213562373
 20
582.5
 11
1112.5
 21
582.5
  0
LINE
  8
1
  6
CONTINUOUS
 62
     7
 10
1037.5
 20
606.1006594799801
 11
1037.5
 21
611.8595452604605
  0
ARC
  8
1
  6
CONTINUOUS
 62
     7
 10
1112.214213562373
 20
583.5
 40
1.000000000000036
 50
225.0000000000016
 51
270.0000000000001
  0
LINE
  8
1
  6
CONTINUOUS
 62
     7
 10
1109.292893218814
 20
585.0071067811866
 11
1111.507106781187
 21
582.7928932188134
  0
LINE
  8
1
  6
CONTINUOUS
 62
     7
 10
-962.4999999999999
 20
675.0000000000002
 11
1037.5
 21
675.0
  0
LINE
  8
1
  6
CONTINUOUS
 62
     7
 10
-962.4999999999999
 20
675.0000000000002
 11
-962.4999999999999
 21
677.4470517229694
  0
LINE
  8
1
  6
CONTINUOUS
 62
     7
 10
1037.5
 20
580.5
 11
1037.5
 21
606.1006594799801
  0
LINE
  8
1
  6
CONTINUOUS
 62
     7
 10
1037.5
 20
619.4999999999999
 11
-962.4999999999999
 21
619.4999999999999
  0
LINE
  8
1
  6
CONTINUOUS
 62
     7
 10
-962.4999999999999
 20
685.0000000000002
 11
1037.5
 21
685.0
  0
LINE
  8
1
  6
CONTINUOUS
 62
     7
 10
-962.4999999999999
 20
712.552948277031
 11
-962.4999999999999
 21
705.0
  0
LINE
  8
1
  6
CONTINUOUS
 62
     7
 10
-962.5
 20
619.1424004376895
 11
-962.5
 21
619.5
  0
LINE
  8
1
  6
CONTINUOUS
 62
     7
 10
-962.4999999999999
 20
715.0000000000001
 11
1037.5
 21
715.0000000000001
  0
LINE
  8
1
  6
CENTER
 62
     1
 10
1037.5
 20
675.6999999999999
 11
1037.5
 21
681.0999999999999
  0
LINE
  8
1
  6
CONTINUOUS
 62
     7
 10
-962.5
 20
580.5
 11
-962.5
 21
606.1006594799801
  0
LINE
  8
1
  6
CONTINUOUS
 62
     7
 10
-962.4999999999999
 20
685.0000000000002
 11
-962.4999999999999
 21
705.0
  0
LINE
  8
1
  6
CONTINUOUS
 62
     7
 10
-962.5
 20
606.1006594799801
 11
-962.5
 21
611.8595452604605
  0
LINE
  8
1
  6
CONTINUOUS
 62
     7
 10
1037.5
 20
712.552948277031
 11
1037.5
 21
705.0
  0
LINE
  8
1
  6
CONTINUOUS
 62
     7
 10
-962.4999999999999
 20
715.0000000000001
 11
-962.4999999999999
 21
712.552948277031
  0
LINE
  8
1
  6
CONTINUOUS
 62
     7
 10
1037.5
 20
675.0
 11
1037.5
 21
677.4470517229691
  0
LINE
  8
1
  6
CONTINUOUS
 62
     7
 10
1112.552948277031
 20
611.8595452604607
 11
1105.0
 21
619.1424004376894
  0
ARC
  8
1
  6
CONTINUOUS
 62
     7
 10
1107.0
 20
606.1006594799801
 40
8.000000000000007
 50
0.0
 51
46.04298263203
  0
LINE
  8
1
  6
CONTINUOUS
 62
     7
 10
1079.05
 20
588.2258330249198
 11
1080.5
 21
587.3886751345948
  0
LINE
  8
1
  6
CONTINUOUS
 62
     7
 10
1095.5
 20
585.5
 11
1095.0
 21
585.0
  0
ARC
  8
1
  6
CONTINUOUS
 62
     7
 10
1103.130713262184
 20
586.5
 40
1.000000000000132
 50
270.0
 51
351.9999999999991
  0
LINE
  8
1
  6
CONTINUOUS
 62
     7
 10
1104.958748692543
 20
592.3218514182971
 11
1104.120981330925
 21
586.3608268990399
  0
ARC
  8
1
  6
CONTINUOUS
 62
     7
 10
1108.919820967509
 20
591.7651590144568
 40
4.000000000000112
 50
147.0
 51
172.0
  0
LINE
  8
1
  6
CONTINUOUS
 62
     7
 10
1106.823144547646
 20
593.1267566019944
 11
1107.020969072895
 21
593.4313796574093
  0
ARC
  8
1
  6
CONTINUOUS
 62
     7
 10
1108.919820967509
 20
591.7651590144568
 40
2.500000000000094
 50
147.0
 51
172.0000000000002
  0
LINE
  8
1
  6
CONTINUOUS
 62
     7
 10
1080.707106781186
 20
585.0071067811866
 11
1078.492893218813
 21
582.7928932188134
  0
LINE
  8
1
  6
CONTINUOUS
 62
     7
 10
1105.762963220977
 20
594.2483382099318
 11
1105.565138695728
 21
593.9437151545169
  0
LINE
  8
1
  6
CONTINUOUS
 62
     7
 10
1110.853235658312
 20
586.2069751909537
 11
1111.45
 21
586.5515172442698
  0
LINE
  8
1
  6
CONTINUOUS
 62
     7
 10
1105.594791528018
 20
586.06958655048
 11
1106.444150795656
 21
592.113091766857
  0
ARC
  8
1
  6
CONTINUOUS
 62
     7
 10
1111.2
 20
586.984529946162
 40
0.5000000000000436
 50
300.0000000000011
 51
0.0
  0
ARC
  8
1
  6
CONTINUOUS
 62
     7
 10
1083.0
 20
606.1006594799801
 40
8.000000000000007
 50
133.95701736797
 51
180.0
  0
ARC
  8
1
  6
CONTINUOUS
 62
     7
 10
1107.307094799503
 20
608.0106904565476
 40
1.20000000000009
 50
90.0
 51
216.1061002031856
  0
ARC
  8
1
  6
CONTINUOUS
 62
     7
 10
1107.307094799503
 20
608.7106904565477
 40
0.4999999999999449
 50
0.0000000000007951
 51
90.0
  0
ARC
  8
1
  6
CONTINUOUS
 62
     7
 10
1093.410747847207
 20
597.8750335275956
 40
17.50000000000001
 50
11.99999999999999
 51
34.64920597472486
  0
LINE
  8
1
  6
CONTINUOUS
 62
     7
 10
1112.8
 20
590.8261250823188
 11
1111.838174512201
 21
595.3511582322834
  0
ARC
  8
1
  6
CONTINUOUS
 62
     7
 10
1077.785786437627
 20
583.5
 40
1.000000000000036
 50
270.0
 51
314.9999999999985
  0
LINE
  8
1
  6
CONTINUOUS
 62
     7
 10
1077.785786437627
 20
582.5
 11
1077.5
 21
582.5
  0
LINE
  8
1
  6
CONTINUOUS
 62
     7
 10
1076.5
 20
580.5
 11
1075.0
 21
580.5
  0
LINE
  8
1
  6
CONTINUOUS
 62
     7
 10
1077.495836943966
 20
584.2
 11
1079.188185697925
 21
585.8923487539595
  0
ARC
  8
1
  6
CONTINUOUS
 62
     7
 10
1080.0
 20
586.5226497308104
 40
0.9999999999999759
 50
0.0
 51
60.00000000000033
  0
ARC
  8
1
  6
CONTINUOUS
 62
     7
 10
1106.391966146936
 20
593.8398589336705
 40
0.750000000000168
 50
327.0000000000002
 51
147.0000000000003
  0
LINE
  8
1
  6
CONTINUOUS
 62
     7
 10
1110.95
 20
588.2258330249198
 11
1109.5
 21
587.3886751345948
  0
ARC
  8
1
  6
CONTINUOUS
 62
     7
 10
1080.0
 20
585.7142135623732
 40
0.9999999999998899
 50
315.0
 51
359.9999999999997
  0
LINE
  8
1
  6
CONTINUOUS
 62
     7
 10
1085.734734064217
 20
617.4892925090176
 11
1078.627053231838
 21
610.6357820321085
  0
ARC
  8
1
  6
CONTINUOUS
 62
     7
 10
1111.8
 20
589.9099564267051
 40
1.000000000000087
 50
300.0000000000002
 51
0.0
  0
ARC
  8
1
  6
CONTINUOUS
 62
     7
 10
1110.0
 20
585.9839745962155
 40
1.499999999999835
 50
120.0
 51
180.0000000000002
  0
LINE
  8
1
  6
CONTINUOUS
 62
     7
 10
1108.5
 20
584.2071067811866
 11
1108.5
 21
585.9839745962155
  0
LINE
  8
1
  6
CONTINUOUS
 62
     7
 10
1077.0
 20
582.5
 11
1077.0
 21
582.0000000000001
  0
LINE
  8
1
  6
CONTINUOUS
 62
     7
 10
1078.3
 20
586.984529946162
 11
1078.3
 21
587.7928203230276
  0
LINE
  8
1
  6
CONTINUOUS
 62
     7
 10
1081.0
 20
586.5226497308104
 11
1081.0
 21
585.7142135623732
  0
ARC
  8
1
  6
CONTINUOUS
 62
     7
 10
1110.0
 20
585.7142135623732
 40
0.9999999999998899
 50
180.0000000000003
 51
225.0
  0
LINE
  8
1
  6
CONTINUOUS
 62
     7
 10
1112.504163056034
 20
584.2
 11
1110.811814302075
 21
585.8923487539595
  0
ARC
  8
1
  6
CONTINUOUS
 62
     7
 10
1083.0
 20
606.1006594799801
 40
6.299999999999951
 50
133.95701736797
 51
180.0
  0
ARC
  8
1
  6
CONTINUOUS
 62
     7
 10
1095.0
 20
479.5
 40
140.0
 50
85.90395624184772
 51
94.09604375815228
  0
ARC
  8
1
  6
CONTINUOUS
 62
     7
 10
1108.0
 20
587.1386751345948
 40
0.9999999999999759
 50
120.0
 51
180.0
  0
LINE
  8
1
  6
CONTINUOUS
 62
     7
 10
1111.074348806068
 20
590.0683517837399
 11
1107.5
 21
588.0047005383792
  0
ARC
  8
1
  6
CONTINUOUS
 62
     7
 10
1093.410747847207
 20
597.8750335275956
 40
16.0
 50
12.00000000000006
 51
36.10610020318524
  0
LINE
  8
1
  6
CONTINUOUS
 62
     7
 10
1112.8
 20
589.9099564267051
 11
1112.8
 21
590.8261250823188
  0
ARC
  8
1
  6
CONTINUOUS
 62
     7
 10
1110.0
 20
586.5226497308104
 40
0.9999999999999759
 50
119.9999999999997
 51
180.0
  0
LINE
  8
1
  6
CONTINUOUS
 62
     7
 10
1111.7
 20
586.984529946162
 11
1111.7
 21
587.7928203230276
  0
ARC
  8
1
  6
CONTINUOUS
 62
     7
 10
1110.953235658312
 20
586.0337701101968
 40
0.1999999999998972
 50
119.9999999999998
 51
225.0000000000107
  0
ARC
  8
1
  6
CONTINUOUS
 62
     7
 10
1107.0
 20
606.1006594799801
 40
6.299999999999951
 50
0.0
 51
46.04298263203004
  0
LINE
  8
1
  6
CONTINUOUS
 62
     7
 10
1104.265265935783
 20
617.4892925090176
 11
1111.372946768162
 21
610.6357820321085
  0
LINE
  8
1
  6
CONTINUOUS
 62
     7
 10
1103.130713262184
 20
585.5
 11
1095.5
 21
585.5
  0
LINE
  8
1
  6
CONTINUOUS
 62
     7
 10
1107.0
 20
587.1386751345948
 11
1107.0
 21
586.5
  0
LINE
  8
1
  6
CONTINUOUS
 62
     7
 10
1109.061109458948
 20
601.2016205806797
 11
1111.313422606434
 21
590.6053203310411
  0
LINE
  8
1
  6
CONTINUOUS
 62
     7
 10
1077.0
 20
582.0000000000001
 11
1077.0
 21
581.0
  0
LINE
  8
1
  6
CONTINUOUS
 62
     7
 10
1113.3
 20
584.2
 11
1112.504163056034
 21
584.2
  0
LINE
  8
1
  6
CONTINUOUS
 62
     7
 10
1079.146764341688
 20
586.2069751909537
 11
1078.55
 21
586.5515172442698
  0
LINE
  8
1
  6
CONTINUOUS
 62
     7
 10
1076.7
 20
606.1006594799801
 11
1076.7
 21
584.2
  0
ARC
  8
1
  6
CONTINUOUS
 62
     7
 10
1078.8
 20
587.7928203230276
 40
0.4999999999999449
 50
60.0
 51
180.0000000000004
  0
ARC
  8
1
  6
CONTINUOUS
 62
     7
 10
1078.8
 20
586.984529946162
 40
0.5000000000000436
 50
180.0
 51
239.9999999999989
  0
LINE
  8
1
  6
CONTINUOUS
 62
     7
 10
1113.3
 20
606.1006594799801
 11
1113.3
 21
584.2
  0
ARC
  8
1
  6
CONTINUOUS
 62
     7
 10
1079.046764341688
 20
586.0337701101968
 40
0.1999999999998972
 50
314.9999999999893
 51
60.00000000000023
  0
ARC
  8
1
  6
CONTINUOUS
 62
     7
 10
1095.0
 20
479.5
 40
138.3
 50
86.15865119965095
 51
93.84134880034895
  0
LINE
  8
1
  6
CONTINUOUS
 62
     7
 10
1077.447051722969
 20
611.8595452604607
 11
1085.0
 21
619.1424004376894
  0
LINE
  8
1
  6
CONTINUOUS
 62
     7
 10
1077.5
 20
582.5
 11
1077.0
 21
582.5
  0
LINE
  8
1
  6
CONTINUOUS
 62
     7
 10
1109.0
 20
586.5226497308104
 11
1109.0
 21
585.7142135623732
  0
ARC
  8
1
  6
CONTINUOUS
 62
     7
 10
1076.5
 20
581.0
 40
0.4999999999999449
 50
270.0
 51
0.0000000000000568
  0
LINE
  8
1
  6
CONTINUOUS
 62
     7
 10
1076.7
 20
584.2
 11
1077.495836943966
 21
584.2
  0
LINE
  8
1
  6
CONTINUOUS
 62
     7
 10
1075.0
 20
580.5
 11
1075.0
 21
606.1006594799801
  0
ARC
  8
1
  6
CONTINUOUS
 62
     7
 10
1111.2
 20
587.7928203230276
 40
0.4999999999999449
 50
359.9999999999995
 51
120.0
  0
LINE
  8
1
  6
CONTINUOUS
 62
     7
 10
1109.25
 20
587.2830127018922
 11
1112.3
 21
589.0439310229207
  0
LINE
  8
1
  6
CONTINUOUS
 62
     7
 10
1082.8
 20
582.0
 11
1082.8
 21
580.5
  0
LINE
  8
1
  6
CONTINUOUS
 62
     7
 10
1077.5
 20
582.5
 11
1077.785786437627
 21
582.5
  0
ARC
  8
1
  6
CONTINUOUS
 62
     7
 10
1083.3
 20
582.0
 40
0.500000000000056
 50
90.0
 51
180.0
  0
LINE
  8
1
  6
CONTINUOUS
 62
     7
 10
1086.0
 20
582.0
 11
1086.0
 21
580.5
  0
ARC
  8
1
  6
CONTINUOUS
 62
     7
 10
1086.5
 20
582.0
 40
0.500000000000056
 50
90.0
 51
180.0
  0
LINE
  8
1
  6
CONTINUOUS
 62
     7
 10
1109.853553390593
 20
582.6464466094068
 11
1108.646446609407
 21
583.8535533905933
  0
ARC
  8
1
  6
CONTINUOUS
 62
     7
 10
1109.0
 20
584.2071067811866
 40
0.4999999999999394
 50
179.9999999999999
 51
225.0000000000013
  0
LINE
  8
1
  6
CONTINUOUS
 62
     7
 10
1104.0
 20
582.0
 11
1104.0
 21
580.5
  0
ARC
  8
1
  6
CONTINUOUS
 62
     7
 10
1096.589252152793
 20
597.8750335275956
 40
16.0
 50
143.8938997968148
 51
168.0
  0
LINE
  8
1
  6
CONTINUOUS
 62
     7
 10
1105.3
 20
580.5
 11
1105.3
 21
582.0
  0
ARC
  8
1
  6
CONTINUOUS
 62
     7
 10
1082.692905200497
 20
608.7106904565477
 40
0.4999999999999449
 50
90.0
 51
179.9999999999992
  0
LINE
  8
1
  6
CONTINUOUS
 62
     7
 10
1084.2
 20
582.5
 11
1083.3
 21
582.5
  0
ARC
  8
1
  6
CONTINUOUS
 62
     7
 10
1084.2
 20
582.0000000000001
 40
0.4999999999999449
 50
359.9999999999998
 51
90.0
  0
LINE
  8
1
  6
CONTINUOUS
 62
     7
 10
1107.807094799503
 20
607.8246664067082
 11
1107.807094799503
 21
608.7106904565477
  0
LINE
  8
1
  6
CONTINUOUS
 62
     7
 10
1094.5
 20
585.5
 11
1095.0
 21
585.0
  0
LINE
  8
1
  6
CONTINUOUS
 62
     7
 10
1112.8
 20
590.82612508232
 11
1110.528330860049
 21
601.5134881169064
  0
ARC
  8
1
  6
CONTINUOUS
 62
     7
 10
1081.08017903249
 20
591.7651590144568
 40
2.500000000000094
 50
7.999999999999705
 51
32.99999999999999
  0
LINE
  8
1
  6
CONTINUOUS
 62
     7
 10
1077.2
 20
589.9099564267051
 11
1077.2
 21
590.8261250823188
  0
ARC
  8
1
  6
CONTINUOUS
 62
     7
 10
1106.7
 20
582.0
 40
0.500000000000056
 50
0.0
 51
90.0
  0
ARC
  8
1
  6
CONTINUOUS
 62
     7
 10
1082.0
 20
587.1386751345948
 40
0.9999999999999759
 50
359.9999999999999
 51
60.0
  0
ARC
  8
1
  6
CONTINUOUS
 62
     7
 10
1105.8
 20
582.0000000000001
 40
0.4999999999999449
 50
90.0
 51
180.0000000000002
  0
ARC
  8
1
  6
CONTINUOUS
 62
     7
 10
1083.608033853064
 20
593.8398589336705
 40
0.750000000000168
 50
32.99999999999972
 51
212.9999999999998
  0
LINE
  8
1
  6
CONTINUOUS
 62
     7
 10
1078.925651193932
 20
590.0683517837399
 11
1082.5
 21
588.0047005383792
  0
LINE
  8
1
  6
CONTINUOUS
 62
     7
 10
1077.2
 20
590.8261250823188
 11
1078.161825487799
 21
595.3511582322834
  0
ARC
  8
1
  6
CONTINUOUS
 62
     7
 10
1077.5
 20
581.0
 40
0.4999999999999449
 50
180.0
 51
270.0
  0
LINE
  8
1
  6
CONTINUOUS
 62
     7
 10
1104.0
 20
580.5
 11
1105.3
 21
580.5
  0
ARC
  8
1
  6
CONTINUOUS
 62
     7
 10
1103.5
 20
582.0
 40
0.500000000000056
 50
0.0
 51
90.0
  0
LINE
  8
1
  6
CONTINUOUS
 62
     7
 10
1086.869286737816
 20
585.5
 11
1094.5
 21
585.5
  0
LINE
  8
1
  6
CONTINUOUS
 62
     7
 10
1084.7
 20
580.5
 11
1084.7
 21
582.0
  0
LINE
  8
1
  6
CONTINUOUS
 62
     7
 10
1086.0
 20
580.5
 11
1084.7
 21
580.5
  0
LINE
  8
1
  6
CONTINUOUS
 62
     7
 10
1077.2
 20
590.82612508232
 11
1079.471669139951
 21
601.5134881169064
  0
LINE
  8
1
  6
CONTINUOUS
 62
     7
 10
1082.192905200497
 20
607.8246664067082
 11
1082.192905200497
 21
608.7106904565477
  0
LINE
  8
1
  6
CONTINUOUS
 62
     7
 10
1080.75
 20
587.2830127018922
 11
1077.7
 21
589.0439310229207
  0
LINE
  8
1
  6
CONTINUOUS
 62
     7
 10
1084.237036779023
 20
594.2483382099318
 11
1084.434861304272
 21
593.9437151545169
  0
ARC
  8
1
  6
CONTINUOUS
 62
     7
 10
1110.207106781186
 20
583.0
 40
0.4999999999999449
 50
225.0
 51
269.9999999999995
  0
LINE
  8
1
  6
CONTINUOUS
 62
     7
 10
1085.041251307457
 20
592.3218514182971
 11
1085.879018669074
 21
586.3608268990399
  0
ARC
  8
1
  6
CONTINUOUS
 62
     7
 10
1081.08017903249
 20
591.7651590144568
 40
4.000000000000112
 50
8.000000000000055
 51
33.0
  0
LINE
  8
1
  6
CONTINUOUS
 62
     7
 10
1083.0
 20
587.1386751345948
 11
1083.0
 21
586.5
  0
ARC
  8
1
  6
CONTINUOUS
 62
     7
 10
1082.692905200497
 20
608.0106904565476
 40
1.20000000000009
 50
323.8938997968144
 51
90.0
  0
LINE
  8
1
  6
CONTINUOUS
 62
     7
 10
1083.176855452354
 20
593.1267566019944
 11
1082.979030927105
 21
593.4313796574093
  0
LINE
  8
1
  6
CONTINUOUS
 62
     7
 10
1081.5
 20
584.2071067811866
 11
1081.5
 21
585.9839745962155
  0
ARC
  8
1
  6
CONTINUOUS
 62
     7
 10
1112.5
 20
582.0000000000001
 40
0.4999999999999449
 50
359.9999999999998
 51
90.0
  0
LINE
  8
1
  6
CONTINUOUS
 62
     7
 10
1112.214213562373
 20
582.5
 11
1110.207106781186
 21
582.5
  0
ARC
  8
1
  6
CONTINUOUS
 62
     7
 10
1112.5
 20
581.0
 40
0.4999999999999449
 50
270.0
 51
0.0
  0
LINE
  8
1
  6
CONTINUOUS
 62
     7
 10
1113.0
 20
581.0
 11
1113.0
 21
582.0
  0
ARC
  8
1
  6
CONTINUOUS
 62
     7
 10
1084.0
 20
586.5
 40
1.000000000000112
 50
180.0
 51
266.9799875035487
  0
LINE
  8
1
  6
CONTINUOUS
 62
     7
 10
1080.938890541052
 20
601.2016205806797
 11
1078.686577393566
 21
590.6053203310411
  0
ARC
  8
1
  6
CONTINUOUS
 62
     7
 10
1086.869286737816
 20
586.5
 40
1.000000000000132
 50
188.0000000000009
 51
269.9999999999999
  0
ARC
  8
1
  6
CONTINUOUS
 62
     7
 10
1081.0
 20
584.2071067811866
 40
0.4999999999999394
 50
314.9999999999987
 51
0.0000000000000568
  0
LINE
  8
1
  6
CONTINUOUS
 62
     7
 10
1080.146446609407
 20
582.6464466094068
 11
1081.353553390593
 21
583.8535533905933
  0
ARC
  8
1
  6
CONTINUOUS
 62
     7
 10
1106.0
 20
586.5
 40
1.000000000000112
 50
287.3714100665784
 51
0.0
  0
LINE
  8
1
  6
CONTINUOUS
 62
     7
 10
1107.2
 20
582.0
 11
1107.2
 21
580.5
  0
LINE
  8
1
  6
CONTINUOUS
 62
     7
 10
1084.405208471982
 20
586.06958655048
 11
1083.555849204344
 21
592.113091766857
  0
ARC
  8
1
  6
CONTINUOUS
 62
     7
 10
1096.589252152793
 20
597.8750335275956
 40
17.50000000000001
 50
145.3507940252751
 51
168.0
  0
ARC
  8
1
  6
CONTINUOUS
 62
     7
 10
1078.2
 20
589.9099564267051
 40
1.000000000000087
 50
180.0
 51
239.9999999999998
  0
LINE
  8
1
  6
CONTINUOUS
 62
     7
 10
1077.785786437627
 20
582.5
 11
1079.792893218813
 21
582.5
  0
LINE
  8
1
  6
CONTINUOUS
 62
     7
 10
1112.5
 20
582.5
 11
1112.214213562373
 21
582.5
  0
ARC
  8
1
  6
CONTINUOUS
 62
     7
 10
1077.5
 20
582.0000000000001
 40
0.4999999999999449
 50
90.0
 51
180.0000000000002
  0
LINE
  8
1
  6
CONTINUOUS
 62
     7
 10
1077.0
 20
581.0
 11
1077.0
 21
582.0
  0
LINE
  8
1
  6
CONTINUOUS
 62
     7
 10
1107.2
 20
580.5
 11
1112.5
 21
580.5
  0
LINE
  8
1
  6
CONTINUOUS
 62
     7
 10
1105.8
 20
582.5
 11
1106.7
 21
582.5
  0
ARC
  8
1
  6
CONTINUOUS
 62
     7
 10
1080.0
 20
585.9839745962155
 40
1.499999999999835
 50
359.9999999999998
 51
60.00000000000006
  0
LINE
  8
1
  6
CONTINUOUS
 62
     7
 10
1082.8
 20
580.5
 11
1077.5
 21
580.5
  0
LINE
  8
1
  6
CENTER
 62
     1
 10
-965.5000000000001
 20
694.9999999999999
 11
1040.5
 21
694.9999999999999
  0
LINE
  8
1
  6
CONTINUOUS
 62
     7
 10
1103.5
 20
582.5
 11
1086.5
 21
582.5
  0
ARC
  8
1
  6
CONTINUOUS
 62
     7
 10
1079.792893218813
 20
583.0
 40
0.4999999999999449
 50
270.0000000000004
 51
315.0000000000001
  0
LINE
  8
1
  6
CONTINUOUS
 62
     7
 10
-962.5
 20
608.9801023702204
 11
1037.5
 21
608.9801023702204
  0
ARC
  8
1
  6
CONTINUOUS
 62
     7
 10
1106.089925562389
 20
586.0
 40
0.5
 50
171.9999999999978
 51
294.6628598931684
  0
ARC
  8
1
  6
CONTINUOUS
 62
     7
 10
1083.910074437611
 20
586.0
 40
0.5
 50
274.2714373301388
 51
8.00000000000216
  0
ARC
  8
1
  6
CONTINUOUS
 62
     7
 10
1079.175651193932
 20
590.5013644856322
 40
0.5
 50
167.9999999999923
 51
240.0000000000139
  0
LINE
  8
1
  6
CENTER
 62
     1
 10
1095.0
 20
577.5
 11
1095.0
 21
622.5
  0
ARC
  8
1
  6
CONTINUOUS
 62
     7
 10
1110.824348806068
 20
590.5013644856322
 40
0.5
 50
299.9999999999861
 51
12.00000000000773
  0
ENDSEC
  0
EOF
