  0
SECTION
  2
HEADER
  9
$ACADVER
  1
AC1006
  9
$DWGCODEPAGE
  3
ansi_932
  9
$INSBASE
 10
0.0
 20
0.0
 30
0.0
  9
$EXTMIN
 10
-208.1412927961
 20
-459.542592
  9
$EXTMAX
 10
1889.8587072039
 20
-301.7925921058
  9
$LIMMIN
 10
0.0
 20
0.0
  9
$LIMMAX
 10
12.0
 20
9.0
  9
$ORTHOMODE
 70
     0
  9
$REGENMODE
 70
     1
  9
$FILLMODE
 70
     1
  9
$QTEXTMODE
 70
     0
  9
$MIRRTEXT
 70
     1
  9
$DRAGMODE
 70
     2
  9
$LTSCALE
 40
1.0
  9
$OSMODE
 70
    37
  9
$ATTMODE
 70
     1
  9
$TEXTSIZE
 40
0.2
  9
$TRACEWID
 40
0.05
  9
$TEXTSTYLE
  7
STANDARD
  9
$CLAYER
  8
0
  9
$CELTYPE
  6
BYLAYER
  9
$CECOLOR
 62
   256
  9
$DIMSCALE
 40
1.0
  9
$DIMASZ
 40
3.0
  9
$DIMEXO
 40
0.0625
  9
$DIMDLI
 40
0.38
  9
$DIMRND
 40
0.0
  9
$DIMDLE
 40
0.0
  9
$DIMEXE
 40
1.5
  9
$DIMTP
 40
0.0
  9
$DIMTM
 40
0.0
  9
$DIMTXT
 40
5.0
  9
$DIMCEN
 40
0.09
  9
$DIMTSZ
 40
0.0
  9
$DIMTOL
 70
     0
  9
$DIMLIM
 70
     0
  9
$DIMTIH
 70
     1
  9
$DIMTOH
 70
     1
  9
$DIMSE1
 70
     0
  9
$DIMSE2
 70
     0
  9
$DIMTAD
 70
     1
  9
$DIMZIN
 70
     0
  9
$DIMBLK
  1

  9
$DIMASO
 70
     1
  9
$DIMSHO
 70
     1
  9
$DIMPOST
  1

  9
$DIMAPOST
  1

  9
$DIMALT
 70
     0
  9
$DIMALTD
 70
     2
  9
$DIMALTF
 40
25.4
  9
$DIMLFAC
 40
1.0
  9
$DIMTOFL
 70
     0
  9
$DIMTVP
 40
0.0
  9
$DIMTIX
 70
     0
  9
$DIMSOXD
 70
     0
  9
$DIMSAH
 70
     0
  9
$DIMBLK1
  1

  9
$DIMBLK2
  1

  9
$LUNITS
 70
     2
  9
$LUPREC
 70
     4
  9
$SKETCHINC
 40
0.1
  9
$FILLETRAD
 40
0.5
  9
$AUNITS
 70
     0
  9
$AUPREC
 70
     0
  9
$MENU
  1
.
  9
$ELEVATION
 40
0.0
  9
$THICKNESS
 40
0.0
  9
$LIMCHECK
 70
     0
  9
$CHAMFERA
 40
0.0
  9
$CHAMFERB
 40
0.0
  9
$SKPOLY
 70
     0
  9
$TDCREATE
 40
2459692.759458669
  9
$TDUPDATE
 40
2459692.759458831
  9
$TDINDWG
 40
0.0000000116
  9
$TDUSRTIMER
 40
0.0000000116
  9
$USRTIMER
 70
     1
  9
$ANGBASE
 50
0.0
  9
$ANGDIR
 70
     0
  9
$PDMODE
 70
     0
  9
$PDSIZE
 40
0.0
  9
$PLINEWID
 40
0.0
  9
$COORDS
 70
     1
  9
$SPLFRAME
 70
     0
  9
$SPLINETYPE
 70
     6
  9
$SPLINESEGS
 70
     8
  9
$ATTDIA
 70
     0
  9
$ATTREQ
 70
     1
  9
$HANDLING
 70
     1
  9
$HANDSEED
  5
EA
  9
$SURFTAB1
 70
     6
  9
$SURFTAB2
 70
     6
  9
$SURFTYPE
 70
     6
  9
$SURFU
 70
     6
  9
$SURFV
 70
     6
  9
$UCSNAME
  2

  9
$UCSORG
 10
0.0
 20
0.0
 30
0.0
  9
$UCSXDIR
 10
1.0
 20
0.0
 30
0.0
  9
$UCSYDIR
 10
0.0
 20
1.0
 30
0.0
  9
$USERI1
 70
     0
  9
$USERI2
 70
     0
  9
$USERI3
 70
     0
  9
$USERI4
 70
     0
  9
$USERI5
 70
     0
  9
$USERR1
 40
0.0
  9
$USERR2
 40
0.0
  9
$USERR3
 40
0.0
  9
$USERR4
 40
0.0
  9
$USERR5
 40
0.0
  9
$WORLDVIEW
 70
     1
  0
ENDSEC
  0
SECTION
  2
TABLES
  0
TABLE
  2
VPORT
 70
     1
  0
VPORT
  2
*ACTIVE
 70
     0
 10
0.0
 20
0.0
 11
1.0
 21
1.0
 12
840.8587072038999
 22
-380.6675920529
 13
0.0
 23
0.0
 14
0.5
 24
0.5
 15
0.5
 25
0.5
 16
0.0
 26
0.0
 36
1.0
 17
0.0
 27
0.0
 37
0.0
 40
157.7499998942
 41
1.6
 42
50.0
 43
0.0
 44
0.0
 50
0.0
 51
0.0
 71
     0
 72
   100
 73
     1
 74
     3
 75
     0
 76
     0
 77
     0
 78
     0
  0
ENDTAB
  0
TABLE
  2
LTYPE
 70
     1
  0
LTYPE
  2
CONTINUOUS
 70
     0
  3
Solid line
 72
    65
 73
     0
 40
0.0
  0
ENDTAB
  0
TABLE
  2
LAYER
 70
     2
  0
LAYER
  2
0
 70
     0
 62
     7
  6
CONTINUOUS
  0
LAYER
  2
1
 70
     0
 62
     7
  6
CONTINUOUS
  0
ENDTAB
  0
TABLE
  2
STYLE
 70
     2
  0
STYLE
  2
STANDARD
 70
     0
 40
0.0
 41
1.0
 50
0.0
 71
     0
 42
0.2
  3
txt
  4

  0
STYLE
  2
ＭＳ_ゴシック
 70
     0
 40
0.0
 41
1.0
 50
0.0
 71
     0
 42
0.2
  3
ＭＳ ゴシック.shx
  4

  0
ENDTAB
  0
TABLE
  2
VIEW
 70
     0
  0
ENDTAB
  0
TABLE
  2
UCS
 70
     0
  0
ENDTAB
  0
ENDSEC
  0
SECTION
  2
BLOCKS
  0
ENDSEC
  0
SECTION
  2
ENTITIES
  0
LINE
  5
70
  8
1
  6
CONTINUOUS
 62
     7
 10
1844.0587072039
 20
-432.7511402215
 30
0.0
 11
1851.0587072039
 21
-436.7925921058
 31
0.0
  0
LINE
  5
71
  8
1
  6
CONTINUOUS
 62
     7
 10
-208.1412927961
 20
-313.2925921058
 30
0.0
 11
1791.8587072039
 21
-313.2925921058
 31
0.0
  0
LINE
  5
72
  8
1
  6
CONTINUOUS
 62
     7
 10
1844.0587072039
 20
-447.7925921058
 30
0.0
 11
1844.0587072039
 21
-445.5925921058
 31
0.0
  0
LINE
  5
73
  8
1
  6
CONTINUOUS
 62
     7
 10
1880.1587072037
 20
-447.7925921058
 30
0.0
 11
1889.8587072039
 21
-447.7925921058
 31
0.0
  0
LINE
  5
74
  8
1
  6
CONTINUOUS
 62
     7
 10
1856.3587072037
 20
-442.2925921058
 30
0.0
 11
1865.3587072037
 21
-442.2925921058
 31
0.0
  0
LINE
  5
75
  8
1
  6
CONTINUOUS
 62
     7
 10
1851.0587072039
 20
-441.2925921058
 30
0.0
 11
1851.0587072039
 21
-436.7925921058
 31
0.0
  0
LINE
  5
76
  8
1
  6
CONTINUOUS
 62
     7
 10
1882.8587072039
 20
-438.062762698
 30
0.0
 11
1887.6587072039
 21
-435.2914814059
 31
0.0
  0
LINE
  5
77
  8
1
  6
CONTINUOUS
 62
     7
 10
1844.0587072039
 20
-435.2914814059
 30
0.0
 11
1844.0587072039
 21
-443.3925921058
 31
0.0
  0
ARC
  5
78
  8
1
  6
CONTINUOUS
 62
     7
 10
1865.8587072037
 20
-421.7925921058
 30
0.0
 40
16.0
 50
142.457297285
 51
180.0
  0
LINE
  5
79
  8
1
  6
CONTINUOUS
 62
     7
 10
1844.0587072039
 20
-443.3925921058
 30
0.0
 11
1846.7215452507
 21
-443.3925921058
 31
0.0
  0
LINE
  5
7A
  8
1
  6
CONTINUOUS
 62
     7
 10
1854.8587072037
 20
-447.7925921058
 30
0.0
 11
1854.8587072037
 21
-446.2925921058
 31
0.0
  0
LINE
  5
7B
  8
1
  6
CONTINUOUS
 62
     7
 10
1851.5587072037
 20
-447.7925921058
 30
0.0
 11
1841.8587072039
 21
-447.7925921058
 31
0.0
  0
ARC
  5
7C
  8
1
  6
CONTINUOUS
 62
     7
 10
1865.8587072039
 20
-572.7925921058
 30
0.0
 40
170.8
 50
86.14905560049999
 51
93.85094439949998
  0
LINE
  5
7D
  8
1
  6
CONTINUOUS
 62
     7
 10
1887.6587072039
 20
-435.2914814059
 30
0.0
 11
1887.6587072039
 21
-443.3925921058
 31
0.0
  0
LINE
  5
7E
  8
1
  6
CONTINUOUS
 62
     7
 10
1848.8587072039
 20
-440.5638164529
 30
0.0
 11
1846.7215452507
 21
-443.3925921058
 31
0.0
  0
LINE
  5
7F
  8
1
  6
CONTINUOUS
 62
     7
 10
1877.3298174088
 20
-402.3782334658
 30
0.0
 11
1885.6090043257
 21
-411.4117763093
 31
0.0
  0
ARC
  5
80
  8
1
  6
CONTINUOUS
 62
     7
 10
1865.8587072037
 20
-421.7925921058
 30
0.0
 40
17.8
 50
0.0
 51
37.542702715
  0
LINE
  5
81
  8
1
  6
CONTINUOUS
 62
     7
 10
1876.8587072037
 20
-440.7925921058
 30
0.0
 11
1876.8587072037
 21
-436.726566702
 31
0.0
  0
ARC
  5
82
  8
1
  6
CONTINUOUS
 62
     7
 10
1852.4587072037
 20
-411.4945340364
 30
0.0
 40
0.9
 50
322.4572972849999
 51
142.457297285
  0
LINE
  5
83
  8
1
  6
CONTINUOUS
 62
     7
 10
1883.6587072037
 20
-434.0398153561
 30
0.0
 11
1883.6587072037
 21
-428.0925921058
 31
0.0
  0
ARC
  5
84
  8
1
  6
CONTINUOUS
 62
     7
 10
1865.8587072037
 20
-421.7925921058
 30
0.0
 40
16.0
 50
0.0
 51
37.542702715
  0
LINE
  5
85
  8
1
  6
CONTINUOUS
 62
     7
 10
1883.6587072037
 20
-427.4925921058
 30
0.0
 11
1883.6587072037
 21
-421.7925921058
 31
0.0
  0
LINE
  5
86
  8
1
  6
CONTINUOUS
 62
     7
 10
1844.0587072039
 20
-432.7511402215
 30
0.0
 11
1844.0587072039
 21
-416.6818885482
 31
0.0
  0
LINE
  5
87
  8
1
  6
CONTINUOUS
 62
     7
 10
1887.6587072039
 20
-416.6818885482
 30
0.0
 11
1887.6587072039
 21
-432.7511402215
 31
0.0
  0
LINE
  5
88
  8
1
  6
CONTINUOUS
 62
     7
 10
1848.8587072039
 20
-438.062762698
 30
0.0
 11
1844.0587072039
 21
-435.2914814059
 31
0.0
  0
LINE
  5
89
  8
1
  6
CONTINUOUS
 62
     7
 10
1882.8587072039
 20
-440.5564824029
 30
0.0
 11
1882.8587072039
 21
-438.062762698
 31
0.0
  0
LINE
  5
8A
  8
1
  6
CONTINUOUS
 62
     7
 10
1880.6587072039
 20
-441.2925921058
 30
0.0
 11
1883.8989896193
 21
-445.5925921058
 31
0.0
  0
LINE
  5
8B
  8
1
  6
CONTINUOUS
 62
     7
 10
1855.3587072037
 20
-445.7925921058
 30
0.0
 11
1876.3587072037
 21
-445.7925921058
 31
0.0
  0
LINE
  5
8C
  8
1
  6
CONTINUOUS
 62
     7
 10
1846.108410082
 20
-411.4117763093
 30
0.0
 11
1854.3875969989
 21
-402.3782334659
 31
0.0
  0
LINE
  5
8D
  8
1
  6
CONTINUOUS
 62
     7
 10
1876.8587072037
 20
-447.7925921058
 30
0.0
 11
1876.8587072037
 21
-446.2925921058
 31
0.0
  0
LINE
  5
8E
  8
1
  6
CONTINUOUS
 62
     7
 10
1876.8587072037
 20
-447.7925921058
 30
0.0
 11
1878.3587072038
 21
-447.7925921058
 31
0.0
  0
LINE
  5
8F
  8
1
  6
CONTINUOUS
 62
     7
 10
1854.8587072037
 20
-440.7925921058
 30
0.0
 11
1854.8587072037
 21
-436.726566702
 31
0.0
  0
ARC
  5
90
  8
1
  6
CONTINUOUS
 62
     7
 10
1865.8587072037
 20
-421.7925921058
 30
0.0
 40
17.8
 50
142.457297285
 51
180.0
  0
LINE
  5
91
  8
1
  6
CONTINUOUS
 62
     7
 10
1882.8587072039
 20
-440.5564824029
 30
0.0
 11
1884.995869157
 21
-443.3925921058
 31
0.0
  0
ARC
  5
92
  8
1
  6
CONTINUOUS
 62
     7
 10
1879.8587072039
 20
-416.6818885482
 30
0.0
 40
7.8
 50
0.0
 51
42.5050676631
  0
LINE
  5
93
  8
1
  6
CONTINUOUS
 62
     7
 10
1847.8184247884
 20
-445.5925921058
 30
0.0
 11
1851.0587072039
 21
-441.2925921058
 31
0.0
  0
LINE
  5
94
  8
1
  6
CONTINUOUS
 62
     7
 10
1791.8587072039
 20
-338.2925921058
 30
0.0
 11
-208.1412927960999
 21
-338.2925921058
 31
0.0
  0
LINE
  5
95
  8
1
  6
CONTINUOUS
 62
     7
 10
1854.8587072037
 20
-447.7925921058
 30
0.0
 11
1853.3587072038
 21
-447.7925921058
 31
0.0
  0
ARC
  5
96
  8
1
  6
CONTINUOUS
 62
     7
 10
1879.2587072037
 20
-411.4945340364
 30
0.0
 40
0.9
 50
32.4467995689
 51
217.542702715
  0
LINE
  5
97
  8
1
  6
CONTINUOUS
 62
     7
 10
1887.6587072039
 20
-443.3925921058
 30
0.0
 11
1884.995869157
 21
-443.3925921058
 31
0.0
  0
LINE
  5
98
  8
1
  6
CONTINUOUS
 62
     7
 10
1848.8587072039
 20
-440.5638164529
 30
0.0
 11
1848.8587072039
 21
-438.062762698
 31
0.0
  0
LINE
  5
99
  8
1
  6
CONTINUOUS
 62
     7
 10
1866.3587072037
 20
-442.2925921058
 30
0.0
 11
1875.3587072037
 21
-442.2925921058
 31
0.0
  0
ARC
  5
9A
  8
1
  6
CONTINUOUS
 62
     7
 10
1851.8587072039
 20
-416.6818885482
 30
0.0
 40
7.8
 50
137.4949323369
 51
180.0
  0
TEXT
  5
9B
  8
1
  6
CONTINUOUS
 62
     7
 10
784.238279580672
 20
-459.9085010909091
 30
0.0
 40
3.5
  1
ＲＭＮ－２５
 41
0.608968
 51
15.0
  0
ARC
  5
9C
  8
1
  6
CONTINUOUS
 62
     7
 10
1879.8587072037
 20
-442.7925921058
 30
0.0
 40
1.0
 50
180.0
 51
270.0
  0
ARC
  5
9D
  8
1
  6
CONTINUOUS
 62
     7
 10
1851.8587072037
 20
-442.7925921058
 30
0.0
 40
1.0
 50
270.0
 51
0.0
  0
LINE
  5
9E
  8
1
  6
CONTINUOUS
 62
     7
 10
1882.7122605943
 20
-445.4461454964
 30
0.0
 11
1881.2051538132
 21
-443.9390387152
 31
0.0
  0
LINE
  5
9F
  8
1
  6
CONTINUOUS
 62
     7
 10
1880.8516004226
 20
-443.7925921058
 30
0.0
 11
1879.8587072037
 21
-443.7925921058
 31
0.0
  0
ARC
  5
A0
  8
1
  6
CONTINUOUS
 62
     7
 10
1887.1587072037
 20
-446.0925921058
 30
0.0
 40
0.5
 50
0.0
 51
90.0
  0
ARC
  5
A1
  8
1
  6
CONTINUOUS
 62
     7
 10
1844.5587072037
 20
-446.0925921058
 30
0.0
 40
0.5
 50
90.0
 51
180.0
  0
LINE
  5
A2
  8
1
  6
CONTINUOUS
 62
     7
 10
1848.0587072037
 20
-427.4925921058
 30
0.0
 11
1848.0587072037
 21
-421.7925921058
 31
0.0
  0
LINE
  5
A3
  8
1
  6
CONTINUOUS
 62
     7
 10
1865.8587072037
 20
-442.7925921058
 30
0.0
 11
1866.3587072037
 21
-442.2925921058
 31
0.0
  0
LINE
  5
A4
  8
1
  6
CONTINUOUS
 62
     7
 10
1848.3587072037
 20
-427.7925921058
 30
0.0
 11
1848.0587072037
 21
-428.0925921058
 31
0.0
  0
LINE
  5
A5
  8
1
  6
CONTINUOUS
 62
     7
 10
1887.1587072037
 20
-445.5925921058
 30
0.0
 11
1883.0658139849
 21
-445.5925921058
 31
0.0
  0
LINE
  5
A6
  8
1
  6
CONTINUOUS
 62
     7
 10
1851.5587072037
 20
-446.2925921058
 30
0.0
 11
1851.5587072037
 21
-447.7925921058
 31
0.0
  0
LINE
  5
A7
  8
1
  6
CONTINUOUS
 62
     7
 10
1880.1587072037
 20
-446.2925921058
 30
0.0
 11
1880.1587072037
 21
-447.7925921058
 31
0.0
  0
LINE
  5
A8
  8
1
  6
CONTINUOUS
 62
     7
 10
1849.8587072037
 20
-432.7696447639
 30
0.0
 11
1849.8587072037
 21
-421.7925921058
 31
0.0
  0
LINE
  5
A9
  8
1
  6
CONTINUOUS
 62
     7
 10
1887.6587072037
 20
-447.7925921058
 30
0.0
 11
1887.6587072037
 21
-446.0925921058
 31
0.0
  0
LINE
  5
AA
  8
1
  6
CONTINUOUS
 62
     7
 10
1848.0587072037
 20
-427.4925921058
 30
0.0
 11
1848.3587072037
 21
-427.7925921058
 31
0.0
  0
LINE
  5
AB
  8
1
  6
CONTINUOUS
 62
     7
 10
1853.3587072037
 20
-447.7925921058
 30
0.0
 11
1853.3587072037
 21
-446.2925921058
 31
0.0
  0
LINE
  5
AC
  8
1
  6
CONTINUOUS
 62
     7
 10
1881.8587072037
 20
-432.7696447639
 30
0.0
 11
1881.8587072037
 21
-421.7925921058
 31
0.0
  0
ARC
  5
AD
  8
1
  6
CONTINUOUS
 62
     7
 10
1875.3587072037
 20
-440.7925921058
 30
0.0
 40
1.5
 50
270.0
 51
0.0
  0
LINE
  5
AE
  8
1
  6
CONTINUOUS
 62
     7
 10
1848.0587072037
 20
-434.0398153561
 30
0.0
 11
1848.0587072037
 21
-428.0925921058
 31
0.0
  0
ARC
  5
AF
  8
1
  6
CONTINUOUS
 62
     7
 10
1856.3587072037
 20
-440.7925921058
 30
0.0
 40
1.5
 50
180.0
 51
270.0
  0
LINE
  5
B0
  8
1
  6
CONTINUOUS
 62
     7
 10
1883.3587072037
 20
-427.7925921058
 30
0.0
 11
1883.6587072037
 21
-428.0925921058
 31
0.0
  0
LINE
  5
B1
  8
1
  6
CONTINUOUS
 62
     7
 10
1878.8587072038
 20
-445.7925921058
 30
0.0
 11
1879.6587072037
 21
-445.7925921058
 31
0.0
  0
LINE
  5
B2
  8
1
  6
CONTINUOUS
 62
     7
 10
1883.6587072037
 20
-427.4925921058
 30
0.0
 11
1883.3587072037
 21
-427.7925921058
 31
0.0
  0
LINE
  5
B3
  8
1
  6
CONTINUOUS
 62
     7
 10
1852.8587072037
 20
-445.7925921058
 30
0.0
 11
1852.0587072037
 21
-445.7925921058
 31
0.0
  0
LINE
  5
B4
  8
1
  6
CONTINUOUS
 62
     7
 10
1849.0051538132
 20
-445.4461454964
 30
0.0
 11
1850.5122605943
 21
-443.9390387152
 31
0.0
  0
LINE
  5
B5
  8
1
  6
CONTINUOUS
 62
     7
 10
1865.3587072037
 20
-442.2925921058
 30
0.0
 11
1865.8587072037
 21
-442.7925921058
 31
0.0
  0
LINE
  5
B6
  8
1
  6
CONTINUOUS
 62
     7
 10
1850.8658139849
 20
-443.7925921058
 30
0.0
 11
1851.8587072037
 21
-443.7925921058
 31
0.0
  0
LINE
  5
B7
  8
1
  6
CONTINUOUS
 62
     7
 10
1878.3587072038
 20
-447.7925921058
 30
0.0
 11
1878.3587072038
 21
-446.2925921058
 31
0.0
  0
LINE
  5
B8
  8
1
  6
CONTINUOUS
 62
     7
 10
1844.5587072037
 20
-445.5925921058
 30
0.0
 11
1848.6516004226
 21
-445.5925921058
 31
0.0
  0
ARC
  5
B9
  8
1
  6
CONTINUOUS
 62
     7
 10
1855.3587072037
 20
-446.2925921058
 30
0.0
 40
0.5
 50
90.0
 51
180.0
  0
ARC
  5
BA
  8
1
  6
CONTINUOUS
 62
     7
 10
1852.0587072037
 20
-446.2925921058
 30
0.0
 40
0.5
 50
90.0
 51
180.0
  0
LINE
  5
BB
  8
1
  6
CONTINUOUS
 62
     7
 10
1854.6087072037
 20
-436.2935540001
 30
0.0
 11
1850.6087072037
 21
-433.9841529234
 31
0.0
  0
ARC
  5
BC
  8
1
  6
CONTINUOUS
 62
     7
 10
1880.3587072037
 20
-438.4586175096
 30
0.0
 40
1.5
 50
120.0
 51
180.0
  0
ARC
  5
BD
  8
1
  6
CONTINUOUS
 62
     7
 10
1848.6516004226
 20
-445.0925921058
 30
0.0
 40
0.5
 50
270.0
 51
315.0
  0
ARC
  5
BE
  8
1
  6
CONTINUOUS
 62
     7
 10
1879.6587072037
 20
-446.2925921058
 30
0.0
 40
0.5
 50
0.0
 51
90.0
  0
ARC
  5
BF
  8
1
  6
CONTINUOUS
 62
     7
 10
1880.8516004226
 20
-444.2925921058
 30
0.0
 40
0.5
 50
45.0
 51
90.0
  0
ARC
  5
C0
  8
1
  6
CONTINUOUS
 62
     7
 10
1854.3587072037
 20
-436.726566702
 30
0.0
 40
0.5
 50
0.0
 51
60.0
  0
ARC
  5
C1
  8
1
  6
CONTINUOUS
 62
     7
 10
1878.8587072038
 20
-446.2925921058
 30
0.0
 40
0.5
 50
90.0
 51
180.0
  0
ARC
  5
C2
  8
1
  6
CONTINUOUS
 62
     7
 10
1876.3587072037
 20
-446.2925921058
 30
0.0
 40
0.5
 50
0.0
 51
90.0
  0
LINE
  5
C3
  8
1
  6
CONTINUOUS
 62
     7
 10
1878.8587072037
 20
-438.4586175096
 30
0.0
 11
1878.8587072037
 21
-442.7925921058
 31
0.0
  0
LINE
  5
C4
  8
1
  6
CONTINUOUS
 62
     7
 10
1852.1087072037
 20
-437.1595794039
 30
0.0
 11
1848.8087072037
 21
-435.2543235156
 31
0.0
  0
LINE
  5
C5
  8
1
  6
CONTINUOUS
 62
     7
 10
1879.6087072037
 20
-437.1595794039
 30
0.0
 11
1882.9087072037
 21
-435.2543235156
 31
0.0
  0
ARC
  5
C6
  8
1
  6
CONTINUOUS
 62
     7
 10
1851.3587072037
 20
-438.4586175096
 30
0.0
 40
1.5
 50
0.0
 51
60.0
  0
ARC
  5
C7
  8
1
  6
CONTINUOUS
 62
     7
 10
1882.1587072037
 20
-433.9552854099
 30
0.0
 40
1.5
 50
300.0
 51
0.0
  0
ARC
  5
C8
  8
1
  6
CONTINUOUS
 62
     7
 10
1880.3587072037
 20
-432.6851148177
 30
0.0
 40
1.5
 50
300.0
 51
0.0
  0
ARC
  5
C9
  8
1
  6
CONTINUOUS
 62
     7
 10
1851.3587072037
 20
-432.6851148177
 30
0.0
 40
1.5
 50
180.0
 51
240.0
  0
ARC
  5
CA
  8
1
  6
CONTINUOUS
 62
     7
 10
1883.0658139849
 20
-445.0925921058
 30
0.0
 40
0.5
 50
225.0
 51
270.0
  0
ARC
  5
CB
  8
1
  6
CONTINUOUS
 62
     7
 10
1852.8587072037
 20
-446.2925921058
 30
0.0
 40
0.5
 50
0.0
 51
90.0
  0
LINE
  5
CC
  8
1
  6
CONTINUOUS
 62
     7
 10
1852.8587072037
 20
-438.4586175096
 30
0.0
 11
1852.8587072037
 21
-442.7925921058
 31
0.0
  0
LINE
  5
CD
  8
1
  6
CONTINUOUS
 62
     7
 10
1877.1087072037
 20
-436.2935540001
 30
0.0
 11
1881.1087072037
 21
-433.9841529234
 31
0.0
  0
ARC
  5
CE
  8
1
  6
CONTINUOUS
 62
     7
 10
1850.8658139849
 20
-444.2925921058
 30
0.0
 40
0.5
 50
90.0
 51
135.0
  0
ARC
  5
CF
  8
1
  6
CONTINUOUS
 62
     7
 10
1849.5587072037
 20
-433.9552854099
 30
0.0
 40
1.5
 50
180.0
 51
240.0
  0
ARC
  5
D0
  8
1
  6
CONTINUOUS
 62
     7
 10
1877.3587072037
 20
-436.726566702
 30
0.0
 40
0.5
 50
120.0
 51
180.0
  0
LINE
  5
D1
  8
1
  6
CONTINUOUS
 62
     7
 10
1844.4865314066
 20
-409.9253343957
 30
0.0
 11
1853.3587072039
 21
-400.244772647
 31
0.0
  0
ARC
  5
D2
  8
1
  6
CONTINUOUS
 62
     7
 10
1851.8587072039
 20
-416.6818885482
 30
0.0
 40
10.0
 50
137.4949323369
 51
180.0
  0
LINE
  5
D3
  8
1
  6
CONTINUOUS
 62
     7
 10
1889.8587072039
 20
-416.6818885482
 30
0.0
 11
1889.8587072039
 21
-447.7925921058
 31
0.0
  0
LINE
  5
D4
  8
1
  6
CONTINUOUS
 62
     7
 10
1791.8587072039
 20
-301.7925921058
 30
0.0
 11
1791.8587072039
 21
-349.7925921058
 31
0.0
  0
LINE
  5
D5
  8
1
  6
CONTINUOUS
 62
     7
 10
1887.2308830011
 20
-409.9253343957
 30
0.0
 11
1878.3587072039
 21
-400.244772647
 31
0.0
  0
ARC
  5
D6
  8
1
  6
CONTINUOUS
 62
     7
 10
1879.8587072039
 20
-416.6818885482
 30
0.0
 40
10.0
 50
0.0
 51
42.5050676631
  0
LINE
  5
D7
  8
1
  6
CONTINUOUS
 62
     7
 10
1841.8587072039
 20
-416.6818885482
 30
0.0
 11
1841.8587072039
 21
-447.7925921058
 31
0.0
  0
LINE
  5
D8
  8
1
  6
CONTINUOUS
 62
     7
 10
1791.8587072039
 20
-447.7925921058
 30
0.0
 11
1791.8587072039
 21
-399.7925921058
 31
0.0
  0
LINE
  5
D9
  8
1
  6
CONTINUOUS
 62
     7
 10
-208.1412927961
 20
-412.7925921058
 30
0.0
 11
1791.8587072039
 21
-412.7925921058
 31
0.0
  0
ARC
  5
DA
  8
1
  6
CONTINUOUS
 62
     7
 10
1865.8587072039
 20
-572.7925921058
 30
0.0
 40
173.0
 50
85.8565208882
 51
94.14347911189998
  0
LINE
  5
DB
  8
1
  6
CONTINUOUS
 62
     7
 10
-208.1412927961
 20
-447.7925921058
 30
0.0
 11
1791.8587072039
 21
-447.7925921058
 31
0.0
  0
LINE
  5
DC
  8
1
  6
CONTINUOUS
 62
     7
 10
1791.8587072039
 20
-399.7925921058
 30
0.0
 11
-208.1412927960999
 21
-399.7925921058
 31
0.0
  0
LINE
  5
DD
  8
1
  6
CONTINUOUS
 62
     7
 10
1880.6587072039
 20
-441.2925921058
 30
0.0
 11
1880.6587072039
 21
-436.7925921058
 31
0.0
  0
LINE
  5
DE
  8
1
  6
CONTINUOUS
 62
     7
 10
-208.1412927961
 20
-349.7925921058
 30
0.0
 11
-208.1412927961
 21
-301.7925921058
 31
0.0
  0
LINE
  5
DF
  8
1
  6
CONTINUOUS
 62
     7
 10
-208.1412927961
 20
-399.7925921058
 30
0.0
 11
-208.1412927961
 21
-447.7925921058
 31
0.0
  0
LINE
  5
E0
  8
1
  6
CONTINUOUS
 62
     7
 10
-208.1412927961
 20
-301.7925921058
 30
0.0
 11
1791.8587072039
 21
-301.7925921058
 31
0.0
  0
LINE
  5
E1
  8
1
  6
CONTINUOUS
 62
     7
 10
1791.8587072039
 20
-349.7925921058
 30
0.0
 11
-208.1412927960999
 21
-349.7925921058
 31
0.0
  0
LINE
  5
E2
  8
1
  6
CONTINUOUS
 62
     7
 10
1887.6587072039
 20
-432.7511402215
 30
0.0
 11
1880.6587072039
 21
-436.7925921058
 31
0.0
  0
ENDSEC
  0
EOF
