  0
SECTION
  2
HEADER
  9
$ACADVER
  1
AC1006
  9
$DWGCODEPAGE
  3
ansi_932
  9
$INSBASE
 10
0.0
 20
0.0
 30
0.0
  9
$EXTMIN
 10
708.4760931277608
 20
53.24044837701106
  9
$EXTMAX
 10
791.4760931277608
 20
2167.164836285026
  9
$LIMMIN
 10
0.0
 20
0.0
  9
$LIMMAX
 10
12.0
 20
9.0
  9
$ORTHOMODE
 70
     0
  9
$REGENMODE
 70
     1
  9
$FILLMODE
 70
     1
  9
$QTEXTMODE
 70
     0
  9
$MIRRTEXT
 70
     1
  9
$DRAGMODE
 70
     2
  9
$LTSCALE
 40
1.0
  9
$OSMODE
 70
    37
  9
$ATTMODE
 70
     1
  9
$TEXTSIZE
 40
0.2
  9
$TRACEWID
 40
0.05
  9
$TEXTSTYLE
  7
STANDARD
  9
$CLAYER
  8
0
  9
$CELTYPE
  6
BYLAYER
  9
$CECOLOR
 62
   256
  9
$DIMSCALE
 40
1.0
  9
$DIMASZ
 40
3.0
  9
$DIMEXO
 40
0.0625
  9
$DIMDLI
 40
0.38
  9
$DIMRND
 40
0.0
  9
$DIMDLE
 40
0.0
  9
$DIMEXE
 40
1.5
  9
$DIMTP
 40
0.0
  9
$DIMTM
 40
0.0
  9
$DIMTXT
 40
3.0
  9
$DIMCEN
 40
0.09
  9
$DIMTSZ
 40
0.0
  9
$DIMTOL
 70
     0
  9
$DIMLIM
 70
     0
  9
$DIMTIH
 70
     1
  9
$DIMTOH
 70
     1
  9
$DIMSE1
 70
     0
  9
$DIMSE2
 70
     0
  9
$DIMTAD
 70
     1
  9
$DIMZIN
 70
     0
  9
$DIMBLK
  1

  9
$DIMASO
 70
     1
  9
$DIMSHO
 70
     1
  9
$DIMPOST
  1

  9
$DIMAPOST
  1

  9
$DIMALT
 70
     0
  9
$DIMALTD
 70
     2
  9
$DIMALTF
 40
25.4
  9
$DIMLFAC
 40
1.0
  9
$DIMTOFL
 70
     0
  9
$DIMTVP
 40
0.0
  9
$DIMTIX
 70
     0
  9
$DIMSOXD
 70
     0
  9
$DIMSAH
 70
     0
  9
$DIMBLK1
  1

  9
$DIMBLK2
  1

  9
$LUNITS
 70
     2
  9
$LUPREC
 70
     4
  9
$SKETCHINC
 40
0.1
  9
$FILLETRAD
 40
0.5
  9
$AUNITS
 70
     0
  9
$AUPREC
 70
     0
  9
$MENU
  1
.
  9
$ELEVATION
 40
0.0
  9
$THICKNESS
 40
0.0
  9
$LIMCHECK
 70
     0
  9
$CHAMFERA
 40
0.0
  9
$CHAMFERB
 40
0.0
  9
$SKPOLY
 70
     0
  9
$TDCREATE
 40
2460774.598028542
  9
$TDUPDATE
 40
2460774.598028796
  9
$TDINDWG
 40
0.0000000116
  9
$TDUSRTIMER
 40
0.0000000116
  9
$USRTIMER
 70
     1
  9
$ANGBASE
 50
0.0
  9
$ANGDIR
 70
     0
  9
$PDMODE
 70
     0
  9
$PDSIZE
 40
0.0
  9
$PLINEWID
 40
0.0
  9
$COORDS
 70
     1
  9
$SPLFRAME
 70
     0
  9
$SPLINETYPE
 70
     6
  9
$SPLINESEGS
 70
     8
  9
$ATTDIA
 70
     0
  9
$ATTREQ
 70
     1
  9
$HANDLING
 70
     1
  9
$HANDSEED
  5
296
  9
$SURFTAB1
 70
     6
  9
$SURFTAB2
 70
     6
  9
$SURFTYPE
 70
     6
  9
$SURFU
 70
     6
  9
$SURFV
 70
     6
  9
$UCSNAME
  2

  9
$UCSORG
 10
0.0
 20
0.0
 30
0.0
  9
$UCSXDIR
 10
1.0
 20
0.0
 30
0.0
  9
$UCSYDIR
 10
0.0
 20
1.0
 30
0.0
  9
$USERI1
 70
     0
  9
$USERI2
 70
     0
  9
$USERI3
 70
     0
  9
$USERI4
 70
     0
  9
$USERI5
 70
     0
  9
$USERR1
 40
0.0
  9
$USERR2
 40
0.0
  9
$USERR3
 40
0.0
  9
$USERR4
 40
0.0
  9
$USERR5
 40
0.0
  9
$WORLDVIEW
 70
     1
  0
ENDSEC
  0
SECTION
  2
TABLES
  0
TABLE
  2
VPORT
 70
     1
  0
VPORT
  2
*ACTIVE
 70
     0
 10
0.0
 20
0.0
 11
1.0
 21
1.0
 12
749.9760931277608
 22
1110.202642331019
 13
0.0
 23
0.0
 14
0.5
 24
0.5
 15
0.5
 25
0.5
 16
0.0
 26
0.0
 36
1.0
 17
0.0
 27
0.0
 37
0.0
 40
2113.924387908015
 41
1.6
 42
50.0
 43
0.0
 44
0.0
 50
0.0
 51
0.0
 71
     0
 72
   100
 73
     1
 74
     3
 75
     0
 76
     0
 77
     0
 78
     0
  0
ENDTAB
  0
TABLE
  2
LTYPE
 70
     2
  0
LTYPE
  2
CONTINUOUS
 70
     0
  3
Solid line
 72
    65
 73
     0
 40
0.0
  0
LTYPE
  2
________________
 70
     0
  3

 72
    65
 73
     4
 40
6.0
 49
2.25
 49
-1.5
 49
0.7499999999999999
 49
-1.5
  0
ENDTAB
  0
TABLE
  2
LAYER
 70
     1
  0
LAYER
  2
0
 70
     0
 62
     7
  6
CONTINUOUS
  0
ENDTAB
  0
TABLE
  2
STYLE
 70
     2
  0
STYLE
  2
STANDARD
 70
     0
 40
0.0
 41
1.0
 50
0.0
 71
     0
 42
0.2
  3
txt
  4

  0
STYLE
  2
ＭＳ_ゴシック
 70
     0
 40
0.0
 41
1.0
 50
0.0
 71
     0
 42
0.2
  3
ＭＳ ゴシック.shx
  4

  0
ENDTAB
  0
TABLE
  2
VIEW
 70
     0
  0
ENDTAB
  0
TABLE
  2
UCS
 70
     0
  0
ENDTAB
  0
ENDSEC
  0
SECTION
  2
BLOCKS
  0
ENDSEC
  0
SECTION
  2
ENTITIES
  0
LINE
  5
6F
  8
0
  6
CONTINUOUS
 62
     7
 10
713.2771508095564
 20
101.1400960942824
 30
0.0
 11
720.4760931277608
 21
109.5569306737488
 31
0.0
  0
ARC
  5
70
  8
0
  6
CONTINUOUS
 62
     7
 10
771.4760931277608
 20
88.14039792825199
 30
0.0
 40
20.00000000000002
 50
0.0
 51
40.54046403383875
  0
ARC
  5
71
  8
0
  6
CONTINUOUS
 62
     7
 10
789.9760931277608
 20
69.8268120133747
 30
0.0
 40
0.2999999999999947
 50
0.0
 51
90.0
  0
LINE
  5
72
  8
0
  6
CONTINUOUS
 62
     7
 10
778.734861208228
 20
108.1158157669762
 30
0.0
 11
785.5351147720999
 21
100.1651187318301
 31
0.0
  0
LINE
  5
73
  8
0
  6
CONTINUOUS
 62
     7
 10
782.4260931277607
 20
72.17640546899788
 30
0.0
 11
783.8280169164075
 21
71.36700439223938
 31
0.0
  0
LINE
  5
74
  8
0
  6
CONTINUOUS
 62
     7
 10
782.2760931277608
 20
73.50549166981507
 30
0.0
 11
782.2760931277608
 21
72.43621309013321
 31
0.0
  0
LINE
  5
75
  8
0
  6
CONTINUOUS
 62
     7
 10
784.6882251621167
 20
76.04188777288296
 30
0.0
 11
782.3639610934049
 21
73.71762370417103
 31
0.0
  0
LINE
  5
76
  8
0
  6
CONTINUOUS
 62
     7
 10
784.7760931277609
 20
77.10254794466279
 30
0.0
 11
784.7760931277609
 21
76.25401980723892
 31
0.0
  0
LINE
  5
77
  8
0
  6
CONTINUOUS
 62
     7
 10
781.0760931277608
 20
72.43621309013321
 30
0.0
 11
781.0760931277608
 21
73.50549166981507
 31
0.0
  0
LINE
  5
78
  8
0
  6
CONTINUOUS
 62
     7
 10
789.9760931277608
 20
88.14039792825197
 30
0.0
 11
789.9760931277608
 21
71.3268120133747
 31
0.0
  0
ARC
  5
79
  8
0
  6
CONTINUOUS
 62
     7
 10
771.4760931277608
 20
88.14039792825199
 30
0.0
 40
18.5
 50
0.0
 51
40.54046403383859
  0
LINE
  5
7A
  8
0
  6
CONTINUOUS
 62
     7
 10
790.2760931277608
 20
66.8268120133747
 30
0.0
 11
790.2760931277608
 21
69.8268120133747
 31
0.0
  0
ARC
  5
7B
  8
0
  6
CONTINUOUS
 62
     7
 10
757.4760931277607
 20
-139.4731879866265
 30
0.0
 40
248.5000000000012
 50
85.09244141243259
 51
90.0
  0
LINE
  5
7C
  8
0
  6
CONTINUOUS
 62
     7
 10
742.4760931277608
 20
109.0268120133747
 30
0.0
 11
757.4760931277607
 21
109.0268120133747
 31
0.0
  0
ARC
  5
7D
  8
0
  6
CONTINUOUS
 62
     7
 10
742.4760931277608
 20
-139.473187986626
 30
0.0
 40
248.5000000000008
 50
90.00000000000011
 51
94.90755858756745
  0
LINE
  5
7E
  8
0
  6
CONTINUOUS
 62
     7
 10
714.4170714834216
 20
100.1651187318301
 30
0.0
 11
721.2173250472935
 21
108.1158157669762
 31
0.0
  0
ARC
  5
7F
  8
0
  6
CONTINUOUS
 62
     7
 10
728.4760931277608
 20
88.14039792825196
 30
0.0
 40
18.50000000000007
 50
139.4595359661613
 51
180.0
  0
LINE
  5
80
  8
0
  6
CONTINUOUS
 62
     7
 10
709.9760931277608
 20
71.3268120133747
 30
0.0
 11
709.9760931277608
 21
88.14039792825196
 31
0.0
  0
ARC
  5
81
  8
0
  6
CONTINUOUS
 62
     7
 10
715.9741693391142
 20
71.6268120133747
 30
0.0
 40
1.500000000000001
 50
270.0
 51
300.0000000000001
  0
ARC
  5
82
  8
0
  6
CONTINUOUS
 62
     7
 10
717.3760931277608
 20
73.50549166981507
 30
0.0
 40
1.499999999999946
 50
0.0
 51
44.99999999999986
  0
ARC
  5
83
  8
0
  6
CONTINUOUS
 62
     7
 10
717.3760931277608
 20
72.43621309013322
 30
0.0
 40
1.499999999999964
 50
300.0
 51
0.0
  0
ARC
  5
84
  8
0
  6
CONTINUOUS
 62
     7
 10
783.9780169164075
 20
71.6268120133747
 30
0.0
 40
1.499999999999952
 50
239.9999999999999
 51
270.0
  0
ARC
  5
85
  8
0
  6
CONTINUOUS
 62
     7
 10
782.5760931277607
 20
72.43621309013321
 30
0.0
 40
1.499999999999946
 50
180.0
 51
240.0
  0
ARC
  5
86
  8
0
  6
CONTINUOUS
 62
     7
 10
782.5760931277607
 20
73.50549166981507
 30
0.0
 40
1.499999999999955
 50
134.9999999999999
 51
180.0
  0
ARC
  5
87
  8
0
  6
CONTINUOUS
 62
     7
 10
715.4760931277608
 20
77.10254794466279
 30
0.0
 40
0.3000000000000126
 50
44.99999999999977
 51
180.0
  0
ARC
  5
88
  8
0
  6
CONTINUOUS
 62
     7
 10
715.4760931277608
 20
76.25401980723892
 30
0.0
 40
0.300000000000078
 50
180.0
 51
224.9999999999996
  0
ARC
  5
89
  8
0
  6
CONTINUOUS
 62
     7
 10
717.3760931277608
 20
72.43621309013321
 30
0.0
 40
0.299999999999967
 50
299.9999999999997
 51
0.0
  0
ARC
  5
8A
  8
0
  6
CONTINUOUS
 62
     7
 10
717.3760931277608
 20
73.50549166981507
 30
0.0
 40
0.2999999999999342
 50
0.0
 51
44.99999999999977
  0
ARC
  5
8B
  8
0
  6
CONTINUOUS
 62
     7
 10
715.9741693391142
 20
71.6268120133747
 30
0.0
 40
0.2999999999999856
 50
270.0
 51
299.9999999999997
  0
ARC
  5
8C
  8
0
  6
CONTINUOUS
 62
     7
 10
709.9760931277608
 20
69.8268120133747
 30
0.0
 40
0.299999999999967
 50
90.0
 51
180.0
  0
ARC
  5
8D
  8
0
  6
CONTINUOUS
 62
     7
 10
709.3760931277608
 20
66.8268120133747
 30
0.0
 40
0.2999999999999947
 50
270.0
 51
0.0
  0
ARC
  5
8E
  8
0
  6
CONTINUOUS
 62
     7
 10
790.5760931277607
 20
66.8268120133747
 30
0.0
 40
0.299999999999967
 50
180.0
 51
270.0
  0
LINE
  5
8F
  8
0
  6
CONTINUOUS
 62
     7
 10
791.4760931277608
 20
66.52681201337471
 30
0.0
 11
790.5760931277607
 21
66.52681201337471
 31
0.0
  0
ARC
  5
90
  8
0
  6
CONTINUOUS
 62
     7
 10
783.9780169164075
 20
71.6268120133747
 30
0.0
 40
0.2999999999999947
 50
240.0000000000006
 51
270.0
  0
ARC
  5
91
  8
0
  6
CONTINUOUS
 62
     7
 10
782.5760931277607
 20
72.43621309013321
 30
0.0
 40
0.2999999999999856
 50
180.0
 51
240.0000000000004
  0
ARC
  5
92
  8
0
  6
CONTINUOUS
 62
     7
 10
782.5760931277607
 20
73.50549166981507
 30
0.0
 40
0.299999999999967
 50
135.0000000000002
 51
180.0
  0
ARC
  5
93
  8
0
  6
CONTINUOUS
 62
     7
 10
784.4760931277608
 20
76.25401980723892
 30
0.0
 40
0.3000000000000126
 50
315.0000000000002
 51
0.0
  0
ARC
  5
94
  8
0
  6
CONTINUOUS
 62
     7
 10
784.4760931277608
 20
77.10254794466279
 30
0.0
 40
0.300000000000078
 50
0.0
 51
135.0000000000002
  0
LINE
  5
95
  8
0
  6
CONTINUOUS
 62
     7
 10
717.5882251621167
 20
73.71762370417103
 30
0.0
 11
715.2639610934049
 21
76.04188777288296
 31
0.0
  0
ARC
  5
96
  8
0
  6
CONTINUOUS
 62
     7
 10
728.4760931277608
 20
88.14039792825199
 30
0.0
 40
20.00000000000005
 50
139.4595359661613
 51
180.0
  0
LINE
  5
97
  8
0
  6
CONTINUOUS
 62
     7
 10
709.3760931277608
 20
66.52681201337471
 30
0.0
 11
708.4760931277608
 21
66.52681201337471
 31
0.0
  0
LINE
  5
98
  8
0
  6
CONTINUOUS
 62
     7
 10
709.6760931277609
 20
69.8268120133747
 30
0.0
 11
709.6760931277609
 21
66.8268120133747
 31
0.0
  0
LINE
  5
99
  8
0
  6
CONTINUOUS
 62
     7
 10
715.9741693391142
 20
70.1268120133747
 30
0.0
 11
709.9760931277608
 21
70.1268120133747
 31
0.0
  0
LINE
  5
9A
  8
0
  6
CONTINUOUS
 62
     7
 10
718.1260931277608
 20
71.13717498445655
 30
0.0
 11
716.724169339114
 21
70.32777390769805
 31
0.0
  0
LINE
  5
9B
  8
0
  6
CONTINUOUS
 62
     7
 10
718.8760931277608
 20
73.50549166981507
 30
0.0
 11
718.8760931277608
 21
72.43621309013322
 31
0.0
  0
LINE
  5
9C
  8
0
  6
CONTINUOUS
 62
     7
 10
715.6882251621169
 20
77.31467997901875
 30
0.0
 11
718.4367532995406
 21
74.56615184159489
 31
0.0
  0
LINE
  5
9D
  8
0
  6
CONTINUOUS
 62
     7
 10
781.515432955981
 20
74.56615184159489
 30
0.0
 11
784.2639610934048
 21
77.31467997901873
 31
0.0
  0
ARC
  5
9E
  8
0
  6
CONTINUOUS
 62
     7
 10
742.4760931277608
 20
-139.4731879866259
 30
0.0
 40
250.0000000000006
 50
90.0
 51
95.04855895808969
  0
LINE
  5
9F
  8
0
  6
CONTINUOUS
 62
     7
 10
783.2280169164076
 20
70.32777390769805
 30
0.0
 11
781.8260931277608
 21
71.13717498445655
 31
0.0
  0
LINE
  5
A0
  8
0
  6
CONTINUOUS
 62
     7
 10
789.9760931277608
 20
70.1268120133747
 30
0.0
 11
783.9780169164075
 21
70.1268120133747
 31
0.0
  0
LINE
  5
A1
  8
0
  6
CONTINUOUS
 62
     7
 10
709.9760931277608
 20
71.3268120133747
 30
0.0
 11
714.9760931277608
 21
71.3268120133747
 31
0.0
  0
LINE
  5
A2
  8
0
  6
CONTINUOUS
 62
     7
 10
714.9760931277608
 20
71.3268120133747
 30
0.0
 11
715.9741693391142
 21
71.3268120133747
 31
0.0
  0
LINE
  5
A3
  8
0
  6
CONTINUOUS
 62
     7
 10
783.9780169164075
 20
71.3268120133747
 30
0.0
 11
784.9760931277608
 21
71.3268120133747
 31
0.0
  0
LINE
  5
A4
  8
0
  6
CONTINUOUS
 62
     7
 10
784.9760931277608
 20
71.3268120133747
 30
0.0
 11
789.9760931277608
 21
71.3268120133747
 31
0.0
  0
LINE
  5
A5
  8
0
  6
CONTINUOUS
 62
     7
 10
791.4760931277608
 20
88.14039792825199
 30
0.0
 11
791.4760931277608
 21
66.52681201337471
 31
0.0
  0
LINE
  5
A6
  8
0
  6
CONTINUOUS
 62
     7
 10
779.4760931277608
 20
109.5569306737488
 30
0.0
 11
786.6750354459652
 21
101.1400960942824
 31
0.0
  0
ARC
  5
A7
  8
0
  6
CONTINUOUS
 62
     7
 10
757.4760931277607
 20
-139.4731879866254
 30
0.0
 40
250.0000000000001
 50
84.95144104191029
 51
90.0
  0
LINE
  5
A8
  8
0
  6
CONTINUOUS
 62
     7
 10
742.4760931277608
 20
110.5268120133747
 30
0.0
 11
757.4760931277607
 21
110.5268120133747
 31
0.0
  0
LINE
  5
A9
  8
0
  6
CONTINUOUS
 62
     7
 10
715.1760931277607
 20
76.25401980723892
 30
0.0
 11
715.1760931277607
 21
77.10254794466279
 31
0.0
  0
LINE
  5
AA
  8
0
  6
CONTINUOUS
 62
     7
 10
716.1241693391141
 20
71.36700439223938
 30
0.0
 11
717.5260931277609
 21
72.17640546899788
 31
0.0
  0
LINE
  5
AB
  8
0
  6
CONTINUOUS
 62
     7
 10
708.4760931277608
 20
66.52681201337471
 30
0.0
 11
708.4760931277608
 21
88.14039792825199
 31
0.0
  0
LINE
  5
AC
  8
0
  6
CONTINUOUS
 62
     7
 10
717.6760931277609
 20
72.43621309013321
 30
0.0
 11
717.6760931277609
 21
73.50549166981507
 31
0.0
  0
ARC
  5
AD
  8
0
  6
CONTINUOUS
 62
     7
 10
776.4760931277608
 20
88.0268120133747
 30
0.0
 40
6.199999999999983
 50
0.0000000000000962
 51
49.99479911513968
  0
LINE
  5
AE
  8
0
  6
CONTINUOUS
 62
     7
 10
782.6760931277607
 20
86.02681201337472
 30
0.0
 11
782.6760931277607
 21
88.02681201337471
 31
0.0
  0
LINE
  5
AF
  8
0
  6
CONTINUOUS
 62
     7
 10
783.4760931277608
 20
85.22681201337471
 30
0.0
 11
782.6760931277607
 21
86.02681201337472
 31
0.0
  0
LINE
  5
B0
  8
0
  6
CONTINUOUS
 62
     7
 10
783.4760931277608
 20
77.67950320683282
 30
0.0
 11
783.4760931277608
 21
85.22681201337471
 31
0.0
  0
ARC
  5
B1
  8
0
  6
CONTINUOUS
 62
     7
 10
781.1760931277609
 20
77.67950320683282
 30
0.0
 40
2.299999999999976
 50
314.9999999999998
 51
359.9999999999998
  0
LINE
  5
B2
  8
0
  6
CONTINUOUS
 62
     7
 10
779.2310099464086
 20
72.48172883202247
 30
0.0
 11
782.8024387244898
 21
76.05315761010377
 31
0.0
  0
ARC
  5
B3
  8
0
  6
CONTINUOUS
 62
     7
 10
779.4431419807645
 20
72.26959679766652
 30
0.0
 40
0.2999999999999977
 50
134.9999999999999
 51
239.9999999999995
  0
LINE
  5
B4
  8
0
  6
CONTINUOUS
 62
     7
 10
785.2562201466831
 20
68.56700439223938
 30
0.0
 11
779.2931419807645
 21
72.00978917653119
 31
0.0
  0
ARC
  5
B5
  8
0
  6
CONTINUOUS
 62
     7
 10
785.406220146683
 20
68.8268120133747
 30
0.0
 40
0.2999999999999947
 50
240.0000000000005
 51
270.0
  0
LINE
  5
B6
  8
0
  6
CONTINUOUS
 62
     7
 10
788.1760931277609
 20
68.52681201337471
 30
0.0
 11
785.406220146683
 21
68.52681201337471
 31
0.0
  0
ARC
  5
B7
  8
0
  6
CONTINUOUS
 62
     7
 10
788.1760931277609
 20
68.8268120133747
 30
0.0
 40
0.299999999999967
 50
270.0
 51
0.0
  0
LINE
  5
B8
  8
0
  6
CONTINUOUS
 62
     7
 10
788.4760931277608
 20
69.22681201337471
 30
0.0
 11
788.4760931277608
 21
68.8268120133747
 31
0.0
  0
ARC
  5
B9
  8
0
  6
CONTINUOUS
 62
     7
 10
788.7760931277608
 20
69.22681201337471
 30
0.0
 40
0.2999999999999947
 50
90.0
 51
180.0
  0
LINE
  5
BA
  8
0
  6
CONTINUOUS
 62
     7
 10
789.9111665680177
 20
69.52681201337471
 30
0.0
 11
788.7760931277608
 21
69.52681201337471
 31
0.0
  0
ARC
  5
BB
  8
0
  6
CONTINUOUS
 62
     7
 10
789.9111665680177
 20
69.22681201337471
 30
0.0
 40
0.3000000000000372
 50
355.0000000000002
 51
90.0
  0
LINE
  5
BC
  8
0
  6
CONTINUOUS
 62
     7
 10
790.000052184983
 20
66.80066529055041
 30
0.0
 11
790.2100249774453
 21
69.2006652905504
 31
0.0
  0
ARC
  5
BD
  8
0
  6
CONTINUOUS
 62
     7
 10
789.7011937755556
 20
66.8268120133747
 30
0.0
 40
0.2999999999999947
 50
270.0
 51
354.9999999999999
  0
LINE
  5
BE
  8
0
  6
CONTINUOUS
 62
     7
 10
784.8703217618208
 20
66.52681201337471
 30
0.0
 11
789.7011937755556
 21
66.52681201337471
 31
0.0
  0
ARC
  5
BF
  8
0
  6
CONTINUOUS
 62
     7
 10
784.8703217618208
 20
66.8268120133747
 30
0.0
 40
0.3000000000000411
 50
239.9999999999994
 51
270.0
  0
LINE
  5
C0
  8
0
  6
CONTINUOUS
 62
     7
 10
777.4117337738159
 20
70.78661963451003
 30
0.0
 11
784.7203217618207
 21
66.56700439223937
 31
0.0
  0
ARC
  5
C1
  8
0
  6
CONTINUOUS
 62
     7
 10
777.2617337738159
 20
70.52681201337471
 30
0.0
 40
0.2999999999999947
 50
59.99999999999988
 51
90.0
  0
LINE
  5
C2
  8
0
  6
CONTINUOUS
 62
     7
 10
775.2260931277608
 20
70.8268120133747
 30
0.0
 11
777.2617337738159
 21
70.8268120133747
 31
0.0
  0
LINE
  5
C3
  8
0
  6
CONTINUOUS
 62
     7
 10
775.2260931277608
 20
68.3268120133747
 30
0.0
 11
775.2260931277608
 21
70.8268120133747
 31
0.0
  0
LINE
  5
C4
  8
0
  6
CONTINUOUS
 62
     7
 10
775.9760931277608
 20
68.3268120133747
 30
0.0
 11
775.2260931277608
 21
68.3268120133747
 31
0.0
  0
LINE
  5
C5
  8
0
  6
CONTINUOUS
 62
     7
 10
775.9760931277608
 20
67.8268120133747
 30
0.0
 11
775.9760931277608
 21
68.3268120133747
 31
0.0
  0
LINE
  5
C6
  8
0
  6
CONTINUOUS
 62
     7
 10
774.9760931277608
 20
66.8268120133747
 30
0.0
 11
775.9760931277608
 21
67.8268120133747
 31
0.0
  0
LINE
  5
C7
  8
0
  6
CONTINUOUS
 62
     7
 10
760.2760931277608
 20
66.8268120133747
 30
0.0
 11
774.9760931277608
 21
66.8268120133747
 31
0.0
  0
ARC
  5
C8
  8
0
  6
CONTINUOUS
 62
     7
 10
760.2760931277608
 20
67.12681201337472
 30
0.0
 40
0.299999999999967
 50
180.0000000000003
 51
270.0
  0
LINE
  5
C9
  8
0
  6
CONTINUOUS
 62
     7
 10
759.9760931277608
 20
71.02681201337471
 30
0.0
 11
759.9760931277608
 21
67.12681201337472
 31
0.0
  0
LINE
  5
CA
  8
0
  6
CONTINUOUS
 62
     7
 10
753.4760931277607
 20
71.02681201337471
 30
0.0
 11
759.9760931277608
 21
71.02681201337471
 31
0.0
  0
LINE
  5
CB
  8
0
  6
CONTINUOUS
 62
     7
 10
753.4760931277607
 20
71.02681201337471
 30
0.0
 11
753.4760931277607
 21
66.82681201337476
 31
0.0
  0
ARC
  5
CC
  8
0
  6
CONTINUOUS
 62
     7
 10
753.1760931277607
 20
66.8268120133747
 30
0.0
 40
0.2999999999999947
 50
270.0
 51
0.0000000000092655
  0
LINE
  5
CD
  8
0
  6
CONTINUOUS
 62
     7
 10
753.1760931277607
 20
66.52681201337471
 30
0.0
 11
751.7760931277609
 21
66.52681201337471
 31
0.0
  0
ARC
  5
CE
  8
0
  6
CONTINUOUS
 62
     7
 10
751.7760931277609
 20
66.8268120133747
 30
0.0
 40
0.300000000000078
 50
179.9999999999907
 51
270.0000000000001
  0
LINE
  5
CF
  8
0
  6
CONTINUOUS
 62
     7
 10
751.4760931277607
 20
71.02681201337471
 30
0.0
 11
751.4760931277607
 21
66.82681201337476
 31
0.0
  0
LINE
  5
D0
  8
0
  6
CONTINUOUS
 62
     7
 10
748.4760931277608
 20
71.02681201337471
 30
0.0
 11
751.4760931277607
 21
71.02681201337471
 31
0.0
  0
LINE
  5
D1
  8
0
  6
CONTINUOUS
 62
     7
 10
748.4760931277608
 20
71.02681201337471
 30
0.0
 11
748.4760931277608
 21
66.82681201337476
 31
0.0
  0
ARC
  5
D2
  8
0
  6
CONTINUOUS
 62
     7
 10
748.1760931277607
 20
66.8268120133747
 30
0.0
 40
0.300000000000078
 50
269.9999999999999
 51
0.0000000000093223
  0
LINE
  5
D3
  8
0
  6
CONTINUOUS
 62
     7
 10
746.7760931277608
 20
66.52681201337471
 30
0.0
 11
748.1760931277607
 21
66.52681201337471
 31
0.0
  0
ARC
  5
D4
  8
0
  6
CONTINUOUS
 62
     7
 10
746.7760931277608
 20
66.8268120133747
 30
0.0
 40
0.2999999999999947
 50
179.9999999999907
 51
270.0
  0
LINE
  5
D5
  8
0
  6
CONTINUOUS
 62
     7
 10
746.4760931277608
 20
71.02681201337471
 30
0.0
 11
746.4760931277608
 21
66.82681201337476
 31
0.0
  0
LINE
  5
D6
  8
0
  6
CONTINUOUS
 62
     7
 10
746.4760931277608
 20
71.02681201337471
 30
0.0
 11
739.9760931277608
 21
71.02681201337471
 31
0.0
  0
LINE
  5
D7
  8
0
  6
CONTINUOUS
 62
     7
 10
739.9760931277608
 20
71.02681201337471
 30
0.0
 11
739.9760931277608
 21
67.12681201337472
 31
0.0
  0
ARC
  5
D8
  8
0
  6
CONTINUOUS
 62
     7
 10
739.6760931277609
 20
67.12681201337472
 30
0.0
 40
0.299999999999967
 50
270.0
 51
359.9999999999997
  0
LINE
  5
D9
  8
0
  6
CONTINUOUS
 62
     7
 10
739.6760931277609
 20
66.8268120133747
 30
0.0
 11
724.9760931277608
 21
66.8268120133747
 31
0.0
  0
LINE
  5
DA
  8
0
  6
CONTINUOUS
 62
     7
 10
724.9760931277608
 20
66.8268120133747
 30
0.0
 11
723.9760931277608
 21
67.8268120133747
 31
0.0
  0
LINE
  5
DB
  8
0
  6
CONTINUOUS
 62
     7
 10
723.9760931277608
 20
67.8268120133747
 30
0.0
 11
723.9760931277608
 21
68.3268120133747
 31
0.0
  0
LINE
  5
DC
  8
0
  6
CONTINUOUS
 62
     7
 10
723.9760931277608
 20
68.3268120133747
 30
0.0
 11
724.7260931277608
 21
68.3268120133747
 31
0.0
  0
LINE
  5
DD
  8
0
  6
CONTINUOUS
 62
     7
 10
724.7260931277608
 20
68.3268120133747
 30
0.0
 11
724.7260931277608
 21
70.8268120133747
 31
0.0
  0
LINE
  5
DE
  8
0
  6
CONTINUOUS
 62
     7
 10
724.7260931277608
 20
70.8268120133747
 30
0.0
 11
722.6904524817057
 21
70.8268120133747
 31
0.0
  0
ARC
  5
DF
  8
0
  6
CONTINUOUS
 62
     7
 10
722.6904524817057
 20
70.52681201337471
 30
0.0
 40
0.2999999999999947
 50
90.0
 51
120.0000000000001
  0
LINE
  5
E0
  8
0
  6
CONTINUOUS
 62
     7
 10
722.5404524817058
 20
70.78661963451003
 30
0.0
 11
715.2318644937009
 21
66.56700439223937
 31
0.0
  0
ARC
  5
E1
  8
0
  6
CONTINUOUS
 62
     7
 10
715.0818644937008
 20
66.8268120133747
 30
0.0
 40
0.3000000000000411
 50
270.0
 51
300.0000000000006
  0
LINE
  5
E2
  8
0
  6
CONTINUOUS
 62
     7
 10
715.0818644937008
 20
66.52681201337471
 30
0.0
 11
710.250992479966
 21
66.52681201337471
 31
0.0
  0
ARC
  5
E3
  8
0
  6
CONTINUOUS
 62
     7
 10
710.250992479966
 20
66.8268120133747
 30
0.0
 40
0.2999999999999947
 50
185.0000000000001
 51
270.0
  0
LINE
  5
E4
  8
0
  6
CONTINUOUS
 62
     7
 10
709.9521340705386
 20
66.80066529055041
 30
0.0
 11
709.7421612780763
 21
69.2006652905504
 31
0.0
  0
ARC
  5
E5
  8
0
  6
CONTINUOUS
 62
     7
 10
710.0410196875039
 20
69.22681201337471
 30
0.0
 40
0.3000000000000372
 50
90.0
 51
184.9999999999998
  0
LINE
  5
E6
  8
0
  6
CONTINUOUS
 62
     7
 10
710.0410196875039
 20
69.52681201337471
 30
0.0
 11
711.1760931277609
 21
69.52681201337471
 31
0.0
  0
ARC
  5
E7
  8
0
  6
CONTINUOUS
 62
     7
 10
711.1760931277609
 20
69.22681201337471
 30
0.0
 40
0.2999999999999947
 50
0.0
 51
90.0
  0
LINE
  5
E8
  8
0
  6
CONTINUOUS
 62
     7
 10
711.4760931277608
 20
69.22681201337471
 30
0.0
 11
711.4760931277608
 21
68.8268120133747
 31
0.0
  0
ARC
  5
E9
  8
0
  6
CONTINUOUS
 62
     7
 10
711.7760931277608
 20
68.8268120133747
 30
0.0
 40
0.299999999999967
 50
180.0
 51
270.0
  0
LINE
  5
EA
  8
0
  6
CONTINUOUS
 62
     7
 10
711.7760931277608
 20
68.52681201337471
 30
0.0
 11
714.5459661088386
 21
68.52681201337471
 31
0.0
  0
ARC
  5
EB
  8
0
  6
CONTINUOUS
 62
     7
 10
714.5459661088386
 20
68.8268120133747
 30
0.0
 40
0.2999999999999947
 50
270.0
 51
299.9999999999995
  0
LINE
  5
EC
  8
0
  6
CONTINUOUS
 62
     7
 10
714.6959661088385
 20
68.56700439223938
 30
0.0
 11
720.6590442747571
 21
72.00978917653119
 31
0.0
  0
ARC
  5
ED
  8
0
  6
CONTINUOUS
 62
     7
 10
720.5090442747571
 20
72.26959679766652
 30
0.0
 40
0.2999999999999977
 50
300.0000000000004
 51
45.00000000000011
  0
LINE
  5
EE
  8
0
  6
CONTINUOUS
 62
     7
 10
720.721176309113
 20
72.48172883202247
 30
0.0
 11
717.1497475310317
 21
76.05315761010377
 31
0.0
  0
ARC
  5
EF
  8
0
  6
CONTINUOUS
 62
     7
 10
718.7760931277608
 20
77.67950320683282
 30
0.0
 40
2.299999999999976
 50
180.0000000000002
 51
225.0000000000002
  0
LINE
  5
F0
  8
0
  6
CONTINUOUS
 62
     7
 10
716.4760931277608
 20
77.67950320683282
 30
0.0
 11
716.4760931277608
 21
85.22681201337471
 31
0.0
  0
LINE
  5
F1
  8
0
  6
CONTINUOUS
 62
     7
 10
716.4760931277608
 20
85.22681201337471
 30
0.0
 11
717.2760931277609
 21
86.02681201337472
 31
0.0
  0
LINE
  5
F2
  8
0
  6
CONTINUOUS
 62
     7
 10
717.2760931277609
 20
86.02681201337472
 30
0.0
 11
717.2760931277609
 21
88.02681201337471
 31
0.0
  0
ARC
  5
F3
  8
0
  6
CONTINUOUS
 62
     7
 10
723.4760931277608
 20
88.0268120133747
 30
0.0
 40
6.199999999999983
 50
130.0052008848603
 51
179.9999999999999
  0
ARC
  5
F4
  8
0
  6
CONTINUOUS
 62
     7
 10
723.4760931277608
 20
88.02681201337471
 30
0.0
 40
5.000000000000006
 50
130.0052008848602
 51
179.9999999999999
  0
LINE
  5
F5
  8
0
  6
CONTINUOUS
 62
     7
 10
718.4760931277608
 20
88.02681201337472
 30
0.0
 11
718.4760931277608
 21
80.86261828201634
 31
0.0
  0
ARC
  5
F6
  8
0
  6
CONTINUOUS
 62
     7
 10
718.9760931277608
 20
80.86261828201633
 30
0.0
 40
0.4999999999999449
 50
179.9999999999998
 51
248.1671059737782
  0
ARC
  5
F7
  8
0
  6
CONTINUOUS
 62
     7
 10
727.9760931277608
 20
103.3268120133748
 30
0.0
 40
24.70000000000006
 50
248.1671059737782
 51
268.6410794087695
  0
ARC
  5
F8
  8
0
  6
CONTINUOUS
 62
     7
 10
727.3760931277609
 20
78.03392763851544
 30
0.0
 40
0.5999999999999946
 50
268.6410794087697
 51
88.64107940876966
  0
ARC
  5
F9
  8
0
  6
CONTINUOUS
 62
     7
 10
727.9760931277608
 20
103.3268120133748
 30
0.0
 40
25.90000000000007
 50
253.4981267477343
 51
268.6410794087694
  0
ARC
  5
FA
  8
0
  6
CONTINUOUS
 62
     7
 10
720.6760931277609
 20
78.68538348335642
 30
0.0
 40
0.2000000000000319
 50
180.0
 51
253.4981267477343
  0
LINE
  5
FB
  8
0
  6
CONTINUOUS
 62
     7
 10
720.4760931277608
 20
78.68538348335642
 30
0.0
 11
720.4760931277608
 21
79.12206041374037
 31
0.0
  0
ARC
  5
FC
  8
0
  6
CONTINUOUS
 62
     7
 10
720.2760931277608
 20
79.12206041374037
 30
0.0
 40
0.200000000000089
 50
0.0
 51
72.35312562913852
  0
ARC
  5
FD
  8
0
  6
CONTINUOUS
 62
     7
 10
727.9760931277608
 20
103.3268120133747
 30
0.0
 40
25.20000000000005
 50
248.5221362409925
 51
252.353125629139
  0
ARC
  5
FE
  8
0
  6
CONTINUOUS
 62
     7
 10
718.6760931277609
 20
79.69061096498284
 30
0.0
 40
0.2000000000000011
 50
68.52213624099204
 51
180.0
  0
LINE
  5
FF
  8
0
  6
CONTINUOUS
 62
     7
 10
718.4760931277608
 20
79.69061096498284
 30
0.0
 11
718.4760931277608
 21
77.67950320683282
 31
0.0
  0
ARC
  5
100
  8
0
  6
CONTINUOUS
 62
     7
 10
718.7760931277608
 20
77.67950320683282
 30
0.0
 40
0.299999999999967
 50
180.0000000000003
 51
224.9999999999998
  0
LINE
  5
101
  8
0
  6
CONTINUOUS
 62
     7
 10
718.5639610934048
 20
77.46737117247687
 30
0.0
 11
723.116652286863
 21
72.91467997901874
 31
0.0
  0
ARC
  5
102
  8
0
  6
CONTINUOUS
 62
     7
 10
723.3287843212189
 20
73.1268120133747
 30
0.0
 40
0.3000000000000126
 50
224.9999999999999
 51
270.0
  0
LINE
  5
103
  8
0
  6
CONTINUOUS
 62
     7
 10
723.3287843212189
 20
72.8268120133747
 30
0.0
 11
726.4260931277609
 21
72.8268120133747
 31
0.0
  0
ARC
  5
104
  8
0
  6
CONTINUOUS
 62
     7
 10
726.4260931277609
 20
72.52681201337471
 30
0.0
 40
0.2999999999999947
 50
0.0
 51
90.0
  0
LINE
  5
105
  8
0
  6
CONTINUOUS
 62
     7
 10
726.7260931277608
 20
72.52681201337471
 30
0.0
 11
726.7260931277608
 21
68.8268120133747
 31
0.0
  0
LINE
  5
106
  8
0
  6
CONTINUOUS
 62
     7
 10
726.7260931277608
 20
68.8268120133747
 30
0.0
 11
730.4760931277608
 21
68.8268120133747
 31
0.0
  0
LINE
  5
107
  8
0
  6
CONTINUOUS
 62
     7
 10
730.4760931277608
 20
68.8268120133747
 30
0.0
 11
730.9760931277608
 21
68.3268120133747
 31
0.0
  0
LINE
  5
108
  8
0
  6
CONTINUOUS
 62
     7
 10
730.9760931277608
 20
68.3268120133747
 30
0.0
 11
731.4760931277608
 21
68.8268120133747
 31
0.0
  0
LINE
  5
109
  8
0
  6
CONTINUOUS
 62
     7
 10
731.4760931277608
 20
68.8268120133747
 30
0.0
 11
737.9760931277608
 21
68.8268120133747
 31
0.0
  0
LINE
  5
10A
  8
0
  6
CONTINUOUS
 62
     7
 10
737.9760931277608
 20
68.8268120133747
 30
0.0
 11
737.9760931277608
 21
72.72681201337471
 31
0.0
  0
ARC
  5
10B
  8
0
  6
CONTINUOUS
 62
     7
 10
738.2760931277608
 20
72.7268120133747
 30
0.0
 40
0.299999999999967
 50
90.0
 51
179.9999999999996
  0
LINE
  5
10C
  8
0
  6
CONTINUOUS
 62
     7
 10
738.2760931277608
 20
73.02681201337471
 30
0.0
 11
740.9760931277608
 21
73.02681201337471
 31
0.0
  0
LINE
  5
10D
  8
0
  6
CONTINUOUS
 62
     7
 10
740.9760931277608
 20
73.02681201337471
 30
0.0
 11
740.9760931277608
 21
75.85696353239119
 31
0.0
  0
ARC
  5
10E
  8
0
  6
CONTINUOUS
 62
     7
 10
743.0760931277608
 20
75.8569635323912
 30
0.0
 40
2.099999999999991
 50
134.9999999999999
 51
180.0000000000004
  0
LINE
  5
10F
  8
0
  6
CONTINUOUS
 62
     7
 10
741.5911688872691
 20
77.34188777288294
 30
0.0
 11
746.0882251621168
 21
81.83894404773068
 31
0.0
  0
ARC
  5
110
  8
0
  6
CONTINUOUS
 62
     7
 10
745.8760931277608
 20
82.05107608208662
 30
0.0
 40
0.3000000000000225
 50
315.0000000000005
 51
0.0
  0
LINE
  5
111
  8
0
  6
CONTINUOUS
 62
     7
 10
746.1760931277607
 20
82.05107608208662
 30
0.0
 11
746.1760931277607
 21
92.42681201337469
 31
0.0
  0
LINE
  5
112
  8
0
  6
CONTINUOUS
 62
     7
 10
746.1760931277607
 20
92.42681201337469
 30
0.0
 11
746.7760931277608
 21
93.02681201337471
 31
0.0
  0
LINE
  5
113
  8
0
  6
CONTINUOUS
 62
     7
 10
746.7760931277608
 20
93.02681201337471
 30
0.0
 11
746.7760931277608
 21
95.69542802960396
 31
0.0
  0
ARC
  5
114
  8
0
  6
CONTINUOUS
 62
     7
 10
745.6447091439901
 20
95.69542802960399
 30
0.0
 40
1.131383983770773
 50
359.9999999999993
 51
164.9999999999997
  0
LINE
  5
115
  8
0
  6
CONTINUOUS
 62
     7
 10
744.5518761346161
 20
95.9882517519278
 30
0.0
 11
743.195079276237
 21
90.92461694090741
 31
0.0
  0
ARC
  5
116
  8
0
  6
CONTINUOUS
 62
     7
 10
743.4848570241238
 20
90.84697122737667
 30
0.0
 40
0.3000000000000206
 50
165.0000000000004
 51
191.7919993652666
  0
ARC
  5
117
  8
0
  6
CONTINUOUS
 62
     7
 10
729.9760931277608
 20
88.02681201337471
 30
0.0
 40
13.50000000000001
 50
325.345430907253
 51
11.79199936526691
  0
ARC
  5
118
  8
0
  6
CONTINUOUS
 62
     7
 10
740.4641816094623
 20
80.77681201337472
 30
0.0
 40
0.7499999999999719
 50
145.3454309072529
 51
325.3454309072533
  0
ARC
  5
119
  8
0
  6
CONTINUOUS
 62
     7
 10
729.9760931277608
 20
88.02681201337471
 30
0.0
 40
11.99999999999999
 50
325.345430907253
 51
42.0365237087226
  0
ARC
  5
11A
  8
0
  6
CONTINUOUS
 62
     7
 10
740.2256033384276
 20
97.26734990039384
 30
0.0
 40
1.800000000000034
 50
150.0000000000001
 51
222.0365237087228
  0
LINE
  5
11B
  8
0
  6
CONTINUOUS
 62
     7
 10
738.6667576116157
 20
98.16734990039384
 30
0.0
 11
740.1011624813366
 21
100.6518120133747
 31
0.0
  0
ARC
  5
11C
  8
0
  6
CONTINUOUS
 62
     7
 10
740.7506815341749
 20
100.2768120133747
 30
0.0
 40
0.7499999999999617
 50
329.9999999999999
 51
150.0000000000001
  0
LINE
  5
11D
  8
0
  6
CONTINUOUS
 62
     7
 10
741.4002005870133
 20
99.90181201337472
 30
0.0
 11
739.9657957172924
 21
97.41734990039383
 31
0.0
  0
ARC
  5
11E
  8
0
  6
CONTINUOUS
 62
     7
 10
740.2256033384276
 20
97.26734990039382
 30
0.0
 40
0.2999999999999805
 50
150.0000000000005
 51
222.0365237087224
  0
ARC
  5
11F
  8
0
  6
CONTINUOUS
 62
     7
 10
729.9760931277608
 20
88.0268120133747
 30
0.0
 40
13.50000000000004
 50
25.34023127328726
 51
42.0365237087226
  0
ARC
  5
120
  8
0
  6
CONTINUOUS
 62
     7
 10
742.4482881738597
 20
93.93310956192946
 30
0.0
 40
0.2999999999999449
 50
205.3402312732872
 51
344.9999999999998
  0
LINE
  5
121
  8
0
  6
CONTINUOUS
 62
     7
 10
742.7380659217465
 20
93.8554638483987
 30
0.0
 11
743.3927651430691
 21
96.29883460605083
 31
0.0
  0
ARC
  5
122
  8
0
  6
CONTINUOUS
 62
     7
 10
745.6447091439901
 20
95.69542802960399
 30
0.0
 40
2.331383983770766
 50
359.9999999999997
 51
164.9999999999999
  0
LINE
  5
123
  8
0
  6
CONTINUOUS
 62
     7
 10
747.9760931277608
 20
95.69542802960396
 30
0.0
 11
747.9760931277608
 21
93.32681201337469
 31
0.0
  0
LINE
  5
124
  8
0
  6
CONTINUOUS
 62
     7
 10
747.9760931277608
 20
93.32681201337469
 30
0.0
 11
748.2760931277608
 21
93.02681201337471
 31
0.0
  0
LINE
  5
125
  8
0
  6
CONTINUOUS
 62
     7
 10
748.2760931277608
 20
93.02681201337471
 30
0.0
 11
747.9760931277608
 21
92.7268120133747
 31
0.0
  0
LINE
  5
126
  8
0
  6
CONTINUOUS
 62
     7
 10
747.9760931277608
 20
92.7268120133747
 30
0.0
 11
747.9760931277608
 21
91.5268120133747
 31
0.0
  0
LINE
  5
127
  8
0
  6
CONTINUOUS
 62
     7
 10
747.9760931277608
 20
91.5268120133747
 30
0.0
 11
748.2760931277608
 21
91.22681201337471
 31
0.0
  0
LINE
  5
128
  8
0
  6
CONTINUOUS
 62
     7
 10
748.2760931277608
 20
91.22681201337471
 30
0.0
 11
747.9760931277608
 21
90.92681201337469
 31
0.0
  0
LINE
  5
129
  8
0
  6
CONTINUOUS
 62
     7
 10
747.9760931277608
 20
90.92681201337469
 30
0.0
 11
747.9760931277608
 21
89.72681201337471
 31
0.0
  0
LINE
  5
12A
  8
0
  6
CONTINUOUS
 62
     7
 10
747.9760931277608
 20
89.72681201337471
 30
0.0
 11
748.2760931277608
 21
89.42681201337471
 31
0.0
  0
LINE
  5
12B
  8
0
  6
CONTINUOUS
 62
     7
 10
748.2760931277608
 20
89.42681201337471
 30
0.0
 11
747.9760931277608
 21
89.12681201337469
 31
0.0
  0
LINE
  5
12C
  8
0
  6
CONTINUOUS
 62
     7
 10
747.9760931277608
 20
89.12681201337469
 30
0.0
 11
747.9760931277608
 21
87.9268120133747
 31
0.0
  0
LINE
  5
12D
  8
0
  6
CONTINUOUS
 62
     7
 10
747.9760931277608
 20
87.9268120133747
 30
0.0
 11
748.2760931277608
 21
87.6268120133747
 31
0.0
  0
LINE
  5
12E
  8
0
  6
CONTINUOUS
 62
     7
 10
748.2760931277608
 20
87.6268120133747
 30
0.0
 11
747.9760931277608
 21
87.32681201337469
 31
0.0
  0
LINE
  5
12F
  8
0
  6
CONTINUOUS
 62
     7
 10
747.9760931277608
 20
87.32681201337469
 30
0.0
 11
747.9760931277608
 21
86.1268120133747
 31
0.0
  0
LINE
  5
130
  8
0
  6
CONTINUOUS
 62
     7
 10
747.9760931277608
 20
86.1268120133747
 30
0.0
 11
748.2760931277608
 21
85.8268120133747
 31
0.0
  0
LINE
  5
131
  8
0
  6
CONTINUOUS
 62
     7
 10
748.2760931277608
 20
85.8268120133747
 30
0.0
 11
747.9760931277608
 21
85.52681201337468
 31
0.0
  0
LINE
  5
132
  8
0
  6
CONTINUOUS
 62
     7
 10
747.9760931277608
 20
85.52681201337468
 30
0.0
 11
747.9760931277608
 21
82.05107608208662
 31
0.0
  0
ARC
  5
133
  8
0
  6
CONTINUOUS
 62
     7
 10
745.8760931277608
 20
82.05107608208662
 30
0.0
 40
2.099999999999991
 50
314.9999999999998
 51
0.0
  0
LINE
  5
134
  8
0
  6
CONTINUOUS
 62
     7
 10
747.3610173682525
 20
80.56615184159487
 30
0.0
 11
743.435712535532
 21
76.64084700887439
 31
0.0
  0
ARC
  5
135
  8
0
  6
CONTINUOUS
 62
     7
 10
742.9760931277608
 20
76.18122760110313
 30
0.0
 40
0.6500000000000192
 50
45.00000000000109
 51
269.9999999999991
  0
LINE
  5
136
  8
0
  6
CONTINUOUS
 62
     7
 10
742.9760931277608
 20
75.53122760110313
 30
0.0
 11
742.9760931277608
 21
73.0268120133747
 31
0.0
  0
LINE
  5
137
  8
0
  6
CONTINUOUS
 62
     7
 10
742.9760931277608
 20
73.0268120133747
 30
0.0
 11
749.6760931272573
 21
73.02681201337471
 31
0.0
  0
LINE
  5
138
  8
0
  6
CONTINUOUS
 62
     7
 10
749.9760931277608
 20
72.7268120128713
 30
0.0
 11
749.6760931272573
 21
73.02681201337471
 31
0.0
  0
LINE
  5
139
  8
0
  6
CONTINUOUS
 62
     7
 10
749.9760931277608
 20
72.7268120128713
 30
0.0
 11
750.2760931282643
 21
73.02681201337471
 31
0.0
  0
LINE
  5
13A
  8
0
  6
CONTINUOUS
 62
     7
 10
756.9760931277608
 20
73.0268120133747
 30
0.0
 11
750.2760931282643
 21
73.02681201337471
 31
0.0
  0
LINE
  5
13B
  8
0
  6
CONTINUOUS
 62
     7
 10
756.9760931277608
 20
75.53122760110313
 30
0.0
 11
756.9760931277608
 21
73.0268120133747
 31
0.0
  0
ARC
  5
13C
  8
0
  6
CONTINUOUS
 62
     7
 10
756.9760931277608
 20
76.18122760110313
 30
0.0
 40
0.6500000000000192
 50
270.0000000000009
 51
134.9999999999989
  0
LINE
  5
13D
  8
0
  6
CONTINUOUS
 62
     7
 10
752.5911688872691
 20
80.56615184159487
 30
0.0
 11
756.5164737199896
 21
76.64084700887439
 31
0.0
  0
ARC
  5
13E
  8
0
  6
CONTINUOUS
 62
     7
 10
754.0760931277608
 20
82.05107608208662
 30
0.0
 40
2.099999999999991
 50
180.0
 51
225.0000000000001
  0
LINE
  5
13F
  8
0
  6
CONTINUOUS
 62
     7
 10
751.9760931277608
 20
85.52681201337468
 30
0.0
 11
751.9760931277608
 21
82.05107608208662
 31
0.0
  0
LINE
  5
140
  8
0
  6
CONTINUOUS
 62
     7
 10
751.6760931277609
 20
85.8268120133747
 30
0.0
 11
751.9760931277608
 21
85.52681201337468
 31
0.0
  0
LINE
  5
141
  8
0
  6
CONTINUOUS
 62
     7
 10
751.9760931277608
 20
86.1268120133747
 30
0.0
 11
751.6760931277609
 21
85.8268120133747
 31
0.0
  0
LINE
  5
142
  8
0
  6
CONTINUOUS
 62
     7
 10
751.9760931277608
 20
87.32681201337469
 30
0.0
 11
751.9760931277608
 21
86.1268120133747
 31
0.0
  0
LINE
  5
143
  8
0
  6
CONTINUOUS
 62
     7
 10
751.6760931277609
 20
87.6268120133747
 30
0.0
 11
751.9760931277608
 21
87.32681201337469
 31
0.0
  0
LINE
  5
144
  8
0
  6
CONTINUOUS
 62
     7
 10
751.9760931277608
 20
87.9268120133747
 30
0.0
 11
751.6760931277609
 21
87.6268120133747
 31
0.0
  0
LINE
  5
145
  8
0
  6
CONTINUOUS
 62
     7
 10
751.9760931277608
 20
89.12681201337469
 30
0.0
 11
751.9760931277608
 21
87.9268120133747
 31
0.0
  0
LINE
  5
146
  8
0
  6
CONTINUOUS
 62
     7
 10
751.6760931277609
 20
89.42681201337471
 30
0.0
 11
751.9760931277608
 21
89.12681201337469
 31
0.0
  0
LINE
  5
147
  8
0
  6
CONTINUOUS
 62
     7
 10
751.9760931277608
 20
89.72681201337471
 30
0.0
 11
751.6760931277609
 21
89.42681201337471
 31
0.0
  0
LINE
  5
148
  8
0
  6
CONTINUOUS
 62
     7
 10
751.9760931277608
 20
90.92681201337469
 30
0.0
 11
751.9760931277608
 21
89.72681201337471
 31
0.0
  0
LINE
  5
149
  8
0
  6
CONTINUOUS
 62
     7
 10
751.6760931277609
 20
91.22681201337471
 30
0.0
 11
751.9760931277608
 21
90.92681201337469
 31
0.0
  0
LINE
  5
14A
  8
0
  6
CONTINUOUS
 62
     7
 10
751.9760931277608
 20
91.5268120133747
 30
0.0
 11
751.6760931277609
 21
91.22681201337471
 31
0.0
  0
LINE
  5
14B
  8
0
  6
CONTINUOUS
 62
     7
 10
751.9760931277608
 20
92.7268120133747
 30
0.0
 11
751.9760931277608
 21
91.5268120133747
 31
0.0
  0
LINE
  5
14C
  8
0
  6
CONTINUOUS
 62
     7
 10
751.6760931277609
 20
93.02681201337471
 30
0.0
 11
751.9760931277608
 21
92.7268120133747
 31
0.0
  0
LINE
  5
14D
  8
0
  6
CONTINUOUS
 62
     7
 10
751.9760931277608
 20
93.32681201337469
 30
0.0
 11
751.6760931277609
 21
93.02681201337471
 31
0.0
  0
LINE
  5
14E
  8
0
  6
CONTINUOUS
 62
     7
 10
751.9760931277608
 20
95.69542802960396
 30
0.0
 11
751.9760931277608
 21
93.32681201337469
 31
0.0
  0
ARC
  5
14F
  8
0
  6
CONTINUOUS
 62
     7
 10
754.3074771115315
 20
95.69542802960399
 30
0.0
 40
2.331383983770766
 50
15.00000000000012
 51
180.0000000000003
  0
LINE
  5
150
  8
0
  6
CONTINUOUS
 62
     7
 10
757.2141203337751
 20
93.8554638483987
 30
0.0
 11
756.5594211124525
 21
96.29883460605083
 31
0.0
  0
ARC
  5
151
  8
0
  6
CONTINUOUS
 62
     7
 10
757.5038980816619
 20
93.93310956192946
 30
0.0
 40
0.2999999999999449
 50
195.0000000000001
 51
334.6597687267129
  0
ARC
  5
152
  8
0
  6
CONTINUOUS
 62
     7
 10
769.9760931277608
 20
88.0268120133747
 30
0.0
 40
13.50000000000004
 50
137.9634762912774
 51
154.6597687267127
  0
ARC
  5
153
  8
0
  6
CONTINUOUS
 62
     7
 10
759.7265829170939
 20
97.26734990039382
 30
0.0
 40
0.2999999999999805
 50
317.9634762912776
 51
29.99999999999955
  0
LINE
  5
154
  8
0
  6
CONTINUOUS
 62
     7
 10
758.5519856685083
 20
99.90181201337472
 30
0.0
 11
759.9863905382292
 21
97.41734990039383
 31
0.0
  0
ARC
  5
155
  8
0
  6
CONTINUOUS
 62
     7
 10
759.2015047213467
 20
100.2768120133747
 30
0.0
 40
0.7499999999999617
 50
29.99999999999991
 51
210.0000000000001
  0
LINE
  5
156
  8
0
  6
CONTINUOUS
 62
     7
 10
761.2854286439059
 20
98.16734990039384
 30
0.0
 11
759.851023774185
 21
100.6518120133747
 31
0.0
  0
ARC
  5
157
  8
0
  6
CONTINUOUS
 62
     7
 10
759.7265829170939
 20
97.26734990039384
 30
0.0
 40
1.800000000000034
 50
317.9634762912772
 51
29.99999999999988
  0
ARC
  5
158
  8
0
  6
CONTINUOUS
 62
     7
 10
769.9760931277608
 20
88.02681201337471
 30
0.0
 40
11.99999999999999
 50
137.9634762912774
 51
214.654569092747
  0
ARC
  5
159
  8
0
  6
CONTINUOUS
 62
     7
 10
759.4880046460593
 20
80.77681201337472
 30
0.0
 40
0.7499999999999719
 50
214.6545690927466
 51
34.65456909274712
  0
ARC
  5
15A
  8
0
  6
CONTINUOUS
 62
     7
 10
769.9760931277608
 20
88.02681201337471
 30
0.0
 40
13.50000000000001
 50
168.2080006347331
 51
214.654569092747
  0
ARC
  5
15B
  8
0
  6
CONTINUOUS
 62
     7
 10
756.4673292313978
 20
90.84697122737667
 30
0.0
 40
0.3000000000000206
 50
348.2080006347334
 51
14.99999999999966
  0
LINE
  5
15C
  8
0
  6
CONTINUOUS
 62
     7
 10
755.4003101209055
 20
95.9882517519278
 30
0.0
 11
756.7571069792846
 21
90.92461694090741
 31
0.0
  0
ARC
  5
15D
  8
0
  6
CONTINUOUS
 62
     7
 10
754.3074771115315
 20
95.69542802960399
 30
0.0
 40
1.131383983770773
 50
15.00000000000034
 51
180.0000000000007
  0
LINE
  5
15E
  8
0
  6
CONTINUOUS
 62
     7
 10
753.1760931277607
 20
93.02681201337471
 30
0.0
 11
753.1760931277607
 21
95.69542802960396
 31
0.0
  0
LINE
  5
15F
  8
0
  6
CONTINUOUS
 62
     7
 10
753.7760931277609
 20
92.42681201337469
 30
0.0
 11
753.1760931277607
 21
93.02681201337471
 31
0.0
  0
LINE
  5
160
  8
0
  6
CONTINUOUS
 62
     7
 10
753.7760931277609
 20
82.05107608208662
 30
0.0
 11
753.7760931277609
 21
92.42681201337469
 31
0.0
  0
ARC
  5
161
  8
0
  6
CONTINUOUS
 62
     7
 10
754.0760931277608
 20
82.05107608208662
 30
0.0
 40
0.3000000000000225
 50
180.0
 51
224.9999999999995
  0
LINE
  5
162
  8
0
  6
CONTINUOUS
 62
     7
 10
758.3610173682525
 20
77.34188777288294
 30
0.0
 11
753.8639610934048
 21
81.83894404773068
 31
0.0
  0
ARC
  5
163
  8
0
  6
CONTINUOUS
 62
     7
 10
756.8760931277608
 20
75.8569635323912
 30
0.0
 40
2.099999999999991
 50
359.9999999999996
 51
45.00000000000006
  0
LINE
  5
164
  8
0
  6
CONTINUOUS
 62
     7
 10
758.9760931277608
 20
73.02681201337471
 30
0.0
 11
758.9760931277608
 21
75.85696353239119
 31
0.0
  0
LINE
  5
165
  8
0
  6
CONTINUOUS
 62
     7
 10
761.6760931277609
 20
73.02681201337471
 30
0.0
 11
758.9760931277608
 21
73.02681201337471
 31
0.0
  0
ARC
  5
166
  8
0
  6
CONTINUOUS
 62
     7
 10
761.6760931277609
 20
72.7268120133747
 30
0.0
 40
0.299999999999967
 50
0.0000000000003313
 51
90.0
  0
LINE
  5
167
  8
0
  6
CONTINUOUS
 62
     7
 10
761.9760931277608
 20
68.8268120133747
 30
0.0
 11
761.9760931277608
 21
72.72681201337471
 31
0.0
  0
LINE
  5
168
  8
0
  6
CONTINUOUS
 62
     7
 10
768.4760931277608
 20
68.8268120133747
 30
0.0
 11
761.9760931277608
 21
68.8268120133747
 31
0.0
  0
LINE
  5
169
  8
0
  6
CONTINUOUS
 62
     7
 10
768.9760931277608
 20
68.3268120133747
 30
0.0
 11
768.4760931277608
 21
68.8268120133747
 31
0.0
  0
LINE
  5
16A
  8
0
  6
CONTINUOUS
 62
     7
 10
769.4760931277608
 20
68.8268120133747
 30
0.0
 11
768.9760931277608
 21
68.3268120133747
 31
0.0
  0
LINE
  5
16B
  8
0
  6
CONTINUOUS
 62
     7
 10
773.2260931277608
 20
68.8268120133747
 30
0.0
 11
769.4760931277608
 21
68.8268120133747
 31
0.0
  0
LINE
  5
16C
  8
0
  6
CONTINUOUS
 62
     7
 10
773.2260931277608
 20
72.52681201337471
 30
0.0
 11
773.2260931277608
 21
68.8268120133747
 31
0.0
  0
ARC
  5
16D
  8
0
  6
CONTINUOUS
 62
     7
 10
773.5260931277608
 20
72.52681201337471
 30
0.0
 40
0.2999999999999947
 50
90.0
 51
180.0
  0
LINE
  5
16E
  8
0
  6
CONTINUOUS
 62
     7
 10
776.6234019343027
 20
72.8268120133747
 30
0.0
 11
773.5260931277608
 21
72.8268120133747
 31
0.0
  0
ARC
  5
16F
  8
0
  6
CONTINUOUS
 62
     7
 10
776.6234019343027
 20
73.1268120133747
 30
0.0
 40
0.3000000000000126
 50
270.0
 51
315.0000000000001
  0
LINE
  5
170
  8
0
  6
CONTINUOUS
 62
     7
 10
781.3882251621168
 20
77.46737117247687
 30
0.0
 11
776.8355339686586
 21
72.91467997901874
 31
0.0
  0
ARC
  5
171
  8
0
  6
CONTINUOUS
 62
     7
 10
781.1760931277609
 20
77.67950320683282
 30
0.0
 40
0.299999999999967
 50
315.0000000000002
 51
359.9999999999997
  0
LINE
  5
172
  8
0
  6
CONTINUOUS
 62
     7
 10
781.4760931277608
 20
79.69061096498284
 30
0.0
 11
781.4760931277608
 21
77.67950320683282
 31
0.0
  0
ARC
  5
173
  8
0
  6
CONTINUOUS
 62
     7
 10
781.2760931277608
 20
79.69061096498284
 30
0.0
 40
0.2000000000000011
 50
0.0
 51
111.4778637590079
  0
ARC
  5
174
  8
0
  6
CONTINUOUS
 62
     7
 10
771.9760931277608
 20
103.3268120133747
 30
0.0
 40
25.20000000000005
 50
287.646874370861
 51
291.4778637590075
  0
ARC
  5
175
  8
0
  6
CONTINUOUS
 62
     7
 10
779.6760931277609
 20
79.12206041374037
 30
0.0
 40
0.200000000000089
 50
107.6468743708615
 51
180.0
  0
LINE
  5
176
  8
0
  6
CONTINUOUS
 62
     7
 10
779.4760931277608
 20
78.68538348335642
 30
0.0
 11
779.4760931277608
 21
79.12206041374037
 31
0.0
  0
ARC
  5
177
  8
0
  6
CONTINUOUS
 62
     7
 10
779.2760931277608
 20
78.68538348335642
 30
0.0
 40
0.2000000000000319
 50
286.5018732522656
 51
0.0
  0
ARC
  5
178
  8
0
  6
CONTINUOUS
 62
     7
 10
771.9760931277608
 20
103.3268120133748
 30
0.0
 40
25.90000000000007
 50
271.3589205912306
 51
286.5018732522656
  0
ARC
  5
179
  8
0
  6
CONTINUOUS
 62
     7
 10
772.5760931277607
 20
78.03392763851544
 30
0.0
 40
0.5999999999999946
 50
91.35892059123037
 51
271.3589205912303
  0
ARC
  5
17A
  8
0
  6
CONTINUOUS
 62
     7
 10
771.9760931277608
 20
103.3268120133748
 30
0.0
 40
24.70000000000006
 50
271.3589205912305
 51
291.8328940262218
  0
ARC
  5
17B
  8
0
  6
CONTINUOUS
 62
     7
 10
780.9760931277608
 20
80.86261828201633
 30
0.0
 40
0.4999999999999449
 50
291.8328940262218
 51
0.0000000000002274
  0
LINE
  5
17C
  8
0
  6
CONTINUOUS
 62
     7
 10
781.4760931277608
 20
88.02681201337472
 30
0.0
 11
781.4760931277608
 21
80.86261828201634
 31
0.0
  0
ARC
  5
17D
  8
0
  6
CONTINUOUS
 62
     7
 10
776.4760931277608
 20
88.02681201337471
 30
0.0
 40
5.000000000000006
 50
0.0000000000001137
 51
49.99479911513981
  0
LINE
  5
17E
  8
0
  6
CONTINUOUS
 62
     7
 10
780.3948226551986
 20
92.83905600510975
 30
0.0
 11
780.3754070466913
 21
92.85871330499806
 31
0.0
  0
LINE
  5
17F
  8
0
  6
CONTINUOUS
 62
     7
 10
780.3754070466913
 20
92.85871330499806
 30
0.0
 11
780.3555098013433
 21
92.87728429201614
 31
0.0
  0
LINE
  5
180
  8
0
  6
CONTINUOUS
 62
     7
 10
780.3555098013433
 20
92.87728429201614
 30
0.0
 11
780.3351309191547
 21
92.89476896616397
 31
0.0
  0
LINE
  5
181
  8
0
  6
CONTINUOUS
 62
     7
 10
780.3351309191547
 20
92.89476896616397
 30
0.0
 11
780.3142704001257
 21
92.91116732744155
 31
0.0
  0
LINE
  5
182
  8
0
  6
CONTINUOUS
 62
     7
 10
780.3142704001257
 20
92.91116732744155
 30
0.0
 11
780.292928244256
 21
92.92647937584887
 31
0.0
  0
LINE
  5
183
  8
0
  6
CONTINUOUS
 62
     7
 10
780.292928244256
 20
92.92647937584887
 30
0.0
 11
780.2714983856672
 21
92.94046060641587
 31
0.0
  0
LINE
  5
184
  8
0
  6
CONTINUOUS
 62
     7
 10
780.2714983856672
 20
92.94046060641587
 30
0.0
 11
780.2496039379704
 21
92.95339397460006
 31
0.0
  0
LINE
  5
185
  8
0
  6
CONTINUOUS
 62
     7
 10
780.2496039379704
 20
92.95339397460006
 30
0.0
 11
780.2272449011656
 21
92.96527948040142
 31
0.0
  0
LINE
  5
186
  8
0
  6
CONTINUOUS
 62
     7
 10
780.2272449011656
 20
92.96527948040142
 30
0.0
 11
780.2044212752528
 21
92.97611712381999
 31
0.0
  0
LINE
  5
187
  8
0
  6
CONTINUOUS
 62
     7
 10
780.2044212752528
 20
92.97611712381999
 30
0.0
 11
780.1807053378118
 21
92.98607520165251
 31
0.0
  0
LINE
  5
188
  8
0
  6
CONTINUOUS
 62
     7
 10
780.1807053378118
 20
92.98607520165251
 30
0.0
 11
780.1565077635302
 21
92.99494696661478
 31
0.0
  0
LINE
  5
189
  8
0
  6
CONTINUOUS
 62
     7
 10
780.1565077635302
 20
92.99494696661478
 30
0.0
 11
780.131828552408
 21
93.00273241870681
 31
0.0
  0
LINE
  5
18A
  8
0
  6
CONTINUOUS
 62
     7
 10
780.131828552408
 20
93.00273241870681
 30
0.0
 11
780.1066677044454
 21
93.00943155792858
 31
0.0
  0
LINE
  5
18B
  8
0
  6
CONTINUOUS
 62
     7
 10
780.1066677044454
 20
93.00943155792858
 30
0.0
 11
780.081025219642
 21
93.0150443842801
 31
0.0
  0
LINE
  5
18C
  8
0
  6
CONTINUOUS
 62
     7
 10
780.081025219642
 20
93.0150443842801
 30
0.0
 11
780.0553718237078
 21
93.01949959318516
 31
0.0
  0
LINE
  5
18D
  8
0
  6
CONTINUOUS
 62
     7
 10
780.0553718237078
 20
93.01949959318516
 30
0.0
 11
780.0292538386655
 21
93.0229069397074
 31
0.0
  0
LINE
  5
18E
  8
0
  6
CONTINUOUS
 62
     7
 10
780.0292538386655
 20
93.0229069397074
 30
0.0
 11
780.0026712645151
 21
93.02526642384683
 31
0.0
  0
LINE
  5
18F
  8
0
  6
CONTINUOUS
 62
     7
 10
780.0026712645151
 20
93.02526642384683
 30
0.0
 11
779.9756241012568
 21
93.02657804560343
 31
0.0
  0
LINE
  5
190
  8
0
  6
CONTINUOUS
 62
     7
 10
779.9756241012568
 20
93.02657804560343
 30
0.0
 11
779.9480995539558
 21
93.02682114846226
 31
0.0
  0
LINE
  5
191
  8
0
  6
CONTINUOUS
 62
     7
 10
779.9480995539558
 20
93.02682114846226
 30
0.0
 11
779.9209922950669
 21
93.02594887291318
 31
0.0
  0
LINE
  5
192
  8
0
  6
CONTINUOUS
 62
     7
 10
779.9209922950669
 20
93.02594887291318
 30
0.0
 11
779.8943023245901
 21
93.02396121895619
 31
0.0
  0
LINE
  5
193
  8
0
  6
CONTINUOUS
 62
     7
 10
779.8943023245901
 20
93.02396121895619
 30
0.0
 11
779.8680296425257
 21
93.02085818659128
 31
0.0
  0
LINE
  5
194
  8
0
  6
CONTINUOUS
 62
     7
 10
779.8680296425257
 20
93.02085818659128
 30
0.0
 11
779.8421742488733
 21
93.01663977581846
 31
0.0
  0
LINE
  5
195
  8
0
  6
CONTINUOUS
 62
     7
 10
779.8421742488733
 20
93.01663977581846
 30
0.0
 11
779.817186736255
 21
93.01141101377434
 31
0.0
  0
LINE
  5
196
  8
0
  6
CONTINUOUS
 62
     7
 10
779.817186736255
 20
93.01141101377434
 30
0.0
 11
779.7926017419553
 21
93.00510635259629
 31
0.0
  0
LINE
  5
197
  8
0
  6
CONTINUOUS
 62
     7
 10
779.7926017419553
 20
93.00510635259629
 30
0.0
 11
779.7684192659741
 21
92.99772579228433
 31
0.0
  0
LINE
  5
198
  8
0
  6
CONTINUOUS
 62
     7
 10
779.7684192659741
 20
92.99772579228433
 30
0.0
 11
779.7446393083113
 21
92.98926933283846
 31
0.0
  0
LINE
  5
199
  8
0
  6
CONTINUOUS
 62
     7
 10
779.7446393083113
 20
92.98926933283846
 30
0.0
 11
779.7208405504049
 21
92.97955369991237
 31
0.0
  0
LINE
  5
19A
  8
0
  6
CONTINUOUS
 62
     7
 10
779.7208405504049
 20
92.97955369991237
 30
0.0
 11
779.6974590809106
 21
92.96872268857837
 31
0.0
  0
LINE
  5
19B
  8
0
  6
CONTINUOUS
 62
     7
 10
779.6974590809106
 20
92.96872268857837
 30
0.0
 11
779.6744948998285
 21
92.95677629883644
 31
0.0
  0
LINE
  5
19C
  8
0
  6
CONTINUOUS
 62
     7
 10
779.6744948998285
 20
92.95677629883644
 30
0.0
 11
779.6519480071585
 21
92.94371453068662
 31
0.0
  0
LINE
  5
19D
  8
0
  6
CONTINUOUS
 62
     7
 10
779.6519480071585
 20
92.94371453068662
 30
0.0
 11
779.6298184029009
 21
92.92953738412888
 31
0.0
  0
LINE
  5
19E
  8
0
  6
CONTINUOUS
 62
     7
 10
779.6298184029009
 20
92.92953738412888
 30
0.0
 11
779.6084901477237
 21
92.91452772086738
 31
0.0
  0
LINE
  5
19F
  8
0
  6
CONTINUOUS
 62
     7
 10
779.6084901477237
 20
92.91452772086738
 30
0.0
 11
779.5875644108651
 21
92.89844215847201
 31
0.0
  0
LINE
  5
1A0
  8
0
  6
CONTINUOUS
 62
     7
 10
779.5875644108651
 20
92.89844215847201
 30
0.0
 11
779.567041192325
 21
92.88128069694271
 31
0.0
  0
LINE
  5
1A1
  8
0
  6
CONTINUOUS
 62
     7
 10
779.567041192325
 20
92.88128069694271
 30
0.0
 11
779.5469204921034
 21
92.8630433362795
 31
0.0
  0
LINE
  5
1A2
  8
0
  6
CONTINUOUS
 62
     7
 10
779.5469204921034
 20
92.8630433362795
 30
0.0
 11
779.5272555108754
 21
92.843748926685
 31
0.0
  0
LINE
  5
1A3
  8
0
  6
CONTINUOUS
 62
     7
 10
779.5272555108754
 20
92.843748926685
 30
0.0
 11
779.5086758806194
 21
92.8239596406624
 31
0.0
  0
LINE
  5
1A4
  8
0
  6
CONTINUOUS
 62
     7
 10
779.5086758806194
 20
92.8239596406624
 30
0.0
 11
779.4911816013355
 21
92.80367547821169
 31
0.0
  0
LINE
  5
1A5
  8
0
  6
CONTINUOUS
 62
     7
 10
779.4911816013355
 20
92.80367547821169
 30
0.0
 11
779.4747726730234
 21
92.78289643933292
 31
0.0
  0
LINE
  5
1A6
  8
0
  6
CONTINUOUS
 62
     7
 10
779.4747726730234
 20
92.78289643933292
 30
0.0
 11
779.4594490956833
 21
92.76162252402604
 31
0.0
  0
LINE
  5
1A7
  8
0
  6
CONTINUOUS
 62
     7
 10
779.4594490956833
 20
92.76162252402604
 30
0.0
 11
779.4454556057709
 21
92.74024680035197
 31
0.0
  0
LINE
  5
1A8
  8
0
  6
CONTINUOUS
 62
     7
 10
779.4454556057709
 20
92.74024680035197
 30
0.0
 11
779.4325090503897
 21
92.71839371660295
 31
0.0
  0
LINE
  5
1A9
  8
0
  6
CONTINUOUS
 62
     7
 10
779.4325090503897
 20
92.71839371660295
 30
0.0
 11
779.4206094295399
 21
92.69606327277901
 31
0.0
  0
LINE
  5
1AA
  8
0
  6
CONTINUOUS
 62
     7
 10
779.4206094295399
 20
92.69606327277901
 30
0.0
 11
779.4097567432215
 21
92.67325546888016
 31
0.0
  0
LINE
  5
1AB
  8
0
  6
CONTINUOUS
 62
     7
 10
779.4097567432215
 20
92.67325546888016
 30
0.0
 11
779.3997823956719
 21
92.64954251974912
 31
0.0
  0
LINE
  5
1AC
  8
0
  6
CONTINUOUS
 62
     7
 10
779.3997823956719
 20
92.64954251974912
 30
0.0
 11
779.3908933990941
 21
92.62533469419
 31
0.0
  0
LINE
  5
1AD
  8
0
  6
CONTINUOUS
 62
     7
 10
779.3908933990941
 20
92.62533469419
 30
0.0
 11
779.3830897534885
 21
92.60063199220279
 31
0.0
  0
LINE
  5
1AE
  8
0
  6
CONTINUOUS
 62
     7
 10
779.3830897534885
 20
92.60063199220279
 30
0.0
 11
779.3763714588548
 21
92.57543441378749
 31
0.0
  0
LINE
  5
1AF
  8
0
  6
CONTINUOUS
 62
     7
 10
779.3763714588548
 20
92.57543441378749
 30
0.0
 11
779.3707385151931
 21
92.5497419589441
 31
0.0
  0
LINE
  5
1B0
  8
0
  6
CONTINUOUS
 62
     7
 10
779.3707385151931
 20
92.5497419589441
 30
0.0
 11
779.3662626119291
 21
92.52402659822522
 31
0.0
  0
LINE
  5
1B1
  8
0
  6
CONTINUOUS
 62
     7
 10
779.3662626119291
 20
92.52402659822522
 30
0.0
 11
779.3628336431963
 21
92.49783387743142
 31
0.0
  0
LINE
  5
1B2
  8
0
  6
CONTINUOUS
 62
     7
 10
779.3628336431963
 20
92.49783387743142
 30
0.0
 11
779.3604516089948
 21
92.47116379656269
 31
0.0
  0
LINE
  5
1B3
  8
0
  6
CONTINUOUS
 62
     7
 10
779.3604516089948
 20
92.47116379656269
 30
0.0
 11
779.3591165093247
 21
92.44401635561904
 31
0.0
  0
LINE
  5
1B4
  8
0
  6
CONTINUOUS
 62
     7
 10
779.3591165093247
 20
92.44401635561904
 30
0.0
 11
779.3588538165577
 21
92.41647327796211
 31
0.0
  0
LINE
  5
1B5
  8
0
  6
CONTINUOUS
 62
     7
 10
779.3588538165577
 20
92.41647327796211
 30
0.0
 11
779.3597105919378
 21
92.38934473923192
 31
0.0
  0
LINE
  5
1B6
  8
0
  6
CONTINUOUS
 62
     7
 10
779.3597105919378
 20
92.38934473923192
 30
0.0
 11
779.361686835465
 21
92.36263073942851
 31
0.0
  0
LINE
  5
1B7
  8
0
  6
CONTINUOUS
 62
     7
 10
779.361686835465
 20
92.36263073942851
 30
0.0
 11
779.3647825471396
 21
92.33633127855184
 31
0.0
  0
LINE
  5
1B8
  8
0
  6
CONTINUOUS
 62
     7
 10
779.3647825471396
 20
92.33633127855184
 30
0.0
 11
779.3689977269613
 21
92.31044635660193
 31
0.0
  0
LINE
  5
1B9
  8
0
  6
CONTINUOUS
 62
     7
 10
779.3689977269613
 20
92.31044635660193
 30
0.0
 11
779.3742272965948
 21
92.28542716670022
 31
0.0
  0
LINE
  5
1BA
  8
0
  6
CONTINUOUS
 62
     7
 10
779.3742272965948
 20
92.28542716670022
 30
0.0
 11
779.3805367103434
 21
92.26080784295074
 31
0.0
  0
LINE
  5
1BB
  8
0
  6
CONTINUOUS
 62
     7
 10
779.3805367103434
 20
92.26080784295074
 30
0.0
 11
779.3879259682072
 21
92.23658838535349
 31
0.0
  0
LINE
  5
1BC
  8
0
  6
CONTINUOUS
 62
     7
 10
779.3879259682072
 20
92.23658838535349
 30
0.0
 11
779.3963950701863
 21
92.2127687939085
 31
0.0
  0
LINE
  5
1BD
  8
0
  6
CONTINUOUS
 62
     7
 10
779.3963950701863
 20
92.2127687939085
 30
0.0
 11
779.4061276287338
 21
92.18892695666902
 31
0.0
  0
LINE
  5
1BE
  8
0
  6
CONTINUOUS
 62
     7
 10
779.4061276287338
 20
92.18892695666902
 30
0.0
 11
779.4169796554282
 21
92.16549965835632
 31
0.0
  0
LINE
  5
1BF
  8
0
  6
CONTINUOUS
 62
     7
 10
779.4169796554282
 20
92.16549965835632
 30
0.0
 11
779.42895115027
 21
92.14248689897036
 31
0.0
  0
LINE
  5
1C0
  8
0
  6
CONTINUOUS
 62
     7
 10
779.42895115027
 20
92.14248689897036
 30
0.0
 11
779.4420421132589
 21
92.11988867851116
 31
0.0
  0
LINE
  5
1C1
  8
0
  6
CONTINUOUS
 62
     7
 10
779.4420421132589
 20
92.11988867851116
 30
0.0
 11
779.4562525443952
 21
92.0977049969787
 31
0.0
  0
LINE
  5
1C2
  8
0
  6
CONTINUOUS
 62
     7
 10
779.4562525443952
 20
92.0977049969787
 30
0.0
 11
779.4712988787124
 21
92.07632095391557
 31
0.0
  0
LINE
  5
1C3
  8
0
  6
CONTINUOUS
 62
     7
 10
779.4712988787124
 20
92.07632095391557
 30
0.0
 11
779.4874250571448
 21
92.05533677700467
 31
0.0
  0
LINE
  5
1C4
  8
0
  6
CONTINUOUS
 62
     7
 10
779.4874250571448
 20
92.05533677700467
 30
0.0
 11
779.5046310796926
 21
92.03475246624602
 31
0.0
  0
LINE
  5
1C5
  8
0
  6
CONTINUOUS
 62
     7
 10
779.5046310796926
 20
92.03475246624602
 30
0.0
 11
779.5229169463554
 21
92.0145680216396
 31
0.0
  0
ARC
  5
1C6
  8
0
  6
CONTINUOUS
 62
     7
 10
780.9760931277608
 20
93.38871466075652
 30
0.0
 40
2.000000000000041
 50
223.3988809257677
 51
229.9947991151398
  0
ARC
  5
1C7
  8
0
  6
CONTINUOUS
 62
     7
 10
780.9760931277608
 20
93.38871466075652
 30
0.0
 40
0.8000000000000488
 50
223.398880925768
 51
229.9947991151396
  0
ARC
  5
1C8
  8
0
  6
CONTINUOUS
 62
     7
 10
718.9760931277608
 20
93.38871466075652
 30
0.0
 40
2.000000000000041
 50
310.0052008848602
 51
316.6011190742325
  0
ARC
  5
1C9
  8
0
  6
CONTINUOUS
 62
     7
 10
718.9760931277608
 20
93.38871466075652
 30
0.0
 40
0.8000000000000488
 50
310.0052008848604
 51
316.601119074233
  0
LINE
  5
1CA
  8
0
  6
CONTINUOUS
 62
     7
 10
720.4292693091662
 20
92.01456802163962
 30
0.0
 11
720.4478113500724
 21
92.03505138102291
 31
0.0
  0
LINE
  5
1CB
  8
0
  6
CONTINUOUS
 62
     7
 10
720.4478113500724
 20
92.03505138102291
 30
0.0
 11
720.4652418698178
 21
92.055954943223
 31
0.0
  0
LINE
  5
1CC
  8
0
  6
CONTINUOUS
 62
     7
 10
720.4652418698178
 20
92.055954943223
 30
0.0
 11
720.4815608684023
 21
92.07727870823983
 31
0.0
  0
LINE
  5
1CD
  8
0
  6
CONTINUOUS
 62
     7
 10
720.4815608684023
 20
92.07727870823983
 30
0.0
 11
720.496768345826
 21
92.09902267607345
 31
0.0
  0
LINE
  5
1CE
  8
0
  6
CONTINUOUS
 62
     7
 10
720.496768345826
 20
92.09902267607345
 30
0.0
 11
720.5108643020889
 21
92.12118684672383
 31
0.0
  0
LINE
  5
1CF
  8
0
  6
CONTINUOUS
 62
     7
 10
720.5108643020889
 20
92.12118684672383
 30
0.0
 11
720.5236266193549
 21
92.14336424299341
 31
0.0
  0
LINE
  5
1D0
  8
0
  6
CONTINUOUS
 62
     7
 10
720.5236266193549
 20
92.14336424299341
 30
0.0
 11
720.5353167582051
 21
92.16594696882956
 31
0.0
  0
LINE
  5
1D1
  8
0
  6
CONTINUOUS
 62
     7
 10
720.5353167582051
 20
92.16594696882956
 30
0.0
 11
720.5459347186398
 21
92.18893502423225
 31
0.0
  0
LINE
  5
1D2
  8
0
  6
CONTINUOUS
 62
     7
 10
720.5459347186398
 20
92.18893502423225
 30
0.0
 11
720.5554805006589
 21
92.21232840920153
 31
0.0
  0
LINE
  5
1D3
  8
0
  6
CONTINUOUS
 62
     7
 10
720.5554805006589
 20
92.21232840920153
 30
0.0
 11
720.5640982454862
 21
92.23656357944887
 31
0.0
  0
LINE
  5
1D4
  8
0
  6
CONTINUOUS
 62
     7
 10
720.5640982454862
 20
92.23656357944887
 30
0.0
 11
720.5716044691526
 21
92.26121895251299
 31
0.0
  0
LINE
  5
1D5
  8
0
  6
CONTINUOUS
 62
     7
 10
720.5716044691526
 20
92.26121895251299
 30
0.0
 11
720.5779991716582
 21
92.28629452839388
 31
0.0
  0
LINE
  5
1D6
  8
0
  6
CONTINUOUS
 62
     7
 10
720.5779991716582
 20
92.28629452839388
 30
0.0
 11
720.5832823530029
 21
92.31179030709156
 31
0.0
  0
LINE
  5
1D7
  8
0
  6
CONTINUOUS
 62
     7
 10
720.5832823530029
 20
92.31179030709156
 30
0.0
 11
720.5874540131869
 21
92.33770628860599
 31
0.0
  0
LINE
  5
1D8
  8
0
  6
CONTINUOUS
 62
     7
 10
720.5874540131869
 20
92.33770628860599
 30
0.0
 11
720.5904692539467
 21
92.36356849911704
 31
0.0
  0
LINE
  5
1D9
  8
0
  6
CONTINUOUS
 62
     7
 10
720.5904692539467
 20
92.36356849911704
 30
0.0
 11
720.592412316291
 21
92.38983603919466
 31
0.0
  0
LINE
  5
1DA
  8
0
  6
CONTINUOUS
 62
     7
 10
720.592412316291
 20
92.38983603919466
 30
0.0
 11
720.5932832002195
 21
92.41650890883885
 31
0.0
  0
LINE
  5
1DB
  8
0
  6
CONTINUOUS
 62
     7
 10
720.5932832002195
 20
92.41650890883885
 30
0.0
 11
720.5930819057323
 21
92.44358710804957
 31
0.0
  0
LINE
  5
1DC
  8
0
  6
CONTINUOUS
 62
     7
 10
720.5930819057323
 20
92.44358710804957
 30
0.0
 11
720.5917870938365
 21
92.4710822578998
 31
0.0
  0
LINE
  5
1DD
  8
0
  6
CONTINUOUS
 62
     7
 10
720.5917870938365
 20
92.4710822578998
 30
0.0
 11
720.5894019550459
 21
92.49809846529563
 31
0.0
  0
LINE
  5
1DE
  8
0
  6
CONTINUOUS
 62
     7
 10
720.5894019550459
 20
92.49809846529563
 30
0.0
 11
720.5859264893606
 21
92.52463573023705
 31
0.0
  0
LINE
  5
1DF
  8
0
  6
CONTINUOUS
 62
     7
 10
720.5859264893606
 20
92.52463573023705
 30
0.0
 11
720.5813606967807
 21
92.55069405272408
 31
0.0
  0
LINE
  5
1E0
  8
0
  6
CONTINUOUS
 62
     7
 10
720.5813606967807
 20
92.55069405272408
 30
0.0
 11
720.5757045773063
 21
92.57627343275671
 31
0.0
  0
LINE
  5
1E1
  8
0
  6
CONTINUOUS
 62
     7
 10
720.5757045773063
 20
92.57627343275671
 30
0.0
 11
720.5690881644149
 21
92.60092984814524
 31
0.0
  0
LINE
  5
1E2
  8
0
  6
CONTINUOUS
 62
     7
 10
720.5690881644149
 20
92.60092984814524
 30
0.0
 11
720.5614200171942
 21
92.62512427344305
 31
0.0
  0
LINE
  5
1E3
  8
0
  6
CONTINUOUS
 62
     7
 10
720.5614200171942
 20
92.62512427344305
 30
0.0
 11
720.5527001356444
 21
92.64885670865011
 31
0.0
  0
LINE
  5
1E4
  8
0
  6
CONTINUOUS
 62
     7
 10
720.5527001356444
 20
92.64885670865011
 30
0.0
 11
720.5429285197653
 21
92.67212715376644
 31
0.0
  0
LINE
  5
1E5
  8
0
  6
CONTINUOUS
 62
     7
 10
720.5429285197653
 20
92.67212715376644
 30
0.0
 11
720.53189864631
 21
92.69534603170239
 31
0.0
  0
LINE
  5
1E6
  8
0
  6
CONTINUOUS
 62
     7
 10
720.53189864631
 20
92.69534603170239
 30
0.0
 11
720.5197784459598
 21
92.71808596718395
 31
0.0
  0
LINE
  5
1E7
  8
0
  6
CONTINUOUS
 62
     7
 10
720.5197784459598
 20
92.71808596718395
 30
0.0
 11
720.5065679187152
 21
92.7403469602111
 31
0.0
  0
LINE
  5
1E8
  8
0
  6
CONTINUOUS
 62
     7
 10
720.5065679187152
 20
92.7403469602111
 30
0.0
 11
720.4922670645757
 21
92.76212901078387
 31
0.0
  0
LINE
  5
1E9
  8
0
  6
CONTINUOUS
 62
     7
 10
720.4922670645757
 20
92.76212901078387
 30
0.0
 11
720.4768758835417
 21
92.78343211890223
 31
0.0
  0
LINE
  5
1EA
  8
0
  6
CONTINUOUS
 62
     7
 10
720.4768758835417
 20
92.78343211890223
 30
0.0
 11
720.4606982494756
 21
92.80388862437496
 31
0.0
  0
LINE
  5
1EB
  8
0
  6
CONTINUOUS
 62
     7
 10
720.4606982494756
 20
92.80388862437496
 30
0.0
 11
720.4434688810805
 21
92.82388313975696
 31
0.0
  0
LINE
  5
1EC
  8
0
  6
CONTINUOUS
 62
     7
 10
720.4434688810805
 20
92.82388313975696
 30
0.0
 11
720.4251877783562
 21
92.84341566504824
 31
0.0
  0
LINE
  5
1ED
  8
0
  6
CONTINUOUS
 62
     7
 10
720.4251877783562
 20
92.84341566504824
 30
0.0
 11
720.4058549413026
 21
92.86248620024875
 31
0.0
  0
LINE
  5
1EE
  8
0
  6
CONTINUOUS
 62
     7
 10
720.4058549413026
 20
92.86248620024875
 30
0.0
 11
720.3854921625065
 21
92.88104268073346
 31
0.0
  0
LINE
  5
1EF
  8
0
  6
CONTINUOUS
 62
     7
 10
720.3854921625065
 20
92.88104268073346
 30
0.0
 11
720.3646959082465
 21
92.89848786088363
 31
0.0
  0
LINE
  5
1F0
  8
0
  6
CONTINUOUS
 62
     7
 10
720.3646959082465
 20
92.89848786088363
 30
0.0
 11
720.3434661785225
 21
92.91482174069924
 31
0.0
  0
LINE
  5
1F1
  8
0
  6
CONTINUOUS
 62
     7
 10
720.3434661785225
 20
92.91482174069924
 30
0.0
 11
720.3218029733347
 21
92.9300443201803
 31
0.0
  0
LINE
  5
1F2
  8
0
  6
CONTINUOUS
 62
     7
 10
720.3218029733347
 20
92.9300443201803
 30
0.0
 11
720.299706292683
 21
92.9441555993268
 31
0.0
  0
LINE
  5
1F3
  8
0
  6
CONTINUOUS
 62
     7
 10
720.299706292683
 20
92.9441555993268
 30
0.0
 11
720.2775822619876
 21
92.95693318080005
 31
0.0
  0
LINE
  5
1F4
  8
0
  6
CONTINUOUS
 62
     7
 10
720.2775822619876
 20
92.95693318080005
 30
0.0
 11
720.2550400988692
 21
92.96863879686767
 31
0.0
  0
LINE
  5
1F5
  8
0
  6
CONTINUOUS
 62
     7
 10
720.2550400988692
 20
92.96863879686767
 30
0.0
 11
720.2320798033281
 21
92.97927244752965
 31
0.0
  0
LINE
  5
1F6
  8
0
  6
CONTINUOUS
 62
     7
 10
720.2320798033281
 20
92.97927244752965
 30
0.0
 11
720.208701375364
 21
92.98883413278604
 31
0.0
  0
LINE
  5
1F7
  8
0
  6
CONTINUOUS
 62
     7
 10
720.208701375364
 20
92.98883413278604
 30
0.0
 11
720.184468279926
 21
92.99746828885513
 31
0.0
  0
LINE
  5
1F8
  8
0
  6
CONTINUOUS
 62
     7
 10
720.184468279926
 20
92.99746828885513
 30
0.0
 11
720.1598017090241
 21
93.00499114458967
 31
0.0
  0
LINE
  5
1F9
  8
0
  6
CONTINUOUS
 62
     7
 10
720.1598017090241
 20
93.00499114458967
 30
0.0
 11
720.1347016626584
 21
93.01140269998967
 31
0.0
  0
LINE
  5
1FA
  8
0
  6
CONTINUOUS
 62
     7
 10
720.1347016626584
 20
93.01140269998967
 30
0.0
 11
720.1091681408287
 21
93.0167029550551
 31
0.0
  0
LINE
  5
1FB
  8
0
  6
CONTINUOUS
 62
     7
 10
720.1091681408287
 20
93.0167029550551
 30
0.0
 11
720.0832011435351
 21
93.02089190978599
 31
0.0
  0
LINE
  5
1FC
  8
0
  6
CONTINUOUS
 62
     7
 10
720.0832011435351
 20
93.02089190978599
 30
0.0
 11
720.0572759089952
 21
93.02392435120817
 31
0.0
  0
LINE
  5
1FD
  8
0
  6
CONTINUOUS
 62
     7
 10
720.0572759089952
 20
93.02392435120817
 30
0.0
 11
720.0309325420322
 21
93.02588482722471
 31
0.0
  0
LINE
  5
1FE
  8
0
  6
CONTINUOUS
 62
     7
 10
720.0309325420322
 20
93.02588482722471
 30
0.0
 11
720.0041710426464
 21
93.02677333783566
 31
0.0
  0
LINE
  5
1FF
  8
0
  6
CONTINUOUS
 62
     7
 10
720.0041710426464
 20
93.02677333783566
 30
0.0
 11
719.9769914108375
 21
93.026589883041
 31
0.0
  0
LINE
  5
200
  8
0
  6
CONTINUOUS
 62
     7
 10
719.9769914108375
 20
93.026589883041
 30
0.0
 11
719.9494766652632
 21
93.0253135953504
 31
0.0
  0
LINE
  5
201
  8
0
  6
CONTINUOUS
 62
     7
 10
719.9494766652632
 20
93.0253135953504
 30
0.0
 11
719.9224383454059
 21
93.02294274382396
 31
0.0
  0
LINE
  5
202
  8
0
  6
CONTINUOUS
 62
     7
 10
719.9224383454059
 20
93.02294274382396
 30
0.0
 11
719.8958764512655
 21
93.01947732846168
 31
0.0
  0
LINE
  5
203
  8
0
  6
CONTINUOUS
 62
     7
 10
719.8958764512655
 20
93.01947732846168
 30
0.0
 11
719.869790982842
 21
93.01491734926356
 31
0.0
  0
LINE
  5
204
  8
0
  6
CONTINUOUS
 62
     7
 10
719.869790982842
 20
93.01491734926356
 30
0.0
 11
719.8441819401353
 21
93.00926280622957
 31
0.0
  0
LINE
  5
205
  8
0
  6
CONTINUOUS
 62
     7
 10
719.8441819401353
 20
93.00926280622957
 30
0.0
 11
719.8194939420374
 21
93.00264381750075
 31
0.0
  0
LINE
  5
206
  8
0
  6
CONTINUOUS
 62
     7
 10
719.8194939420374
 20
93.00264381750075
 30
0.0
 11
719.7952655063735
 21
92.99496900746983
 31
0.0
  0
LINE
  5
207
  8
0
  6
CONTINUOUS
 62
     7
 10
719.7952655063735
 20
92.99496900746983
 30
0.0
 11
719.7714966331439
 21
92.98623837613678
 31
0.0
  0
LINE
  5
208
  8
0
  6
CONTINUOUS
 62
     7
 10
719.7714966331439
 20
92.98623837613678
 30
0.0
 11
719.7481873223485
 21
92.97645192350163
 31
0.0
  0
LINE
  5
209
  8
0
  6
CONTINUOUS
 62
     7
 10
719.7481873223485
 20
92.97645192350163
 30
0.0
 11
719.7249263778182
 21
92.96540274441955
 31
0.0
  0
LINE
  5
20A
  8
0
  6
CONTINUOUS
 62
     7
 10
719.7249263778182
 20
92.96540274441955
 30
0.0
 11
719.7021418590047
 21
92.95325900150164
 31
0.0
  0
LINE
  5
20B
  8
0
  6
CONTINUOUS
 62
     7
 10
719.7021418590047
 20
92.95325900150164
 30
0.0
 11
719.6798337659081
 21
92.94002069474789
 31
0.0
  0
LINE
  5
20C
  8
0
  6
CONTINUOUS
 62
     7
 10
719.6798337659081
 20
92.94002069474789
 30
0.0
 11
719.6580020985285
 21
92.92568782415826
 31
0.0
  0
LINE
  5
20D
  8
0
  6
CONTINUOUS
 62
     7
 10
719.6580020985285
 20
92.92568782415826
 30
0.0
 11
719.6366468568659
 21
92.91026038973281
 31
0.0
  0
LINE
  5
20E
  8
0
  6
CONTINUOUS
 62
     7
 10
719.6366468568659
 20
92.91026038973281
 30
0.0
 11
719.6161366990789
 21
92.89404302553022
 31
0.0
  0
LINE
  5
20F
  8
0
  6
CONTINUOUS
 62
     7
 10
719.6161366990789
 20
92.89404302553022
 30
0.0
 11
719.5960861037261
 21
92.87676984002552
 31
0.0
  0
LINE
  5
210
  8
0
  6
CONTINUOUS
 62
     7
 10
719.5960861037261
 20
92.87676984002552
 30
0.0
 11
719.5764950708074
 21
92.8584408332187
 31
0.0
  0
LINE
  5
211
  8
0
  6
CONTINUOUS
 62
     7
 10
719.5764950708074
 20
92.8584408332187
 30
0.0
 11
719.5573636003229
 21
92.83905600510977
 31
0.0
  0
LINE
  5
212
  8
0
  6
CONTINUOUS
 62
     7
 10
779.5229169463554
 20
92.01456802163962
 30
0.0
 11
779.5043749054494
 21
92.03505138102277
 31
0.0
  0
LINE
  5
213
  8
0
  6
CONTINUOUS
 62
     7
 10
779.5043749054494
 20
92.03505138102277
 30
0.0
 11
779.4869443857041
 21
92.05595494322272
 31
0.0
  0
LINE
  5
214
  8
0
  6
CONTINUOUS
 62
     7
 10
779.4869443857041
 20
92.05595494322272
 30
0.0
 11
779.4706253871196
 21
92.07727870823943
 31
0.0
  0
LINE
  5
215
  8
0
  6
CONTINUOUS
 62
     7
 10
779.4706253871196
 20
92.07727870823943
 30
0.0
 11
779.455417909696
 21
92.09902267607295
 31
0.0
  0
LINE
  5
216
  8
0
  6
CONTINUOUS
 62
     7
 10
779.455417909696
 20
92.09902267607295
 30
0.0
 11
779.4413219534333
 21
92.12118684672326
 31
0.0
  0
LINE
  5
217
  8
0
  6
CONTINUOUS
 62
     7
 10
779.4413219534333
 20
92.12118684672326
 30
0.0
 11
779.4285596361673
 21
92.14336424299279
 31
0.0
  0
LINE
  5
218
  8
0
  6
CONTINUOUS
 62
     7
 10
779.4285596361673
 20
92.14336424299279
 30
0.0
 11
779.4168694973171
 21
92.16594696882888
 31
0.0
  0
LINE
  5
219
  8
0
  6
CONTINUOUS
 62
     7
 10
779.4168694973171
 20
92.16594696882888
 30
0.0
 11
779.4062515368825
 21
92.18893502423154
 31
0.0
  0
LINE
  5
21A
  8
0
  6
CONTINUOUS
 62
     7
 10
779.4062515368825
 20
92.18893502423154
 30
0.0
 11
779.3967057548634
 21
92.21232840920081
 31
0.0
  0
LINE
  5
21B
  8
0
  6
CONTINUOUS
 62
     7
 10
779.3967057548634
 20
92.21232840920081
 30
0.0
 11
779.3880880100361
 21
92.23656357944816
 31
0.0
  0
LINE
  5
21C
  8
0
  6
CONTINUOUS
 62
     7
 10
779.3880880100361
 20
92.23656357944816
 30
0.0
 11
779.3805817863697
 21
92.2612189525123
 31
0.0
  0
LINE
  5
21D
  8
0
  6
CONTINUOUS
 62
     7
 10
779.3805817863697
 20
92.2612189525123
 30
0.0
 11
779.3741870838641
 21
92.28629452839324
 31
0.0
  0
LINE
  5
21E
  8
0
  6
CONTINUOUS
 62
     7
 10
779.3741870838641
 20
92.28629452839324
 30
0.0
 11
779.3689039025193
 21
92.31179030709097
 31
0.0
  0
LINE
  5
21F
  8
0
  6
CONTINUOUS
 62
     7
 10
779.3689039025193
 20
92.31179030709097
 30
0.0
 11
779.3647322423352
 21
92.33770628860547
 31
0.0
  0
LINE
  5
220
  8
0
  6
CONTINUOUS
 62
     7
 10
779.3647322423352
 20
92.33770628860547
 30
0.0
 11
779.3617170015751
 21
92.36356849911662
 31
0.0
  0
LINE
  5
221
  8
0
  6
CONTINUOUS
 62
     7
 10
779.3617170015751
 20
92.36356849911662
 30
0.0
 11
779.3597739392309
 21
92.38983603919436
 31
0.0
  0
LINE
  5
222
  8
0
  6
CONTINUOUS
 62
     7
 10
779.3597739392309
 20
92.38983603919436
 30
0.0
 11
779.3589030553022
 21
92.41650890883867
 31
0.0
  0
LINE
  5
223
  8
0
  6
CONTINUOUS
 62
     7
 10
779.3589030553022
 20
92.41650890883867
 30
0.0
 11
779.3591043497892
 21
92.44358710804956
 31
0.0
  0
LINE
  5
224
  8
0
  6
CONTINUOUS
 62
     7
 10
779.3591043497892
 20
92.44358710804956
 30
0.0
 11
779.360399161685
 21
92.47108225789955
 31
0.0
  0
LINE
  5
225
  8
0
  6
CONTINUOUS
 62
     7
 10
779.360399161685
 20
92.47108225789955
 30
0.0
 11
779.3627843004754
 21
92.49809846529519
 31
0.0
  0
LINE
  5
226
  8
0
  6
CONTINUOUS
 62
     7
 10
779.3627843004754
 20
92.49809846529519
 30
0.0
 11
779.3662597661605
 21
92.52463573023644
 31
0.0
  0
LINE
  5
227
  8
0
  6
CONTINUOUS
 62
     7
 10
779.3662597661605
 20
92.52463573023644
 30
0.0
 11
779.3708255587402
 21
92.55069405272333
 31
0.0
  0
LINE
  5
228
  8
0
  6
CONTINUOUS
 62
     7
 10
779.3708255587402
 20
92.55069405272333
 30
0.0
 11
779.3764816782146
 21
92.57627343275584
 31
0.0
  0
LINE
  5
229
  8
0
  6
CONTINUOUS
 62
     7
 10
779.3764816782146
 20
92.57627343275584
 30
0.0
 11
779.383098091106
 21
92.60092984814429
 31
0.0
  0
LINE
  5
22A
  8
0
  6
CONTINUOUS
 62
     7
 10
779.383098091106
 20
92.60092984814429
 30
0.0
 11
779.3907662383267
 21
92.62512427344203
 31
0.0
  0
LINE
  5
22B
  8
0
  6
CONTINUOUS
 62
     7
 10
779.3907662383267
 20
92.62512427344203
 30
0.0
 11
779.3994861198765
 21
92.64885670864903
 31
0.0
  0
LINE
  5
22C
  8
0
  6
CONTINUOUS
 62
     7
 10
779.3994861198765
 20
92.64885670864903
 30
0.0
 11
779.4092577357555
 21
92.67212715376536
 31
0.0
  0
LINE
  5
22D
  8
0
  6
CONTINUOUS
 62
     7
 10
779.4092577357555
 20
92.67212715376536
 30
0.0
 11
779.420287609211
 21
92.69534603170132
 31
0.0
  0
LINE
  5
22E
  8
0
  6
CONTINUOUS
 62
     7
 10
779.420287609211
 20
92.69534603170132
 30
0.0
 11
779.432407809561
 21
92.71808596718292
 31
0.0
  0
LINE
  5
22F
  8
0
  6
CONTINUOUS
 62
     7
 10
779.432407809561
 20
92.71808596718292
 30
0.0
 11
779.4456183368058
 21
92.74034696021015
 31
0.0
  0
LINE
  5
230
  8
0
  6
CONTINUOUS
 62
     7
 10
779.4456183368058
 20
92.74034696021015
 30
0.0
 11
779.4599191909452
 21
92.76212901078301
 31
0.0
  0
LINE
  5
231
  8
0
  6
CONTINUOUS
 62
     7
 10
779.4599191909452
 20
92.76212901078301
 30
0.0
 11
779.4753103719795
 21
92.7834321189015
 31
0.0
  0
LINE
  5
232
  8
0
  6
CONTINUOUS
 62
     7
 10
779.4753103719795
 20
92.7834321189015
 30
0.0
 11
779.4914880060455
 21
92.80388862437437
 31
0.0
  0
LINE
  5
233
  8
0
  6
CONTINUOUS
 62
     7
 10
779.4914880060455
 20
92.80388862437437
 30
0.0
 11
779.5087173744408
 21
92.82388313975655
 31
0.0
  0
LINE
  5
234
  8
0
  6
CONTINUOUS
 62
     7
 10
779.5087173744408
 20
92.82388313975655
 30
0.0
 11
779.5269984771653
 21
92.843415665048
 31
0.0
  0
LINE
  5
235
  8
0
  6
CONTINUOUS
 62
     7
 10
779.5269984771653
 20
92.843415665048
 30
0.0
 11
779.5463313142191
 21
92.86248620024875
 31
0.0
  0
LINE
  5
236
  8
0
  6
CONTINUOUS
 62
     7
 10
779.5463313142191
 20
92.86248620024875
 30
0.0
 11
779.5666940930153
 21
92.88104268073363
 31
0.0
  0
LINE
  5
237
  8
0
  6
CONTINUOUS
 62
     7
 10
779.5666940930153
 20
92.88104268073363
 30
0.0
 11
779.5874903472753
 21
92.89848786088393
 31
0.0
  0
LINE
  5
238
  8
0
  6
CONTINUOUS
 62
     7
 10
779.5874903472753
 20
92.89848786088393
 30
0.0
 11
779.6087200769994
 21
92.91482174069968
 31
0.0
  0
LINE
  5
239
  8
0
  6
CONTINUOUS
 62
     7
 10
779.6087200769994
 20
92.91482174069968
 30
0.0
 11
779.6303832821873
 21
92.93004432018084
 31
0.0
  0
LINE
  5
23A
  8
0
  6
CONTINUOUS
 62
     7
 10
779.6303832821873
 20
92.93004432018084
 30
0.0
 11
779.6524799628389
 21
92.94415559932743
 31
0.0
  0
LINE
  5
23B
  8
0
  6
CONTINUOUS
 62
     7
 10
779.6524799628389
 20
92.94415559932743
 30
0.0
 11
779.6746039935343
 21
92.95693318080073
 31
0.0
  0
LINE
  5
23C
  8
0
  6
CONTINUOUS
 62
     7
 10
779.6746039935343
 20
92.95693318080073
 30
0.0
 11
779.6971461566527
 21
92.96863879686839
 31
0.0
  0
LINE
  5
23D
  8
0
  6
CONTINUOUS
 62
     7
 10
779.6971461566527
 20
92.96863879686839
 30
0.0
 11
779.7201064521939
 21
92.97927244753042
 31
0.0
  0
LINE
  5
23E
  8
0
  6
CONTINUOUS
 62
     7
 10
779.7201064521939
 20
92.97927244753042
 30
0.0
 11
779.7434848801581
 21
92.9888341327868
 31
0.0
  0
LINE
  5
23F
  8
0
  6
CONTINUOUS
 62
     7
 10
779.7434848801581
 20
92.9888341327868
 30
0.0
 11
779.767717975596
 21
92.99746828885588
 31
0.0
  0
LINE
  5
240
  8
0
  6
CONTINUOUS
 62
     7
 10
779.767717975596
 20
92.99746828885588
 30
0.0
 11
779.7923845464979
 21
93.0049911445904
 31
0.0
  0
LINE
  5
241
  8
0
  6
CONTINUOUS
 62
     7
 10
779.7923845464979
 20
93.0049911445904
 30
0.0
 11
779.8174845928636
 21
93.01140269999034
 31
0.0
  0
LINE
  5
242
  8
0
  6
CONTINUOUS
 62
     7
 10
779.8174845928636
 20
93.01140269999034
 30
0.0
 11
779.8430181146932
 21
93.01670295505572
 31
0.0
  0
LINE
  5
243
  8
0
  6
CONTINUOUS
 62
     7
 10
779.8430181146932
 20
93.01670295505572
 30
0.0
 11
779.8689851119867
 21
93.02089190978651
 31
0.0
  0
LINE
  5
244
  8
0
  6
CONTINUOUS
 62
     7
 10
779.8689851119867
 20
93.02089190978651
 30
0.0
 11
779.8949103465267
 21
93.02392435120859
 31
0.0
  0
LINE
  5
245
  8
0
  6
CONTINUOUS
 62
     7
 10
779.8949103465267
 20
93.02392435120859
 30
0.0
 11
779.9212537134896
 21
93.02588482722503
 31
0.0
  0
LINE
  5
246
  8
0
  6
CONTINUOUS
 62
     7
 10
779.9212537134896
 20
93.02588482722503
 30
0.0
 11
779.9480152128754
 21
93.02677333783582
 31
0.0
  0
LINE
  5
247
  8
0
  6
CONTINUOUS
 62
     7
 10
779.9480152128754
 20
93.02677333783582
 30
0.0
 11
779.9751948446841
 21
93.02658988304098
 31
0.0
  0
LINE
  5
248
  8
0
  6
CONTINUOUS
 62
     7
 10
779.9751948446841
 20
93.02658988304098
 30
0.0
 11
780.0027095902585
 21
93.02531359535023
 31
0.0
  0
LINE
  5
249
  8
0
  6
CONTINUOUS
 62
     7
 10
780.0027095902585
 20
93.02531359535023
 30
0.0
 11
780.029747910116
 21
93.02294274382363
 31
0.0
  0
LINE
  5
24A
  8
0
  6
CONTINUOUS
 62
     7
 10
780.029747910116
 20
93.02294274382363
 30
0.0
 11
780.0563098042566
 21
93.01947732846122
 31
0.0
  0
LINE
  5
24B
  8
0
  6
CONTINUOUS
 62
     7
 10
780.0563098042566
 20
93.01947732846122
 30
0.0
 11
780.0823952726802
 21
93.01491734926299
 31
0.0
  0
LINE
  5
24C
  8
0
  6
CONTINUOUS
 62
     7
 10
780.0823952726802
 20
93.01491734926299
 30
0.0
 11
780.1080043153869
 21
93.00926280622892
 31
0.0
  0
LINE
  5
24D
  8
0
  6
CONTINUOUS
 62
     7
 10
780.1080043153869
 20
93.00926280622892
 30
0.0
 11
780.132692313485
 21
93.00264381750003
 31
0.0
  0
LINE
  5
24E
  8
0
  6
CONTINUOUS
 62
     7
 10
780.132692313485
 20
93.00264381750003
 30
0.0
 11
780.1569207491489
 21
92.99496900746907
 31
0.0
  0
LINE
  5
24F
  8
0
  6
CONTINUOUS
 62
     7
 10
780.1569207491489
 20
92.99496900746907
 30
0.0
 11
780.1806896223785
 21
92.98623837613599
 31
0.0
  0
LINE
  5
250
  8
0
  6
CONTINUOUS
 62
     7
 10
780.1806896223785
 20
92.98623837613599
 30
0.0
 11
780.2039989331739
 21
92.97645192350082
 31
0.0
  0
LINE
  5
251
  8
0
  6
CONTINUOUS
 62
     7
 10
780.2039989331739
 20
92.97645192350082
 30
0.0
 11
780.2272598777042
 21
92.96540274441875
 31
0.0
  0
LINE
  5
252
  8
0
  6
CONTINUOUS
 62
     7
 10
780.2272598777042
 20
92.96540274441875
 30
0.0
 11
780.2500443965176
 21
92.95325900150087
 31
0.0
  0
LINE
  5
253
  8
0
  6
CONTINUOUS
 62
     7
 10
780.2500443965176
 20
92.95325900150087
 30
0.0
 11
780.2723524896141
 21
92.94002069474715
 31
0.0
  0
LINE
  5
254
  8
0
  6
CONTINUOUS
 62
     7
 10
780.2723524896141
 20
92.94002069474715
 30
0.0
 11
780.2941841569937
 21
92.9256878241576
 31
0.0
  0
LINE
  5
255
  8
0
  6
CONTINUOUS
 62
     7
 10
780.2941841569937
 20
92.9256878241576
 30
0.0
 11
780.3155393986563
 21
92.91026038973224
 31
0.0
  0
LINE
  5
256
  8
0
  6
CONTINUOUS
 62
     7
 10
780.3155393986563
 20
92.91026038973224
 30
0.0
 11
780.3360495564432
 21
92.89404302552975
 31
0.0
  0
LINE
  5
257
  8
0
  6
CONTINUOUS
 62
     7
 10
780.3360495564432
 20
92.89404302552975
 30
0.0
 11
780.3561001517959
 21
92.87676984002519
 31
0.0
  0
LINE
  5
258
  8
0
  6
CONTINUOUS
 62
     7
 10
780.3561001517959
 20
92.87676984002519
 30
0.0
 11
780.3756911847144
 21
92.85844083321851
 31
0.0
  0
LINE
  5
259
  8
0
  6
CONTINUOUS
 62
     7
 10
780.3756911847144
 20
92.85844083321851
 30
0.0
 11
780.3948226551986
 21
92.83905600510974
 31
0.0
  0
LINE
  5
25A
  8
0
  6
CONTINUOUS
 62
     7
 10
721.2173250472935
 20
108.1158157669762
 30
0.0
 11
714.4170714834216
 21
100.1651187318301
 31
0.0
  0
ARC
  5
25B
  8
0
  6
CONTINUOUS
 62
     7
 10
742.4760931277608
 20
-139.4731879866262
 30
0.0
 40
248.5000000000009
 50
90.0
 51
94.90755858756735
  0
ARC
  5
25C
  8
0
  6
CONTINUOUS
 62
     7
 10
757.4760931277607
 20
-139.4731879866272
 30
0.0
 40
248.5000000000019
 50
85.09244141243256
 51
89.99999999999999
  0
LINE
  5
25D
  8
0
  6
CONTINUOUS
 62
     7
 10
785.5351147720999
 20
100.1651187318301
 30
0.0
 11
778.734861208228
 21
108.1158157669762
 31
0.0
  0
ARC
  5
25E
  8
0
  6
CONTINUOUS
 62
     7
 10
771.4760931277608
 20
88.14039792825199
 30
0.0
 40
18.50000000000007
 50
359.9999999999998
 51
40.54046403383865
  0
LINE
  5
25F
  8
0
  6
CONTINUOUS
 62
     7
 10
784.9760931277608
 20
71.3268120133747
 30
0.0
 11
789.9760931277608
 21
71.3268120133747
 31
0.0
  0
LINE
  5
260
  8
0
  6
CONTINUOUS
 62
     7
 10
776.2743397075683
 20
103.3001135222613
 30
0.0
 11
781.7353791925489
 21
96.91519419032247
 31
0.0
  0
ARC
  5
261
  8
0
  6
CONTINUOUS
 62
     7
 10
757.4760931277607
 20
-139.4731879866265
 30
0.0
 40
243.5000000000012
 50
85.57234937514608
 51
90.0
  0
ARC
  5
262
  8
0
  6
CONTINUOUS
 62
     7
 10
742.4760931277609
 20
-139.4731879866269
 30
0.0
 40
243.5000000000016
 50
90.0
 51
94.42765062485388
  0
LINE
  5
263
  8
0
  6
CONTINUOUS
 62
     7
 10
714.9760931277608
 20
71.3268120133747
 30
0.0
 11
714.9760931277608
 21
88.14039792825196
 31
0.0
  0
LINE
  5
264
  8
0
  6
CONTINUOUS
 62
     7
 10
709.9760931277608
 20
71.3268120133747
 30
0.0
 11
714.9760931277608
 21
71.3268120133747
 31
0.0
  0
LINE
  5
265
  8
0
  6
CONTINUOUS
 62
     7
 10
709.9760931277608
 20
88.14039792825196
 30
0.0
 11
709.9760931277608
 21
71.3268120133747
 31
0.0
  0
ARC
  5
266
  8
0
  6
CONTINUOUS
 62
     7
 10
728.4760931277608
 20
88.14039792825196
 30
0.0
 40
18.50000000000002
 50
139.4595359661613
 51
180.0
  0
LINE
  5
267
  8
0
  6
CONTINUOUS
 62
     7
 10
789.9760931277608
 20
71.3268120133747
 30
0.0
 11
789.9760931277608
 21
88.14039792825196
 31
0.0
  0
LINE
  5
268
  8
0
  6
CONTINUOUS
 62
     7
 10
784.9760931277608
 20
88.14039792825196
 30
0.0
 11
784.9760931277608
 21
71.3268120133747
 31
0.0
  0
ARC
  5
269
  8
0
  6
CONTINUOUS
 62
     7
 10
771.4760931277608
 20
88.14039792825199
 30
0.0
 40
13.50000000000006
 50
359.9999999999998
 51
40.54046403383859
  0
LINE
  5
26A
  8
0
  6
CONTINUOUS
 62
     7
 10
742.4760931277609
 20
104.0268120133747
 30
0.0
 11
757.4760931277607
 21
104.0268120133747
 31
0.0
  0
ARC
  5
26B
  8
0
  6
CONTINUOUS
 62
     7
 10
728.4760931277608
 20
88.14039792825196
 30
0.0
 40
13.50000000000007
 50
139.4595359661613
 51
180.0
  0
LINE
  5
26C
  8
0
  6
CONTINUOUS
 62
     7
 10
757.4760931277607
 20
109.0268120133747
 30
0.0
 11
742.4760931277608
 21
109.0268120133747
 31
0.0
  0
LINE
  5
26D
  8
0
  6
CONTINUOUS
 62
     7
 10
718.2168070629727
 20
96.91519419032248
 30
0.0
 11
723.6778465479533
 21
103.3001135222612
 31
0.0
  0
TEXT
  5
26E
  8
0
  6
CONTINUOUS
 62
     7
 10
779.9785345432915
 20
52.89841386406871
 30
0.0
 40
3.0
  1
RMP-20
  0
LINE
  5
26F
  8
0
  6
CONTINUOUS
 62
     7
 10
720.4760931277608
 20
2167.164836285026
 30
0.0
 11
720.4760931277608
 21
167.1648362850265
 31
0.0
  0
LINE
  5
270
  8
0
  6
CONTINUOUS
 62
     7
 10
779.4760931277608
 20
2167.164836285026
 30
0.0
 11
779.4760931277608
 21
167.1648362850265
 31
0.0
  0
LINE
  5
271
  8
0
  6
CONTINUOUS
 62
     7
 10
791.4760931277608
 20
2167.164836285026
 30
0.0
 11
791.4760931277608
 21
167.1648362850265
 31
0.0
  0
LINE
  5
272
  8
0
  6
CONTINUOUS
 62
     7
 10
708.4760931277608
 20
167.1648362850265
 30
0.0
 11
708.4760931277608
 21
2167.164836285026
 31
0.0
  0
LINE
  5
273
  8
0
  6
CONTINUOUS
 62
     7
 10
779.4760931277608
 20
2167.164836285026
 30
0.0
 11
786.6750354459652
 21
2167.164836285026
 31
0.0
  0
LINE
  5
274
  8
0
  6
CONTINUOUS
 62
     7
 10
720.4760931277608
 20
167.1648362850265
 30
0.0
 11
742.4760931277609
 21
167.1648362850265
 31
0.0
  0
LINE
  5
275
  8
0
  6
CONTINUOUS
 62
     7
 10
713.2771508095564
 20
2167.164836285026
 30
0.0
 11
720.4760931277608
 21
2167.164836285026
 31
0.0
  0
LINE
  5
276
  8
0
  6
CONTINUOUS
 62
     7
 10
742.4760931277608
 20
2167.164836285026
 30
0.0
 11
757.4760931277607
 21
2167.164836285026
 31
0.0
  0
LINE
  5
277
  8
0
  6
CONTINUOUS
 62
     7
 10
791.4760931277608
 20
167.1648362850265
 30
0.0
 11
786.6750354459652
 21
167.1648362850265
 31
0.0
  0
LINE
  5
278
  8
0
  6
CONTINUOUS
 62
     7
 10
713.2771508095564
 20
167.1648362850265
 30
0.0
 11
720.4760931277608
 21
167.1648362850265
 31
0.0
  0
LINE
  5
279
  8
0
  6
________________
 62
     1
 10
729.9760931277608
 20
74.02681201337472
 30
0.0
 11
729.9760931277608
 21
102.0268120133747
 31
0.0
  0
LINE
  5
27B
  8
0
  6
________________
 62
     1
 10
755.9760931277608
 20
88.02681201337471
 30
0.0
 11
783.9760931277608
 21
88.02681201337471
 31
0.0
  0
LINE
  5
27C
  8
0
  6
________________
 62
     1
 10
715.9760931277608
 20
88.02681201337471
 30
0.0
 11
743.9760931277608
 21
88.02681201337471
 31
0.0
  0
LINE
  5
27D
  8
0
  6
CONTINUOUS
 62
     7
 10
708.4760931277608
 20
256.0132797279105
 30
0.0
 11
708.4760931277608
 21
317.1648362850265
 31
0.0
  0
LINE
  5
27E
  8
0
  6
CONTINUOUS
 62
     7
 10
791.4760931277608
 20
317.1648362850265
 30
0.0
 11
791.4760931277608
 21
251.3058657721827
 31
0.0
  0
LINE
  5
27F
  8
0
  6
CONTINUOUS
 62
     7
 10
779.4760931277608
 20
252.5094937887018
 30
0.0
 11
779.4760931277608
 21
167.1648362850265
 31
0.0
  0
LINE
  5
280
  8
0
  6
CONTINUOUS
 62
     7
 10
742.4760931277608
 20
167.1648362850265
 30
0.0
 11
757.4760931277607
 21
167.1648362850265
 31
0.0
  0
LINE
  5
281
  8
0
  6
CONTINUOUS
 62
     7
 10
757.4760931277607
 20
167.1648362850265
 30
0.0
 11
779.4760931277609
 21
167.1648362850265
 31
0.0
  0
LINE
  5
282
  8
0
  6
CONTINUOUS
 62
     7
 10
757.4760931277607
 20
2167.164836285026
 30
0.0
 11
779.4760931277609
 21
2167.164836285026
 31
0.0
  0
LINE
  5
283
  8
0
  6
CONTINUOUS
 62
     7
 10
779.4760931277608
 20
167.1648362850265
 30
0.0
 11
786.6750354459652
 21
167.1648362850265
 31
0.0
  0
LINE
  5
284
  8
0
  6
CONTINUOUS
 62
     7
 10
708.4760931277608
 20
2167.164836285026
 30
0.0
 11
713.2771508095564
 21
2167.164836285026
 31
0.0
  0
LINE
  5
285
  8
0
  6
________________
 62
     1
 10
769.9760931277608
 20
74.02681201337472
 30
0.0
 11
769.9760931277608
 21
102.0268120133747
 31
0.0
  0
LINE
  5
286
  8
0
  6
CONTINUOUS
 62
     7
 10
786.6750354459652
 20
2167.164836285026
 30
0.0
 11
791.4760931277608
 21
2167.164836285026
 31
0.0
  0
LINE
  5
287
  8
0
  6
CONTINUOUS
 62
     7
 10
720.4760931277608
 20
248.167626075609
 30
0.0
 11
720.4760931277608
 21
167.1648362850265
 31
0.0
  0
LINE
  5
288
  8
0
  6
CONTINUOUS
 62
     7
 10
708.4760931277608
 20
167.1648362850265
 30
0.0
 11
708.4760931277608
 21
249.8837755604175
 31
0.0
  0
LINE
  5
289
  8
0
  6
CONTINUOUS
 62
     7
 10
779.4760931277608
 20
317.1648362850265
 30
0.0
 11
779.4760931277608
 21
257.558166713474
 31
0.0
  0
LINE
  5
28A
  8
0
  6
CONTINUOUS
 62
     7
 10
791.4760931277608
 20
244.5021227444744
 30
0.0
 11
791.4760931277608
 21
167.1648362850265
 31
0.0
  0
LINE
  5
28B
  8
0
  6
________________
 62
     1
 10
749.9760931277608
 20
113.5268120133747
 30
0.0
 11
749.9760931277608
 21
63.5268120133747
 31
0.0
  0
LINE
  5
28C
  8
0
  6
CONTINUOUS
 62
     7
 10
713.2771508095564
 20
167.1648362850265
 30
0.0
 11
708.4760931277608
 21
167.1648362850265
 31
0.0
  0
LINE
  5
28D
  8
0
  6
CONTINUOUS
 62
     7
 10
720.4760931277608
 20
317.1648362850265
 30
0.0
 11
720.4760931277608
 21
254.5249199526816
 31
0.0
  0
LINE
  5
28E
  8
0
  6
CONTINUOUS
 62
     7
 10
720.4760931277608
 20
2167.164836285026
 30
0.0
 11
742.4760931277609
 21
2167.164836285026
 31
0.0
  0
ENDSEC
  0
EOF
