  0
SECTION
  2
HEADER
  9
$ACADVER
  1
AC1006
  9
$DWGCODEPAGE
  3
ansi_932
  9
$INSBASE
 10
0.0
 20
0.0
 30
0.0
  9
$EXTMIN
 10
-30.8657287184876
 20
0.0
  9
$EXTMAX
 10
113.7072464674253
 20
470.0000000000001
  9
$LIMMIN
 10
0.0
 20
0.0
  9
$LIMMAX
 10
12.0
 20
9.0
  9
$ORTHOMODE
 70
     0
  9
$REGENMODE
 70
     1
  9
$FILLMODE
 70
     1
  9
$QTEXTMODE
 70
     0
  9
$MIRRTEXT
 70
     1
  9
$DRAGMODE
 70
     2
  9
$LTSCALE
 40
1.0
  9
$OSMODE
 70
    37
  9
$ATTMODE
 70
     1
  9
$TEXTSIZE
 40
0.2
  9
$TRACEWID
 40
0.05
  9
$TEXTSTYLE
  7
STANDARD
  9
$CLAYER
  8
0
  9
$CELTYPE
  6
BYLAYER
  9
$CECOLOR
 62
   256
  9
$DIMSCALE
 40
1.0
  9
$DIMASZ
 40
3.0
  9
$DIMEXO
 40
0.0625
  9
$DIMDLI
 40
0.38
  9
$DIMRND
 40
0.0
  9
$DIMDLE
 40
0.0
  9
$DIMEXE
 40
1.5
  9
$DIMTP
 40
0.0
  9
$DIMTM
 40
0.0
  9
$DIMTXT
 40
3.0
  9
$DIMCEN
 40
0.09
  9
$DIMTSZ
 40
0.0
  9
$DIMTOL
 70
     0
  9
$DIMLIM
 70
     0
  9
$DIMTIH
 70
     1
  9
$DIMTOH
 70
     1
  9
$DIMSE1
 70
     0
  9
$DIMSE2
 70
     0
  9
$DIMTAD
 70
     1
  9
$DIMZIN
 70
     0
  9
$DIMBLK
  1

  9
$DIMASO
 70
     1
  9
$DIMSHO
 70
     1
  9
$DIMPOST
  1

  9
$DIMAPOST
  1

  9
$DIMALT
 70
     0
  9
$DIMALTD
 70
     2
  9
$DIMALTF
 40
25.4
  9
$DIMLFAC
 40
1.0
  9
$DIMTOFL
 70
     0
  9
$DIMTVP
 40
0.0
  9
$DIMTIX
 70
     0
  9
$DIMSOXD
 70
     0
  9
$DIMSAH
 70
     0
  9
$DIMBLK1
  1

  9
$DIMBLK2
  1

  9
$LUNITS
 70
     2
  9
$LUPREC
 70
     4
  9
$SKETCHINC
 40
0.1
  9
$FILLETRAD
 40
0.5
  9
$AUNITS
 70
     0
  9
$AUPREC
 70
     0
  9
$MENU
  1
.
  9
$ELEVATION
 40
0.0
  9
$THICKNESS
 40
0.0
  9
$LIMCHECK
 70
     0
  9
$CHAMFERA
 40
0.0
  9
$CHAMFERB
 40
0.0
  9
$SKPOLY
 70
     0
  9
$TDCREATE
 40
2460636.652111053
  9
$TDUPDATE
 40
2460636.652111447
  9
$TDINDWG
 40
0.0000000116
  9
$TDUSRTIMER
 40
0.0000000116
  9
$USRTIMER
 70
     1
  9
$ANGBASE
 50
0.0
  9
$ANGDIR
 70
     0
  9
$PDMODE
 70
     0
  9
$PDSIZE
 40
0.0
  9
$PLINEWID
 40
0.0
  9
$COORDS
 70
     1
  9
$SPLFRAME
 70
     0
  9
$SPLINETYPE
 70
     6
  9
$SPLINESEGS
 70
     8
  9
$ATTDIA
 70
     0
  9
$ATTREQ
 70
     1
  9
$HANDLING
 70
     1
  9
$HANDSEED
  5
70E
  9
$SURFTAB1
 70
     6
  9
$SURFTAB2
 70
     6
  9
$SURFTYPE
 70
     6
  9
$SURFU
 70
     6
  9
$SURFV
 70
     6
  9
$UCSNAME
  2

  9
$UCSORG
 10
0.0
 20
0.0
 30
0.0
  9
$UCSXDIR
 10
1.0
 20
0.0
 30
0.0
  9
$UCSYDIR
 10
0.0
 20
1.0
 30
0.0
  9
$USERI1
 70
     0
  9
$USERI2
 70
     0
  9
$USERI3
 70
     0
  9
$USERI4
 70
     0
  9
$USERI5
 70
     0
  9
$USERR1
 40
0.0
  9
$USERR2
 40
0.0
  9
$USERR3
 40
0.0
  9
$USERR4
 40
0.0
  9
$USERR5
 40
0.0
  9
$WORLDVIEW
 70
     1
  0
ENDSEC
  0
SECTION
  2
TABLES
  0
TABLE
  2
VPORT
 70
     1
  0
VPORT
  2
*ACTIVE
 70
     0
 10
0.0
 20
0.0
 11
1.0
 21
1.0
 12
41.42075887446883
 22
235.0
 13
0.0
 23
0.0
 14
0.5
 24
0.5
 15
0.5
 25
0.5
 16
0.0
 26
0.0
 36
1.0
 17
0.0
 27
0.0
 37
0.0
 40
470.0000000000001
 41
1.6
 42
50.0
 43
0.0
 44
0.0
 50
0.0
 51
0.0
 71
     0
 72
   100
 73
     1
 74
     3
 75
     0
 76
     0
 77
     0
 78
     0
  0
ENDTAB
  0
TABLE
  2
LTYPE
 70
     2
  0
LTYPE
  2
CONTINUOUS
 70
     0
  3
Solid line
 72
    65
 73
     0
 40
0.0
  0
LTYPE
  2
CENTER
 70
     0
  3

 72
    65
 73
     0
 40
0.0
  0
ENDTAB
  0
TABLE
  2
LAYER
 70
     1
  0
LAYER
  2
0
 70
     0
 62
     7
  6
CONTINUOUS
  0
ENDTAB
  0
TABLE
  2
STYLE
 70
     2
  0
STYLE
  2
STANDARD
 70
     0
 40
0.0
 41
1.0
 50
0.0
 71
     0
 42
0.2
  3
txt
  4

  0
STYLE
  2
ＭＳ_ゴシック
 70
     0
 40
0.0
 41
1.0
 50
0.0
 71
     0
 42
0.2
  3
ＭＳ ゴシック.shx
  4

  0
ENDTAB
  0
TABLE
  2
VIEW
 70
     0
  0
ENDTAB
  0
TABLE
  2
UCS
 70
     0
  0
ENDTAB
  0
ENDSEC
  0
SECTION
  2
BLOCKS
  0
ENDSEC
  0
SECTION
  2
ENTITIES
  0
TEXT
  5
6F
  8
0
  6
CONTINUOUS
 62
     7
 10
86.09631111666872
 20
106.0273164936852
 30
0.0
 40
6.0
  1
RMPXB-20
  0
LINE
  5
70
  8
0
  6
CONTINUOUS
 62
     7
 10
-12.98429163797663
 20
63.28022623635373
 30
0.0
 11
-12.99999999999998
 21
65.08022623635374
 31
0.0
  0
LINE
  5
71
  8
0
  6
CONTINUOUS
 62
     7
 10
-12.99999999999998
 20
65.08022623635374
 30
0.0
 11
-13.79494224457874
 21
65.08022623635374
 31
0.0
  0
LINE
  5
72
  8
0
  6
CONTINUOUS
 62
     7
 10
-24.99999999999998
 20
72.82286692347297
 30
0.0
 11
-24.99999999999998
 21
73.08022623635374
 31
0.0
  0
LINE
  5
73
  8
0
  6
CONTINUOUS
 62
     7
 10
-24.99999999999998
 20
73.08022623635374
 30
0.0
 11
-23.22074392588437
 21
73.08022623635374
 31
0.0
  0
LINE
  5
74
  8
0
  6
CONTINUOUS
 62
     7
 10
-22.21891422412546
 20
72.08022623635374
 30
0.0
 11
-22.22014286235466
 21
72.12929391068116
 31
0.0
  0
LINE
  5
75
  8
0
  6
CONTINUOUS
 62
     7
 10
-22.22014286235466
 20
72.12929391068116
 30
0.0
 11
-22.22378093437813
 21
72.1782433766833
 31
0.0
  0
LINE
  5
76
  8
0
  6
CONTINUOUS
 62
     7
 10
-22.22378093437813
 20
72.1782433766833
 30
0.0
 11
-22.22981967576169
 21
72.22695671080909
 31
0.0
  0
LINE
  5
77
  8
0
  6
CONTINUOUS
 62
     7
 10
-22.22981967576169
 20
72.22695671080909
 30
0.0
 11
-22.23824453864845
 21
72.27531655836982
 31
0.0
  0
LINE
  5
78
  8
0
  6
CONTINUOUS
 62
     7
 10
-22.23824453864845
 20
72.27531655836982
 30
0.0
 11
-22.24903522680574
 21
72.323206416257
 31
0.0
  0
LINE
  5
79
  8
0
  6
CONTINUOUS
 62
     7
 10
-22.24903522680574
 20
72.323206416257
 30
0.0
 11
-22.26216574452064
 21
72.37051091360819
 31
0.0
  0
LINE
  5
7A
  8
0
  6
CONTINUOUS
 62
     7
 10
-22.26216574452064
 20
72.37051091360819
 30
0.0
 11
-22.2776044592259
 21
72.4171160897459
 31
0.0
  0
LINE
  5
7B
  8
0
  6
CONTINUOUS
 62
     7
 10
-22.2776044592259
 20
72.4171160897459
 30
0.0
 11
-22.29531417770551
 21
72.46290966871882
 31
0.0
  0
LINE
  5
7C
  8
0
  6
CONTINUOUS
 62
     7
 10
-22.29531417770551
 20
72.46290966871882
 30
0.0
 11
-22.31525223569647
 21
72.507781329784
 31
0.0
  0
LINE
  5
7D
  8
0
  6
CONTINUOUS
 62
     7
 10
-22.31525223569647
 20
72.507781329784
 30
0.0
 11
-22.33737060067069
 21
72.55162297317972
 31
0.0
  0
LINE
  5
7E
  8
0
  6
CONTINUOUS
 62
     7
 10
-22.33737060067069
 20
72.55162297317972
 30
0.0
 11
-22.36161598754965
 21
72.59432898054696
 31
0.0
  0
LINE
  5
7F
  8
0
  6
CONTINUOUS
 62
     7
 10
-22.36161598754965
 20
72.59432898054696
 30
0.0
 11
-22.38792998707269
 21
72.63579646937332
 31
0.0
  0
LINE
  5
80
  8
0
  6
CONTINUOUS
 62
     7
 10
-22.38792998707269
 20
72.63579646937332
 30
0.0
 11
-22.41624920651014
 21
72.67592554084615
 31
0.0
  0
LINE
  5
81
  8
0
  6
CONTINUOUS
 62
     7
 10
-22.41624920651014
 20
72.67592554084615
 30
0.0
 11
-22.44650542238186
 21
72.71461952051739
 31
0.0
  0
LINE
  5
82
  8
0
  6
CONTINUOUS
 62
     7
 10
-22.44650542238186
 20
72.71461952051739
 30
0.0
 11
-22.47862574481373
 21
72.75178519120074
 31
0.0
  0
LINE
  5
83
  8
0
  6
CONTINUOUS
 62
     7
 10
-22.47862574481373
 20
72.75178519120074
 30
0.0
 11
-22.51253279313557
 21
72.78733301754028
 31
0.0
  0
LINE
  5
84
  8
0
  6
CONTINUOUS
 62
     7
 10
-22.51253279313557
 20
72.78733301754028
 30
0.0
 11
-22.5481448822981
 21
72.82117736170868
 31
0.0
  0
LINE
  5
85
  8
0
  6
CONTINUOUS
 62
     7
 10
-22.5481448822981
 20
72.82117736170868
 30
0.0
 11
-22.58537621965927
 21
72.85323668971647
 31
0.0
  0
LINE
  5
86
  8
0
  6
CONTINUOUS
 62
     7
 10
-22.58537621965927
 20
72.85323668971647
 30
0.0
 11
-22.62413711166625
 21
72.88343376783438
 31
0.0
  0
LINE
  5
87
  8
0
  6
CONTINUOUS
 62
     7
 10
-22.62413711166625
 20
72.88343376783438
 30
0.0
 11
-22.6643341799352
 21
72.91169584865628
 31
0.0
  0
LINE
  5
88
  8
0
  6
CONTINUOUS
 62
     7
 10
-22.6643341799352
 20
72.91169584865628
 30
0.0
 11
-22.70587058620779
 21
72.93795484635402
 31
0.0
  0
LINE
  5
89
  8
0
  6
CONTINUOUS
 62
     7
 10
-22.70587058620779
 20
72.93795484635402
 30
0.0
 11
-22.74864626564316
 21
72.96214750070209
 31
0.0
  0
LINE
  5
8A
  8
0
  6
CONTINUOUS
 62
     7
 10
-22.74864626564316
 20
72.96214750070209
 30
0.0
 11
-22.79255816788284
 21
72.98421552947717
 31
0.0
  0
LINE
  5
8B
  8
0
  6
CONTINUOUS
 62
     7
 10
-22.79255816788284
 20
72.98421552947717
 30
0.0
 11
-22.83750050530808
 21
73.00410576886502
 31
0.0
  0
LINE
  5
8C
  8
0
  6
CONTINUOUS
 62
     7
 10
-22.83750050530808
 20
73.00410576886502
 30
0.0
 11
-22.88336500789155
 21
73.02177030153675
 31
0.0
  0
LINE
  5
8D
  8
0
  6
CONTINUOUS
 62
     7
 10
-22.88336500789155
 20
73.02177030153675
 30
0.0
 11
-22.9300411840293
 21
73.03716657208595
 31
0.0
  0
LINE
  5
8E
  8
0
  6
CONTINUOUS
 62
     7
 10
-22.9300411840293
 20
73.03716657208595
 30
0.0
 11
-22.97741658672464
 21
73.05025748954827
 31
0.0
  0
LINE
  5
8F
  8
0
  6
CONTINUOUS
 62
     7
 10
-22.97741658672464
 20
73.05025748954827
 30
0.0
 11
-23.02537708448289
 21
73.06101151675695
 31
0.0
  0
LINE
  5
90
  8
0
  6
CONTINUOUS
 62
     7
 10
-23.02537708448289
 20
73.06101151675695
 30
0.0
 11
-23.07380713626408
 21
73.06940274631852
 31
0.0
  0
LINE
  5
91
  8
0
  6
CONTINUOUS
 62
     7
 10
-23.07380713626408
 20
73.06940274631852
 30
0.0
 11
-23.12259006983156
 21
73.07541096302592
 31
0.0
  0
LINE
  5
92
  8
0
  6
CONTINUOUS
 62
     7
 10
-23.12259006983156
 20
73.07541096302592
 30
0.0
 11
-23.17160836282542
 21
73.0790216925589
 31
0.0
  0
LINE
  5
93
  8
0
  6
CONTINUOUS
 62
     7
 10
-23.17160836282542
 20
73.0790216925589
 30
0.0
 11
-23.22074392588437
 21
73.08022623635374
 31
0.0
  0
LINE
  5
94
  8
0
  6
CONTINUOUS
 62
     7
 10
-13.80784637511434
 20
67.08022623635374
 30
0.0
 11
-13.78337255467951
 21
67.08022623635374
 31
0.0
  0
LINE
  5
95
  8
0
  6
CONTINUOUS
 62
     7
 10
-13.78337255467951
 20
67.08022623635374
 30
0.0
 11
-13.78108577587447
 21
72.08022623635368
 31
0.0
  0
LINE
  5
96
  8
0
  6
CONTINUOUS
 62
     7
 10
-12.77925607411554
 20
73.08022623635374
 30
0.0
 11
-12.8283916371745
 21
73.0790216925589
 31
0.0
  0
LINE
  5
97
  8
0
  6
CONTINUOUS
 62
     7
 10
-12.8283916371745
 20
73.0790216925589
 30
0.0
 11
-12.87740993016835
 21
73.07541096302592
 31
0.0
  0
LINE
  5
98
  8
0
  6
CONTINUOUS
 62
     7
 10
-12.87740993016835
 20
73.07541096302592
 30
0.0
 11
-12.92619286373581
 21
73.06940274631852
 31
0.0
  0
LINE
  5
99
  8
0
  6
CONTINUOUS
 62
     7
 10
-12.92619286373581
 20
73.06940274631852
 30
0.0
 11
-12.97462291551701
 21
73.06101151675695
 31
0.0
  0
LINE
  5
9A
  8
0
  6
CONTINUOUS
 62
     7
 10
-12.97462291551701
 20
73.06101151675695
 30
0.0
 11
-13.02258341327528
 21
73.05025748954827
 31
0.0
  0
LINE
  5
9B
  8
0
  6
CONTINUOUS
 62
     7
 10
-13.02258341327528
 20
73.05025748954827
 30
0.0
 11
-13.06995881597062
 21
73.03716657208595
 31
0.0
  0
LINE
  5
9C
  8
0
  6
CONTINUOUS
 62
     7
 10
-13.06995881597062
 20
73.03716657208595
 30
0.0
 11
-13.11663499210836
 21
73.02177030153675
 31
0.0
  0
LINE
  5
9D
  8
0
  6
CONTINUOUS
 62
     7
 10
-13.11663499210836
 20
73.02177030153675
 30
0.0
 11
-13.16249949469185
 21
73.00410576886502
 31
0.0
  0
LINE
  5
9E
  8
0
  6
CONTINUOUS
 62
     7
 10
-13.16249949469185
 20
73.00410576886502
 30
0.0
 11
-13.2074418321171
 21
72.98421552947717
 31
0.0
  0
LINE
  5
9F
  8
0
  6
CONTINUOUS
 62
     7
 10
-13.2074418321171
 20
72.98421552947717
 30
0.0
 11
-13.25135373435675
 21
72.96214750070207
 31
0.0
  0
LINE
  5
A0
  8
0
  6
CONTINUOUS
 62
     7
 10
-13.25135373435675
 20
72.96214750070207
 30
0.0
 11
-13.29412941379213
 21
72.93795484635399
 31
0.0
  0
LINE
  5
A1
  8
0
  6
CONTINUOUS
 62
     7
 10
-13.29412941379213
 20
72.93795484635399
 30
0.0
 11
-13.33566582006471
 21
72.91169584865625
 31
0.0
  0
LINE
  5
A2
  8
0
  6
CONTINUOUS
 62
     7
 10
-13.33566582006471
 20
72.91169584865625
 30
0.0
 11
-13.37586288833366
 21
72.88343376783438
 31
0.0
  0
LINE
  5
A3
  8
0
  6
CONTINUOUS
 62
     7
 10
-13.37586288833366
 20
72.88343376783438
 30
0.0
 11
-13.41462378034067
 21
72.85323668971647
 31
0.0
  0
LINE
  5
A4
  8
0
  6
CONTINUOUS
 62
     7
 10
-13.41462378034067
 20
72.85323668971647
 30
0.0
 11
-13.45185511770182
 21
72.82117736170868
 31
0.0
  0
LINE
  5
A5
  8
0
  6
CONTINUOUS
 62
     7
 10
-13.45185511770182
 20
72.82117736170868
 30
0.0
 11
-13.48746720686433
 21
72.78733301754025
 31
0.0
  0
LINE
  5
A6
  8
0
  6
CONTINUOUS
 62
     7
 10
-13.48746720686433
 20
72.78733301754025
 30
0.0
 11
-13.52137425518619
 21
72.75178519120074
 31
0.0
  0
LINE
  5
A7
  8
0
  6
CONTINUOUS
 62
     7
 10
-13.52137425518619
 20
72.75178519120074
 30
0.0
 11
-13.55349457761805
 21
72.71461952051736
 31
0.0
  0
LINE
  5
A8
  8
0
  6
CONTINUOUS
 62
     7
 10
-13.55349457761805
 20
72.71461952051736
 30
0.0
 11
-13.58375079348979
 21
72.67592554084615
 31
0.0
  0
LINE
  5
A9
  8
0
  6
CONTINUOUS
 62
     7
 10
-13.58375079348979
 20
72.67592554084615
 30
0.0
 11
-13.61207001292722
 21
72.63579646937332
 31
0.0
  0
LINE
  5
AA
  8
0
  6
CONTINUOUS
 62
     7
 10
-13.61207001292722
 20
72.63579646937332
 30
0.0
 11
-13.63838401245027
 21
72.59432898054693
 31
0.0
  0
LINE
  5
AB
  8
0
  6
CONTINUOUS
 62
     7
 10
-13.63838401245027
 20
72.59432898054693
 30
0.0
 11
-13.66262939932922
 21
72.55162297317972
 31
0.0
  0
LINE
  5
AC
  8
0
  6
CONTINUOUS
 62
     7
 10
-13.66262939932922
 20
72.55162297317972
 30
0.0
 11
-13.68474776430346
 21
72.507781329784
 31
0.0
  0
LINE
  5
AD
  8
0
  6
CONTINUOUS
 62
     7
 10
-13.68474776430346
 20
72.507781329784
 30
0.0
 11
-13.70468582229439
 21
72.4629096687188
 31
0.0
  0
LINE
  5
AE
  8
0
  6
CONTINUOUS
 62
     7
 10
-13.70468582229439
 20
72.4629096687188
 30
0.0
 11
-13.72239554077401
 21
72.4171160897459
 31
0.0
  0
LINE
  5
AF
  8
0
  6
CONTINUOUS
 62
     7
 10
-13.72239554077401
 20
72.4171160897459
 30
0.0
 11
-13.73783425547928
 21
72.37051091360816
 31
0.0
  0
LINE
  5
B0
  8
0
  6
CONTINUOUS
 62
     7
 10
-13.73783425547928
 20
72.37051091360816
 30
0.0
 11
-13.75096477319418
 21
72.32320641625698
 31
0.0
  0
LINE
  5
B1
  8
0
  6
CONTINUOUS
 62
     7
 10
-13.75096477319418
 20
72.32320641625698
 30
0.0
 11
-13.76175546135146
 21
72.27531655836982
 31
0.0
  0
LINE
  5
B2
  8
0
  6
CONTINUOUS
 62
     7
 10
-13.76175546135146
 20
72.27531655836982
 30
0.0
 11
-13.77018032423823
 21
72.22695671080906
 31
0.0
  0
LINE
  5
B3
  8
0
  6
CONTINUOUS
 62
     7
 10
-13.77018032423823
 20
72.22695671080906
 30
0.0
 11
-13.77621906562178
 21
72.17824337668327
 31
0.0
  0
LINE
  5
B4
  8
0
  6
CONTINUOUS
 62
     7
 10
-13.77621906562178
 20
72.17824337668327
 30
0.0
 11
-13.77985713764526
 21
72.12929391068113
 31
0.0
  0
LINE
  5
B5
  8
0
  6
CONTINUOUS
 62
     7
 10
-13.77985713764526
 20
72.12929391068113
 30
0.0
 11
-13.78108577587447
 21
72.08022623635368
 31
0.0
  0
LINE
  5
B6
  8
0
  6
CONTINUOUS
 62
     7
 10
-12.77925607411554
 20
73.08022623635374
 30
0.0
 11
-11.08726867790756
 21
73.08022623635374
 31
0.0
  0
LINE
  5
B7
  8
0
  6
CONTINUOUS
 62
     7
 10
-11.00174537355812
 20
63.28022623635373
 30
0.0
 11
-11.08726867790756
 21
73.08022623635374
 31
0.0
  0
LINE
  5
B8
  8
0
  6
CONTINUOUS
 62
     7
 10
-12.77925607411554
 20
73.08022623635374
 30
0.0
 11
-13.52689006264043
 21
73.08022623635374
 31
0.0
  0
LINE
  5
B9
  8
0
  6
CONTINUOUS
 62
     7
 10
-22.47310993735945
 20
73.08022623635374
 30
0.0
 11
-23.22074392588437
 21
73.08022623635374
 31
0.0
  0
LINE
  5
BA
  8
0
  6
CONTINUOUS
 62
     7
 10
-20.73479461854118
 20
65.08022623635374
 30
0.0
 11
-20.64940285526799
 21
65.07814163669926
 31
0.0
  0
LINE
  5
BB
  8
0
  6
CONTINUOUS
 62
     7
 10
-20.64940285526799
 20
65.07814163669926
 30
0.0
 11
-20.56421452929791
 21
65.07189280408527
 31
0.0
  0
LINE
  5
BC
  8
0
  6
CONTINUOUS
 62
     7
 10
-20.56421452929791
 20
65.07189280408527
 30
0.0
 11
-20.47943259326507
 21
65.06149462572807
 31
0.0
  0
LINE
  5
BD
  8
0
  6
CONTINUOUS
 62
     7
 10
-20.47943259326507
 20
65.06149462572807
 30
0.0
 11
-20.39525903162043
 21
65.04697187424374
 31
0.0
  0
LINE
  5
BE
  8
0
  6
CONTINUOUS
 62
     7
 10
-20.39525903162043
 20
65.04697187424374
 30
0.0
 11
-20.31189437942396
 21
65.02835914862962
 31
0.0
  0
LINE
  5
BF
  8
0
  6
CONTINUOUS
 62
     7
 10
-20.31189437942396
 20
65.02835914862962
 30
0.0
 11
-20.22953724459017
 21
65.00570079183588
 31
0.0
  0
LINE
  5
C0
  8
0
  6
CONTINUOUS
 62
     7
 10
-20.22953724459017
 20
65.00570079183588
 30
0.0
 11
-20.14838383472456
 21
64.9790507851228
 31
0.0
  0
LINE
  5
C1
  8
0
  6
CONTINUOUS
 62
     7
 10
-20.14838383472456
 20
64.9790507851228
 30
0.0
 11
-20.06862748967872
 21
64.94847261945588
 31
0.0
  0
LINE
  5
C2
  8
0
  6
CONTINUOUS
 62
     7
 10
-20.06862748967872
 20
64.94847261945588
 30
0.0
 11
-19.99045822093765
 21
64.91403914424485
 31
0.0
  0
LINE
  5
C3
  8
0
  6
CONTINUOUS
 62
     7
 10
-19.99045822093765
 20
64.91403914424485
 30
0.0
 11
-19.91406225893626
 21
64.87583239378753
 31
0.0
  0
LINE
  5
C4
  8
0
  6
CONTINUOUS
 62
     7
 10
-19.91406225893626
 20
64.87583239378753
 30
0.0
 11
-19.8396216093843
 21
64.83394339183111
 31
0.0
  0
LINE
  5
C5
  8
0
  6
CONTINUOUS
 62
     7
 10
-19.8396216093843
 20
64.83394339183111
 30
0.0
 11
-19.76731361965586
 21
64.7884719347173
 31
0.0
  0
LINE
  5
C6
  8
0
  6
CONTINUOUS
 62
     7
 10
-19.76731361965586
 20
64.7884719347173
 30
0.0
 11
-19.6973105562771
 21
64.73952635362755
 31
0.0
  0
LINE
  5
C7
  8
0
  6
CONTINUOUS
 62
     7
 10
-19.6973105562771
 20
64.73952635362755
 30
0.0
 11
-19.62977919451861
 21
64.68722325649495
 31
0.0
  0
LINE
  5
C8
  8
0
  6
CONTINUOUS
 62
     7
 10
-19.62977919451861
 20
64.68722325649495
 30
0.0
 11
-19.56488042106988
 21
64.63168725019743
 31
0.0
  0
LINE
  5
C9
  8
0
  6
CONTINUOUS
 62
     7
 10
-19.56488042106988
 20
64.63168725019743
 30
0.0
 11
-19.50276885074323
 21
64.57305064369449
 31
0.0
  0
LINE
  5
CA
  8
0
  6
CONTINUOUS
 62
     7
 10
-19.50276885074323
 20
64.57305064369449
 30
0.0
 11
-19.44359245811924
 21
64.51145313281425
 31
0.0
  0
LINE
  5
CB
  8
0
  6
CONTINUOUS
 62
     7
 10
-19.44359245811924
 20
64.51145313281425
 30
0.0
 11
-19.38749222501239
 21
64.44704146744238
 31
0.0
  0
LINE
  5
CC
  8
0
  6
CONTINUOUS
 62
     7
 10
-19.38749222501239
 20
64.44704146744238
 30
0.0
 11
-19.33460180459583
 21
64.379969101905
 31
0.0
  0
LINE
  5
CD
  8
0
  6
CONTINUOUS
 62
     7
 10
-19.33460180459583
 20
64.379969101905
 30
0.0
 11
-19.28504720298627
 21
64.31039582937926
 31
0.0
  0
LINE
  5
CE
  8
0
  6
CONTINUOUS
 62
     7
 10
-19.28504720298627
 20
64.31039582937926
 30
0.0
 11
-19.23894647904702
 21
64.23848740120216
 31
0.0
  0
LINE
  5
CF
  8
0
  6
CONTINUOUS
 62
     7
 10
-19.23894647904702
 20
64.23848740120216
 30
0.0
 11
-19.19640946312459
 21
64.16441513198461
 31
0.0
  0
LINE
  5
D0
  8
0
  6
CONTINUOUS
 62
     7
 10
-19.19640946312459
 20
64.16441513198461
 30
0.0
 11
-19.15753749538893
 21
64.08835549147152
 31
0.0
  0
LINE
  5
D1
  8
0
  6
CONTINUOUS
 62
     7
 10
-19.15753749538893
 20
64.08835549147152
 30
0.0
 11
-19.12242318440058
 21
64.01048968412042
 31
0.0
  0
LINE
  5
D2
  8
0
  6
CONTINUOUS
 62
     7
 10
-19.12242318440058
 20
64.01048968412042
 30
0.0
 11
-19.09115018648023
 21
63.93100321740001
 31
0.0
  0
LINE
  5
D3
  8
0
  6
CONTINUOUS
 62
     7
 10
-19.09115018648023
 20
63.93100321740001
 30
0.0
 11
-19.06379300640576
 21
63.85008545983717
 31
0.0
  0
LINE
  5
D4
  8
0
  6
CONTINUOUS
 62
     7
 10
-19.06379300640576
 20
63.85008545983717
 30
0.0
 11
-19.04041681991214
 21
63.76792918986563
 31
0.0
  0
LINE
  5
D5
  8
0
  6
CONTINUOUS
 62
     7
 10
-19.04041681991214
 20
63.76792918986563
 30
0.0
 11
-19.02107731841689
 21
63.68473013655046
 31
0.0
  0
LINE
  5
D6
  8
0
  6
CONTINUOUS
 62
     7
 10
-19.02107731841689
 20
63.68473013655046
 30
0.0
 11
-19.00582057634072
 21
63.60068651328347
 31
0.0
  0
LINE
  5
D7
  8
0
  6
CONTINUOUS
 62
     7
 10
-19.00582057634072
 20
63.60068651328347
 30
0.0
 11
-18.99468294133986
 21
63.51599854555953
 31
0.0
  0
LINE
  5
D8
  8
0
  6
CONTINUOUS
 62
     7
 10
-18.99468294133986
 20
63.51599854555953
 30
0.0
 11
-18.98769094771164
 21
63.43086799395949
 31
0.0
  0
LINE
  5
D9
  8
0
  6
CONTINUOUS
 62
     7
 10
-18.98769094771164
 20
63.43086799395949
 30
0.0
 11
-18.9848612531789
 21
63.34549767347588
 31
0.0
  0
LINE
  5
DA
  8
0
  6
CONTINUOUS
 62
     7
 10
-22.47310993735945
 20
73.08022623635374
 30
0.0
 11
-13.52689006264043
 21
73.08022623635374
 31
0.0
  0
LINE
  5
DB
  8
0
  6
CONTINUOUS
 62
     7
 10
21.00202858081515
 20
63.28022623635373
 30
0.0
 11
17.64524147727276
 21
63.28022623635373
 31
0.0
  0
LINE
  5
DC
  8
0
  6
CONTINUOUS
 62
     7
 10
17.49999999999999
 20
63.08022623635373
 30
0.0
 11
17.49999999999999
 21
63.28022623635373
 31
0.0
  0
LINE
  5
DD
  8
0
  6
CONTINUOUS
 62
     7
 10
17.49999999999999
 20
63.28022623635373
 30
0.0
 11
17.59938028742042
 21
63.28022623635373
 31
0.0
  0
LINE
  5
DE
  8
0
  6
CONTINUOUS
 62
     7
 10
22.91791180026781
 20
94.98183833803635
 30
0.0
 11
22.50661548658611
 21
94.98873831620926
 31
0.0
  0
LINE
  5
DF
  8
0
  6
CONTINUOUS
 62
     7
 10
22.50661548658611
 20
94.98873831620926
 30
0.0
 11
20.69208297906708
 21
95.08022617549874
 31
0.0
  0
LINE
  5
E0
  8
0
  6
CONTINUOUS
 62
     7
 10
23.40490778277643
 20
95.08022623635381
 30
0.0
 11
23.72536160253513
 21
95.08022623635375
 31
0.0
  0
LINE
  5
E1
  8
0
  6
CONTINUOUS
 62
     7
 10
23.72536160253513
 20
95.08022623635375
 30
0.0
 11
23.85996219989062
 21
95.08022623635375
 31
0.0
  0
LINE
  5
E2
  8
0
  6
CONTINUOUS
 62
     7
 10
23.85996219989062
 20
95.08022623635375
 30
0.0
 11
24.45630778824825
 21
95.08022623635375
 31
0.0
  0
LINE
  5
E3
  8
0
  6
CONTINUOUS
 62
     7
 10
23.40490778277643
 20
95.08022623635381
 30
0.0
 11
22.91791180026781
 21
94.98183833803635
 31
0.0
  0
LINE
  5
E4
  8
0
  6
CONTINUOUS
 62
     7
 10
16.50455666733141
 20
98.58022623635374
 30
0.0
 11
16.28713408614524
 21
98.57868311326797
 31
0.0
  0
LINE
  5
E5
  8
0
  6
CONTINUOUS
 62
     7
 10
16.50455666733139
 20
98.58022623635374
 30
0.0
 11
18.82956649302833
 21
98.58022623635374
 31
0.0
  0
LINE
  5
E6
  8
0
  6
CONTINUOUS
 62
     7
 10
18.82956649302833
 20
98.58022623635374
 30
0.0
 11
20.63150391661875
 21
98.58022623635374
 31
0.0
  0
LINE
  5
E7
  8
0
  6
CONTINUOUS
 62
     7
 10
20.69208297906708
 20
95.08022617549874
 30
0.0
 11
20.61514353552657
 21
95.08005518638527
 31
0.0
  0
LINE
  5
E8
  8
0
  6
CONTINUOUS
 62
     7
 10
20.45866266619076
 20
95.0749826648271
 30
0.0
 11
17.92903390612449
 21
94.78032027579964
 31
0.0
  0
LINE
  5
E9
  8
0
  6
CONTINUOUS
 62
     7
 10
17.92903390612449
 20
94.78032027579964
 30
0.0
 11
15.49330020672079
 21
94.0430293985128
 31
0.0
  0
LINE
  5
EA
  8
0
  6
CONTINUOUS
 62
     7
 10
15.49330020672079
 20
94.0430293985128
 30
0.0
 11
13.2301562924147
 21
92.88693074145829
 31
0.0
  0
LINE
  5
EB
  8
0
  6
CONTINUOUS
 62
     7
 10
13.2301562924147
 20
92.88693074145829
 30
0.0
 11
11.21272078316746
 21
91.34937603371004
 31
0.0
  0
LINE
  5
EC
  8
0
  6
CONTINUOUS
 62
     7
 10
11.21272078316746
 20
91.34937603371004
 30
0.0
 11
9.506173846870386
 21
89.48004124931235
 31
0.0
  0
LINE
  5
ED
  8
0
  6
CONTINUOUS
 62
     7
 10
9.506173846870386
 20
89.48004124931235
 30
0.0
 11
8.165651330648476
 21
87.33932165469813
 31
0.0
  0
LINE
  5
EE
  8
0
  6
CONTINUOUS
 62
     7
 10
1.147801956166566
 20
64.07149970085536
 30
0.0
 11
1.146066088853176
 21
64.022716660579
 31
0.0
  0
LINE
  5
EF
  8
0
  6
CONTINUOUS
 62
     7
 10
1.146066088853176
 20
64.022716660579
 30
0.0
 11
1.141887923484575
 21
63.97407063109326
 31
0.0
  0
LINE
  5
F0
  8
0
  6
CONTINUOUS
 62
     7
 10
1.141887923484575
 20
63.97407063109326
 30
0.0
 11
1.135277414120311
 21
63.92567750667958
 31
0.0
  0
LINE
  5
F1
  8
0
  6
CONTINUOUS
 62
     7
 10
1.135277414120311
 20
63.92567750667958
 30
0.0
 11
1.12625030963534
 21
63.87765257909847
 31
0.0
  0
LINE
  5
F2
  8
0
  6
CONTINUOUS
 62
     7
 10
1.12625030963534
 20
63.87765257909847
 30
0.0
 11
1.114828116199784
 21
63.83011026291836
 31
0.0
  0
LINE
  5
F3
  8
0
  6
CONTINUOUS
 62
     7
 10
1.114828116199784
 20
63.83011026291836
 30
0.0
 11
1.101038046042752
 21
63.78316382293463
 31
0.0
  0
LINE
  5
F4
  8
0
  6
CONTINUOUS
 62
     7
 10
1.101038046042752
 20
63.78316382293463
 30
0.0
 11
1.084912952622002
 21
63.7369251043273
 31
0.0
  0
LINE
  5
F5
  8
0
  6
CONTINUOUS
 62
     7
 10
1.084912952622002
 20
63.7369251043273
 30
0.0
 11
1.066491252353696
 21
63.69150426620133
 31
0.0
  0
LINE
  5
F6
  8
0
  6
CONTINUOUS
 62
     7
 10
1.066491252353696
 20
63.69150426620133
 30
0.0
 11
1.045816833089241
 21
63.64700951914357
 31
0.0
  0
LINE
  5
F7
  8
0
  6
CONTINUOUS
 62
     7
 10
1.045816833089241
 20
63.64700951914357
 30
0.0
 11
1.02293894955699
 21
63.6035468674218
 31
0.0
  0
LINE
  5
F8
  8
0
  6
CONTINUOUS
 62
     7
 10
1.02293894955699
 20
63.6035468674218
 30
0.0
 11
0.997912106017601
 21
63.56121985644035
 31
0.0
  0
LINE
  5
F9
  8
0
  6
CONTINUOUS
 62
     7
 10
0.997912106017601
 20
63.56121985644035
 30
0.0
 11
0.9707959264132482
 21
63.52012932605343
 31
0.0
  0
LINE
  5
FA
  8
0
  6
CONTINUOUS
 62
     7
 10
0.9707959264132482
 20
63.52012932605343
 30
0.0
 11
0.94165501231952
 21
63.48037317032443
 31
0.0
  0
LINE
  5
FB
  8
0
  6
CONTINUOUS
 62
     7
 10
0.94165501231952
 20
63.48037317032443
 30
0.0
 11
0.9105587890386457
 21
63.44204610430307
 31
0.0
  0
LINE
  5
FC
  8
0
  6
CONTINUOUS
 62
     7
 10
0.9105587890386457
 20
63.44204610430307
 30
0.0
 11
0.8775813402007171
 21
63.40523943837629
 31
0.0
  0
LINE
  5
FD
  8
0
  6
CONTINUOUS
 62
     7
 10
0.8775813402007171
 20
63.40523943837629
 30
0.0
 11
0.8428012312667321
 21
63.37004086073045
 31
0.0
  0
LINE
  5
FE
  8
0
  6
CONTINUOUS
 62
     7
 10
0.8428012312667321
 20
63.37004086073045
 30
0.0
 11
0.8063013223545412
 21
63.33653422844304
 31
0.0
  0
LINE
  5
FF
  8
0
  6
CONTINUOUS
 62
     7
 10
0.8063013223545412
 20
63.33653422844304
 30
0.0
 11
0.7681685708327557
 21
63.30479936770161
 31
0.0
  0
LINE
  5
100
  8
0
  6
CONTINUOUS
 62
     7
 10
0.7681685708327557
 20
63.30479936770161
 30
0.0
 11
0.7284938241534644
 21
63.27491188362583
 31
0.0
  0
LINE
  5
101
  8
0
  6
CONTINUOUS
 62
     7
 10
0.7284938241534644
 20
63.27491188362583
 30
0.0
 11
0.6873716034175859
 21
63.24694298014597
 31
0.0
  0
LINE
  5
102
  8
0
  6
CONTINUOUS
 62
     7
 10
0.6873716034175859
 20
63.24694298014597
 30
0.0
 11
0.6448998781874715
 21
63.22095929036666
 31
0.0
  0
LINE
  5
103
  8
0
  6
CONTINUOUS
 62
     7
 10
0.6448998781874715
 20
63.22095929036666
 30
0.0
 11
0.6011798330845808
 21
63.19702271782011
 31
0.0
  0
LINE
  5
104
  8
0
  6
CONTINUOUS
 62
     7
 10
0.6011798330845808
 20
63.19702271782011
 30
0.0
 11
0.5563156267270886
 21
63.17519028898737
 31
0.0
  0
LINE
  5
105
  8
0
  6
CONTINUOUS
 62
     7
 10
0.5563156267270886
 20
63.17519028898737
 30
0.0
 11
0.5104141435825216
 21
63.15551401743823
 31
0.0
  0
LINE
  5
106
  8
0
  6
CONTINUOUS
 62
     7
 10
0.5104141435825216
 20
63.15551401743823
 30
0.0
 11
0.4635847393261727
 21
63.13804077991423
 31
0.0
  0
LINE
  5
107
  8
0
  6
CONTINUOUS
 62
     7
 10
0.4635847393261727
 20
63.13804077991423
 30
0.0
 11
0.4159389803122804
 21
63.12281220464964
 31
0.0
  0
LINE
  5
108
  8
0
  6
CONTINUOUS
 62
     7
 10
0.4159389803122804
 20
63.12281220464964
 30
0.0
 11
0.3675903777782819
 21
63.10986457219608
 31
0.0
  0
LINE
  5
109
  8
0
  6
CONTINUOUS
 62
     7
 10
0.3675903777782819
 20
63.10986457219608
 30
0.0
 11
0.3186541174157453
 21
63.099228728988
 31
0.0
  0
LINE
  5
10A
  8
0
  6
CONTINUOUS
 62
     7
 10
0.3186541174157453
 20
63.099228728988
 30
0.0
 11
0.2692467849520763
 21
63.09093001385411
 31
0.0
  0
LINE
  5
10B
  8
0
  6
CONTINUOUS
 62
     7
 10
0.2692467849520763
 20
63.09093001385411
 30
0.0
 11
0.2194860883965866
 21
63.08498819764998
 31
0.0
  0
LINE
  5
10C
  8
0
  6
CONTINUOUS
 62
     7
 10
0.2194860883965866
 20
63.08498819764998
 30
0.0
 11
0.1694905776131184
 21
63.08141743615629
 31
0.0
  0
LINE
  5
10D
  8
0
  6
CONTINUOUS
 62
     7
 10
0.1694905776131184
 20
63.08141743615629
 30
0.0
 11
0.1193793618868288
 21
63.08022623635373
 31
0.0
  0
LINE
  5
10E
  8
0
  6
CONTINUOUS
 62
     7
 10
25.23270444848663
 20
98.28396632949904
 30
0.0
 11
23.38299174828412
 21
98.56008926642592
 31
0.0
  0
LINE
  5
10F
  8
0
  6
CONTINUOUS
 62
     7
 10
20.63150391661869
 20
98.58022623635374
 30
0.0
 11
22.61683293225444
 21
98.58022623635374
 31
0.0
  0
LINE
  5
110
  8
0
  6
CONTINUOUS
 62
     7
 10
20.84644229016297
 20
95.08022623635375
 30
0.0
 11
20.28750089567505
 21
95.08022623635375
 31
0.0
  0
LINE
  5
111
  8
0
  6
CONTINUOUS
 62
     7
 10
24.45630778824825
 20
95.08022623635375
 30
0.0
 11
25.27410519217504
 21
95.08022623635375
 31
0.0
  0
LINE
  5
112
  8
0
  6
CONTINUOUS
 62
     7
 10
26.05519068910178
 20
97.31226297675316
 30
0.0
 11
26.0543698637121
 21
97.3104455249236
 31
0.0
  0
LINE
  5
113
  8
0
  6
CONTINUOUS
 62
     7
 10
17.37595133561273
 20
93.98877352612084
 30
0.0
 11
20.4272529539303
 21
94.89148477781895
 31
0.0
  0
LINE
  5
114
  8
0
  6
CONTINUOUS
 62
     7
 10
20.4272529539303
 20
94.89148477781895
 30
0.0
 11
20.92413255023731
 21
94.96823498764867
 31
0.0
  0
LINE
  5
115
  8
0
  6
CONTINUOUS
 62
     7
 10
20.92413255023731
 20
94.96823498764867
 30
0.0
 11
21.66058936618906
 21
95.0458447354379
 31
0.0
  0
LINE
  5
116
  8
0
  6
CONTINUOUS
 62
     7
 10
23.38299174828412
 20
98.56008926642592
 30
0.0
 11
22.61683293225441
 21
98.58022623635374
 31
0.0
  0
LINE
  5
117
  8
0
  6
CONTINUOUS
 62
     7
 10
17.37595133561273
 20
93.98877352612084
 30
0.0
 11
14.98124529735387
 21
92.68971502270986
 31
0.0
  0
LINE
  5
118
  8
0
  6
CONTINUOUS
 62
     7
 10
14.98124529735387
 20
92.68971502270986
 30
0.0
 11
12.88403253416404
 21
90.94811318143395
 31
0.0
  0
LINE
  5
119
  8
0
  6
CONTINUOUS
 62
     7
 10
12.88403253416404
 20
90.94811318143395
 30
0.0
 11
11.16425692242867
 21
88.83035630812236
 31
0.0
  0
LINE
  5
11A
  8
0
  6
CONTINUOUS
 62
     7
 10
11.16425692242867
 20
88.83035630812236
 30
0.0
 11
9.887474771611698
 21
86.41717140227945
 31
0.0
  0
LINE
  5
11B
  8
0
  6
CONTINUOUS
 62
     7
 10
9.887474771611698
 20
86.41717140227945
 30
0.0
 11
9.102355876322187
 21
83.80054691600414
 31
0.0
  0
LINE
  5
11C
  8
0
  6
CONTINUOUS
 62
     7
 10
9.102355876322187
 20
83.80054691600414
 30
0.0
 11
8.838828267237197
 21
81.08022623640029
 31
0.0
  0
LINE
  5
11D
  8
0
  6
CONTINUOUS
 62
     7
 10
8.701693202021326
 20
81.08022623635372
 30
0.0
 11
8.838818311176805
 21
81.08022623635372
 31
0.0
  0
LINE
  5
11E
  8
0
  6
CONTINUOUS
 62
     7
 10
17.3759513356127
 20
93.98877352612084
 30
0.0
 11
17.38340305432323
 21
93.99170944648019
 31
0.0
  0
LINE
  5
11F
  8
0
  6
CONTINUOUS
 62
     7
 10
8.838828266438503
 20
81.080226734725
 30
0.0
 11
8.84453576293176
 21
81.08139144710385
 31
0.0
  0
LINE
  5
120
  8
0
  6
CONTINUOUS
 62
     7
 10
16.28713408614524
 20
98.57868311326797
 30
0.0
 11
15.78874237542066
 21
98.56349215832866
 31
0.0
  0
LINE
  5
121
  8
0
  6
CONTINUOUS
 62
     7
 10
15.78874237542066
 20
98.56349215832866
 30
0.0
 11
15.35368364773634
 21
98.53693182438546
 31
0.0
  0
LINE
  5
122
  8
0
  6
CONTINUOUS
 62
     7
 10
15.35368364773634
 20
98.53693182438546
 30
0.0
 11
12.4225259931075
 21
98.02619229699295
 31
0.0
  0
LINE
  5
123
  8
0
  6
CONTINUOUS
 62
     7
 10
12.4225259931075
 20
98.02619229699295
 30
0.0
 11
9.648285198478435
 21
96.95866224541847
 31
0.0
  0
LINE
  5
124
  8
0
  6
CONTINUOUS
 62
     7
 10
9.648285198478435
 20
96.95866224541847
 30
0.0
 11
7.137888760408634
 21
95.37548745489372
 31
0.0
  0
LINE
  5
125
  8
0
  6
CONTINUOUS
 62
     7
 10
7.137888760408634
 20
95.37548745489372
 30
0.0
 11
4.988094828736661
 21
93.33768819348448
 31
0.0
  0
LINE
  5
126
  8
0
  6
CONTINUOUS
 62
     7
 10
8.843463636683675
 20
81.08191079588633
 30
0.0
 11
8.839042373935873
 21
81.08257593237144
 31
0.0
  0
LINE
  5
127
  8
0
  6
CONTINUOUS
 62
     7
 10
9.000000000000007
 20
61.08022623635373
 30
0.0
 11
9.000000000000007
 21
63.08022623635373
 31
0.0
  0
LINE
  5
128
  8
0
  6
CONTINUOUS
 62
     7
 10
9.500000000000009
 20
61.08022623635373
 30
0.0
 11
9.000000000000007
 21
61.08022623635373
 31
0.0
  0
LINE
  5
129
  8
0
  6
CONTINUOUS
 62
     7
 10
9.000000000000007
 20
63.08022623635373
 30
0.0
 11
9.500000000000009
 21
63.08022623635373
 31
0.0
  0
LINE
  5
12A
  8
0
  6
CONTINUOUS
 62
     7
 10
14.49999999999998
 20
63.08022623635373
 30
0.0
 11
14.50000000000001
 21
61.08022623635373
 31
0.0
  0
LINE
  5
12B
  8
0
  6
CONTINUOUS
 62
     7
 10
14.50000000000001
 20
61.08022623635373
 30
0.0
 11
14.00000000000001
 21
61.08022623635373
 31
0.0
  0
LINE
  5
12C
  8
0
  6
CONTINUOUS
 62
     7
 10
14.00000000000001
 20
63.08022623635373
 30
0.0
 11
14.50000000000001
 21
63.08022623635373
 31
0.0
  0
LINE
  5
12D
  8
0
  6
CONTINUOUS
 62
     7
 10
14.00000000000001
 20
61.08022623635373
 30
0.0
 11
9.500000000000009
 21
61.08022623635373
 31
0.0
  0
LINE
  5
12E
  8
0
  6
CONTINUOUS
 62
     7
 10
9.500000000000009
 20
63.08022623635373
 30
0.0
 11
14.00000000000001
 21
63.08022623635373
 31
0.0
  0
LINE
  5
12F
  8
0
  6
CONTINUOUS
 62
     7
 10
0.5000000000000004
 20
63.08022623635373
 30
0.0
 11
-4.000000000000004
 21
63.08022623635373
 31
0.0
  0
LINE
  5
130
  8
0
  6
CONTINUOUS
 62
     7
 10
-4.000000000000004
 20
61.08022623635373
 30
0.0
 11
0.5000000000000004
 21
61.08022623635373
 31
0.0
  0
LINE
  5
131
  8
0
  6
CONTINUOUS
 62
     7
 10
-4.500000000000004
 20
61.08022623635373
 30
0.0
 11
-4.49999999999999
 21
63.08022623635373
 31
0.0
  0
LINE
  5
132
  8
0
  6
CONTINUOUS
 62
     7
 10
-4.500000000000004
 20
63.08022623635373
 30
0.0
 11
-4.000000000000004
 21
63.08022623635373
 31
0.0
  0
LINE
  5
133
  8
0
  6
CONTINUOUS
 62
     7
 10
-4.000000000000004
 20
61.08022623635373
 30
0.0
 11
-4.500000000000004
 21
61.08022623635373
 31
0.0
  0
LINE
  5
134
  8
0
  6
CONTINUOUS
 62
     7
 10
1.000000000000001
 20
63.08022623635373
 30
0.0
 11
1.000000000000001
 21
61.08022623635373
 31
0.0
  0
LINE
  5
135
  8
0
  6
CONTINUOUS
 62
     7
 10
0.5000000000000004
 20
63.08022623635373
 30
0.0
 11
1.000000000000001
 21
63.08022623635373
 31
0.0
  0
LINE
  5
136
  8
0
  6
CONTINUOUS
 62
     7
 10
1.000000000000001
 20
61.08022623635373
 30
0.0
 11
0.5000000000000004
 21
61.08022623635373
 31
0.0
  0
ARC
  5
137
  8
0
  6
CONTINUOUS
 62
     7
 10
-1.750000000000002
 20
63.08022623635373
 30
0.0
 40
1.500000000000001
 50
90.0
 51
180.0
  0
ARC
  5
138
  8
0
  6
CONTINUOUS
 62
     7
 10
11.75000000000001
 20
63.08022623635373
 30
0.0
 40
1.500000000000001
 50
90.0
 51
180.0
  0
ARC
  5
139
  8
0
  6
CONTINUOUS
 62
     7
 10
-1.750000000000002
 20
63.08022623635373
 30
0.0
 40
1.500000000000001
 50
0.0
 51
90.0
  0
ARC
  5
13A
  8
0
  6
CONTINUOUS
 62
     7
 10
11.75000000000001
 20
63.08022623635373
 30
0.0
 40
1.500000000000001
 50
359.9999999999998
 51
90.0
  0
LINE
  5
13B
  8
0
  6
CONTINUOUS
 62
     7
 10
14.50000000000001
 20
61.08022623635373
 30
0.0
 11
15.00000000000001
 21
61.08022623635373
 31
0.0
  0
LINE
  5
13C
  8
0
  6
CONTINUOUS
 62
     7
 10
15.00000000000001
 20
63.08022623635373
 30
0.0
 11
14.50000000000001
 21
63.08022623635373
 31
0.0
  0
LINE
  5
13D
  8
0
  6
CONTINUOUS
 62
     7
 10
-4.500000000000004
 20
63.08022623635373
 30
0.0
 11
-5.000000000000004
 21
63.08022623635373
 31
0.0
  0
LINE
  5
13E
  8
0
  6
CONTINUOUS
 62
     7
 10
-5.000000000000004
 20
61.08022623635373
 30
0.0
 11
-4.500000000000004
 21
61.08022623635373
 31
0.0
  0
LINE
  5
13F
  8
0
  6
CONTINUOUS
 62
     7
 10
8.500000000000007
 20
61.08022623635373
 30
0.0
 11
9.000000000000007
 21
61.08022623635373
 31
0.0
  0
LINE
  5
140
  8
0
  6
CONTINUOUS
 62
     7
 10
9.000000000000007
 20
63.08022623635373
 30
0.0
 11
8.500000000000007
 21
63.08022623635373
 31
0.0
  0
LINE
  5
141
  8
0
  6
CONTINUOUS
 62
     7
 10
1.500000000000001
 20
63.08022623635373
 30
0.0
 11
1.000000000000001
 21
63.08022623635373
 31
0.0
  0
LINE
  5
142
  8
0
  6
CONTINUOUS
 62
     7
 10
1.000000000000001
 20
61.08022623635373
 30
0.0
 11
1.500000000000001
 21
61.08022623635373
 31
0.0
  0
LINE
  5
143
  8
0
  6
CONTINUOUS
 62
     7
 10
4.699999999999982
 20
63.08022623635373
 30
0.0
 11
4.999999999999977
 21
62.78022623635373
 31
0.0
  0
LINE
  5
144
  8
0
  6
CONTINUOUS
 62
     7
 10
4.999999999999977
 20
62.78022623635373
 30
0.0
 11
5.299999999999944
 21
63.0802262363537
 31
0.0
  0
LINE
  5
145
  8
0
  6
CONTINUOUS
 62
     7
 10
1.500000000000001
 20
63.08022623635373
 30
0.0
 11
4.699999999999982
 21
63.08022623635373
 31
0.0
  0
LINE
  5
146
  8
0
  6
CONTINUOUS
 62
     7
 10
8.500000000000007
 20
61.08022623635373
 30
0.0
 11
1.500000000000002
 21
61.08022623635373
 31
0.0
  0
LINE
  5
147
  8
0
  6
CONTINUOUS
 62
     7
 10
5.299999999999944
 20
63.0802262363537
 30
0.0
 11
8.500000000000007
 21
63.08022623635373
 31
0.0
  0
LINE
  5
148
  8
0
  6
CONTINUOUS
 62
     7
 10
-18.96509252883696
 20
61.08022623635373
 30
0.0
 11
-18.99999999999999
 21
65.08022623635374
 31
0.0
  0
LINE
  5
149
  8
0
  6
CONTINUOUS
 62
     7
 10
-18.99999999999999
 20
65.08022623635374
 30
0.0
 11
-21.26520538145879
 21
65.08022623635374
 31
0.0
  0
LINE
  5
14A
  8
0
  6
CONTINUOUS
 62
     7
 10
-23.01513874682108
 20
63.34549767347588
 30
0.0
 11
-23.01230905228835
 21
63.4308679939595
 31
0.0
  0
LINE
  5
14B
  8
0
  6
CONTINUOUS
 62
     7
 10
-23.01230905228835
 20
63.4308679939595
 30
0.0
 11
-23.00531705866009
 21
63.51599854555953
 31
0.0
  0
LINE
  5
14C
  8
0
  6
CONTINUOUS
 62
     7
 10
-23.00531705866009
 20
63.51599854555953
 30
0.0
 11
-22.99417942365926
 21
63.60068651328347
 31
0.0
  0
LINE
  5
14D
  8
0
  6
CONTINUOUS
 62
     7
 10
-22.99417942365926
 20
63.60068651328347
 30
0.0
 11
-22.97892268158308
 21
63.68473013655046
 31
0.0
  0
LINE
  5
14E
  8
0
  6
CONTINUOUS
 62
     7
 10
-22.97892268158308
 20
63.68473013655046
 30
0.0
 11
-22.95958318008781
 21
63.76792918986563
 31
0.0
  0
LINE
  5
14F
  8
0
  6
CONTINUOUS
 62
     7
 10
-22.95958318008781
 20
63.76792918986563
 30
0.0
 11
-22.93620699359422
 21
63.85008545983718
 31
0.0
  0
LINE
  5
150
  8
0
  6
CONTINUOUS
 62
     7
 10
-22.93620699359422
 20
63.85008545983718
 30
0.0
 11
-22.90884981351972
 21
63.93100321740001
 31
0.0
  0
LINE
  5
151
  8
0
  6
CONTINUOUS
 62
     7
 10
-22.90884981351972
 20
63.93100321740001
 30
0.0
 11
-22.87757681559938
 21
64.01048968412042
 31
0.0
  0
LINE
  5
152
  8
0
  6
CONTINUOUS
 62
     7
 10
-22.87757681559938
 20
64.01048968412042
 30
0.0
 11
-22.84246250461103
 21
64.08835549147152
 31
0.0
  0
LINE
  5
153
  8
0
  6
CONTINUOUS
 62
     7
 10
-22.84246250461103
 20
64.08835549147152
 30
0.0
 11
-22.80359053687538
 21
64.16441513198461
 31
0.0
  0
LINE
  5
154
  8
0
  6
CONTINUOUS
 62
     7
 10
-22.80359053687538
 20
64.16441513198461
 30
0.0
 11
-22.76105352095295
 21
64.23848740120216
 31
0.0
  0
LINE
  5
155
  8
0
  6
CONTINUOUS
 62
     7
 10
-22.76105352095295
 20
64.23848740120216
 30
0.0
 11
-22.71495279701369
 21
64.31039582937926
 31
0.0
  0
LINE
  5
156
  8
0
  6
CONTINUOUS
 62
     7
 10
-22.71495279701369
 20
64.31039582937926
 30
0.0
 11
-22.66539819540414
 21
64.379969101905
 31
0.0
  0
LINE
  5
157
  8
0
  6
CONTINUOUS
 62
     7
 10
-22.66539819540414
 20
64.379969101905
 30
0.0
 11
-22.61250777498756
 21
64.44704146744238
 31
0.0
  0
LINE
  5
158
  8
0
  6
CONTINUOUS
 62
     7
 10
-22.61250777498756
 20
64.44704146744238
 30
0.0
 11
-22.55640754188069
 21
64.51145313281425
 31
0.0
  0
LINE
  5
159
  8
0
  6
CONTINUOUS
 62
     7
 10
-22.55640754188069
 20
64.51145313281425
 30
0.0
 11
-22.49723114925672
 21
64.57305064369449
 31
0.0
  0
LINE
  5
15A
  8
0
  6
CONTINUOUS
 62
     7
 10
-22.49723114925672
 20
64.57305064369449
 30
0.0
 11
-22.43511957893009
 21
64.63168725019743
 31
0.0
  0
LINE
  5
15B
  8
0
  6
CONTINUOUS
 62
     7
 10
-22.43511957893009
 20
64.63168725019743
 30
0.0
 11
-22.37022080548138
 21
64.68722325649495
 31
0.0
  0
LINE
  5
15C
  8
0
  6
CONTINUOUS
 62
     7
 10
-22.37022080548138
 20
64.68722325649495
 30
0.0
 11
-22.30268944372285
 21
64.73952635362755
 31
0.0
  0
LINE
  5
15D
  8
0
  6
CONTINUOUS
 62
     7
 10
-22.30268944372285
 20
64.73952635362755
 30
0.0
 11
-22.23268638034411
 21
64.78847193471731
 31
0.0
  0
LINE
  5
15E
  8
0
  6
CONTINUOUS
 62
     7
 10
-22.23268638034411
 20
64.78847193471731
 30
0.0
 11
-22.16037839061566
 21
64.83394339183111
 31
0.0
  0
LINE
  5
15F
  8
0
  6
CONTINUOUS
 62
     7
 10
-22.16037839061566
 20
64.83394339183111
 30
0.0
 11
-22.08593774106371
 21
64.87583239378753
 31
0.0
  0
LINE
  5
160
  8
0
  6
CONTINUOUS
 62
     7
 10
-22.08593774106371
 20
64.87583239378753
 30
0.0
 11
-22.00954177906232
 21
64.91403914424485
 31
0.0
  0
LINE
  5
161
  8
0
  6
CONTINUOUS
 62
     7
 10
-22.00954177906232
 20
64.91403914424485
 30
0.0
 11
-21.93137251032123
 21
64.94847261945588
 31
0.0
  0
LINE
  5
162
  8
0
  6
CONTINUOUS
 62
     7
 10
-21.93137251032123
 20
64.94847261945588
 30
0.0
 11
-21.85161616527541
 21
64.9790507851228
 31
0.0
  0
LINE
  5
163
  8
0
  6
CONTINUOUS
 62
     7
 10
-21.85161616527541
 20
64.9790507851228
 30
0.0
 11
-21.7704627554098
 21
65.00570079183588
 31
0.0
  0
LINE
  5
164
  8
0
  6
CONTINUOUS
 62
     7
 10
-21.7704627554098
 20
65.00570079183588
 30
0.0
 11
-21.68810562057602
 21
65.02835914862962
 31
0.0
  0
LINE
  5
165
  8
0
  6
CONTINUOUS
 62
     7
 10
-21.68810562057602
 20
65.02835914862962
 30
0.0
 11
-21.60474096837955
 21
65.04697187424374
 31
0.0
  0
LINE
  5
166
  8
0
  6
CONTINUOUS
 62
     7
 10
-21.60474096837955
 20
65.04697187424374
 30
0.0
 11
-21.52056740673489
 21
65.06149462572807
 31
0.0
  0
LINE
  5
167
  8
0
  6
CONTINUOUS
 62
     7
 10
-21.52056740673489
 20
65.06149462572807
 30
0.0
 11
-21.43578547070206
 21
65.07189280408527
 31
0.0
  0
LINE
  5
168
  8
0
  6
CONTINUOUS
 62
     7
 10
-21.43578547070206
 20
65.07189280408527
 30
0.0
 11
-21.35059714473197
 21
65.07814163669926
 31
0.0
  0
LINE
  5
169
  8
0
  6
CONTINUOUS
 62
     7
 10
-21.35059714473197
 20
65.07814163669926
 30
0.0
 11
-21.26520538145879
 21
65.08022623635374
 31
0.0
  0
LINE
  5
16A
  8
0
  6
CONTINUOUS
 62
     7
 10
-23.03490747116303
 20
61.08022623635373
 30
0.0
 11
-24.60694165537719
 21
61.08022623635373
 31
0.0
  0
LINE
  5
16B
  8
0
  6
CONTINUOUS
 62
     7
 10
-24.99999999999999
 20
68.58022623635368
 30
0.0
 11
-30.0
 21
73.58022623635371
 31
0.0
  0
LINE
  5
16C
  8
0
  6
CONTINUOUS
 62
     7
 10
-30.0
 20
73.58022623635371
 30
0.0
 11
-29.91254093378851
 21
83.60204257509967
 31
0.0
  0
ARC
  5
16D
  8
0
  6
CONTINUOUS
 62
     7
 10
-27.41263612612807
 20
83.58022623635372
 30
0.0
 40
2.500000000000002
 50
90.0
 51
179.4999999999994
  0
LINE
  5
16E
  8
0
  6
CONTINUOUS
 62
     7
 10
-27.41263612612807
 20
86.08022623635372
 30
0.0
 11
-27.16581048802441
 21
86.08022623635372
 31
0.0
  0
LINE
  5
16F
  8
0
  6
CONTINUOUS
 62
     7
 10
-27.16581048802441
 20
86.08022623635372
 30
0.0
 11
-27.07530409847289
 21
75.70922122956699
 31
0.0
  0
ARC
  5
170
  8
0
  6
CONTINUOUS
 62
     7
 10
-25.07538025234454
 20
75.72667430056373
 30
0.0
 40
2.000000000000002
 50
180.4999999999997
 51
225.0
  0
LINE
  5
171
  8
0
  6
CONTINUOUS
 62
     7
 10
-26.48959381471763
 20
74.31246073819064
 30
0.0
 11
-23.64673390250242
 21
71.46960082597542
 31
0.0
  0
ARC
  5
172
  8
0
  6
CONTINUOUS
 62
     7
 10
-25.06094746487553
 20
70.05538726360233
 30
0.0
 40
2.000000000000002
 50
0.4999999999996869
 51
45.00000000000001
  0
LINE
  5
173
  8
0
  6
CONTINUOUS
 62
     7
 10
-23.06102361874718
 20
70.07284033459906
 30
0.0
 11
-23.05220889610142
 21
69.06277316535697
 31
0.0
  0
ARC
  5
174
  8
0
  6
CONTINUOUS
 62
     7
 10
-21.05228504997307
 20
69.08022623635374
 30
0.0
 40
2.000000000000002
 50
180.5000000000004
 51
270.0
  0
LINE
  5
175
  8
0
  6
CONTINUOUS
 62
     7
 10
-21.05228504997307
 20
67.08022623635374
 30
0.0
 11
-19.01752989235299
 21
67.08022623635374
 31
0.0
  0
ARC
  5
176
  8
0
  6
CONTINUOUS
 62
     7
 10
-19.01752989235299
 20
65.08022623635374
 30
0.0
 40
2.000000000000002
 50
0.4999999999996835
 51
90.00000000000001
  0
LINE
  5
177
  8
0
  6
CONTINUOUS
 62
     7
 10
-17.01760604622464
 20
65.09767930735048
 30
0.0
 11
-17.01730142493837
 21
65.06277316535697
 31
0.0
  0
ARC
  5
178
  8
0
  6
CONTINUOUS
 62
     7
 10
-15.01737757881004
 20
65.08022623635374
 30
0.0
 40
2.000000000000002
 50
180.5000000000004
 51
270.0
  0
LINE
  5
179
  8
0
  6
CONTINUOUS
 62
     7
 10
-23.01513874682108
 20
63.34549767347588
 30
0.0
 11
-23.03490747116303
 21
61.08022623635373
 31
0.0
  0
LINE
  5
17A
  8
0
  6
CONTINUOUS
 62
     7
 10
-24.60694165537719
 20
61.08022623635373
 30
0.0
 11
-24.99999999999999
 21
68.58022623635368
 31
0.0
  0
LINE
  5
17B
  8
0
  6
CONTINUOUS
 62
     7
 10
-15.01737757881004
 20
63.08022623635373
 30
0.0
 11
-5.000000000000004
 21
63.08022623635373
 31
0.0
  0
LINE
  5
17C
  8
0
  6
CONTINUOUS
 62
     7
 10
-5.000000000000004
 20
61.08022623635373
 30
0.0
 11
-18.96509252883696
 21
61.08022623635373
 31
0.0
  0
ARC
  5
17D
  8
0
  6
CONTINUOUS
 62
     7
 10
25.01737757881006
 20
65.08022623635374
 30
0.0
 40
2.000000000000002
 50
270.0
 51
359.4999999999995
  0
LINE
  5
17E
  8
0
  6
CONTINUOUS
 62
     7
 10
27.01760604622466
 20
65.09767930735048
 30
0.0
 11
27.01730142493838
 21
65.06277316535697
 31
0.0
  0
ARC
  5
17F
  8
0
  6
CONTINUOUS
 62
     7
 10
29.01752989235298
 20
65.08022623635374
 30
0.0
 40
2.000000000000002
 50
90.0
 51
179.5000000000003
  0
LINE
  5
180
  8
0
  6
CONTINUOUS
 62
     7
 10
31.05228504997309
 20
67.08022623635374
 30
0.0
 11
29.01752989235298
 21
67.08022623635374
 31
0.0
  0
ARC
  5
181
  8
0
  6
CONTINUOUS
 62
     7
 10
31.05228504997309
 20
69.08022623635374
 30
0.0
 40
2.000000000000002
 50
270.0
 51
359.4999999999995
  0
LINE
  5
182
  8
0
  6
CONTINUOUS
 62
     7
 10
33.06102361874719
 20
70.07284033459906
 30
0.0
 11
33.05220889610141
 21
69.06277316535697
 31
0.0
  0
ARC
  5
183
  8
0
  6
CONTINUOUS
 62
     7
 10
35.06094746487553
 20
70.05538726360233
 30
0.0
 40
2.000000000000002
 50
135.0000000000006
 51
179.5000000000004
  0
LINE
  5
184
  8
0
  6
CONTINUOUS
 62
     7
 10
36.48959381471764
 20
74.31246073819064
 30
0.0
 11
33.64673390250242
 21
71.46960082597542
 31
0.0
  0
ARC
  5
185
  8
0
  6
CONTINUOUS
 62
     7
 10
35.07538025234455
 20
75.72667430056373
 30
0.0
 40
2.000000000000002
 50
314.9999999999994
 51
359.4999999999995
  0
LINE
  5
186
  8
0
  6
CONTINUOUS
 62
     7
 10
37.16581048802442
 20
86.08022623635372
 30
0.0
 11
37.0753040984729
 21
75.70922122956696
 31
0.0
  0
LINE
  5
187
  8
0
  6
CONTINUOUS
 62
     7
 10
37.41263612612808
 20
86.08022623635372
 30
0.0
 11
37.16581048802442
 21
86.08022623635372
 31
0.0
  0
ARC
  5
188
  8
0
  6
CONTINUOUS
 62
     7
 10
37.41263612612808
 20
83.58022623635372
 30
0.0
 40
2.500000000000002
 50
0.5000000000004787
 51
90.0
  0
LINE
  5
189
  8
0
  6
CONTINUOUS
 62
     7
 10
40.00000000000001
 20
73.58022623635371
 30
0.0
 11
39.91254093378851
 21
83.60204257509967
 31
0.0
  0
LINE
  5
18A
  8
0
  6
CONTINUOUS
 62
     7
 10
35.0
 20
68.58022623635368
 30
0.0
 11
40.00000000000001
 21
73.58022623635371
 31
0.0
  0
LINE
  5
18B
  8
0
  6
CONTINUOUS
 62
     7
 10
31.2652053814588
 20
65.08022623635374
 30
0.0
 11
31.35059714473199
 21
65.07814163669926
 31
0.0
  0
LINE
  5
18C
  8
0
  6
CONTINUOUS
 62
     7
 10
31.35059714473199
 20
65.07814163669926
 30
0.0
 11
31.43578547070205
 21
65.07189280408527
 31
0.0
  0
LINE
  5
18D
  8
0
  6
CONTINUOUS
 62
     7
 10
31.43578547070205
 20
65.07189280408527
 30
0.0
 11
31.52056740673489
 21
65.06149462572807
 31
0.0
  0
LINE
  5
18E
  8
0
  6
CONTINUOUS
 62
     7
 10
31.52056740673489
 20
65.06149462572807
 30
0.0
 11
31.60474096837956
 21
65.04697187424374
 31
0.0
  0
LINE
  5
18F
  8
0
  6
CONTINUOUS
 62
     7
 10
31.60474096837956
 20
65.04697187424374
 30
0.0
 11
31.68810562057603
 21
65.02835914862962
 31
0.0
  0
LINE
  5
190
  8
0
  6
CONTINUOUS
 62
     7
 10
31.68810562057603
 20
65.02835914862962
 30
0.0
 11
31.77046275540982
 21
65.00570079183588
 31
0.0
  0
LINE
  5
191
  8
0
  6
CONTINUOUS
 62
     7
 10
31.77046275540982
 20
65.00570079183588
 30
0.0
 11
31.85161616527543
 21
64.9790507851228
 31
0.0
  0
LINE
  5
192
  8
0
  6
CONTINUOUS
 62
     7
 10
31.85161616527543
 20
64.9790507851228
 30
0.0
 11
31.93137251032124
 21
64.94847261945588
 31
0.0
  0
LINE
  5
193
  8
0
  6
CONTINUOUS
 62
     7
 10
31.93137251032124
 20
64.94847261945588
 30
0.0
 11
32.00954177906235
 21
64.91403914424485
 31
0.0
  0
LINE
  5
194
  8
0
  6
CONTINUOUS
 62
     7
 10
32.00954177906235
 20
64.91403914424485
 30
0.0
 11
32.08593774106372
 21
64.87583239378753
 31
0.0
  0
LINE
  5
195
  8
0
  6
CONTINUOUS
 62
     7
 10
32.08593774106372
 20
64.87583239378753
 30
0.0
 11
32.16037839061567
 21
64.83394339183111
 31
0.0
  0
LINE
  5
196
  8
0
  6
CONTINUOUS
 62
     7
 10
32.16037839061567
 20
64.83394339183111
 30
0.0
 11
32.23268638034413
 21
64.7884719347173
 31
0.0
  0
LINE
  5
197
  8
0
  6
CONTINUOUS
 62
     7
 10
32.23268638034413
 20
64.7884719347173
 30
0.0
 11
32.30268944372288
 21
64.73952635362755
 31
0.0
  0
LINE
  5
198
  8
0
  6
CONTINUOUS
 62
     7
 10
32.30268944372288
 20
64.73952635362755
 30
0.0
 11
32.37022080548141
 21
64.68722325649495
 31
0.0
  0
LINE
  5
199
  8
0
  6
CONTINUOUS
 62
     7
 10
32.37022080548141
 20
64.68722325649495
 30
0.0
 11
32.43511957893008
 21
64.63168725019743
 31
0.0
  0
LINE
  5
19A
  8
0
  6
CONTINUOUS
 62
     7
 10
32.43511957893008
 20
64.63168725019743
 30
0.0
 11
32.49723114925673
 21
64.57305064369449
 31
0.0
  0
LINE
  5
19B
  8
0
  6
CONTINUOUS
 62
     7
 10
32.49723114925673
 20
64.57305064369449
 30
0.0
 11
32.55640754188072
 21
64.51145313281425
 31
0.0
  0
LINE
  5
19C
  8
0
  6
CONTINUOUS
 62
     7
 10
32.55640754188072
 20
64.51145313281425
 30
0.0
 11
32.61250777498756
 21
64.44704146744238
 31
0.0
  0
LINE
  5
19D
  8
0
  6
CONTINUOUS
 62
     7
 10
32.61250777498756
 20
64.44704146744238
 30
0.0
 11
32.66539819540415
 21
64.379969101905
 31
0.0
  0
LINE
  5
19E
  8
0
  6
CONTINUOUS
 62
     7
 10
32.66539819540415
 20
64.379969101905
 30
0.0
 11
32.71495279701369
 21
64.31039582937926
 31
0.0
  0
LINE
  5
19F
  8
0
  6
CONTINUOUS
 62
     7
 10
32.71495279701369
 20
64.31039582937926
 30
0.0
 11
32.76105352095296
 21
64.23848740120216
 31
0.0
  0
LINE
  5
1A0
  8
0
  6
CONTINUOUS
 62
     7
 10
32.76105352095296
 20
64.23848740120216
 30
0.0
 11
32.80359053687537
 21
64.16441513198461
 31
0.0
  0
LINE
  5
1A1
  8
0
  6
CONTINUOUS
 62
     7
 10
32.80359053687537
 20
64.16441513198461
 30
0.0
 11
32.84246250461106
 21
64.08835549147152
 31
0.0
  0
LINE
  5
1A2
  8
0
  6
CONTINUOUS
 62
     7
 10
32.84246250461106
 20
64.08835549147152
 30
0.0
 11
32.87757681559938
 21
64.01048968412042
 31
0.0
  0
LINE
  5
1A3
  8
0
  6
CONTINUOUS
 62
     7
 10
32.87757681559938
 20
64.01048968412042
 30
0.0
 11
32.90884981351974
 21
63.93100321740001
 31
0.0
  0
LINE
  5
1A4
  8
0
  6
CONTINUOUS
 62
     7
 10
32.90884981351974
 20
63.93100321740001
 30
0.0
 11
32.93620699359423
 21
63.85008545983717
 31
0.0
  0
LINE
  5
1A5
  8
0
  6
CONTINUOUS
 62
     7
 10
32.93620699359423
 20
63.85008545983717
 30
0.0
 11
32.95958318008782
 21
63.76792918986563
 31
0.0
  0
LINE
  5
1A6
  8
0
  6
CONTINUOUS
 62
     7
 10
32.95958318008782
 20
63.76792918986563
 30
0.0
 11
32.97892268158311
 21
63.68473013655046
 31
0.0
  0
LINE
  5
1A7
  8
0
  6
CONTINUOUS
 62
     7
 10
32.97892268158311
 20
63.68473013655046
 30
0.0
 11
32.99417942365928
 21
63.60068651328347
 31
0.0
  0
LINE
  5
1A8
  8
0
  6
CONTINUOUS
 62
     7
 10
32.99417942365928
 20
63.60068651328347
 30
0.0
 11
33.00531705866011
 21
63.51599854555953
 31
0.0
  0
LINE
  5
1A9
  8
0
  6
CONTINUOUS
 62
     7
 10
33.00531705866011
 20
63.51599854555953
 30
0.0
 11
33.01230905228833
 21
63.43086799395949
 31
0.0
  0
LINE
  5
1AA
  8
0
  6
CONTINUOUS
 62
     7
 10
33.01230905228833
 20
63.43086799395949
 30
0.0
 11
33.0151387468211
 21
63.34549767347588
 31
0.0
  0
LINE
  5
1AB
  8
0
  6
CONTINUOUS
 62
     7
 10
30.7347946185412
 20
65.08022623635374
 30
0.0
 11
31.2652053814588
 21
65.08022623635374
 31
0.0
  0
LINE
  5
1AC
  8
0
  6
CONTINUOUS
 62
     7
 10
28.9848612531789
 20
63.34549767347588
 30
0.0
 11
28.98769094771167
 21
63.43086799395949
 31
0.0
  0
LINE
  5
1AD
  8
0
  6
CONTINUOUS
 62
     7
 10
28.98769094771167
 20
63.43086799395949
 30
0.0
 11
28.99468294133989
 21
63.51599854555953
 31
0.0
  0
LINE
  5
1AE
  8
0
  6
CONTINUOUS
 62
     7
 10
28.99468294133989
 20
63.51599854555953
 30
0.0
 11
29.00582057634071
 21
63.60068651328347
 31
0.0
  0
LINE
  5
1AF
  8
0
  6
CONTINUOUS
 62
     7
 10
29.00582057634071
 20
63.60068651328347
 30
0.0
 11
29.02107731841691
 21
63.68473013655046
 31
0.0
  0
LINE
  5
1B0
  8
0
  6
CONTINUOUS
 62
     7
 10
29.02107731841691
 20
63.68473013655046
 30
0.0
 11
29.04041681991218
 21
63.76792918986563
 31
0.0
  0
LINE
  5
1B1
  8
0
  6
CONTINUOUS
 62
     7
 10
29.04041681991218
 20
63.76792918986563
 30
0.0
 11
29.06379300640577
 21
63.85008545983717
 31
0.0
  0
LINE
  5
1B2
  8
0
  6
CONTINUOUS
 62
     7
 10
29.06379300640577
 20
63.85008545983717
 30
0.0
 11
29.09115018648026
 21
63.93100321740001
 31
0.0
  0
LINE
  5
1B3
  8
0
  6
CONTINUOUS
 62
     7
 10
29.09115018648026
 20
63.93100321740001
 30
0.0
 11
29.12242318440061
 21
64.01048968412042
 31
0.0
  0
LINE
  5
1B4
  8
0
  6
CONTINUOUS
 62
     7
 10
29.12242318440061
 20
64.01048968412042
 30
0.0
 11
29.15753749538894
 21
64.08835549147152
 31
0.0
  0
LINE
  5
1B5
  8
0
  6
CONTINUOUS
 62
     7
 10
29.15753749538894
 20
64.08835549147152
 30
0.0
 11
29.19640946312463
 21
64.16441513198461
 31
0.0
  0
LINE
  5
1B6
  8
0
  6
CONTINUOUS
 62
     7
 10
29.19640946312463
 20
64.16441513198461
 30
0.0
 11
29.23894647904704
 21
64.23848740120216
 31
0.0
  0
LINE
  5
1B7
  8
0
  6
CONTINUOUS
 62
     7
 10
29.23894647904704
 20
64.23848740120216
 30
0.0
 11
29.2850472029863
 21
64.31039582937926
 31
0.0
  0
LINE
  5
1B8
  8
0
  6
CONTINUOUS
 62
     7
 10
29.2850472029863
 20
64.31039582937926
 30
0.0
 11
29.33460180459585
 21
64.379969101905
 31
0.0
  0
LINE
  5
1B9
  8
0
  6
CONTINUOUS
 62
     7
 10
29.33460180459585
 20
64.379969101905
 30
0.0
 11
29.38749222501244
 21
64.44704146744238
 31
0.0
  0
LINE
  5
1BA
  8
0
  6
CONTINUOUS
 62
     7
 10
29.38749222501244
 20
64.44704146744238
 30
0.0
 11
29.44359245811928
 21
64.51145313281425
 31
0.0
  0
LINE
  5
1BB
  8
0
  6
CONTINUOUS
 62
     7
 10
29.44359245811928
 20
64.51145313281425
 30
0.0
 11
29.50276885074327
 21
64.57305064369449
 31
0.0
  0
LINE
  5
1BC
  8
0
  6
CONTINUOUS
 62
     7
 10
29.50276885074327
 20
64.57305064369449
 30
0.0
 11
29.56488042106992
 21
64.63168725019743
 31
0.0
  0
LINE
  5
1BD
  8
0
  6
CONTINUOUS
 62
     7
 10
29.56488042106992
 20
64.63168725019743
 30
0.0
 11
29.62977919451859
 21
64.68722325649495
 31
0.0
  0
LINE
  5
1BE
  8
0
  6
CONTINUOUS
 62
     7
 10
29.62977919451859
 20
64.68722325649495
 30
0.0
 11
29.69731055627711
 21
64.73952635362755
 31
0.0
  0
LINE
  5
1BF
  8
0
  6
CONTINUOUS
 62
     7
 10
29.69731055627711
 20
64.73952635362755
 30
0.0
 11
29.76731361965587
 21
64.7884719347173
 31
0.0
  0
LINE
  5
1C0
  8
0
  6
CONTINUOUS
 62
     7
 10
29.76731361965587
 20
64.7884719347173
 30
0.0
 11
29.83962160938433
 21
64.83394339183111
 31
0.0
  0
LINE
  5
1C1
  8
0
  6
CONTINUOUS
 62
     7
 10
29.83962160938433
 20
64.83394339183111
 30
0.0
 11
29.91406225893628
 21
64.87583239378753
 31
0.0
  0
LINE
  5
1C2
  8
0
  6
CONTINUOUS
 62
     7
 10
29.91406225893628
 20
64.87583239378753
 30
0.0
 11
29.99045822093765
 21
64.91403914424485
 31
0.0
  0
LINE
  5
1C3
  8
0
  6
CONTINUOUS
 62
     7
 10
29.99045822093765
 20
64.91403914424485
 30
0.0
 11
30.06862748967876
 21
64.94847261945588
 31
0.0
  0
LINE
  5
1C4
  8
0
  6
CONTINUOUS
 62
     7
 10
30.06862748967876
 20
64.94847261945588
 30
0.0
 11
30.14838383472457
 21
64.9790507851228
 31
0.0
  0
LINE
  5
1C5
  8
0
  6
CONTINUOUS
 62
     7
 10
30.14838383472457
 20
64.9790507851228
 30
0.0
 11
30.22953724459018
 21
65.00570079183588
 31
0.0
  0
LINE
  5
1C6
  8
0
  6
CONTINUOUS
 62
     7
 10
30.22953724459018
 20
65.00570079183588
 30
0.0
 11
30.31189437942397
 21
65.02835914862962
 31
0.0
  0
LINE
  5
1C7
  8
0
  6
CONTINUOUS
 62
     7
 10
30.31189437942397
 20
65.02835914862962
 30
0.0
 11
30.39525903162044
 21
65.04697187424374
 31
0.0
  0
LINE
  5
1C8
  8
0
  6
CONTINUOUS
 62
     7
 10
30.39525903162044
 20
65.04697187424374
 30
0.0
 11
30.47943259326511
 21
65.06149462572807
 31
0.0
  0
LINE
  5
1C9
  8
0
  6
CONTINUOUS
 62
     7
 10
30.47943259326511
 20
65.06149462572807
 30
0.0
 11
30.56421452929795
 21
65.07189280408527
 31
0.0
  0
LINE
  5
1CA
  8
0
  6
CONTINUOUS
 62
     7
 10
30.56421452929795
 20
65.07189280408527
 30
0.0
 11
30.64940285526801
 21
65.07814163669926
 31
0.0
  0
LINE
  5
1CB
  8
0
  6
CONTINUOUS
 62
     7
 10
30.64940285526801
 20
65.07814163669926
 30
0.0
 11
30.7347946185412
 21
65.08022623635374
 31
0.0
  0
LINE
  5
1CC
  8
0
  6
CONTINUOUS
 62
     7
 10
28.96509252883697
 20
61.08022623635373
 30
0.0
 11
28.9848612531789
 21
63.34549767347588
 31
0.0
  0
LINE
  5
1CD
  8
0
  6
CONTINUOUS
 62
     7
 10
33.03490747116302
 20
61.08022623635373
 30
0.0
 11
34.6069416553772
 21
61.08022623635373
 31
0.0
  0
LINE
  5
1CE
  8
0
  6
CONTINUOUS
 62
     7
 10
33.01513874682107
 20
63.34549767347588
 30
0.0
 11
33.03490747116302
 21
61.08022623635373
 31
0.0
  0
LINE
  5
1CF
  8
0
  6
CONTINUOUS
 62
     7
 10
34.6069416553772
 20
61.08022623635373
 30
0.0
 11
35.0
 21
68.58022623635368
 31
0.0
  0
LINE
  5
1D0
  8
0
  6
CONTINUOUS
 62
     7
 10
15.00000000000001
 20
61.08022623635373
 30
0.0
 11
28.96509252883697
 21
61.08022623635373
 31
0.0
  0
LINE
  5
1D1
  8
0
  6
CONTINUOUS
 62
     7
 10
25.01737757881006
 20
63.08022623635373
 30
0.0
 11
15.00000000000001
 21
63.08022623635373
 31
0.0
  0
LINE
  5
1D2
  8
0
  6
CONTINUOUS
 62
     7
 10
8.855995199977402
 20
64.07237282621259
 30
0.0
 11
8.842066169196888
 21
64.07383493521652
 31
0.0
  0
LINE
  5
1D3
  8
0
  6
CONTINUOUS
 62
     7
 10
-6.504556667331379
 20
98.58022623635374
 30
0.0
 11
-6.521466728487218
 21
98.56122357416632
 31
0.0
  0
LINE
  5
1D4
  8
0
  6
CONTINUOUS
 62
     7
 10
8.667452777172235
 20
83.71199739418658
 30
0.0
 11
8.65352862310506
 21
83.71345927242707
 31
0.0
  0
LINE
  5
1D5
  8
0
  6
CONTINUOUS
 62
     7
 10
1.155464237068249
 20
81.08139144710385
 30
0.0
 11
1.171221282150359
 21
81.08341665131941
 31
0.0
  0
LINE
  5
1D6
  8
0
  6
CONTINUOUS
 62
     7
 10
-7.391501459250535
 20
94.02050838242187
 30
0.0
 11
-7.383403054323237
 21
93.99170944648021
 31
0.0
  0
LINE
  5
1D7
  8
0
  6
CONTINUOUS
 62
     7
 10
-7.383403054323223
 20
93.99170944648019
 30
0.0
 11
-7.375951335612724
 21
93.98877352612081
 31
0.0
  0
LINE
  5
1D8
  8
0
  6
CONTINUOUS
 62
     7
 10
1.171221282150359
 20
81.08341665131941
 30
0.0
 11
2.524738800957882
 21
81.10002756917298
 31
0.0
  0
LINE
  5
1D9
  8
0
  6
CONTINUOUS
 62
     7
 10
-15.30213093507514
 20
95.08022623635375
 30
0.0
 11
-12.5576798110198
 21
95.08022623635372
 31
0.0
  0
ARC
  5
1DA
  8
0
  6
CONTINUOUS
 62
     7
 10
-12.78382865124042
 20
81.28098677011397
 30
0.0
 40
13.81061118477469
 50
66.94752147161974
 51
85.33488900455274
  0
LINE
  5
1DB
  8
0
  6
CONTINUOUS
 62
     7
 10
-11.98346518245315
 20
95.07244063598425
 30
0.0
 11
-11.66058936618905
 21
95.0458447354379
 31
0.0
  0
LINE
  5
1DC
  8
0
  6
CONTINUOUS
 62
     7
 10
-12.08983342988285
 20
95.08022623635375
 30
0.0
 11
-11.98346518245315
 21
95.07244063598425
 31
0.0
  0
LINE
  5
1DD
  8
0
  6
CONTINUOUS
 62
     7
 10
-12.5576798110198
 20
95.08022623635375
 30
0.0
 11
-12.08983342988285
 21
95.08022623635375
 31
0.0
  0
LINE
  5
1DE
  8
0
  6
CONTINUOUS
 62
     7
 10
-16.05519068910177
 20
97.31226297675316
 30
0.0
 11
-16.05436993450966
 21
97.31044559753454
 31
0.0
  0
LINE
  5
1DF
  8
0
  6
CONTINUOUS
 62
     7
 10
-6.839415538091295
 20
98.58022623635374
 30
0.0
 11
-6.504556667331379
 21
98.58022623635374
 31
0.0
  0
LINE
  5
1E0
  8
0
  6
CONTINUOUS
 62
     7
 10
-12.61683293225443
 20
98.58022623635374
 30
0.0
 11
-6.839415538091295
 21
98.58022623635374
 31
0.0
  0
LINE
  5
1E1
  8
0
  6
CONTINUOUS
 62
     7
 10
-12.61683293225443
 20
98.58022623635374
 30
0.0
 11
-12.75849352407055
 21
98.56116960536177
 31
0.0
  0
LINE
  5
1E2
  8
0
  6
CONTINUOUS
 62
     7
 10
-12.91791180026777
 20
94.98183833803635
 30
0.0
 11
-12.50661548658609
 21
94.98873831620926
 31
0.0
  0
LINE
  5
1E3
  8
0
  6
CONTINUOUS
 62
     7
 10
-11.74411547498219
 20
95.05475842589043
 30
0.0
 11
-12.5066154865861
 21
94.98873831620926
 31
0.0
  0
ARC
  5
1E4
  8
0
  6
CONTINUOUS
 62
     7
 10
18.9
 20
60.98022623635372
 30
0.0
 40
0.099999999999989
 50
270.0
 51
0.0
  0
ARC
  5
1E5
  8
0
  6
CONTINUOUS
 62
     7
 10
-8.900000000000006
 20
60.98022623635372
 30
0.0
 40
0.099999999999989
 50
180.0
 51
270.0
  0
LINE
  5
1E6
  8
0
  6
CONTINUOUS
 62
     7
 10
19.00000000000002
 20
61.08022623635373
 30
0.0
 11
19.00000000000002
 21
60.98022623635372
 31
0.0
  0
LINE
  5
1E7
  8
0
  6
CONTINUOUS
 62
     7
 10
18.9
 20
60.88022623635372
 30
0.0
 11
-8.900000000000006
 21
60.88022623635372
 31
0.0
  0
LINE
  5
1E8
  8
0
  6
CONTINUOUS
 62
     7
 10
-8.999999999999995
 20
60.98022623635372
 30
0.0
 11
-8.999999999999995
 21
61.08022623635373
 31
0.0
  0
LINE
  5
1E9
  8
0
  6
CONTINUOUS
 62
     7
 10
-12.59992729998373
 20
63.28022623635373
 30
0.0
 11
-12.46032607777527
 21
63.28022623635373
 31
0.0
  0
LINE
  5
1EA
  8
0
  6
CONTINUOUS
 62
     7
 10
-13.49999999999998
 20
63.08022623635373
 30
0.0
 11
-13.49999999999998
 21
63.28022623635373
 31
0.0
  0
LINE
  5
1EB
  8
0
  6
CONTINUOUS
 62
     7
 10
-13.49999999999998
 20
63.28022623635373
 30
0.0
 11
-12.59992729998319
 21
63.28022623635373
 31
0.0
  0
LINE
  5
1EC
  8
0
  6
CONTINUOUS
 62
     7
 10
-11.9769059892324
 20
63.28022623635373
 30
0.0
 11
-8.99999999999998
 21
63.28022623635373
 31
0.0
  0
LINE
  5
1ED
  8
0
  6
CONTINUOUS
 62
     7
 10
-8.99999999999998
 20
63.08022623635373
 30
0.0
 11
-8.99999999999998
 21
63.28022623635373
 31
0.0
  0
LINE
  5
1EE
  8
0
  6
CONTINUOUS
 62
     7
 10
-12.46032607777527
 20
63.28022623635373
 30
0.0
 11
-12.20963999368971
 21
63.28022623635373
 31
0.0
  0
LINE
  5
1EF
  8
0
  6
CONTINUOUS
 62
     7
 10
-12.2096399936895
 20
63.28022623635373
 30
0.0
 11
-12.12647660940602
 21
63.28022623635373
 31
0.0
  0
LINE
  5
1F0
  8
0
  6
CONTINUOUS
 62
     7
 10
-12.12647660940598
 20
63.28022623635373
 30
0.0
 11
-12.07877015667483
 21
63.28022623635373
 31
0.0
  0
LINE
  5
1F1
  8
0
  6
CONTINUOUS
 62
     7
 10
-12.07877015667483
 20
63.28022623635373
 30
0.0
 11
-12.03250079112442
 21
63.28022623635373
 31
0.0
  0
LINE
  5
1F2
  8
0
  6
CONTINUOUS
 62
     7
 10
-11.99999999999998
 20
63.08022623635373
 30
0.0
 11
-11.99999999999998
 21
63.28022623635373
 31
0.0
  0
LINE
  5
1F3
  8
0
  6
CONTINUOUS
 62
     7
 10
-12.01030203854898
 20
63.28022623635373
 30
0.0
 11
-11.99999999999998
 21
63.28022623635373
 31
0.0
  0
LINE
  5
1F4
  8
0
  6
CONTINUOUS
 62
     7
 10
-12.03250079112442
 20
63.28022623635373
 30
0.0
 11
-12.0103020385489
 21
63.28022623635373
 31
0.0
  0
LINE
  5
1F5
  8
0
  6
CONTINUOUS
 62
     7
 10
-8.84999999999997
 20
63.28022623635373
 30
0.0
 11
-8.99999999999998
 21
63.28022623635373
 31
0.0
  0
LINE
  5
1F6
  8
0
  6
CONTINUOUS
 62
     7
 10
-7.499999999999979
 20
63.08022623635373
 30
0.0
 11
-7.499999999999979
 21
63.28022623635373
 31
0.0
  0
LINE
  5
1F7
  8
0
  6
CONTINUOUS
 62
     7
 10
-8.84999999999997
 20
63.28022623635373
 30
0.0
 11
-7.499999999999979
 21
63.28022623635373
 31
0.0
  0
LINE
  5
1F8
  8
0
  6
CONTINUOUS
 62
     7
 10
-11.9853589838486
 20
63.28022623635373
 30
0.0
 11
-11.9769059892324
 21
63.28022623635373
 31
0.0
  0
LINE
  5
1F9
  8
0
  6
CONTINUOUS
 62
     7
 10
-26.50000000000001
 20
70.08022623635374
 30
0.0
 11
-28.48248914683987
 21
70.08022623635374
 31
0.0
  0
LINE
  5
1FA
  8
0
  6
CONTINUOUS
 62
     7
 10
-29.98243203143613
 20
71.56713643310617
 30
0.0
 11
-29.98020301137528
 21
71.49746895562994
 31
0.0
  0
LINE
  5
1FB
  8
0
  6
CONTINUOUS
 62
     7
 10
-29.98020301137528
 20
71.49746895562994
 30
0.0
 11
-29.97462255848056
 21
71.42681926735264
 31
0.0
  0
LINE
  5
1FC
  8
0
  6
CONTINUOUS
 62
     7
 10
-29.97462255848056
 20
71.42681926735264
 30
0.0
 11
-29.96554116870315
 21
71.3553780643637
 31
0.0
  0
LINE
  5
1FD
  8
0
  6
CONTINUOUS
 62
     7
 10
-29.96554116870315
 20
71.3553780643637
 30
0.0
 11
-29.95609100452454
 21
71.30006824733826
 31
0.0
  0
LINE
  5
1FE
  8
0
  6
CONTINUOUS
 62
     7
 10
-29.95609100452454
 20
71.30006824733826
 30
0.0
 11
-29.94440042641536
 21
71.2443698034253
 31
0.0
  0
LINE
  5
1FF
  8
0
  6
CONTINUOUS
 62
     7
 10
-29.94440042641536
 20
71.2443698034253
 30
0.0
 11
-29.93041182915797
 21
71.18842126828456
 31
0.0
  0
LINE
  5
200
  8
0
  6
CONTINUOUS
 62
     7
 10
-29.93041182915797
 20
71.18842126828456
 30
0.0
 11
-29.91406760753486
 21
71.13236117757573
 31
0.0
  0
LINE
  5
201
  8
0
  6
CONTINUOUS
 62
     7
 10
-29.91406760753486
 20
71.13236117757573
 30
0.0
 11
-29.89951129815545
 21
71.0882429588964
 31
0.0
  0
LINE
  5
202
  8
0
  6
CONTINUOUS
 62
     7
 10
-29.89951129815545
 20
71.0882429588964
 30
0.0
 11
-29.88342522606738
 21
71.04414965421394
 31
0.0
  0
LINE
  5
203
  8
0
  6
CONTINUOUS
 62
     7
 10
-29.88342522606738
 20
71.04414965421394
 30
0.0
 11
-29.86567703671911
 21
70.99988984403075
 31
0.0
  0
LINE
  5
204
  8
0
  6
CONTINUOUS
 62
     7
 10
-29.86567703671911
 20
70.99988984403075
 30
0.0
 11
-29.84633674107193
 21
70.95579069948268
 31
0.0
  0
LINE
  5
205
  8
0
  6
CONTINUOUS
 62
     7
 10
-29.84633674107193
 20
70.95579069948268
 30
0.0
 11
-29.82495371723916
 21
70.91105693152194
 31
0.0
  0
LINE
  5
206
  8
0
  6
CONTINUOUS
 62
     7
 10
-29.82495371723916
 20
70.91105693152194
 30
0.0
 11
-29.80189021663256
 21
70.86665716679569
 31
0.0
  0
LINE
  5
207
  8
0
  6
CONTINUOUS
 62
     7
 10
-29.80189021663256
 20
70.86665716679569
 30
0.0
 11
-29.77694625358897
 21
70.82234822045902
 31
0.0
  0
LINE
  5
208
  8
0
  6
CONTINUOUS
 62
     7
 10
-29.77694625358897
 20
70.82234822045902
 30
0.0
 11
-29.75030298174054
 21
70.77857289479361
 31
0.0
  0
LINE
  5
209
  8
0
  6
CONTINUOUS
 62
     7
 10
-29.75030298174054
 20
70.77857289479361
 30
0.0
 11
-29.72291208126232
 21
70.73681107025087
 31
0.0
  0
LINE
  5
20A
  8
0
  6
CONTINUOUS
 62
     7
 10
-29.72291208126232
 20
70.73681107025087
 30
0.0
 11
-29.69397245964897
 21
70.69574436385147
 31
0.0
  0
LINE
  5
20B
  8
0
  6
CONTINUOUS
 62
     7
 10
-29.69397245964897
 20
70.69574436385147
 30
0.0
 11
-29.66324750536267
 21
70.6551275508781
 31
0.0
  0
LINE
  5
20C
  8
0
  6
CONTINUOUS
 62
     7
 10
-29.66324750536267
 20
70.6551275508781
 30
0.0
 11
-29.63103130993964
 21
70.6154200902383
 31
0.0
  0
LINE
  5
20D
  8
0
  6
CONTINUOUS
 62
     7
 10
-29.63103130993964
 20
70.6154200902383
 30
0.0
 11
-29.59640007264097
 21
70.57563682155404
 31
0.0
  0
LINE
  5
20E
  8
0
  6
CONTINUOUS
 62
     7
 10
-29.59640007264097
 20
70.57563682155404
 30
0.0
 11
-29.56032673331996
 21
70.53702628563919
 31
0.0
  0
LINE
  5
20F
  8
0
  6
CONTINUOUS
 62
     7
 10
-29.56032673331996
 20
70.53702628563919
 30
0.0
 11
-29.5225094269712
 21
70.49932146863758
 31
0.0
  0
LINE
  5
210
  8
0
  6
CONTINUOUS
 62
     7
 10
-29.5225094269712
 20
70.49932146863758
 30
0.0
 11
-29.48340232140238
 21
70.46300968752034
 31
0.0
  0
LINE
  5
211
  8
0
  6
CONTINUOUS
 62
     7
 10
-29.48340232140238
 20
70.46300968752034
 30
0.0
 11
-29.44966534061716
 21
70.43367971448666
 31
0.0
  0
LINE
  5
212
  8
0
  6
CONTINUOUS
 62
     7
 10
-29.44966534061716
 20
70.43367971448666
 30
0.0
 11
-29.41515670336098
 21
70.4054363704573
 31
0.0
  0
LINE
  5
213
  8
0
  6
CONTINUOUS
 62
     7
 10
-29.41515670336098
 20
70.4054363704573
 30
0.0
 11
-29.37969410702795
 21
70.37813553780553
 31
0.0
  0
LINE
  5
214
  8
0
  6
CONTINUOUS
 62
     7
 10
-29.37969410702795
 20
70.37813553780553
 30
0.0
 11
-29.34358463850098
 21
70.35201023163756
 31
0.0
  0
LINE
  5
215
  8
0
  6
CONTINUOUS
 62
     7
 10
-29.34358463850098
 20
70.35201023163756
 30
0.0
 11
-29.3061258802361
 21
70.32658299607566
 31
0.0
  0
LINE
  5
216
  8
0
  6
CONTINUOUS
 62
     7
 10
-29.3061258802361
 20
70.32658299607566
 30
0.0
 11
-29.26813734222808
 21
70.30243246853232
 31
0.0
  0
LINE
  5
217
  8
0
  6
CONTINUOUS
 62
     7
 10
-29.26813734222808
 20
70.30243246853232
 30
0.0
 11
-29.22943625939152
 21
70.27943070728377
 31
0.0
  0
LINE
  5
218
  8
0
  6
CONTINUOUS
 62
     7
 10
-29.22943625939152
 20
70.27943070728377
 30
0.0
 11
-29.19034111093813
 21
70.25774916777286
 31
0.0
  0
LINE
  5
219
  8
0
  6
CONTINUOUS
 62
     7
 10
-29.19034111093813
 20
70.25774916777286
 30
0.0
 11
-29.13781307792072
 21
70.23095183086625
 31
0.0
  0
LINE
  5
21A
  8
0
  6
CONTINUOUS
 62
     7
 10
-29.13781307792072
 20
70.23095183086625
 30
0.0
 11
-29.08482447986763
 21
70.20647844664427
 31
0.0
  0
LINE
  5
21B
  8
0
  6
CONTINUOUS
 62
     7
 10
-29.08482447986763
 20
70.20647844664427
 30
0.0
 11
-29.03157884612451
 21
70.18433924159395
 31
0.0
  0
LINE
  5
21C
  8
0
  6
CONTINUOUS
 62
     7
 10
-29.03157884612451
 20
70.18433924159395
 30
0.0
 11
-28.97706405838718
 21
70.16410835362863
 31
0.0
  0
LINE
  5
21D
  8
0
  6
CONTINUOUS
 62
     7
 10
-28.97706405838718
 20
70.16410835362863
 30
0.0
 11
-28.92247629142761
 21
70.14620899041746
 31
0.0
  0
LINE
  5
21E
  8
0
  6
CONTINUOUS
 62
     7
 10
-28.92247629142761
 20
70.14620899041746
 30
0.0
 11
-28.86798060026478
 21
70.13060685895277
 31
0.0
  0
LINE
  5
21F
  8
0
  6
CONTINUOUS
 62
     7
 10
-28.86798060026478
 20
70.13060685895277
 30
0.0
 11
-28.80300889506729
 21
70.11487261707595
 31
0.0
  0
LINE
  5
220
  8
0
  6
CONTINUOUS
 62
     7
 10
-28.80300889506729
 20
70.11487261707595
 30
0.0
 11
-28.73837718885471
 21
70.10221564474236
 31
0.0
  0
LINE
  5
221
  8
0
  6
CONTINUOUS
 62
     7
 10
-28.73837718885471
 20
70.10221564474236
 30
0.0
 11
-28.67428235224474
 21
70.09253830995232
 31
0.0
  0
LINE
  5
222
  8
0
  6
CONTINUOUS
 62
     7
 10
-28.67428235224474
 20
70.09253830995232
 30
0.0
 11
-28.6096097426741
 21
70.0856233412544
 31
0.0
  0
LINE
  5
223
  8
0
  6
CONTINUOUS
 62
     7
 10
-28.6096097426741
 20
70.0856233412544
 30
0.0
 11
-28.54563328791268
 21
70.08155678062644
 31
0.0
  0
LINE
  5
224
  8
0
  6
CONTINUOUS
 62
     7
 10
-28.54563328791268
 20
70.08155678062644
 30
0.0
 11
-28.48248914683987
 21
70.08022623635374
 31
0.0
  0
LINE
  5
225
  8
0
  6
CONTINUOUS
 62
     7
 10
-29.98243203143613
 20
71.56713643310617
 30
0.0
 11
-30.0
 21
73.58022623635371
 31
0.0
  0
LINE
  5
226
  8
0
  6
CONTINUOUS
 62
     7
 10
38.48248914683988
 20
70.08022623635374
 30
0.0
 11
38.55335088449427
 21
70.08191832967331
 31
0.0
  0
LINE
  5
227
  8
0
  6
CONTINUOUS
 62
     7
 10
38.55335088449427
 20
70.08191832967331
 30
0.0
 11
38.62542770731159
 21
70.0870955989987
 31
0.0
  0
LINE
  5
228
  8
0
  6
CONTINUOUS
 62
     7
 10
38.62542770731159
 20
70.0870955989987
 30
0.0
 11
38.69846408178862
 21
70.09590952837985
 31
0.0
  0
LINE
  5
229
  8
0
  6
CONTINUOUS
 62
     7
 10
38.69846408178862
 20
70.09590952837985
 30
0.0
 11
38.77220447442206
 21
70.10851160186674
 31
0.0
  0
LINE
  5
22A
  8
0
  6
CONTINUOUS
 62
     7
 10
38.77220447442206
 20
70.10851160186674
 30
0.0
 11
38.84639335170864
 21
70.12505330350929
 31
0.0
  0
LINE
  5
22B
  8
0
  6
CONTINUOUS
 62
     7
 10
38.84639335170864
 20
70.12505330350929
 30
0.0
 11
38.92077518014509
 21
70.14568611735756
 31
0.0
  0
LINE
  5
22C
  8
0
  6
CONTINUOUS
 62
     7
 10
38.92077518014509
 20
70.14568611735756
 30
0.0
 11
38.98001115562877
 21
70.1651425523046
 31
0.0
  0
LINE
  5
22D
  8
0
  6
CONTINUOUS
 62
     7
 10
38.98001115562877
 20
70.1651425523046
 30
0.0
 11
39.03922374493363
 21
70.187374255505
 31
0.0
  0
LINE
  5
22E
  8
0
  6
CONTINUOUS
 62
     7
 10
39.03922374493363
 20
70.187374255505
 30
0.0
 11
39.0981775325217
 21
70.2124076037359
 31
0.0
  0
LINE
  5
22F
  8
0
  6
CONTINUOUS
 62
     7
 10
39.0981775325217
 20
70.2124076037359
 30
0.0
 11
39.14330680849471
 21
70.2336355522998
 31
0.0
  0
LINE
  5
230
  8
0
  6
CONTINUOUS
 62
     7
 10
39.14330680849471
 20
70.2336355522998
 30
0.0
 11
39.18815692017094
 21
70.25659148954851
 31
0.0
  0
LINE
  5
231
  8
0
  6
CONTINUOUS
 62
     7
 10
39.18815692017094
 20
70.25659148954851
 30
0.0
 11
39.23258821718525
 21
70.28125053014567
 31
0.0
  0
LINE
  5
232
  8
0
  6
CONTINUOUS
 62
     7
 10
39.23258821718525
 20
70.28125053014567
 30
0.0
 11
39.27646104917248
 21
70.30758778875504
 31
0.0
  0
LINE
  5
233
  8
0
  6
CONTINUOUS
 62
     7
 10
39.27646104917248
 20
70.30758778875504
 30
0.0
 11
39.31867653910834
 21
70.33492591135476
 31
0.0
  0
LINE
  5
234
  8
0
  6
CONTINUOUS
 62
     7
 10
39.31867653910834
 20
70.33492591135476
 30
0.0
 11
39.36024745305055
 21
70.36387562682513
 31
0.0
  0
LINE
  5
235
  8
0
  6
CONTINUOUS
 62
     7
 10
39.36024745305055
 20
70.36387562682513
 30
0.0
 11
39.40102783496055
 21
70.39436412679106
 31
0.0
  0
LINE
  5
236
  8
0
  6
CONTINUOUS
 62
     7
 10
39.40102783496055
 20
70.39436412679106
 30
0.0
 11
39.4408717287999
 21
70.42631860287707
 31
0.0
  0
LINE
  5
237
  8
0
  6
CONTINUOUS
 62
     7
 10
39.4408717287999
 20
70.42631860287707
 30
0.0
 11
39.48118087124613
 21
70.46103422569061
 31
0.0
  0
LINE
  5
238
  8
0
  6
CONTINUOUS
 62
     7
 10
39.48118087124613
 20
70.46103422569061
 30
0.0
 11
39.52036020835153
 21
70.49727617849422
 31
0.0
  0
LINE
  5
239
  8
0
  6
CONTINUOUS
 62
     7
 10
39.52036020835153
 20
70.49727617849422
 30
0.0
 11
39.55826176359606
 21
70.53490848836528
 31
0.0
  0
LINE
  5
23A
  8
0
  6
CONTINUOUS
 62
     7
 10
39.55826176359606
 20
70.53490848836528
 30
0.0
 11
39.59473756045967
 21
70.57379518238119
 31
0.0
  0
LINE
  5
23B
  8
0
  6
CONTINUOUS
 62
     7
 10
39.59473756045967
 20
70.57379518238119
 30
0.0
 11
39.62437186392961
 21
70.60755338209279
 31
0.0
  0
LINE
  5
23C
  8
0
  6
CONTINUOUS
 62
     7
 10
39.62437186392961
 20
70.60755338209279
 30
0.0
 11
39.65294084569748
 21
70.64213104730018
 31
0.0
  0
LINE
  5
23D
  8
0
  6
CONTINUOUS
 62
     7
 10
39.65294084569748
 20
70.64213104730018
 30
0.0
 11
39.68038255504297
 21
70.6774305774526
 31
0.0
  0
LINE
  5
23E
  8
0
  6
CONTINUOUS
 62
     7
 10
39.68038255504297
 20
70.6774305774526
 30
0.0
 11
39.70663504124569
 21
70.71335437199924
 31
0.0
  0
LINE
  5
23F
  8
0
  6
CONTINUOUS
 62
     7
 10
39.70663504124569
 20
70.71335437199924
 30
0.0
 11
39.73236973551805
 21
70.75089601658222
 31
0.0
  0
LINE
  5
240
  8
0
  6
CONTINUOUS
 62
     7
 10
39.73236973551805
 20
70.75089601658222
 30
0.0
 11
39.75683855541507
 21
70.78901452920971
 31
0.0
  0
LINE
  5
241
  8
0
  6
CONTINUOUS
 62
     7
 10
39.75683855541507
 20
70.78901452920971
 30
0.0
 11
39.78000777595955
 21
70.82760714823863
 31
0.0
  0
LINE
  5
242
  8
0
  6
CONTINUOUS
 62
     7
 10
39.78000777595955
 20
70.82760714823863
 30
0.0
 11
39.80184367217443
 21
70.86657111202594
 31
0.0
  0
LINE
  5
243
  8
0
  6
CONTINUOUS
 62
     7
 10
39.80184367217443
 20
70.86657111202594
 30
0.0
 11
39.82905313169591
 21
70.9193790290695
 31
0.0
  0
LINE
  5
244
  8
0
  6
CONTINUOUS
 62
     7
 10
39.82905313169591
 20
70.9193790290695
 30
0.0
 11
39.85392963871523
 21
70.97274673171516
 31
0.0
  0
LINE
  5
245
  8
0
  6
CONTINUOUS
 62
     7
 10
39.85392963871523
 20
70.97274673171516
 30
0.0
 11
39.87648449357811
 21
71.02648923700517
 31
0.0
  0
LINE
  5
246
  8
0
  6
CONTINUOUS
 62
     7
 10
39.87648449357811
 20
71.02648923700517
 30
0.0
 11
39.89672899663029
 21
71.08042156198168
 31
0.0
  0
LINE
  5
247
  8
0
  6
CONTINUOUS
 62
     7
 10
39.89672899663029
 20
71.08042156198168
 30
0.0
 11
39.91467444821748
 21
71.13435872368697
 31
0.0
  0
LINE
  5
248
  8
0
  6
CONTINUOUS
 62
     7
 10
39.91467444821748
 20
71.13435872368697
 30
0.0
 11
39.93033214868541
 21
71.18811573916322
 31
0.0
  0
LINE
  5
249
  8
0
  6
CONTINUOUS
 62
     7
 10
39.93033214868541
 20
71.18811573916322
 30
0.0
 11
39.94622510362361
 21
71.25242521016695
 31
0.0
  0
LINE
  5
24A
  8
0
  6
CONTINUOUS
 62
     7
 10
39.94622510362361
 20
71.25242521016695
 30
0.0
 11
39.95910069978434
 21
71.31649184570887
 31
0.0
  0
LINE
  5
24B
  8
0
  6
CONTINUOUS
 62
     7
 10
39.95910069978434
 20
71.31649184570887
 30
0.0
 11
39.9690590639068
 21
71.3801559657814
 31
0.0
  0
LINE
  5
24C
  8
0
  6
CONTINUOUS
 62
     7
 10
39.9690590639068
 20
71.3801559657814
 30
0.0
 11
39.97620032273016
 21
71.44325789037687
 31
0.0
  0
LINE
  5
24D
  8
0
  6
CONTINUOUS
 62
     7
 10
39.97620032273016
 20
71.44325789037687
 30
0.0
 11
39.98062460299357
 21
71.50563793948767
 31
0.0
  0
LINE
  5
24E
  8
0
  6
CONTINUOUS
 62
     7
 10
39.98062460299357
 20
71.50563793948767
 30
0.0
 11
39.98243203143614
 21
71.56713643310617
 31
0.0
  0
LINE
  5
24F
  8
0
  6
CONTINUOUS
 62
     7
 10
38.48248914683988
 20
70.08022623635374
 30
0.0
 11
36.50000000000003
 21
70.08022623635371
 31
0.0
  0
LINE
  5
250
  8
0
  6
CONTINUOUS
 62
     7
 10
40.00000000000001
 20
73.5802262363535
 30
0.0
 11
39.98243203143614
 21
71.56713643310617
 31
0.0
  0
LINE
  5
251
  8
0
  6
CONTINUOUS
 62
     7
 10
35.0
 20
72.82286692347297
 30
0.0
 11
35.0
 21
73.08022623635374
 31
0.0
  0
LINE
  5
252
  8
0
  6
CONTINUOUS
 62
     7
 10
23.08719252403593
 20
73.08022623635374
 30
0.0
 11
35.0
 21
73.08022623635374
 31
0.0
  0
LINE
  5
253
  8
0
  6
CONTINUOUS
 62
     7
 10
20.99999999999999
 20
63.08022623635373
 30
0.0
 11
21.08726867790758
 21
73.08022623635374
 31
0.0
  0
LINE
  5
254
  8
0
  6
CONTINUOUS
 62
     7
 10
21.08726867790758
 20
73.08022623635374
 30
0.0
 11
23.08719252403593
 21
73.08022623635374
 31
0.0
  0
LINE
  5
255
  8
0
  6
CONTINUOUS
 62
     7
 10
-16.01006429071468
 20
72.08022623635374
 30
0.0
 11
-14.01288127071096
 21
72.08022623635374
 31
0.0
  0
LINE
  5
256
  8
0
  6
CONTINUOUS
 62
     7
 10
-23.00000000000001
 20
70.822866923473
 30
0.0
 11
-23.00000000000001
 21
72.08022623635374
 31
0.0
  0
LINE
  5
257
  8
0
  6
CONTINUOUS
 62
     7
 10
-16.01006429071468
 20
72.08022623635374
 30
0.0
 11
-23.00000000000001
 21
72.08022623635374
 31
0.0
  0
LINE
  5
258
  8
0
  6
CONTINUOUS
 62
     7
 10
-23.64673390250242
 20
71.46960082597542
 30
0.0
 11
-23.00000000000001
 21
70.822866923473
 31
0.0
  0
LINE
  5
259
  8
0
  6
CONTINUOUS
 62
     7
 10
-13.77654984491104
 20
63.08022623635373
 30
0.0
 11
-13.81333464424647
 21
67.08022623635374
 31
0.0
  0
LINE
  5
25A
  8
0
  6
CONTINUOUS
 62
     7
 10
-13.80784637511434
 20
67.08022623635374
 30
0.0
 11
-13.81333464424647
 21
67.08022623635374
 31
0.0
  0
LINE
  5
25B
  8
0
  6
CONTINUOUS
 62
     7
 10
-13.78108577587447
 20
72.08022623635374
 30
0.0
 11
-14.01288127071096
 21
72.08022623635374
 31
0.0
  0
LINE
  5
25C
  8
0
  6
CONTINUOUS
 62
     7
 10
17.64524147727276
 20
63.28022623635373
 30
0.0
 11
17.64524147727276
 21
63.08022623635373
 31
0.0
  0
LINE
  5
25D
  8
0
  6
CONTINUOUS
 62
     7
 10
17.6393450165683
 20
63.28022623635373
 30
0.0
 11
17.6393450165683
 21
63.08022623635373
 31
0.0
  0
LINE
  5
25E
  8
0
  6
CONTINUOUS
 62
     7
 10
17.63285950771151
 20
63.30522623635375
 30
0.0
 11
17.63285950771151
 21
63.28022623635373
 31
0.0
  0
LINE
  5
25F
  8
0
  6
CONTINUOUS
 62
     7
 10
17.63285950771151
 20
63.28022623635373
 30
0.0
 11
17.63285950771151
 21
63.08022623635373
 31
0.0
  0
LINE
  5
260
  8
0
  6
CONTINUOUS
 62
     7
 10
17.66796875000004
 20
63.30522623635375
 30
0.0
 11
17.66796875000004
 21
63.28022623635373
 31
0.0
  0
LINE
  5
261
  8
0
  6
CONTINUOUS
 62
     7
 10
26.05589688867746
 20
96.38378192369237
 30
0.0
 11
26.05519064211598
 21
97.31232475505166
 31
0.0
  0
LINE
  5
262
  8
0
  6
CONTINUOUS
 62
     7
 10
25.3015366297461
 20
95.07985083050538
 30
0.0
 11
25.30652062067043
 21
95.08272957946812
 31
0.0
  0
LINE
  5
263
  8
0
  6
CONTINUOUS
 62
     7
 10
25.30652062067043
 20
95.08272957946812
 30
0.0
 11
25.34906070972356
 21
95.10836941447451
 31
0.0
  0
LINE
  5
264
  8
0
  6
CONTINUOUS
 62
     7
 10
25.34906070972356
 20
95.10836941447451
 30
0.0
 11
25.39063802328345
 21
95.13535789419988
 31
0.0
  0
LINE
  5
265
  8
0
  6
CONTINUOUS
 62
     7
 10
25.39063802328345
 20
95.13535789419988
 30
0.0
 11
25.43122545305943
 21
95.16366332370859
 31
0.0
  0
LINE
  5
266
  8
0
  6
CONTINUOUS
 62
     7
 10
25.43122545305943
 20
95.16366332370859
 30
0.0
 11
25.4707952831798
 21
95.1932530375304
 31
0.0
  0
LINE
  5
267
  8
0
  6
CONTINUOUS
 62
     7
 10
25.4707952831798
 20
95.1932530375304
 30
0.0
 11
25.5093192973774
 21
95.22409342288692
 31
0.0
  0
LINE
  5
268
  8
0
  6
CONTINUOUS
 62
     7
 10
25.5093192973774
 20
95.22409342288692
 30
0.0
 11
25.54676888699212
 21
95.25614994013543
 31
0.0
  0
LINE
  5
269
  8
0
  6
CONTINUOUS
 62
     7
 10
25.54676888699212
 20
95.25614994013543
 30
0.0
 11
25.58311515990502
 21
95.28938714094512
 31
0.0
  0
LINE
  5
26A
  8
0
  6
CONTINUOUS
 62
     7
 10
25.58311515990502
 20
95.28938714094512
 30
0.0
 11
25.61832905042094
 21
95.3237686847061
 31
0.0
  0
LINE
  5
26B
  8
0
  6
CONTINUOUS
 62
     7
 10
25.61832905042094
 20
95.3237686847061
 30
0.0
 11
25.65238143003148
 21
95.35925735364742
 31
0.0
  0
LINE
  5
26C
  8
0
  6
CONTINUOUS
 62
     7
 10
25.65238143003148
 20
95.35925735364742
 30
0.0
 11
25.68524321891097
 21
95.39581506712044
 31
0.0
  0
LINE
  5
26D
  8
0
  6
CONTINUOUS
 62
     7
 10
25.68524321891097
 20
95.39581506712044
 30
0.0
 11
25.71688549792894
 21
95.43340289547864
 31
0.0
  0
LINE
  5
26E
  8
0
  6
CONTINUOUS
 62
     7
 10
25.71688549792894
 20
95.43340289547864
 30
0.0
 11
25.74727962090142
 21
95.47198107395884
 31
0.0
  0
LINE
  5
26F
  8
0
  6
CONTINUOUS
 62
     7
 10
25.74727962090142
 20
95.47198107395884
 30
0.0
 11
25.77639732674963
 21
95.51150901694128
 31
0.0
  0
LINE
  5
270
  8
0
  6
CONTINUOUS
 62
     7
 10
25.77639732674963
 20
95.51150901694128
 30
0.0
 11
25.80421085118886
 21
95.55194533293704
 31
0.0
  0
LINE
  5
271
  8
0
  6
CONTINUOUS
 62
     7
 10
25.80421085118886
 20
95.55194533293704
 30
0.0
 11
25.8358273737021
 21
95.60160851861751
 31
0.0
  0
LINE
  5
272
  8
0
  6
CONTINUOUS
 62
     7
 10
25.8358273737021
 20
95.60160851861751
 30
0.0
 11
25.86548126398272
 21
95.65244462548253
 31
0.0
  0
LINE
  5
273
  8
0
  6
CONTINUOUS
 62
     7
 10
25.86548126398272
 20
95.65244462548253
 30
0.0
 11
25.89312873271265
 21
95.70437774560153
 31
0.0
  0
LINE
  5
274
  8
0
  6
CONTINUOUS
 62
     7
 10
25.89312873271265
 20
95.70437774560153
 30
0.0
 11
25.91872800464201
 21
95.75733047037832
 31
0.0
  0
LINE
  5
275
  8
0
  6
CONTINUOUS
 62
     7
 10
25.91872800464201
 20
95.75733047037832
 30
0.0
 11
25.94223956979477
 21
95.81122394996541
 31
0.0
  0
LINE
  5
276
  8
0
  6
CONTINUOUS
 62
     7
 10
25.94223956979477
 20
95.81122394996541
 30
0.0
 11
25.96362642393418
 21
95.86597795940901
 31
0.0
  0
LINE
  5
277
  8
0
  6
CONTINUOUS
 62
     7
 10
25.96362642393418
 20
95.86597795940901
 30
0.0
 11
25.98285429650474
 21
95.92151097191572
 31
0.0
  0
LINE
  5
278
  8
0
  6
CONTINUOUS
 62
     7
 10
25.98285429650474
 20
95.92151097191572
 30
0.0
 11
25.99989186431956
 21
95.97774023949992
 31
0.0
  0
LINE
  5
279
  8
0
  6
CONTINUOUS
 62
     7
 10
25.99989186431956
 20
95.97774023949992
 30
0.0
 11
26.01471094933869
 21
96.0345818811437
 31
0.0
  0
LINE
  5
27A
  8
0
  6
CONTINUOUS
 62
     7
 10
26.01471094933869
 20
96.0345818811437
 30
0.0
 11
26.02728669898774
 21
96.09195097847906
 31
0.0
  0
LINE
  5
27B
  8
0
  6
CONTINUOUS
 62
     7
 10
26.02728669898774
 20
96.09195097847906
 30
0.0
 11
26.03981949006814
 21
96.16427321351806
 31
0.0
  0
LINE
  5
27C
  8
0
  6
CONTINUOUS
 62
     7
 10
26.03981949006814
 20
96.16427321351806
 30
0.0
 11
26.04878022733678
 21
96.23711593368783
 31
0.0
  0
LINE
  5
27D
  8
0
  6
CONTINUOUS
 62
     7
 10
26.04878022733678
 20
96.23711593368783
 30
0.0
 11
26.05414439707196
 21
96.31030802977752
 31
0.0
  0
LINE
  5
27E
  8
0
  6
CONTINUOUS
 62
     7
 10
26.05414439707196
 20
96.31030802977752
 30
0.0
 11
26.05589696838542
 21
96.38367712706541
 31
0.0
  0
LINE
  5
27F
  8
0
  6
CONTINUOUS
 62
     7
 10
26.05436789550125
 20
97.31044350775066
 30
0.0
 11
26.05355410544952
 21
97.35533370423168
 31
0.0
  0
LINE
  5
280
  8
0
  6
CONTINUOUS
 62
     7
 10
26.05355410544952
 20
97.35533370423168
 30
0.0
 11
26.05081677108464
 21
97.39903569195562
 31
0.0
  0
LINE
  5
281
  8
0
  6
CONTINUOUS
 62
     7
 10
26.05081677108464
 20
97.39903569195562
 30
0.0
 11
26.04630449649509
 21
97.44147709735188
 31
0.0
  0
LINE
  5
282
  8
0
  6
CONTINUOUS
 62
     7
 10
26.04630449649509
 20
97.44147709735188
 30
0.0
 11
26.04016449997293
 21
97.48259780528262
 31
0.0
  0
LINE
  5
283
  8
0
  6
CONTINUOUS
 62
     7
 10
26.04016449997293
 20
97.48259780528262
 30
0.0
 11
26.03254184016551
 21
97.52234921895419
 31
0.0
  0
LINE
  5
284
  8
0
  6
CONTINUOUS
 62
     7
 10
26.03254184016551
 20
97.52234921895419
 30
0.0
 11
26.02357873745975
 21
97.56069350174326
 31
0.0
  0
LINE
  5
285
  8
0
  6
CONTINUOUS
 62
     7
 10
26.02357873745975
 20
97.56069350174326
 30
0.0
 11
26.01124878040423
 21
97.60481068138726
 31
0.0
  0
LINE
  5
286
  8
0
  6
CONTINUOUS
 62
     7
 10
26.01124878040423
 20
97.60481068138726
 30
0.0
 11
25.99742053014439
 21
97.64683125232507
 31
0.0
  0
LINE
  5
287
  8
0
  6
CONTINUOUS
 62
     7
 10
25.99742053014439
 20
97.64683125232507
 30
0.0
 11
25.98231711238116
 21
97.68674170466232
 31
0.0
  0
LINE
  5
288
  8
0
  6
CONTINUOUS
 62
     7
 10
25.98231711238116
 20
97.68674170466232
 30
0.0
 11
25.96615168176985
 21
97.72454388063389
 31
0.0
  0
LINE
  5
289
  8
0
  6
CONTINUOUS
 62
     7
 10
25.96615168176985
 20
97.72454388063389
 30
0.0
 11
25.94912681578984
 21
97.76025315534517
 31
0.0
  0
LINE
  5
28A
  8
0
  6
CONTINUOUS
 62
     7
 10
25.94912681578984
 20
97.76025315534517
 30
0.0
 11
25.92927476514578
 21
97.79779676017114
 31
0.0
  0
LINE
  5
28B
  8
0
  6
CONTINUOUS
 62
     7
 10
25.92927476514578
 20
97.79779676017114
 30
0.0
 11
25.9088370190115
 21
97.83280239822226
 31
0.0
  0
LINE
  5
28C
  8
0
  6
CONTINUOUS
 62
     7
 10
25.9088370190115
 20
97.83280239822226
 30
0.0
 11
25.8880480362961
 21
97.86533619710669
 31
0.0
  0
LINE
  5
28D
  8
0
  6
CONTINUOUS
 62
     7
 10
25.8880480362961
 20
97.86533619710669
 30
0.0
 11
25.86712441465838
 21
97.8954747431783
 31
0.0
  0
LINE
  5
28E
  8
0
  6
CONTINUOUS
 62
     7
 10
25.86712441465838
 20
97.8954747431783
 30
0.0
 11
25.84626514031296
 21
97.92330263757154
 31
0.0
  0
LINE
  5
28F
  8
0
  6
CONTINUOUS
 62
     7
 10
25.84626514031296
 20
97.92330263757154
 30
0.0
 11
25.82601695706796
 21
97.94847189089423
 31
0.0
  0
LINE
  5
290
  8
0
  6
CONTINUOUS
 62
     7
 10
25.82601695706796
 20
97.94847189089423
 30
0.0
 11
25.80616283898418
 21
97.97158851892101
 31
0.0
  0
LINE
  5
291
  8
0
  6
CONTINUOUS
 62
     7
 10
25.80616283898418
 20
97.97158851892101
 30
0.0
 11
25.78684448325225
 21
97.99274332343161
 31
0.0
  0
LINE
  5
292
  8
0
  6
CONTINUOUS
 62
     7
 10
25.78684448325225
 20
97.99274332343161
 30
0.0
 11
25.76818935333031
 21
98.01202726039112
 31
0.0
  0
LINE
  5
293
  8
0
  6
CONTINUOUS
 62
     7
 10
25.76818935333031
 20
98.01202726039112
 30
0.0
 11
25.74999417064094
 21
98.02983232937187
 31
0.0
  0
LINE
  5
294
  8
0
  6
CONTINUOUS
 62
     7
 10
25.74999417064094
 20
98.02983232937187
 30
0.0
 11
25.73271125429055
 21
98.04588287915325
 31
0.0
  0
LINE
  5
295
  8
0
  6
CONTINUOUS
 62
     7
 10
25.73271125429055
 20
98.04588287915325
 30
0.0
 11
25.71643427330553
 21
98.06026700488552
 31
0.0
  0
LINE
  5
296
  8
0
  6
CONTINUOUS
 62
     7
 10
25.71643427330553
 20
98.06026700488552
 30
0.0
 11
25.70124472091104
 21
98.07306781262339
 31
0.0
  0
LINE
  5
297
  8
0
  6
CONTINUOUS
 62
     7
 10
25.70124472091104
 20
98.07306781262339
 30
0.0
 11
25.68721267069732
 21
98.08436247844182
 31
0.0
  0
LINE
  5
298
  8
0
  6
CONTINUOUS
 62
     7
 10
25.68721267069732
 20
98.08436247844182
 30
0.0
 11
25.67056262918971
 21
98.09708801756234
 31
0.0
  0
LINE
  5
299
  8
0
  6
CONTINUOUS
 62
     7
 10
25.67056262918971
 20
98.09708801756234
 30
0.0
 11
25.6538981419577
 21
98.10914600489154
 31
0.0
  0
LINE
  5
29A
  8
0
  6
CONTINUOUS
 62
     7
 10
25.6538981419577
 20
98.10914600489154
 30
0.0
 11
25.63642447856959
 21
98.12112849695342
 31
0.0
  0
LINE
  5
29B
  8
0
  6
CONTINUOUS
 62
     7
 10
25.63642447856959
 20
98.12112849695342
 30
0.0
 11
25.5931743948754
 21
98.14818227219233
 31
0.0
  0
LINE
  5
29C
  8
0
  6
CONTINUOUS
 62
     7
 10
25.5931743948754
 20
98.14818227219233
 30
0.0
 11
25.54396009663934
 21
98.17516986579105
 31
0.0
  0
LINE
  5
29D
  8
0
  6
CONTINUOUS
 62
     7
 10
25.54396009663934
 20
98.17516986579105
 30
0.0
 11
25.4872644114964
 21
98.20233934113432
 31
0.0
  0
LINE
  5
29E
  8
0
  6
CONTINUOUS
 62
     7
 10
25.4872644114964
 20
98.20233934113432
 30
0.0
 11
25.4068717102022
 21
98.23553808035784
 31
0.0
  0
LINE
  5
29F
  8
0
  6
CONTINUOUS
 62
     7
 10
25.4068717102022
 20
98.23553808035784
 30
0.0
 11
25.30971349566136
 21
98.26976854189934
 31
0.0
  0
LINE
  5
2A0
  8
0
  6
CONTINUOUS
 62
     7
 10
25.30971349566136
 20
98.26976854189934
 30
0.0
 11
25.23440027400164
 21
98.29312258155647
 31
0.0
  0
LINE
  5
2A1
  8
0
  6
CONTINUOUS
 62
     7
 10
25.23440027400164
 20
98.29312258155647
 30
0.0
 11
23.37360212722436
 21
98.56058603742046
 31
0.0
  0
LINE
  5
2A2
  8
0
  6
CONTINUOUS
 62
     7
 10
15.78722805323321
 20
98.56207091381724
 30
0.0
 11
15.35198730946669
 21
98.53238538407363
 31
0.0
  0
ARC
  5
2A3
  8
0
  6
CONTINUOUS
 62
     7
 10
16.54494577292429
 20
83.25407111603752
 30
0.0
 40
15.32481767488314
 50
94.46469957859811
 51
138.8995872432811
  0
LINE
  5
2A4
  8
0
  6
CONTINUOUS
 62
     7
 10
8.775839203854385
 20
72.42186599229214
 30
0.0
 11
8.84453575924113
 21
81.08139098186624
 31
0.0
  0
LINE
  5
2A5
  8
0
  6
CONTINUOUS
 62
     7
 10
1.224160796145624
 20
72.42186599229214
 30
0.0
 11
1.144004800022608
 21
64.07237282621259
 31
0.0
  0
LINE
  5
2A6
  8
0
  6
CONTINUOUS
 62
     7
 10
1.157928928078783
 20
64.07383470322213
 30
0.0
 11
1.156894284365717
 21
64.0365317824591
 31
0.0
  0
LINE
  5
2A7
  8
0
  6
CONTINUOUS
 62
     7
 10
1.156894284365717
 20
64.0365317824591
 30
0.0
 11
1.154573996678177
 21
64.00054633370915
 31
0.0
  0
LINE
  5
2A8
  8
0
  6
CONTINUOUS
 62
     7
 10
1.154573996678177
 20
64.00054633370915
 30
0.0
 11
1.151106607615748
 21
63.96591294299115
 31
0.0
  0
LINE
  5
2A9
  8
0
  6
CONTINUOUS
 62
     7
 10
1.151106607615748
 20
63.96591294299115
 30
0.0
 11
1.146626524064276
 21
63.93265804501404
 31
0.0
  0
LINE
  5
2AA
  8
0
  6
CONTINUOUS
 62
     7
 10
1.146626524064276
 20
63.93265804501404
 30
0.0
 11
1.141263690474709
 21
63.90080065272922
 31
0.0
  0
LINE
  5
2AB
  8
0
  6
CONTINUOUS
 62
     7
 10
1.141263690474709
 20
63.90080065272922
 30
0.0
 11
1.133114288986659
 21
63.86121565714686
 31
0.0
  0
LINE
  5
2AC
  8
0
  6
CONTINUOUS
 62
     7
 10
1.133114288986659
 20
63.86121565714686
 30
0.0
 11
1.123933569770891
 21
63.82405990120792
 31
0.0
  0
LINE
  5
2AD
  8
0
  6
CONTINUOUS
 62
     7
 10
1.123933569770891
 20
63.82405990120792
 30
0.0
 11
1.113974582805155
 21
63.78933042649076
 31
0.0
  0
LINE
  5
2AE
  8
0
  6
CONTINUOUS
 62
     7
 10
1.113974582805155
 20
63.78933042649076
 30
0.0
 11
1.102013426785842
 21
63.75278977361891
 31
0.0
  0
LINE
  5
2AF
  8
0
  6
CONTINUOUS
 62
     7
 10
1.102013426785842
 20
63.75278977361891
 30
0.0
 11
1.089676705744336
 21
63.71932219054628
 31
0.0
  0
LINE
  5
2B0
  8
0
  6
CONTINUOUS
 62
     7
 10
1.089676705744336
 20
63.71932219054628
 30
0.0
 11
1.077261048118561
 21
63.6888748319945
 31
0.0
  0
LINE
  5
2B1
  8
0
  6
CONTINUOUS
 62
     7
 10
1.077261048118561
 20
63.6888748319945
 30
0.0
 11
1.065036407302905
 21
63.66138514669234
 31
0.0
  0
LINE
  5
2B2
  8
0
  6
CONTINUOUS
 62
     7
 10
1.065036407302905
 20
63.66138514669234
 30
0.0
 11
1.053246358946242
 21
63.63678435145329
 31
0.0
  0
LINE
  5
2B3
  8
0
  6
CONTINUOUS
 62
     7
 10
1.053246358946242
 20
63.63678435145329
 30
0.0
 11
1.04203181590512
 21
63.61485432188914
 31
0.0
  0
LINE
  5
2B4
  8
0
  6
CONTINUOUS
 62
     7
 10
1.04203181590512
 20
63.61485432188914
 30
0.0
 11
1.018499729597389
 21
63.57266061053769
 31
0.0
  0
LINE
  5
2B5
  8
0
  6
CONTINUOUS
 62
     7
 10
1.018499729597389
 20
63.57266061053769
 30
0.0
 11
0.9927287972639753
 21
63.53123839853926
 31
0.0
  0
LINE
  5
2B6
  8
0
  6
CONTINUOUS
 62
     7
 10
0.9927287972639753
 20
63.53123839853926
 30
0.0
 11
0.9647220935802281
 21
63.49070856019842
 31
0.0
  0
LINE
  5
2B7
  8
0
  6
CONTINUOUS
 62
     7
 10
0.9647220935802281
 20
63.49070856019842
 30
0.0
 11
0.9344894583499241
 21
63.45119511159363
 31
0.0
  0
LINE
  5
2B8
  8
0
  6
CONTINUOUS
 62
     7
 10
0.9344894583499241
 20
63.45119511159363
 30
0.0
 11
0.9020479657539382
 21
63.41282491539771
 31
0.0
  0
LINE
  5
2B9
  8
0
  6
CONTINUOUS
 62
     7
 10
0.9020479657539382
 20
63.41282491539771
 30
0.0
 11
0.8679409697743001
 21
63.37625504647266
 31
0.0
  0
LINE
  5
2BA
  8
0
  6
CONTINUOUS
 62
     7
 10
0.8679409697743001
 20
63.37625504647266
 30
0.0
 11
0.838751025614759
 21
63.34759548481433
 31
0.0
  0
LINE
  5
2BB
  8
0
  6
CONTINUOUS
 62
     7
 10
0.838751025614759
 20
63.34759548481433
 30
0.0
 11
0.8092228189068573
 21
63.32078350416693
 31
0.0
  0
LINE
  5
2BC
  8
0
  6
CONTINUOUS
 62
     7
 10
0.8092228189068573
 20
63.32078350416693
 30
0.0
 11
0.7794873086993115
 21
63.29577365764725
 31
0.0
  0
LINE
  5
2BD
  8
0
  6
CONTINUOUS
 62
     7
 10
0.7794873086993115
 20
63.29577365764725
 30
0.0
 11
0.7496683010188299
 21
63.2725148348317
 31
0.0
  0
LINE
  5
2BE
  8
0
  6
CONTINUOUS
 62
     7
 10
0.7496683010188299
 20
63.2725148348317
 30
0.0
 11
0.7340549301564636
 21
63.26101181923605
 31
0.0
  0
LINE
  5
2BF
  8
0
  6
CONTINUOUS
 62
     7
 10
0.7340549301564636
 20
63.26101181923605
 30
0.0
 11
0.7184667216937612
 21
63.24996539126193
 31
0.0
  0
LINE
  5
2C0
  8
0
  6
CONTINUOUS
 62
     7
 10
0.7184667216937612
 20
63.24996539126193
 30
0.0
 11
0.7028268574871543
 21
63.23932077063021
 31
0.0
  0
LINE
  5
2C1
  8
0
  6
CONTINUOUS
 62
     7
 10
0.7028268574871543
 20
63.23932077063021
 30
0.0
 11
0.6858132284940643
 21
63.2284387315756
 31
0.0
  0
LINE
  5
2C2
  8
0
  6
CONTINUOUS
 62
     7
 10
0.6858132284940643
 20
63.2284387315756
 30
0.0
 11
0.6669598655084374
 21
63.21718663272788
 31
0.0
  0
LINE
  5
2C3
  8
0
  6
CONTINUOUS
 62
     7
 10
0.6669598655084374
 20
63.21718663272788
 30
0.0
 11
0.6462309335230065
 21
63.20565886760758
 31
0.0
  0
LINE
  5
2C4
  8
0
  6
CONTINUOUS
 62
     7
 10
0.6462309335230065
 20
63.20565886760758
 30
0.0
 11
0.6291185145557987
 21
63.19673170706176
 31
0.0
  0
LINE
  5
2C5
  8
0
  6
CONTINUOUS
 62
     7
 10
0.6291185145557987
 20
63.19673170706176
 30
0.0
 11
0.6108808232200003
 21
63.18774795064905
 31
0.0
  0
LINE
  5
2C6
  8
0
  6
CONTINUOUS
 62
     7
 10
0.6108808232200003
 20
63.18774795064905
 30
0.0
 11
0.591506547211823
 21
63.17875563661726
 31
0.0
  0
LINE
  5
2C7
  8
0
  6
CONTINUOUS
 62
     7
 10
0.591506547211823
 20
63.17875563661726
 30
0.0
 11
0.5709858762114883
 21
63.16980457733538
 31
0.0
  0
LINE
  5
2C8
  8
0
  6
CONTINUOUS
 62
     7
 10
0.5709858762114883
 20
63.16980457733538
 30
0.0
 11
0.5493105737780779
 21
63.16094637495235
 31
0.0
  0
LINE
  5
2C9
  8
0
  6
CONTINUOUS
 62
     7
 10
0.5493105737780779
 20
63.16094637495235
 30
0.0
 11
0.5191694597250218
 21
63.14957609504825
 31
0.0
  0
LINE
  5
2CA
  8
0
  6
CONTINUOUS
 62
     7
 10
0.5191694597250218
 20
63.14957609504825
 30
0.0
 11
0.4870269150310802
 21
63.13858148903032
 31
0.0
  0
LINE
  5
2CB
  8
0
  6
CONTINUOUS
 62
     7
 10
0.4870269150310802
 20
63.13858148903032
 30
0.0
 11
0.45287805544722
 21
63.12809264748643
 31
0.0
  0
LINE
  5
2CC
  8
0
  6
CONTINUOUS
 62
     7
 10
0.45287805544722
 20
63.12809264748643
 30
0.0
 11
0.4176881551154199
 21
63.11849166009144
 31
0.0
  0
LINE
  5
2CD
  8
0
  6
CONTINUOUS
 62
     7
 10
0.4176881551154199
 20
63.11849166009144
 30
0.0
 11
0.3806020519641629
 21
63.1096294871598
 31
0.0
  0
LINE
  5
2CE
  8
0
  6
CONTINUOUS
 62
     7
 10
0.3806020519641629
 20
63.1096294871598
 30
0.0
 11
0.3416321357373742
 21
63.10164156636654
 31
0.0
  0
LINE
  5
2CF
  8
0
  6
CONTINUOUS
 62
     7
 10
0.3416321357373742
 20
63.10164156636654
 30
0.0
 11
0.3007972095230016
 21
63.09466844420029
 31
0.0
  0
LINE
  5
2D0
  8
0
  6
CONTINUOUS
 62
     7
 10
0.3007972095230016
 20
63.09466844420029
 30
0.0
 11
0.258123002500027
 21
63.08885579045245
 31
0.0
  0
LINE
  5
2D1
  8
0
  6
CONTINUOUS
 62
     7
 10
0.258123002500027
 20
63.08885579045245
 30
0.0
 11
0.2136427383076511
 21
63.08435437148278
 31
0.0
  0
LINE
  5
2D2
  8
0
  6
CONTINUOUS
 62
     7
 10
0.2136427383076511
 20
63.08435437148278
 30
0.0
 11
0.167397754155918
 21
63.0813199663442
 31
0.0
  0
LINE
  5
2D3
  8
0
  6
CONTINUOUS
 62
     7
 10
9.832602245844091
 20
63.0813199663442
 30
0.0
 11
9.791843047978087
 21
63.08373148896276
 31
0.0
  0
LINE
  5
2D4
  8
0
  6
CONTINUOUS
 62
     7
 10
9.791843047978087
 20
63.08373148896276
 30
0.0
 11
9.752501081746745
 21
63.08692667977278
 31
0.0
  0
LINE
  5
2D5
  8
0
  6
CONTINUOUS
 62
     7
 10
9.752501081746745
 20
63.08692667977278
 30
0.0
 11
9.714590346885599
 21
63.09090447674193
 31
0.0
  0
LINE
  5
2D6
  8
0
  6
CONTINUOUS
 62
     7
 10
9.714590346885599
 20
63.09090447674193
 30
0.0
 11
9.678133625969782
 21
63.09565864415824
 31
0.0
  0
LINE
  5
2D7
  8
0
  6
CONTINUOUS
 62
     7
 10
9.678133625969782
 20
63.09565864415824
 30
0.0
 11
9.643160249613592
 21
63.10117618503671
 31
0.0
  0
LINE
  5
2D8
  8
0
  6
CONTINUOUS
 62
     7
 10
9.643160249613592
 20
63.10117618503671
 30
0.0
 11
9.60970383203022
 21
63.10743613493383
 31
0.0
  0
LINE
  5
2D9
  8
0
  6
CONTINUOUS
 62
     7
 10
9.60970383203022
 20
63.10743613493383
 30
0.0
 11
9.590372934727725
 21
63.11153645503882
 31
0.0
  0
LINE
  5
2DA
  8
0
  6
CONTINUOUS
 62
     7
 10
9.590372934727725
 20
63.11153645503882
 30
0.0
 11
9.57160873085494
 21
63.11588545936542
 31
0.0
  0
LINE
  5
2DB
  8
0
  6
CONTINUOUS
 62
     7
 10
9.57160873085494
 20
63.11588545936542
 30
0.0
 11
9.553418786834383
 21
63.12047386634456
 31
0.0
  0
LINE
  5
2DC
  8
0
  6
CONTINUOUS
 62
     7
 10
9.553418786834383
 20
63.12047386634456
 30
0.0
 11
9.535810327175097
 21
63.12529114031343
 31
0.0
  0
LINE
  5
2DD
  8
0
  6
CONTINUOUS
 62
     7
 10
9.535810327175097
 20
63.12529114031343
 30
0.0
 11
9.518790082397116
 21
63.13032548921416
 31
0.0
  0
LINE
  5
2DE
  8
0
  6
CONTINUOUS
 62
     7
 10
9.518790082397116
 20
63.13032548921416
 30
0.0
 11
9.505060292923861
 21
63.13467722942769
 31
0.0
  0
LINE
  5
2DF
  8
0
  6
CONTINUOUS
 62
     7
 10
9.505060292923861
 20
63.13467722942769
 30
0.0
 11
9.491746348616326
 21
63.13916247795257
 31
0.0
  0
LINE
  5
2E0
  8
0
  6
CONTINUOUS
 62
     7
 10
9.491746348616326
 20
63.13916247795257
 30
0.0
 11
9.478850940846883
 21
63.14377244405497
 31
0.0
  0
LINE
  5
2E1
  8
0
  6
CONTINUOUS
 62
     7
 10
9.478850940846883
 20
63.14377244405497
 30
0.0
 11
9.466376283822047
 21
63.14849775974189
 31
0.0
  0
LINE
  5
2E2
  8
0
  6
CONTINUOUS
 62
     7
 10
9.466376283822047
 20
63.14849775974189
 30
0.0
 11
9.454324067590141
 21
63.15332849144178
 31
0.0
  0
LINE
  5
2E3
  8
0
  6
CONTINUOUS
 62
     7
 10
9.454324067590141
 20
63.15332849144178
 30
0.0
 11
9.442695413900775
 21
63.15825415286486
 31
0.0
  0
LINE
  5
2E4
  8
0
  6
CONTINUOUS
 62
     7
 10
9.442695413900775
 20
63.15825415286486
 30
0.0
 11
9.405780752732962
 21
63.17576462642955
 31
0.0
  0
LINE
  5
2E5
  8
0
  6
CONTINUOUS
 62
     7
 10
9.405780752732962
 20
63.17576462642955
 30
0.0
 11
9.370015687240441
 21
63.19478111699858
 31
0.0
  0
LINE
  5
2E6
  8
0
  6
CONTINUOUS
 62
     7
 10
9.370015687240441
 20
63.19478111699858
 30
0.0
 11
9.334354317103083
 21
63.21556093210152
 31
0.0
  0
LINE
  5
2E7
  8
0
  6
CONTINUOUS
 62
     7
 10
9.334354317103083
 20
63.21556093210152
 30
0.0
 11
9.29890503231917
 21
63.23814853410395
 31
0.0
  0
LINE
  5
2E8
  8
0
  6
CONTINUOUS
 62
     7
 10
9.29890503231917
 20
63.23814853410395
 30
0.0
 11
9.263781861211989
 21
63.26258315304369
 31
0.0
  0
LINE
  5
2E9
  8
0
  6
CONTINUOUS
 62
     7
 10
9.263781861211989
 20
63.26258315304369
 30
0.0
 11
9.229104291084589
 21
63.28889826904891
 31
0.0
  0
LINE
  5
2EA
  8
0
  6
CONTINUOUS
 62
     7
 10
9.229104291084589
 20
63.28889826904891
 30
0.0
 11
9.19500876277876
 21
63.31711099072333
 31
0.0
  0
LINE
  5
2EB
  8
0
  6
CONTINUOUS
 62
     7
 10
9.19500876277876
 20
63.31711099072333
 30
0.0
 11
9.157205191740847
 21
63.3514315496841
 31
0.0
  0
LINE
  5
2EC
  8
0
  6
CONTINUOUS
 62
     7
 10
9.157205191740847
 20
63.3514315496841
 30
0.0
 11
9.122154062224663
 21
63.38650849112256
 31
0.0
  0
LINE
  5
2ED
  8
0
  6
CONTINUOUS
 62
     7
 10
9.122154062224663
 20
63.38650849112256
 30
0.0
 11
9.089785010795076
 21
63.42212588430989
 31
0.0
  0
LINE
  5
2EE
  8
0
  6
CONTINUOUS
 62
     7
 10
9.089785010795076
 20
63.42212588430989
 30
0.0
 11
9.060015983855529
 21
63.45808286966828
 31
0.0
  0
LINE
  5
2EF
  8
0
  6
CONTINUOUS
 62
     7
 10
9.060015983855529
 20
63.45808286966828
 30
0.0
 11
9.032755163022154
 21
63.49419353217429
 31
0.0
  0
LINE
  5
2F0
  8
0
  6
CONTINUOUS
 62
     7
 10
9.032755163022154
 20
63.49419353217429
 30
0.0
 11
9.004532579814983
 21
63.53546422119245
 31
0.0
  0
LINE
  5
2F1
  8
0
  6
CONTINUOUS
 62
     7
 10
9.004532579814983
 20
63.53546422119245
 30
0.0
 11
8.992715483618491
 21
63.55413701053727
 31
0.0
  0
LINE
  5
2F2
  8
0
  6
CONTINUOUS
 62
     7
 10
8.992715483618491
 20
63.55413701053727
 30
0.0
 11
8.98038352792932
 21
63.57463745236115
 31
0.0
  0
LINE
  5
2F3
  8
0
  6
CONTINUOUS
 62
     7
 10
8.98038352792932
 20
63.57463745236115
 30
0.0
 11
8.967657041600658
 21
63.59701545196054
 31
0.0
  0
LINE
  5
2F4
  8
0
  6
CONTINUOUS
 62
     7
 10
8.967657041600658
 20
63.59701545196054
 30
0.0
 11
8.954667622059487
 21
63.62131980839794
 31
0.0
  0
LINE
  5
2F5
  8
0
  6
CONTINUOUS
 62
     7
 10
8.954667622059487
 20
63.62131980839794
 30
0.0
 11
8.941558374537529
 21
63.64759707496609
 31
0.0
  0
LINE
  5
2F6
  8
0
  6
CONTINUOUS
 62
     7
 10
8.941558374537529
 20
63.64759707496609
 30
0.0
 11
8.92848410119737
 21
63.67589033302616
 31
0.0
  0
LINE
  5
2F7
  8
0
  6
CONTINUOUS
 62
     7
 10
8.92848410119737
 20
63.67589033302616
 30
0.0
 11
8.9156114279631
 21
63.70623788087841
 31
0.0
  0
LINE
  5
2F8
  8
0
  6
CONTINUOUS
 62
     7
 10
8.9156114279631
 20
63.70623788087841
 30
0.0
 11
8.903118856683683
 21
63.73867183990443
 31
0.0
  0
LINE
  5
2F9
  8
0
  6
CONTINUOUS
 62
     7
 10
8.903118856683683
 20
63.73867183990443
 30
0.0
 11
8.892404197752501
 21
63.76952513513935
 31
0.0
  0
LINE
  5
2FA
  8
0
  6
CONTINUOUS
 62
     7
 10
8.892404197752501
 20
63.76952513513935
 30
0.0
 11
8.882292254953933
 21
63.80208458599687
 31
0.0
  0
LINE
  5
2FB
  8
0
  6
CONTINUOUS
 62
     7
 10
8.882292254953933
 20
63.80208458599687
 30
0.0
 11
8.872935345174888
 21
63.83635471221678
 31
0.0
  0
LINE
  5
2FC
  8
0
  6
CONTINUOUS
 62
     7
 10
8.872935345174888
 20
63.83635471221678
 30
0.0
 11
8.864492990566019
 21
63.87233219605739
 31
0.0
  0
LINE
  5
2FD
  8
0
  6
CONTINUOUS
 62
     7
 10
8.864492990566019
 20
63.87233219605739
 30
0.0
 11
8.857131645010451
 21
63.91000487463426
 31
0.0
  0
LINE
  5
2FE
  8
0
  6
CONTINUOUS
 62
     7
 10
8.857131645010451
 20
63.91000487463426
 30
0.0
 11
8.851121376047155
 21
63.94863359659929
 31
0.0
  0
LINE
  5
2FF
  8
0
  6
CONTINUOUS
 62
     7
 10
8.851121376047155
 20
63.94863359659929
 30
0.0
 11
8.84649045106911
 21
63.98884510231378
 31
0.0
  0
LINE
  5
300
  8
0
  6
CONTINUOUS
 62
     7
 10
8.84649045106911
 20
63.98884510231378
 30
0.0
 11
8.843413813212297
 21
64.03059701263034
 31
0.0
  0
LINE
  5
301
  8
0
  6
CONTINUOUS
 62
     7
 10
8.843413813212297
 20
64.03059701263034
 30
0.0
 11
8.842071071921225
 21
64.07383470322213
 31
0.0
  0
LINE
  5
302
  8
0
  6
CONTINUOUS
 62
     7
 10
8.855995199977402
 20
64.07237282621259
 30
0.0
 11
8.667452777172235
 21
83.71199739418658
 31
0.0
  0
ARC
  5
303
  8
0
  6
CONTINUOUS
 62
     7
 10
-6.421362625006116
 20
83.48493273809201
 30
0.0
 40
15.07662333889581
 50
0.8685039745423265
 51
90.38042871899064
  0
LINE
  5
304
  8
0
  6
CONTINUOUS
 62
     7
 10
1.15546424075888
 20
81.08139098186624
 30
0.0
 11
1.298268610797043
 21
63.08022623635377
 31
0.0
  0
ARC
  5
305
  8
0
  6
CONTINUOUS
 62
     7
 10
-12.84722329929389
 20
81.10659709850675
 30
0.0
 40
14.01850541919372
 50
359.9134153877593
 51
67.09641695618451
  0
LINE
  5
306
  8
0
  6
CONTINUOUS
 62
     7
 10
-16.05589696838543
 20
96.38367712706541
 30
0.0
 11
-16.05415025271231
 21
96.31016204612617
 31
0.0
  0
LINE
  5
307
  8
0
  6
CONTINUOUS
 62
     7
 10
-16.05415025271231
 20
96.31016204612617
 30
0.0
 11
-16.04880245137844
 21
96.23681745794154
 31
0.0
  0
LINE
  5
308
  8
0
  6
CONTINUOUS
 62
     7
 10
-16.04880245137844
 20
96.23681745794154
 30
0.0
 11
-16.03986630286168
 21
96.16381613640282
 31
0.0
  0
LINE
  5
309
  8
0
  6
CONTINUOUS
 62
     7
 10
-16.03986630286168
 20
96.16381613640282
 30
0.0
 11
-16.02736294764084
 21
96.09132983726376
 31
0.0
  0
LINE
  5
30A
  8
0
  6
CONTINUOUS
 62
     7
 10
-16.02736294764084
 20
96.09132983726376
 30
0.0
 11
-16.01481129556172
 21
96.03382615598119
 31
0.0
  0
LINE
  5
30B
  8
0
  6
CONTINUOUS
 62
     7
 10
-16.01481129556172
 20
96.03382615598119
 30
0.0
 11
-16.00001385825377
 21
95.9768475982603
 31
0.0
  0
LINE
  5
30C
  8
0
  6
CONTINUOUS
 62
     7
 10
-16.00001385825377
 20
95.9768475982603
 30
0.0
 11
-15.98299234979138
 21
95.92047978429025
 31
0.0
  0
LINE
  5
30D
  8
0
  6
CONTINUOUS
 62
     7
 10
-15.98299234979138
 20
95.92047978429025
 30
0.0
 11
-15.96377142753867
 21
95.86480741111531
 31
0.0
  0
LINE
  5
30E
  8
0
  6
CONTINUOUS
 62
     7
 10
-15.96377142753867
 20
95.86480741111531
 30
0.0
 11
-15.94237853305738
 21
95.8099141568392
 31
0.0
  0
LINE
  5
30F
  8
0
  6
CONTINUOUS
 62
     7
 10
-15.94237853305738
 20
95.8099141568392
 30
0.0
 11
-15.91884371791308
 21
95.75588259103567
 31
0.0
  0
LINE
  5
310
  8
0
  6
CONTINUOUS
 62
     7
 10
-15.91884371791308
 20
95.75588259103567
 30
0.0
 11
-15.89319945567313
 21
95.70279409126594
 31
0.0
  0
LINE
  5
311
  8
0
  6
CONTINUOUS
 62
     7
 10
-15.89319945567313
 20
95.70279409126594
 30
0.0
 11
-15.86548044146914
 21
95.65072876549641
 31
0.0
  0
LINE
  5
312
  8
0
  6
CONTINUOUS
 62
     7
 10
-15.86548044146914
 20
95.65072876549641
 30
0.0
 11
-15.83572338055139
 21
95.59976538009363
 31
0.0
  0
LINE
  5
313
  8
0
  6
CONTINUOUS
 62
     7
 10
-15.83572338055139
 20
95.59976538009363
 30
0.0
 11
-15.80396676729259
 21
95.54998129295406
 31
0.0
  0
LINE
  5
314
  8
0
  6
CONTINUOUS
 62
     7
 10
-15.80396676729259
 20
95.54998129295406
 30
0.0
 11
-15.77025065609863
 21
95.50145239120438
 31
0.0
  0
LINE
  5
315
  8
0
  6
CONTINUOUS
 62
     7
 10
-15.77025065609863
 20
95.50145239120438
 30
0.0
 11
-15.73461646313253
 21
95.45425307763311
 31
0.0
  0
LINE
  5
316
  8
0
  6
CONTINUOUS
 62
     7
 10
-15.73461646313253
 20
95.45425307763311
 30
0.0
 11
-15.69710798774815
 21
95.40845744241516
 31
0.0
  0
LINE
  5
317
  8
0
  6
CONTINUOUS
 62
     7
 10
-15.69710798774815
 20
95.40845744241516
 30
0.0
 11
-15.65777238270918
 21
95.36413921124544
 31
0.0
  0
LINE
  5
318
  8
0
  6
CONTINUOUS
 62
     7
 10
-15.65777238270918
 20
95.36413921124544
 30
0.0
 11
-15.61665950867218
 21
95.32137014171602
 31
0.0
  0
LINE
  5
319
  8
0
  6
CONTINUOUS
 62
     7
 10
-15.61665950867218
 20
95.32137014171602
 30
0.0
 11
-15.56856820096292
 21
95.27539373233215
 31
0.0
  0
LINE
  5
31A
  8
0
  6
CONTINUOUS
 62
     7
 10
-15.56856820096292
 20
95.27539373233215
 30
0.0
 11
-15.51839179125208
 21
95.23154193775318
 31
0.0
  0
LINE
  5
31B
  8
0
  6
CONTINUOUS
 62
     7
 10
-15.51839179125208
 20
95.23154193775318
 30
0.0
 11
-15.46621312862931
 21
95.18990491931234
 31
0.0
  0
LINE
  5
31C
  8
0
  6
CONTINUOUS
 62
     7
 10
-15.46621312862931
 20
95.18990491931234
 30
0.0
 11
-15.41211979144969
 21
95.15056855814954
 31
0.0
  0
LINE
  5
31D
  8
0
  6
CONTINUOUS
 62
     7
 10
-15.41211979144969
 20
95.15056855814954
 30
0.0
 11
-15.35620413642827
 21
95.11361418934466
 31
0.0
  0
LINE
  5
31E
  8
0
  6
CONTINUOUS
 62
     7
 10
-15.35620413642827
 20
95.11361418934466
 30
0.0
 11
-15.29960715033611
 21
95.07971236230456
 31
0.0
  0
LINE
  5
31F
  8
0
  6
CONTINUOUS
 62
     7
 10
-15.29960715033611
 20
95.07971236230456
 30
0.0
 11
-15.29933255852109
 21
95.07955599485268
 31
0.0
  0
LINE
  5
320
  8
0
  6
CONTINUOUS
 62
     7
 10
-16.05519064211595
 20
97.31232475505166
 30
0.0
 11
-16.05589688867746
 21
96.38378192369237
 31
0.0
  0
ARC
  5
321
  8
0
  6
CONTINUOUS
 62
     7
 10
-12.84128736591283
 20
88.57410822936885
 30
0.0
 40
9.987404767329066
 50
89.52501820222744
 51
105.0053011467169
  0
LINE
  5
322
  8
0
  6
CONTINUOUS
 62
     7
 10
-15.42711049252431
 20
98.22096122629736
 30
0.0
 11
-15.64418507392683
 21
98.11146590398393
 31
0.0
  0
LINE
  5
323
  8
0
  6
CONTINUOUS
 62
     7
 10
-15.64418507392683
 20
98.11146590398393
 30
0.0
 11
-15.80940742265538
 21
97.96521875531877
 31
0.0
  0
LINE
  5
324
  8
0
  6
CONTINUOUS
 62
     7
 10
-15.80940742265538
 20
97.96521875531877
 30
0.0
 11
-15.93220904043333
 21
97.79178923546733
 31
0.0
  0
LINE
  5
325
  8
0
  6
CONTINUOUS
 62
     7
 10
-15.93220904043333
 20
97.79178923546733
 30
0.0
 11
-16.01910291677418
 21
97.57787744375568
 31
0.0
  0
LINE
  5
326
  8
0
  6
CONTINUOUS
 62
     7
 10
-16.01910291677418
 20
97.57787744375568
 30
0.0
 11
-16.05371069911687
 21
97.3515521558947
 31
0.0
  0
LINE
  5
327
  8
0
  6
CONTINUOUS
 62
     7
 10
-16.05371069911687
 20
97.3515521558947
 30
0.0
 11
-16.05436789550122
 21
97.31044350775066
 31
0.0
  0
LINE
  5
328
  8
0
  6
CONTINUOUS
 62
     7
 10
-11.9853589838486
 20
63.28022623635373
 30
0.0
 11
-11.9853589838486
 21
63.08022623635373
 31
0.0
  0
LINE
  5
329
  8
0
  6
CONTINUOUS
 62
     7
 10
-7.667968750000004
 20
63.28022623635373
 30
0.0
 11
-7.667968750000004
 21
63.30522623635375
 31
0.0
  0
LINE
  5
32A
  8
0
  6
CONTINUOUS
 62
     7
 10
-7.632859507711504
 20
63.28022623635373
 30
0.0
 11
-7.632859507711504
 21
63.30522623635375
 31
0.0
  0
LINE
  5
32B
  8
0
  6
CONTINUOUS
 62
   253
 10
16.59170909145541
 20
436.6660330075934
 30
0.0
 11
16.92656796221534
 21
436.6367366525208
 31
0.0
  0
LINE
  5
32C
  8
0
  6
CONTINUOUS
 62
     7
 10
26.01714014425649
 20
425.8053196985796
 30
0.0
 11
25.20075428935059
 21
416.473986677771
 31
0.0
  0
ARC
  5
32D
  8
0
  6
CONTINUOUS
 62
     7
 10
16.03679012866016
 20
426.6772669252448
 30
0.0
 40
10.0183713078964
 50
355.0532643984773
 51
84.89495788031844
  0
LINE
  5
32E
  8
0
  6
CONTINUOUS
 62
     7
 10
26.01784591876693
 20
425.813386738148
 30
0.0
 11
26.01714014425649
 21
425.8053196985796
 31
0.0
  0
LINE
  5
32F
  8
0
  6
CONTINUOUS
 62
   253
 10
16.92656796221534
 20
436.6367366525208
 30
0.0
 11
16.92824434064871
 21
436.6558977456934
 31
0.0
  0
ARC
  5
330
  8
0
  6
CONTINUOUS
 62
     7
 10
15.21973195771142
 20
417.3494086772916
 30
0.0
 40
10.01934486195022
 50
265.1105937744495
 51
354.941183946755
  0
LINE
  5
331
  8
0
  6
CONTINUOUS
 62
   253
 10
14.36575613112342
 20
407.3665234856102
 30
0.0
 11
14.36688749578502
 21
407.3794550428656
 31
0.0
  0
LINE
  5
332
  8
0
  6
CONTINUOUS
 62
     7
 10
25.20075428935059
 20
416.473986677771
 30
0.0
 11
25.20004851484014
 21
416.4659196382024
 31
0.0
  0
LINE
  5
333
  8
0
  6
CONTINUOUS
 62
     7
 10
4.700000000000037
 20
438.0087261930418
 30
0.0
 11
5.000000000000032
 21
437.9851076548864
 31
0.0
  0
LINE
  5
334
  8
0
  6
CONTINUOUS
 62
     7
 10
5.000000000000032
 20
437.9851076548864
 30
0.0
 11
5.300000000000026
 21
437.9562329949262
 31
0.0
  0
LINE
  5
335
  8
0
  6
CONTINUOUS
 62
     7
 10
6.247837546321105
 20
437.8733079547588
 30
0.0
 11
5.300000000000026
 21
437.9562329949262
 31
0.0
  0
LINE
  5
336
  8
0
  6
CONTINUOUS
 62
     7
 10
6.249358739609439
 20
437.890695273607
 30
0.0
 11
7.316442858226996
 21
437.7973375101994
 31
0.0
  0
LINE
  5
337
  8
0
  6
CONTINUOUS
 62
     7
 10
16.92824434064871
 20
436.6558977456936
 30
0.0
 11
7.475261199042126
 21
437.6080651819632
 31
0.0
  0
LINE
  5
338
  8
0
  6
CONTINUOUS
 62
     7
 10
4.700000000000037
 20
438.0087261930418
 30
0.0
 11
1.954248946913317
 21
438.2489482830514
 31
0.0
  0
LINE
  5
339
  8
0
  6
CONTINUOUS
 62
     7
 10
4.891042904033527
 20
408.0703149082624
 30
0.0
 11
14.36575613112359
 21
407.3665234856102
 31
0.0
  0
LINE
  5
33A
  8
0
  6
CONTINUOUS
 62
   253
 10
4.720679087933805
 20
407.927362693007
 30
0.0
 11
4.891042904033527
 21
408.0703149082624
 31
0.0
  0
LINE
  5
33B
  8
0
  6
CONTINUOUS
 62
     7
 10
4.720679087933805
 20
407.927362693007
 30
0.0
 11
4.254868813819063
 21
407.968115811346
 31
0.0
  0
LINE
  5
33C
  8
0
  6
CONTINUOUS
 62
     7
 10
4.891042904033527
 20
408.0703149082624
 30
0.0
 11
5.411563544748393
 21
408.116113770389
 31
0.0
  0
LINE
  5
33D
  8
0
  6
CONTINUOUS
 62
     7
 10
39.91254093378854
 20
300.196544913596
 30
0.0
 11
37.41263612612811
 21
300.218171694769
 31
0.0
  0
LINE
  5
33E
  8
0
  6
CONTINUOUS
 62
     7
 10
23.77654984491107
 20
300.0174537355814
 30
0.0
 11
23.81333464424651
 21
300.0523612067446
 31
0.0
  0
LINE
  5
33F
  8
0
  6
CONTINUOUS
 62
     7
 10
33.00000000000003
 20
300.0959955456984
 30
0.0
 11
32.17563973287568
 21
300.0959955456984
 31
0.0
  0
LINE
  5
340
  8
0
  6
CONTINUOUS
 62
     7
 10
33.0
 20
300.0850227372094
 30
0.0
 11
33.00000000000003
 21
300.0959955456984
 31
0.0
  0
LINE
  5
341
  8
0
  6
CONTINUOUS
 62
     7
 10
36.48959381471767
 20
300.1154759610738
 30
0.0
 11
33.0
 21
300.0850227372094
 31
0.0
  0
LINE
  5
342
  8
0
  6
CONTINUOUS
 62
     7
 10
37.07530409847293
 20
300.1276653052174
 30
0.0
 11
36.48959381471767
 21
300.1154759610738
 31
0.0
  0
LINE
  5
343
  8
0
  6
CONTINUOUS
 62
     7
 10
37.16581048802445
 20
300.218171694769
 30
0.0
 11
37.07530409847293
 21
300.1276653052174
 31
0.0
  0
LINE
  5
344
  8
0
  6
CONTINUOUS
 62
     7
 10
37.41263612612811
 20
300.218171694769
 30
0.0
 11
37.16581048802445
 21
300.218171694769
 31
0.0
  0
LINE
  5
345
  8
0
  6
CONTINUOUS
 62
     7
 10
40.00000000000004
 20
300.1090858473844
 30
0.0
 11
39.91254093378854
 21
300.196544913596
 31
0.0
  0
LINE
  5
346
  8
0
  6
CONTINUOUS
 62
     7
 10
33.03490747116305
 20
300.0
 30
0.0
 11
34.6069416553772
 21
300.0
 31
0.0
  0
LINE
  5
347
  8
0
  6
CONTINUOUS
 62
     7
 10
32.99127313220926
 20
300.0436343389538
 30
0.0
 11
33.03490747116305
 21
300.0
 31
0.0
  0
LINE
  5
348
  8
0
  6
CONTINUOUS
 62
     7
 10
32.99127313220926
 20
300.0436343389538
 30
0.0
 11
32.222078087806
 21
300.0436343389538
 31
0.0
  0
LINE
  5
349
  8
0
  6
CONTINUOUS
 62
     7
 10
-12.96509252883693
 20
300.0
 30
0.0
 11
22.96509252883697
 21
300.0
 31
0.0
  0
LINE
  5
34A
  8
0
  6
CONTINUOUS
 62
     7
 10
22.96509252883697
 20
300.0
 30
0.0
 11
23.81059050968043
 21
300.0
 31
0.0
  0
LINE
  5
34B
  8
0
  6
CONTINUOUS
 62
     7
 10
-29.98243203143611
 20
300.0915178788206
 30
0.0
 11
-29.99999999999999
 21
300.1090858473844
 31
0.0
  0
LINE
  5
34C
  8
0
  6
CONTINUOUS
 62
     7
 10
-27.41263612612803
 20
300.218171694769
 30
0.0
 11
-29.91254093378848
 21
300.196544913596
 31
0.0
  0
LINE
  5
34D
  8
0
  6
CONTINUOUS
 62
     7
 10
-27.41263612612803
 20
300.218171694769
 30
0.0
 11
-27.1658104880244
 21
300.218171694769
 31
0.0
  0
LINE
  5
34E
  8
0
  6
CONTINUOUS
 62
     7
 10
-27.1658104880244
 20
300.218171694769
 30
0.0
 11
-27.07530409847285
 21
300.1276653052174
 31
0.0
  0
LINE
  5
34F
  8
0
  6
CONTINUOUS
 62
     7
 10
-26.48959381471762
 20
300.1154759610738
 30
0.0
 11
-27.07530409847285
 21
300.1276653052174
 31
0.0
  0
LINE
  5
350
  8
0
  6
CONTINUOUS
 62
     7
 10
-26.48959381471759
 20
300.1154759610738
 30
0.0
 11
-24.99999999999998
 21
300.1024764727908
 31
0.0
  0
LINE
  5
351
  8
0
  6
CONTINUOUS
 62
     7
 10
-24.99999999999998
 20
300.1024764727908
 30
0.0
 11
-24.99999999999998
 21
300.1047224134892
 31
0.0
  0
LINE
  5
352
  8
0
  6
CONTINUOUS
 62
     7
 10
-24.99999999999998
 20
300.1047224134892
 30
0.0
 11
-23.22074392588437
 21
300.1047224134892
 31
0.0
  0
LINE
  5
353
  8
0
  6
CONTINUOUS
 62
     7
 10
-22.21891422412546
 20
300.0959955456984
 30
0.0
 11
-23.22074392588437
 21
300.1047224134892
 31
0.0
  0
LINE
  5
354
  8
0
  6
CONTINUOUS
 62
     7
 10
-12.77925607411554
 20
300.1047224134892
 30
0.0
 11
-13.78108577587447
 21
300.0959955456984
 31
0.0
  0
LINE
  5
355
  8
0
  6
CONTINUOUS
 62
     7
 10
-12.77925607411554
 20
300.1047224134892
 30
0.0
 11
-11.08726867790756
 21
300.1047224134892
 31
0.0
  0
LINE
  5
356
  8
0
  6
CONTINUOUS
 62
     7
 10
-10.99999999999998
 20
300.0174537355814
 30
0.0
 11
-11.08726867790756
 21
300.1047224134892
 31
0.0
  0
LINE
  5
357
  8
0
  6
CONTINUOUS
 62
     7
 10
-5.417322794889142
 20
300.0174537355814
 30
0.0
 11
-10.99999999999998
 21
300.0174537355814
 31
0.0
  0
LINE
  5
358
  8
0
  6
CONTINUOUS
 62
     7
 10
-4.707291356114348
 20
300.0148976951842
 30
0.0
 11
-5.417322794889142
 21
300.0174537355816
 31
0.0
  0
LINE
  5
359
  8
0
  6
CONTINUOUS
 62
     7
 10
-4.090262644432921
 20
300.00953753463
 30
0.0
 11
-4.707291356114348
 21
300.0148976951842
 31
0.0
  0
LINE
  5
35A
  8
0
  6
CONTINUOUS
 62
     7
 10
-3.380231205658155
 20
300.0069814942326
 30
0.0
 11
-4.090262644432921
 21
300.00953753463
 31
0.0
  0
LINE
  5
35B
  8
0
  6
CONTINUOUS
 62
     7
 10
-3.380231205658155
 20
300.0069814942326
 30
0.0
 11
13.37900960245858
 21
300.0069814942326
 31
0.0
  0
LINE
  5
35C
  8
0
  6
CONTINUOUS
 62
     7
 10
14.08859379211677
 20
300.00953753463
 30
0.0
 11
13.37900960245858
 21
300.0069814942326
 31
0.0
  0
LINE
  5
35D
  8
0
  6
CONTINUOUS
 62
     7
 10
14.7046845972319
 20
300.0148976951842
 30
0.0
 11
14.08859379211677
 21
300.00953753463
 31
0.0
  0
LINE
  5
35E
  8
0
  6
CONTINUOUS
 62
     7
 10
15.41426878689009
 20
300.0174537355816
 30
0.0
 11
14.7046845972319
 21
300.0148976951842
 31
0.0
  0
LINE
  5
35F
  8
0
  6
CONTINUOUS
 62
     7
 10
23.77654984491107
 20
300.0174537355814
 30
0.0
 11
15.41426878689009
 21
300.0174537355814
 31
0.0
  0
LINE
  5
360
  8
0
  6
CONTINUOUS
 62
     7
 10
37.16581048802445
 20
300.218171694769
 30
0.0
 11
37.16581048802442
 21
449.781828305231
 31
0.0
  0
LINE
  5
361
  8
0
  6
CONTINUOUS
 62
     7
 10
37.16581048802442
 20
449.781828305231
 30
0.0
 11
37.0753040984729
 21
449.8723346947825
 31
0.0
  0
LINE
  5
362
  8
0
  6
CONTINUOUS
 62
     7
 10
-27.1658104880244
 20
300.218171694769
 30
0.0
 11
-27.16581048802441
 21
449.781828305231
 31
0.0
  0
LINE
  5
363
  8
0
  6
CONTINUOUS
 62
     7
 10
-27.16581048802441
 20
449.781828305231
 30
0.0
 11
-27.07530409847289
 21
449.8723346947825
 31
0.0
  0
LINE
  5
364
  8
0
  6
CONTINUOUS
 62
     7
 10
28.96509252883697
 20
450.0
 30
0.0
 11
29.0
 21
449.965092528837
 31
0.0
  0
LINE
  5
365
  8
0
  6
CONTINUOUS
 62
     7
 10
29.0
 20
449.965092528837
 30
0.0
 11
31.2652053814588
 21
449.965092528837
 31
0.0
  0
LINE
  5
366
  8
0
  6
CONTINUOUS
 62
     7
 10
33.0151387468211
 20
449.9802312756581
 30
0.0
 11
31.2652053814588
 21
449.965092528837
 31
0.0
  0
LINE
  5
367
  8
0
  6
CONTINUOUS
 62
     7
 10
33.0151387468211
 20
449.9802312756581
 30
0.0
 11
33.03490747116302
 21
450.0
 31
0.0
  0
LINE
  5
368
  8
0
  6
CONTINUOUS
 62
     7
 10
33.03490747116302
 20
450.0
 30
0.0
 11
34.6069416553772
 21
450.0
 31
0.0
  0
LINE
  5
369
  8
0
  6
CONTINUOUS
 62
     7
 10
34.6069416553772
 20
450.0
 30
0.0
 11
35.0
 21
449.9345484915693
 31
0.0
  0
LINE
  5
36A
  8
0
  6
CONTINUOUS
 62
     7
 10
35.0
 20
449.9345484915693
 30
0.0
 11
40.00000000000001
 21
449.8909141526153
 31
0.0
  0
LINE
  5
36B
  8
0
  6
CONTINUOUS
 62
     7
 10
36.48959381471764
 20
449.8845240389263
 30
0.0
 11
37.0753040984729
 21
449.8723346947825
 31
0.0
  0
LINE
  5
36C
  8
0
  6
CONTINUOUS
 62
     7
 10
33.06102361874719
 20
449.9215226456715
 30
0.0
 11
33.05220889610141
 21
449.9303373683171
 31
0.0
  0
LINE
  5
36D
  8
0
  6
CONTINUOUS
 62
     7
 10
27.01760604622466
 20
449.9649402181938
 30
0.0
 11
29.01752989235298
 21
449.9476387932554
 31
0.0
  0
LINE
  5
36E
  8
0
  6
CONTINUOUS
 62
     7
 10
27.01760604622466
 20
449.9649402181938
 30
0.0
 11
27.01730142493838
 21
449.9652448394802
 31
0.0
  0
LINE
  5
36F
  8
0
  6
CONTINUOUS
 62
     7
 10
25.01737757881006
 20
449.9825462644184
 30
0.0
 11
27.01730142493838
 21
449.9652448394802
 31
0.0
  0
LINE
  5
370
  8
0
  6
CONTINUOUS
 62
     7
 10
15.00000000000001
 20
450.0
 30
0.0
 11
28.96509252883697
 21
450.0
 31
0.0
  0
LINE
  5
371
  8
0
  6
CONTINUOUS
 62
     7
 10
-17.01760604622464
 20
449.9649402181938
 30
0.0
 11
-17.01730142493837
 21
449.96524483948
 31
0.0
  0
LINE
  5
372
  8
0
  6
CONTINUOUS
 62
     7
 10
-21.05228504997307
 20
449.9476387932554
 30
0.0
 11
-19.01752989235299
 21
449.9476387932554
 31
0.0
  0
LINE
  5
373
  8
0
  6
CONTINUOUS
 62
     7
 10
-27.07530409847289
 20
449.8723346947825
 30
0.0
 11
-26.48959381471763
 21
449.8845240389263
 31
0.0
  0
LINE
  5
374
  8
0
  6
CONTINUOUS
 62
     7
 10
-24.99999999999999
 20
449.9345484915693
 30
0.0
 11
-30.0
 21
449.8909141526153
 31
0.0
  0
LINE
  5
375
  8
0
  6
CONTINUOUS
 62
     7
 10
-24.60694165537719
 20
450.0
 30
0.0
 11
-24.99999999999999
 21
449.9345484915693
 31
0.0
  0
LINE
  5
376
  8
0
  6
CONTINUOUS
 62
     7
 10
-23.03490747116303
 20
450.0
 30
0.0
 11
-24.60694165537719
 21
450.0
 31
0.0
  0
LINE
  5
377
  8
0
  6
CONTINUOUS
 62
     7
 10
-23.01513874682108
 20
449.9802312756581
 30
0.0
 11
-23.03490747116303
 21
450.0
 31
0.0
  0
LINE
  5
378
  8
0
  6
CONTINUOUS
 62
     7
 10
-21.26520538145879
 20
449.965092528837
 30
0.0
 11
-23.01513874682108
 21
449.9802312756581
 31
0.0
  0
LINE
  5
379
  8
0
  6
CONTINUOUS
 62
     7
 10
-20.73479461854118
 20
449.965092528837
 30
0.0
 11
-21.26520538145879
 21
449.965092528837
 31
0.0
  0
LINE
  5
37A
  8
0
  6
CONTINUOUS
 62
     7
 10
-18.9848612531789
 20
449.9802312756581
 30
0.0
 11
-20.73479461854118
 21
449.965092528837
 31
0.0
  0
LINE
  5
37B
  8
0
  6
CONTINUOUS
 62
     7
 10
-18.96509252883693
 20
450.0
 30
0.0
 11
-18.9848612531789
 21
449.9802312756581
 31
0.0
  0
LINE
  5
37C
  8
0
  6
CONTINUOUS
 62
     7
 10
-5.000000000000004
 20
450.0
 30
0.0
 11
-18.96509252883693
 21
450.0
 31
0.0
  0
LINE
  5
37D
  8
0
  6
CONTINUOUS
 62
   253
 10
-5.000000000000004
 20
449.9825462644184
 30
0.0
 11
-5.000000000000004
 21
450.0
 31
0.0
  0
LINE
  5
37E
  8
0
  6
CONTINUOUS
 62
   253
 10
3.621195490705248
 20
408.8617155671944
 30
0.0
 11
3.779401368142338
 21
409.0199214446316
 31
0.0
  0
LINE
  5
37F
  8
0
  6
CONTINUOUS
 62
     7
 10
40.00000000000004
 20
360.0
 30
0.0
 11
40.00000000000004
 21
300.1090858473844
 31
0.0
  0
LINE
  5
380
  8
0
  6
CONTINUOUS
 62
   253
 10
39.91254093378851
 20
360.0000000000012
 30
0.0
 11
40.00000000000004
 21
360.0
 31
0.0
  0
LINE
  5
381
  8
0
  6
CONTINUOUS
 62
     7
 10
-30.0
 20
360.0
 30
0.0
 11
-29.99999999999999
 21
300.1090858473844
 31
0.0
  0
LINE
  5
382
  8
0
  6
CONTINUOUS
 62
     7
 10
40.00000000000001
 20
449.8909141526153
 30
0.0
 11
40.00000000000004
 21
362.5
 31
0.0
  0
LINE
  5
383
  8
0
  6
CONTINUOUS
 62
     7
 10
40.00000000000004
 20
360.0
 30
0.0
 11
40.00000000000004
 21
362.4999999999998
 31
0.0
  0
LINE
  5
384
  8
0
  6
CONTINUOUS
 62
     7
 10
-29.99999999999999
 20
360.0
 30
0.0
 11
-29.99999999999999
 21
362.4999999999998
 31
0.0
  0
LINE
  5
385
  8
0
  6
CONTINUOUS
 62
     7
 10
-30.0
 20
449.8909141526153
 30
0.0
 11
-29.99999999999999
 21
362.5
 31
0.0
  0
LINE
  5
386
  8
0
  6
CONTINUOUS
 62
     7
 10
8.013676781355338
 20
437.5538493407736
 30
0.0
 11
7.79585452667747
 21
437.6733513226434
 31
0.0
  0
LINE
  5
387
  8
0
  6
CONTINUOUS
 62
     7
 10
7.79585452667747
 20
437.6733513226434
 30
0.0
 11
7.56129854005827
 21
437.7552630109812
 31
0.0
  0
LINE
  5
388
  8
0
  6
CONTINUOUS
 62
     7
 10
7.56129854005827
 20
437.7552630109812
 30
0.0
 11
7.316442858226996
 21
437.7973375101996
 31
0.0
  0
LINE
  5
389
  8
0
  6
CONTINUOUS
 62
     7
 10
4.816787431678598
 20
407.905870761563
 30
0.0
 11
5.168687001729038
 21
407.9439423168746
 31
0.0
  0
LINE
  5
38A
  8
0
  6
CONTINUOUS
 62
     7
 10
5.168687001729038
 20
407.9439423168746
 30
0.0
 11
5.501876082147472
 21
408.0634053198406
 31
0.0
  0
LINE
  5
38B
  8
0
  6
CONTINUOUS
 62
     7
 10
4.720679087933776
 20
407.927362693007
 30
0.0
 11
4.818200510953996
 21
407.9220223315892
 31
0.0
  0
LINE
  5
38C
  8
0
  6
CONTINUOUS
 62
     7
 10
-24.99999999999998
 20
316.9127313220924
 30
0.0
 11
-24.99999999999998
 21
300.1047224134892
 31
0.0
  0
LINE
  5
38D
  8
0
  6
CONTINUOUS
 62
     7
 10
-13.0871925240359
 20
316.9127313220924
 30
0.0
 11
-24.99999999999998
 21
316.9127313220924
 31
0.0
  0
LINE
  5
38E
  8
0
  6
CONTINUOUS
 62
   253
 10
-10.99999999999998
 20
315.0000761538716
 30
0.0
 11
-11.08726867790756
 21
314.912807475964
 31
0.0
  0
LINE
  5
38F
  8
0
  6
CONTINUOUS
 62
     7
 10
-10.99999999999998
 20
300.0174537355814
 30
0.0
 11
-10.99999999999998
 21
315.0000761538716
 31
0.0
  0
LINE
  5
390
  8
0
  6
CONTINUOUS
 62
     7
 10
-24.99999999999998
 20
316.9149772627906
 30
0.0
 11
-24.99999999999998
 21
316.9127313220924
 31
0.0
  0
LINE
  5
391
  8
0
  6
CONTINUOUS
 62
     7
 10
-23.06102361874715
 20
316.9389763812528
 30
0.0
 11
-23.0522088961014
 21
316.9477911038986
 31
0.0
  0
LINE
  5
392
  8
0
  6
CONTINUOUS
 62
     7
 10
-17.01730142493836
 20
316.9826985750616
 30
0.0
 11
-17.01760604622461
 21
316.9823939537752
 31
0.0
  0
LINE
  5
393
  8
0
  6
CONTINUOUS
 62
   253
 10
-13.0871925240359
 20
316.9127313220924
 30
0.0
 11
-12.99992384612832
 21
317.0
 31
0.0
  0
LINE
  5
394
  8
0
  6
CONTINUOUS
 62
     7
 10
-10.99999999999998
 20
315.0000761538716
 30
0.0
 11
-11.03842718832186
 21
315.3902500548758
 31
0.0
  0
LINE
  5
395
  8
0
  6
CONTINUOUS
 62
     7
 10
-11.03842718832186
 20
315.3902500548758
 30
0.0
 11
-11.1522321607114
 21
315.7654253881594
 31
0.0
  0
LINE
  5
396
  8
0
  6
CONTINUOUS
 62
     7
 10
-11.1522321607114
 20
315.7654253881594
 30
0.0
 11
-11.33704187858087
 21
316.111185769489
 31
0.0
  0
LINE
  5
397
  8
0
  6
CONTINUOUS
 62
     7
 10
-11.33704187858087
 20
316.111185769489
 30
0.0
 11
-11.58575489450968
 21
316.4142451054902
 31
0.0
  0
LINE
  5
398
  8
0
  6
CONTINUOUS
 62
     7
 10
-11.58575489450968
 20
316.4142451054902
 30
0.0
 11
-11.88881423051087
 21
316.662958121419
 31
0.0
  0
LINE
  5
399
  8
0
  6
CONTINUOUS
 62
     7
 10
-11.88881423051087
 20
316.662958121419
 30
0.0
 11
-12.23457461184055
 21
316.8477678392886
 31
0.0
  0
LINE
  5
39A
  8
0
  6
CONTINUOUS
 62
     7
 10
-12.23457461184055
 20
316.8477678392886
 30
0.0
 11
-12.60974994512408
 21
316.961572811678
 31
0.0
  0
LINE
  5
39B
  8
0
  6
CONTINUOUS
 62
     7
 10
-12.60974994512408
 20
316.961572811678
 30
0.0
 11
-12.99992384612829
 21
316.9999999999998
 31
0.0
  0
LINE
  5
39C
  8
0
  6
CONTINUOUS
 62
     7
 10
23.19685521766904
 20
287.4554976118146
 30
0.0
 11
23.20182392310899
 21
287.3543477622436
 31
0.0
  0
LINE
  5
39D
  8
0
  6
CONTINUOUS
 62
     7
 10
23.20182392310899
 20
287.3543477622436
 30
0.0
 11
23.22707212296635
 21
287.2562753557602
 31
0.0
  0
LINE
  5
39E
  8
0
  6
CONTINUOUS
 62
     7
 10
23.22707212296635
 20
287.2562753557602
 30
0.0
 11
23.27156410784559
 21
287.165303432162
 31
0.0
  0
LINE
  5
39F
  8
0
  6
CONTINUOUS
 62
     7
 10
23.27156410784559
 20
287.165303432162
 30
0.0
 11
23.33347476676736
 21
287.0851637614974
 31
0.0
  0
LINE
  5
3A0
  8
0
  6
CONTINUOUS
 62
     7
 10
27.01730142493841
 20
304.9826985750616
 30
0.0
 11
27.01760604622466
 21
304.9823939537752
 31
0.0
  0
LINE
  5
3A1
  8
0
  6
CONTINUOUS
 62
     7
 10
29.01752989235301
 20
304.965092528837
 30
0.0
 11
27.01760604622466
 21
304.9823939537754
 31
0.0
  0
LINE
  5
3A2
  8
0
  6
CONTINUOUS
 62
     7
 10
33.05220889610144
 20
304.9477911038986
 30
0.0
 11
33.06102361874721
 21
304.9389763812528
 31
0.0
  0
LINE
  5
3A3
  8
0
  6
CONTINUOUS
 62
     7
 10
33.00000000000003
 20
304.9324309983722
 30
0.0
 11
33.00000000000003
 21
304.9214581898832
 31
0.0
  0
LINE
  5
3A4
  8
0
  6
CONTINUOUS
 62
     7
 10
26.0100642907147
 20
304.9214581898832
 30
0.0
 11
33.00000000000003
 21
304.9214581898832
 31
0.0
  0
LINE
  5
3A5
  8
0
  6
CONTINUOUS
 62
     7
 10
27.01730142493841
 20
304.9826985750616
 30
0.0
 11
25.93738733414952
 21
304.9980437222774
 31
0.0
  0
LINE
  5
3A6
  8
0
  6
CONTINUOUS
 62
   253
 10
24.012881270711
 20
303.026202270655
 30
0.0
 11
23.93834787590446
 21
303.1047440807718
 31
0.0
  0
LINE
  5
3A7
  8
0
  6
CONTINUOUS
 62
     7
 10
23.19685521766906
 20
287.4554976118146
 30
0.0
 11
24.012881270711
 21
303.026202270655
 31
0.0
  0
LINE
  5
3A8
  8
0
  6
CONTINUOUS
 62
     7
 10
23.33347476676739
 20
287.0851637614974
 30
0.0
 11
24.93315888412939
 21
285.3994484318936
 31
0.0
  0
LINE
  5
3A9
  8
0
  6
CONTINUOUS
 62
     7
 10
31.1017964921621
 20
285.3994484318938
 30
0.0
 11
32.70148060952408
 21
287.0851637614974
 31
0.0
  0
LINE
  5
3AA
  8
0
  6
CONTINUOUS
 62
     7
 10
30.7391202862595
 20
285.2436343389538
 30
0.0
 11
30.83987147152661
 21
285.2538900090568
 31
0.0
  0
LINE
  5
3AB
  8
0
  6
CONTINUOUS
 62
     7
 10
30.83987147152661
 20
285.2538900090568
 30
0.0
 11
30.93648808450242
 21
285.284236320308
 31
0.0
  0
LINE
  5
3AC
  8
0
  6
CONTINUOUS
 62
     7
 10
30.93648808450242
 20
285.284236320308
 30
0.0
 11
31.02500680366724
 21
285.333428433081
 31
0.0
  0
LINE
  5
3AD
  8
0
  6
CONTINUOUS
 62
     7
 10
31.02500680366724
 20
285.333428433081
 30
0.0
 11
31.1017964921621
 21
285.3994484318936
 31
0.0
  0
LINE
  5
3AE
  8
0
  6
CONTINUOUS
 62
   253
 10
32.83810015862243
 20
287.4554976118146
 30
0.0
 11
32.87305103968632
 21
287.4223304641096
 31
0.0
  0
LINE
  5
3AF
  8
0
  6
CONTINUOUS
 62
     7
 10
32.7014806095241
 20
287.0851637614974
 30
0.0
 11
32.76339126844591
 21
287.165303432162
 31
0.0
  0
LINE
  5
3B0
  8
0
  6
CONTINUOUS
 62
     7
 10
32.76339126844591
 20
287.165303432162
 30
0.0
 11
32.80788325332514
 21
287.2562753557602
 31
0.0
  0
LINE
  5
3B1
  8
0
  6
CONTINUOUS
 62
     7
 10
32.80788325332514
 20
287.2562753557602
 30
0.0
 11
32.8331314531825
 21
287.3543477622436
 31
0.0
  0
LINE
  5
3B2
  8
0
  6
CONTINUOUS
 62
     7
 10
32.8331314531825
 20
287.3543477622436
 30
0.0
 11
32.83810015862246
 21
287.4554976118146
 31
0.0
  0
LINE
  5
3B3
  8
0
  6
CONTINUOUS
 62
     7
 10
24.93315888412936
 20
285.3994484318936
 30
0.0
 11
25.00994857262429
 21
285.333428433081
 31
0.0
  0
LINE
  5
3B4
  8
0
  6
CONTINUOUS
 62
     7
 10
25.00994857262429
 20
285.333428433081
 30
0.0
 11
25.09846729178908
 21
285.284236320308
 31
0.0
  0
LINE
  5
3B5
  8
0
  6
CONTINUOUS
 62
     7
 10
25.09846729178908
 20
285.284236320308
 30
0.0
 11
25.19508390476488
 21
285.2538900090566
 31
0.0
  0
LINE
  5
3B6
  8
0
  6
CONTINUOUS
 62
     7
 10
25.19508390476488
 20
285.2538900090566
 30
0.0
 11
25.295835090032
 21
285.2436343389538
 31
0.0
  0
LINE
  5
3B7
  8
0
  6
CONTINUOUS
 62
     7
 10
30.16921239533216
 20
301.0
 30
0.0
 11
30.15081999566443
 21
301.0174537355814
 31
0.0
  0
LINE
  5
3B8
  8
0
  6
CONTINUOUS
 62
     7
 10
30.15081999566443
 20
301.0174537355814
 30
0.0
 11
30.0478338601424
 21
302.9825462644184
 31
0.0
  0
LINE
  5
3B9
  8
0
  6
CONTINUOUS
 62
     7
 10
30.07681906923382
 20
303.0130903016862
 30
0.0
 11
30.0478338601424
 21
302.9825462644184
 31
0.0
  0
LINE
  5
3BA
  8
0
  6
CONTINUOUS
 62
     7
 10
30.90623404918891
 20
287.1869096983138
 30
0.0
 11
30.07681906923382
 21
303.0130903016862
 31
0.0
  0
LINE
  5
3BB
  8
0
  6
CONTINUOUS
 62
     7
 10
30.90623404918891
 20
287.1869096983138
 30
0.0
 11
30.89243974943811
 21
287.2
 31
0.0
  0
LINE
  5
3BC
  8
0
  6
CONTINUOUS
 62
     7
 10
27.01309030168617
 20
285.2436343389538
 30
0.0
 11
25.295835090032
 21
285.2436343389538
 31
0.0
  0
LINE
  5
3BD
  8
0
  6
CONTINUOUS
 62
     7
 10
30.7391202862595
 20
285.2436343389538
 30
0.0
 11
28.98690969831388
 21
285.2436343389538
 31
0.0
  0
LINE
  5
3BE
  8
0
  6
CONTINUOUS
 62
     7
 10
32.17563973287568
 20
300.0959955456984
 30
0.0
 11
32.83810015862243
 21
287.4554976118146
 31
0.0
  0
LINE
  5
3BF
  8
0
  6
CONTINUOUS
 62
     7
 10
25.09376595081117
 20
287.1869096983138
 30
0.0
 11
25.10756025056196
 21
287.2
 31
0.0
  0
LINE
  5
3C0
  8
0
  6
CONTINUOUS
 62
     7
 10
25.92318093076626
 20
303.0130903016862
 30
0.0
 11
25.09376595081117
 21
287.1869096983138
 31
0.0
  0
LINE
  5
3C1
  8
0
  6
CONTINUOUS
 62
     7
 10
25.92318093076626
 20
303.0130903016862
 30
0.0
 11
25.95216613985771
 21
302.9825462644184
 31
0.0
  0
LINE
  5
3C2
  8
0
  6
CONTINUOUS
 62
     7
 10
25.95216613985771
 20
302.9825462644184
 30
0.0
 11
25.84918000433567
 21
301.0174537355814
 31
0.0
  0
LINE
  5
3C3
  8
0
  6
CONTINUOUS
 62
     7
 10
25.83078760466795
 20
301.0
 30
0.0
 11
25.84918000433567
 21
301.0174537355814
 31
0.0
  0
LINE
  5
3C4
  8
0
  6
CONTINUOUS
 62
     7
 10
29.00000000000002
 20
287.2
 30
0.0
 11
30.89243974943811
 21
287.2
 31
0.0
  0
LINE
  5
3C5
  8
0
  6
CONTINUOUS
 62
     7
 10
28.98690969831388
 20
287.1869096983138
 30
0.0
 11
30.90623404918891
 21
287.1869096983138
 31
0.0
  0
LINE
  5
3C6
  8
0
  6
CONTINUOUS
 62
     7
 10
29.00000000000002
 20
287.2
 30
0.0
 11
28.98690969831388
 21
287.1869096983138
 31
0.0
  0
LINE
  5
3C7
  8
0
  6
CONTINUOUS
 62
     7
 10
30.07681906923382
 20
303.0130903016862
 30
0.0
 11
25.92318093076626
 21
303.0130903016862
 31
0.0
  0
LINE
  5
3C8
  8
0
  6
CONTINUOUS
 62
     7
 10
30.0478338601424
 20
302.9825462644184
 30
0.0
 11
25.95216613985771
 21
302.9825462644184
 31
0.0
  0
LINE
  5
3C9
  8
0
  6
CONTINUOUS
 62
     7
 10
25.09376595081117
 20
287.1869096983138
 30
0.0
 11
27.01309030168617
 21
287.1869096983138
 31
0.0
  0
LINE
  5
3CA
  8
0
  6
CONTINUOUS
 62
     7
 10
26.0100642907147
 20
304.9214581898832
 30
0.0
 11
25.63273776136671
 21
304.8855424861396
 31
0.0
  0
LINE
  5
3CB
  8
0
  6
CONTINUOUS
 62
     7
 10
25.63273776136671
 20
304.8855424861396
 30
0.0
 11
25.26896785480967
 21
304.7790852635671
 31
0.0
  0
LINE
  5
3CC
  8
0
  6
CONTINUOUS
 62
     7
 10
25.26896785480967
 20
304.7790852635671
 30
0.0
 11
24.93181912576112
 21
304.6059098626464
 31
0.0
  0
LINE
  5
3CD
  8
0
  6
CONTINUOUS
 62
     7
 10
24.93181912576112
 20
304.6059098626464
 30
0.0
 11
24.63340004702008
 21
304.3722357629452
 31
0.0
  0
LINE
  5
3CE
  8
0
  6
CONTINUOUS
 62
     7
 10
24.63340004702008
 20
304.3722357629452
 30
0.0
 11
24.38442814170413
 21
304.0864552146372
 31
0.0
  0
LINE
  5
3CF
  8
0
  6
CONTINUOUS
 62
     7
 10
24.38442814170413
 20
304.0864552146372
 30
0.0
 11
24.19384507052097
 21
303.7588318364092
 31
0.0
  0
LINE
  5
3D0
  8
0
  6
CONTINUOUS
 62
     7
 10
24.19384507052097
 20
303.7588318364092
 30
0.0
 11
24.06849549796014
 21
303.4011320044088
 31
0.0
  0
LINE
  5
3D1
  8
0
  6
CONTINUOUS
 62
     7
 10
24.06849549796014
 20
303.4011320044088
 30
0.0
 11
24.01288127071094
 21
303.026202270655
 31
0.0
  0
LINE
  5
3D2
  8
0
  6
CONTINUOUS
 62
     7
 10
33.00000000000003
 20
304.9214581898832
 30
0.0
 11
33.00000000000003
 21
300.0959955456984
 31
0.0
  0
LINE
  5
3D3
  8
0
  6
CONTINUOUS
 62
     7
 10
28.98690969831388
 20
285.2436343389538
 30
0.0
 11
28.98690969831388
 21
287.1869096983138
 31
0.0
  0
LINE
  5
3D4
  8
0
  6
CONTINUOUS
 62
     7
 10
27.01309030168617
 20
287.1869096983138
 30
0.0
 11
27.01309030168617
 21
285.2436343389538
 31
0.0
  0
LINE
  5
3D5
  8
0
  6
CONTINUOUS
 62
     7
 10
27.01309030168617
 20
287.1869096983138
 30
0.0
 11
27.00000000000002
 21
287.2
 31
0.0
  0
LINE
  5
3D6
  8
0
  6
CONTINUOUS
 62
     7
 10
25.01737757881006
 20
304.7767927491072
 30
0.0
 11
25.93738733414952
 21
304.9980437222774
 31
0.0
  0
LINE
  5
3D7
  8
0
  6
CONTINUOUS
 62
     7
 10
25.01737757881006
 20
304.776792749107
 30
0.0
 11
24.66981729316131
 21
304.5485293364346
 31
0.0
  0
LINE
  5
3D8
  8
0
  6
CONTINUOUS
 62
     7
 10
24.66981729316131
 20
304.5485293364346
 30
0.0
 11
24.37697421687659
 21
304.2533268503332
 31
0.0
  0
LINE
  5
3D9
  8
0
  6
CONTINUOUS
 62
     7
 10
24.37697421687659
 20
304.2533268503332
 30
0.0
 11
24.15150660557522
 21
303.9039455328272
 31
0.0
  0
LINE
  5
3DA
  8
0
  6
CONTINUOUS
 62
     7
 10
24.15150660557522
 20
303.9039455328272
 30
0.0
 11
24.00316038425557
 21
303.5154875269545
 31
0.0
  0
LINE
  5
3DB
  8
0
  6
CONTINUOUS
 62
     7
 10
24.00316038425557
 20
303.5154875269545
 30
0.0
 11
23.93834787590443
 21
303.1047440807718
 31
0.0
  0
LINE
  5
3DC
  8
0
  6
CONTINUOUS
 62
     7
 10
25.83078760466795
 20
301.0
 30
0.0
 11
30.16921239533216
 21
301.0
 31
0.0
  0
LINE
  5
3DD
  8
0
  6
CONTINUOUS
 62
     7
 10
25.84918000433567
 20
301.0174537355814
 30
0.0
 11
30.15081999566443
 21
301.0174537355814
 31
0.0
  0
LINE
  5
3DE
  8
0
  6
CONTINUOUS
 62
     7
 10
27.00000000000002
 20
299.2
 30
0.0
 11
29.00000000000002
 21
299.2
 31
0.0
  0
LINE
  5
3DF
  8
0
  6
CONTINUOUS
 62
     7
 10
29.00000000000002
 20
299.2
 30
0.0
 11
29.00000000000002
 21
287.2
 31
0.0
  0
LINE
  5
3E0
  8
0
  6
CONTINUOUS
 62
     7
 10
27.00000000000002
 20
287.2
 30
0.0
 11
27.00000000000002
 21
299.2
 31
0.0
  0
LINE
  5
3E1
  8
0
  6
CONTINUOUS
 62
   253
 10
31.05228504997309
 20
304.965092528837
 30
0.0
 11
31.05228504997312
 21
426.5150098488848
 31
0.0
  0
LINE
  5
3E2
  8
0
  6
CONTINUOUS
 62
     7
 10
32.10904986183996
 20
438.5938869202398
 30
0.0
 11
31.05228504997318
 21
426.5150098488848
 31
0.0
  0
LINE
  5
3E3
  8
0
  6
CONTINUOUS
 62
     7
 10
31.05228504997309
 20
438.6863418612914
 30
0.0
 11
32.10904986183994
 21
438.5938869202398
 31
0.0
  0
LINE
  5
3E4
  8
0
  6
CONTINUOUS
 62
   253
 10
31.05228504997309
 20
438.6863418612914
 30
0.0
 11
31.05228504997309
 21
449.9476387932554
 31
0.0
  0
LINE
  5
3E5
  8
0
  6
CONTINUOUS
 62
   253
 10
29.01752989235301
 20
403.7306655566168
 30
0.0
 11
29.01752989235301
 21
304.965092528837
 31
0.0
  0
LINE
  5
3E6
  8
0
  6
CONTINUOUS
 62
     7
 10
29.05859886567191
 20
403.7270724870286
 30
0.0
 11
29.01752989235301
 21
403.7306655566168
 31
0.0
  0
LINE
  5
3E7
  8
0
  6
CONTINUOUS
 62
     7
 10
31.05228504997312
 20
426.5150098488848
 30
0.0
 11
29.05859886567191
 21
403.7270724870286
 31
0.0
  0
LINE
  5
3E8
  8
0
  6
CONTINUOUS
 62
   253
 10
27.01760604622466
 20
304.9823939537752
 30
0.0
 11
27.01760604622466
 21
403.9056362210682
 31
0.0
  0
LINE
  5
3E9
  8
0
  6
CONTINUOUS
 62
     7
 10
27.01760604622466
 20
403.9056362210682
 30
0.0
 11
29.01752989235301
 21
403.7306655566168
 31
0.0
  0
LINE
  5
3EA
  8
0
  6
CONTINUOUS
 62
   253
 10
27.01760604622466
 20
439.0393305350852
 30
0.0
 11
27.01760604622466
 21
449.9649402181938
 31
0.0
  0
LINE
  5
3EB
  8
0
  6
CONTINUOUS
 62
   253
 10
29.01752989235298
 20
449.9476387932554
 30
0.0
 11
29.01752989235298
 21
438.864359870634
 31
0.0
  0
LINE
  5
3EC
  8
0
  6
CONTINUOUS
 62
     7
 10
29.01752989235298
 20
438.864359870634
 30
0.0
 11
27.01760604622466
 21
439.0393305350852
 31
0.0
  0
LINE
  5
3ED
  8
0
  6
CONTINUOUS
 62
     7
 10
29.01752989235298
 20
438.864359870634
 30
0.0
 11
31.05228504997309
 21
438.6863418612914
 31
0.0
  0
LINE
  5
3EE
  8
0
  6
CONTINUOUS
 62
   253
 10
27.01730142493841
 20
327.0070194543074
 30
0.0
 11
27.01730142493841
 21
304.9826985750616
 31
0.0
  0
LINE
  5
3EF
  8
0
  6
CONTINUOUS
 62
   253
 10
27.01730142493841
 20
332.9929805456926
 30
0.0
 11
27.01730142493841
 21
327.0070194543074
 31
0.0
  0
LINE
  5
3F0
  8
0
  6
CONTINUOUS
 62
   253
 10
27.01730142493841
 20
403.9056628719774
 30
0.0
 11
27.01730142493841
 21
332.9929805456926
 31
0.0
  0
LINE
  5
3F1
  8
0
  6
CONTINUOUS
 62
     7
 10
27.01760604622466
 20
403.9056362210682
 30
0.0
 11
27.01730142493841
 21
403.9056628719774
 31
0.0
  0
LINE
  5
3F2
  8
0
  6
CONTINUOUS
 62
   253
 10
25.01737757881006
 20
327.0070194543074
 30
0.0
 11
27.01730142493841
 21
327.0070194543074
 31
0.0
  0
ARC
  5
3F3
  8
0
  6
CONTINUOUS
 62
     7
 10
22.00000000000002
 20
330.0
 30
0.0
 40
4.250000000000031
 50
315.2325717243517
 51
44.76742827564834
  0
LINE
  5
3F4
  8
0
  6
CONTINUOUS
 62
   253
 10
25.01737757881006
 20
332.9929805456926
 30
0.0
 11
27.01730142493841
 21
332.9929805456926
 31
0.0
  0
LINE
  5
3F5
  8
0
  6
CONTINUOUS
 62
   253
 10
27.01730142493838
 20
449.9652448394802
 30
0.0
 11
27.01730142493838
 21
439.0393571859946
 31
0.0
  0
LINE
  5
3F6
  8
0
  6
CONTINUOUS
 62
     7
 10
27.01730142493838
 20
439.0393571859946
 30
0.0
 11
27.01760604622466
 21
439.0393305350852
 31
0.0
  0
LINE
  5
3F7
  8
0
  6
CONTINUOUS
 62
   253
 10
25.01737757881006
 20
304.7767927491072
 30
0.0
 11
25.01737757881006
 21
327.0070194543074
 31
0.0
  0
LINE
  5
3F8
  8
0
  6
CONTINUOUS
 62
   253
 10
25.01737757881006
 20
332.9929805456926
 30
0.0
 11
25.01737757881006
 21
404.0806335364288
 31
0.0
  0
LINE
  5
3F9
  8
0
  6
CONTINUOUS
 62
     7
 10
27.01730142493841
 20
403.9056628719774
 30
0.0
 11
25.01737757881006
 21
404.0806335364288
 31
0.0
  0
LINE
  5
3FA
  8
0
  6
CONTINUOUS
 62
   253
 10
25.01737757881006
 20
439.214327850446
 30
0.0
 11
25.01737757881006
 21
449.9825462644184
 31
0.0
  0
LINE
  5
3FB
  8
0
  6
CONTINUOUS
 62
     7
 10
25.01737757881006
 20
439.214327850446
 30
0.0
 11
27.01730142493838
 21
439.0393571859946
 31
0.0
  0
LINE
  5
3FC
  8
0
  6
CONTINUOUS
 62
     7
 10
11.75000000000001
 20
442.0
 30
0.0
 11
11.74
 21
442.0
 31
0.0
  0
ARC
  5
3FD
  8
0
  6
CONTINUOUS
 62
     7
 10
11.74
 20
443.49
 30
0.0
 40
1.489999999999991
 50
180.0
 51
270.0
  0
LINE
  5
3FE
  8
0
  6
CONTINUOUS
 62
     7
 10
11.75999999999999
 20
442.0
 30
0.0
 11
11.75000000000001
 21
442.0
 31
0.0
  0
ARC
  5
3FF
  8
0
  6
CONTINUOUS
 62
     7
 10
11.75999999999999
 20
443.49
 30
0.0
 40
1.490000000000019
 50
270.0
 51
0.0
  0
LINE
  5
400
  8
0
  6
CONTINUOUS
 62
     7
 10
13.25000000000001
 20
443.49
 30
0.0
 11
13.25000000000001
 21
457.4999999999999
 31
0.0
  0
LINE
  5
401
  8
0
  6
CONTINUOUS
 62
     7
 10
10.25000000000001
 20
443.49
 30
0.0
 11
10.25000000000001
 21
457.4999999999999
 31
0.0
  0
ARC
  5
402
  8
0
  6
CONTINUOUS
 62
     7
 10
11.75000000000001
 20
457.4999999999999
 30
0.0
 40
1.500000000000001
 50
90.0
 51
180.0
  0
LINE
  5
403
  8
0
  6
CONTINUOUS
 62
     7
 10
-3.250000000000003
 20
443.49
 30
0.0
 11
-3.250000000000003
 21
457.4999999999999
 31
0.0
  0
LINE
  5
404
  8
0
  6
CONTINUOUS
 62
     7
 10
-1.759999999999998
 20
442.0
 30
0.0
 11
-1.750000000000002
 21
442.0
 31
0.0
  0
ARC
  5
405
  8
0
  6
CONTINUOUS
 62
     7
 10
-1.759999999999998
 20
443.49
 30
0.0
 40
1.490000000000005
 50
180.0
 51
270.0
  0
LINE
  5
406
  8
0
  6
CONTINUOUS
 62
     7
 10
-0.2500000000000002
 20
443.49
 30
0.0
 11
-0.2500000000000002
 21
457.4999999999999
 31
0.0
  0
ARC
  5
407
  8
0
  6
CONTINUOUS
 62
     7
 10
11.75000000000001
 20
457.4999999999999
 30
0.0
 40
1.500000000000057
 50
0.0
 51
90.0
  0
ARC
  5
408
  8
0
  6
CONTINUOUS
 62
     7
 10
-1.739999999999992
 20
443.49
 30
0.0
 40
1.489999999999991
 50
270.0
 51
0.0
  0
LINE
  5
409
  8
0
  6
CONTINUOUS
 62
     7
 10
-1.750000000000002
 20
442.0
 30
0.0
 11
-1.739999999999992
 21
442.0
 31
0.0
  0
ARC
  5
40A
  8
0
  6
CONTINUOUS
 62
     7
 10
-1.750000000000002
 20
457.4999999999999
 30
0.0
 40
1.500000000000057
 50
90.0
 51
180.0
  0
ARC
  5
40B
  8
0
  6
CONTINUOUS
 62
     7
 10
-1.750000000000002
 20
457.4999999999999
 30
0.0
 40
1.500000000000001
 50
0.0
 51
90.0
  0
ARC
  5
40C
  8
0
  6
CONTINUOUS
 62
     7
 10
3.062259766631742
 20
434.103347585542
 30
0.0
 40
4.429840340676311
 50
114.5611302013257
 51
131.6310244347786
  0
LINE
  5
40D
  8
0
  6
CONTINUOUS
 62
     7
 10
1.220935207906726
 20
438.1323684732168
 30
0.0
 11
1.448503964790321
 21
438.2051133083614
 31
0.0
  0
LINE
  5
40E
  8
0
  6
CONTINUOUS
 62
     7
 10
1.448503964790321
 20
438.2051133083614
 30
0.0
 11
1.696183044759103
 21
438.2477932966364
 31
0.0
  0
LINE
  5
40F
  8
0
  6
CONTINUOUS
 62
     7
 10
1.696183044759103
 20
438.2477932966364
 30
0.0
 11
1.954248946913317
 21
438.2489482830514
 31
0.0
  0
LINE
  5
410
  8
0
  6
CONTINUOUS
 62
     7
 10
4.254868813819063
 20
407.968115811346
 30
0.0
 11
4.007777302381609
 21
408.0122752234648
 31
0.0
  0
LINE
  5
411
  8
0
  6
CONTINUOUS
 62
     7
 10
4.007777302381609
 20
408.0122752234648
 30
0.0
 11
3.764443402457101
 21
408.0993843317102
 31
0.0
  0
LINE
  5
412
  8
0
  6
CONTINUOUS
 62
     7
 10
3.764443402457101
 20
408.0993843317102
 30
0.0
 11
3.553767925698503
 21
408.2104093257826
 31
0.0
  0
ARC
  5
413
  8
0
  6
CONTINUOUS
 62
     7
 10
6.078366195187229
 20
411.8635827497417
 30
0.0
 40
4.440638747728237
 50
218.349466283013
 51
235.352815537631
  0
LINE
  5
414
  8
0
  6
CONTINUOUS
 62
   253
 10
2.595835257655859
 20
409.1083602982936
 30
0.0
 11
0.1193793618868288
 21
437.4143807124152
 31
0.0
  0
LINE
  5
415
  8
0
  6
CONTINUOUS
 62
     7
 10
4.63811087244162
 20
405.8635883442074
 30
0.0
 11
4.818200510954024
 21
407.9220223315892
 31
0.0
  0
LINE
  5
416
  8
0
  6
CONTINUOUS
 62
     7
 10
4.70000000000001
 20
394.2393985422462
 30
0.0
 11
4.70000000000001
 21
405.8581737471504
 31
0.0
  0
ARC
  5
417
  8
0
  6
CONTINUOUS
 62
     7
 10
5.000000000000004
 20
390.0
 30
0.0
 40
4.249999999999948
 50
94.04777419681305
 51
265.9522258031872
  0
LINE
  5
418
  8
0
  6
CONTINUOUS
 62
     7
 10
4.70000000000001
 20
376.0
 30
0.0
 11
4.70000000000001
 21
385.7606014577536
 31
0.0
  0
LINE
  5
419
  8
0
  6
CONTINUOUS
 62
     7
 10
4.70000000000001
 20
376.0
 30
0.0
 11
5.300000000000026
 21
376.0
 31
0.0
  0
LINE
  5
41A
  8
0
  6
CONTINUOUS
 62
     7
 10
5.300000000000026
 20
376.0
 30
0.0
 11
5.300000000000026
 21
385.7606014577536
 31
0.0
  0
ARC
  5
41B
  8
0
  6
CONTINUOUS
 62
     7
 10
5.000000000000004
 20
390.0
 30
0.0
 40
4.250000000000004
 50
274.0477741968131
 51
85.95222580318693
  0
LINE
  5
41C
  8
0
  6
CONTINUOUS
 62
     7
 10
5.300000000000026
 20
394.2393985422462
 30
0.0
 11
5.300000000000026
 21
405.8056805490351
 31
0.0
  0
ARC
  5
41D
  8
0
  6
CONTINUOUS
 62
     7
 10
22.00000000000002
 20
330.0
 30
0.0
 40
4.250000000000031
 50
44.76742827564834
 51
315.2325717243516
  0
LINE
  5
41E
  8
0
  6
CONTINUOUS
 62
   253
 10
9.326155390440682
 20
369.6049082821402
 30
0.0
 11
15.41426878689009
 21
300.0174537355814
 31
0.0
  0
LINE
  5
41F
  8
0
  6
CONTINUOUS
 62
   253
 10
9.326155390440654
 20
369.6049082821402
 30
0.0
 11
8.900446645198844
 21
371.5823461815202
 31
0.0
  0
LINE
  5
420
  8
0
  6
CONTINUOUS
 62
   253
 10
8.900446645198844
 20
371.5823461815202
 30
0.0
 11
8.010111573849176
 21
373.2078765280544
 31
0.0
  0
LINE
  5
421
  8
0
  6
CONTINUOUS
 62
   253
 10
8.010111573849176
 20
373.2078765280544
 30
0.0
 11
6.690369793112049
 21
374.417197063397
 31
0.0
  0
LINE
  5
422
  8
0
  6
CONTINUOUS
 62
   253
 10
6.690369793112049
 20
374.417197063397
 30
0.0
 11
4.993427265869571
 21
375.1624698362896
 31
0.0
  0
LINE
  5
423
  8
0
  6
CONTINUOUS
 62
   253
 10
4.993427265869571
 20
375.1624698362896
 30
0.0
 11
2.986411152815838
 21
375.4142135623732
 31
0.0
  0
LINE
  5
424
  8
0
  6
CONTINUOUS
 62
   253
 10
-5.068639773066763
 20
375.414213562373
 30
0.0
 11
2.986411152815865
 21
375.414213562373
 31
0.0
  0
LINE
  5
425
  8
0
  6
CONTINUOUS
 62
   253
 10
-5.068639773066777
 20
375.414213562373
 30
0.0
 11
-7.019503071911876
 21
375.202137778274
 31
0.0
  0
LINE
  5
426
  8
0
  6
CONTINUOUS
 62
   253
 10
-7.019503071911876
 20
375.202137778274
 30
0.0
 11
-8.673914731507526
 21
374.5729777442682
 31
0.0
  0
LINE
  5
427
  8
0
  6
CONTINUOUS
 62
   253
 10
-8.673914731507526
 20
374.5729777442682
 30
0.0
 11
-9.976742319671855
 21
373.5476999004228
 31
0.0
  0
LINE
  5
428
  8
0
  6
CONTINUOUS
 62
   253
 10
-9.976742319671855
 20
373.5476999004228
 30
0.0
 11
-10.8845697656631
 21
372.1604711125626
 31
0.0
  0
LINE
  5
429
  8
0
  6
CONTINUOUS
 62
   253
 10
-10.8845697656631
 20
372.1604711125626
 30
0.0
 11
-11.36714417878829
 21
370.4575200787414
 31
0.0
  0
LINE
  5
42A
  8
0
  6
CONTINUOUS
 62
   253
 10
-11.36714417878829
 20
370.4575200787414
 30
0.0
 11
-11.40838401069158
 21
368.4955967812482
 31
0.0
  0
LINE
  5
42B
  8
0
  6
CONTINUOUS
 62
   253
 10
-5.417322794889142
 20
300.0174537355814
 30
0.0
 11
-11.40838401069157
 21
368.4955967812482
 31
0.0
  0
LINE
  5
42C
  8
0
  6
CONTINUOUS
 62
     7
 10
-5.000000000000004
 20
449.9825462644186
 30
0.0
 11
-4.902454838991946
 21
449.9921539900496
 31
0.0
  0
LINE
  5
42D
  8
0
  6
CONTINUOUS
 62
     7
 10
-4.902454838991946
 20
449.9921539900496
 30
0.0
 11
-4.808658283817477
 21
450.0206079474352
 31
0.0
  0
LINE
  5
42E
  8
0
  6
CONTINUOUS
 62
     7
 10
-4.808658283817477
 20
450.0206079474352
 30
0.0
 11
-4.722214883490228
 21
450.0668146669498
 31
0.0
  0
LINE
  5
42F
  8
0
  6
CONTINUOUS
 62
     7
 10
-4.722214883490228
 20
450.0668146669498
 30
0.0
 11
-4.64644660940676
 21
450.1289984502758
 31
0.0
  0
LINE
  5
430
  8
0
  6
CONTINUOUS
 62
     7
 10
-4.64644660940676
 20
450.1289984502758
 30
0.0
 11
-4.58426519384876
 21
450.2047696094928
 31
0.0
  0
LINE
  5
431
  8
0
  6
CONTINUOUS
 62
     7
 10
-4.58426519384876
 20
450.2047696094928
 30
0.0
 11
-4.538060233744395
 21
450.2912163014452
 31
0.0
  0
LINE
  5
432
  8
0
  6
CONTINUOUS
 62
     7
 10
-4.538060233744395
 20
450.2912163014452
 30
0.0
 11
-4.50960735979844
 21
450.385016428241
 31
0.0
  0
LINE
  5
433
  8
0
  6
CONTINUOUS
 62
     7
 10
-4.50960735979844
 20
450.385016428241
 30
0.0
 11
-4.50000000000006
 21
450.4825653036115
 31
0.0
  0
LINE
  5
434
  8
0
  6
CONTINUOUS
 62
     7
 10
-4.49999999999999
 20
450.4825653036115
 30
0.0
 11
-4.49999999999999
 21
459.4999999999999
 31
0.0
  0
ARC
  5
435
  8
0
  6
CONTINUOUS
 62
     7
 10
-4.000000000000004
 20
459.4999999999999
 30
0.0
 40
0.500000000000056
 50
90.0
 51
180.0
  0
LINE
  5
436
  8
0
  6
CONTINUOUS
 62
     7
 10
0.5000000000000004
 20
460.0
 30
0.0
 11
-4.000000000000004
 21
460.0
 31
0.0
  0
ARC
  5
437
  8
0
  6
CONTINUOUS
 62
     7
 10
0.5000000000000004
 20
459.4999999999999
 30
0.0
 40
0.5000000000000004
 50
0.0
 51
90.0
  0
LINE
  5
438
  8
0
  6
CONTINUOUS
 62
     7
 10
1.000000000000001
 20
450.5000000000001
 30
0.0
 11
1.000000000000001
 21
459.4999999999999
 31
0.0
  0
ARC
  5
439
  8
0
  6
CONTINUOUS
 62
     7
 10
1.500000000000001
 20
450.5000000000001
 30
0.0
 40
0.4999999999999449
 50
180.0
 51
270.0
  0
LINE
  5
43A
  8
0
  6
CONTINUOUS
 62
     7
 10
4.700000000000037
 20
450.0
 30
0.0
 11
1.500000000000001
 21
450.0
 31
0.0
  0
LINE
  5
43B
  8
0
  6
CONTINUOUS
 62
     7
 10
4.700000000000037
 20
450.0
 30
0.0
 11
4.700000000000037
 21
438.0087261930418
 31
0.0
  0
LINE
  5
43C
  8
0
  6
CONTINUOUS
 62
     7
 10
25.01737757881006
 20
404.0806335364288
 30
0.0
 11
5.30000000000003
 21
405.8056805490351
 31
0.0
  0
LINE
  5
43D
  8
0
  6
CONTINUOUS
 62
     7
 10
4.70000000000001
 20
405.8581737471504
 30
0.0
 11
4.63811087244162
 21
405.8635883442074
 31
0.0
  0
LINE
  5
43E
  8
0
  6
CONTINUOUS
 62
     7
 10
5.000000000000032
 20
376.0
 30
0.0
 11
5.000000000000004
 21
386.05
 31
0.0
  0
LINE
  5
43F
  8
0
  6
CONTINUOUS
 62
     7
 10
5.300000000000026
 20
385.7606014577536
 30
0.0
 11
5.000000000000004
 21
386.05
 31
0.0
  0
CIRCLE
  5
440
  8
0
  6
CONTINUOUS
 62
     7
 10
5.000000000000004
 20
390.0
 30
0.0
 40
2.250000000000002
  0
LINE
  5
441
  8
0
  6
CONTINUOUS
 62
     7
 10
5.000000000000004
 20
386.05
 30
0.0
 11
4.70000000000001
 21
385.7606014577536
 31
0.0
  0
LINE
  5
442
  8
0
  6
CONTINUOUS
 62
     7
 10
4.70000000000001
 20
394.2393985422462
 30
0.0
 11
5.000000000000032
 21
393.95
 31
0.0
  0
LINE
  5
443
  8
0
  6
CONTINUOUS
 62
     7
 10
5.000000000000032
 20
393.95
 30
0.0
 11
5.300000000000026
 21
394.2393985422462
 31
0.0
  0
LINE
  5
444
  8
0
  6
CONTINUOUS
 62
     7
 10
5.000000000000032
 20
393.95
 30
0.0
 11
5.000000000000004
 21
405.8319271480928
 31
0.0
  0
LINE
  5
445
  8
0
  6
CONTINUOUS
 62
     7
 10
5.000000000000004
 20
405.8319271480928
 30
0.0
 11
5.300000000000026
 21
405.8056805490351
 31
0.0
  0
LINE
  5
446
  8
0
  6
CONTINUOUS
 62
   253
 10
-11.40838401069157
 20
368.4955967812482
 30
0.0
 11
-10.7039679842888
 21
368.5572251979644
 31
0.0
  0
LINE
  5
447
  8
0
  6
CONTINUOUS
 62
   253
 10
-10.7039679842888
 20
368.5572251979644
 30
0.0
 11
-4.707291356114348
 21
300.0148976951842
 31
0.0
  0
LINE
  5
448
  8
0
  6
CONTINUOUS
 62
   253
 10
14.7046845972319
 20
300.0148976951842
 30
0.0
 11
8.621739364037929
 21
369.543279865424
 31
0.0
  0
LINE
  5
449
  8
0
  6
CONTINUOUS
 62
   253
 10
9.326155390440682
 20
369.6049082821402
 30
0.0
 11
8.621739364037929
 21
369.5432798654238
 31
0.0
  0
ARC
  5
44A
  8
0
  6
CONTINUOUS
 62
     7
 10
14.00000000000001
 20
459.4999999999999
 30
0.0
 40
0.5000000000000004
 50
0.0
 51
90.0
  0
LINE
  5
44B
  8
0
  6
CONTINUOUS
 62
     7
 10
14.49999999999998
 20
450.4825653036115
 30
0.0
 11
14.49999999999998
 21
459.4999999999999
 31
0.0
  0
LINE
  5
44C
  8
0
  6
CONTINUOUS
 62
     7
 10
14.50000000000007
 20
450.4825653036115
 30
0.0
 11
14.50960735979845
 21
450.385016428241
 31
0.0
  0
LINE
  5
44D
  8
0
  6
CONTINUOUS
 62
     7
 10
14.50960735979845
 20
450.385016428241
 30
0.0
 11
14.5380602337444
 21
450.2912163014452
 31
0.0
  0
LINE
  5
44E
  8
0
  6
CONTINUOUS
 62
     7
 10
14.5380602337444
 20
450.2912163014452
 30
0.0
 11
14.58426519384878
 21
450.2047696094928
 31
0.0
  0
LINE
  5
44F
  8
0
  6
CONTINUOUS
 62
     7
 10
14.58426519384878
 20
450.2047696094928
 30
0.0
 11
14.64644660940678
 21
450.1289984502758
 31
0.0
  0
LINE
  5
450
  8
0
  6
CONTINUOUS
 62
     7
 10
14.64644660940678
 20
450.1289984502758
 30
0.0
 11
14.72221488349024
 21
450.0668146669498
 31
0.0
  0
LINE
  5
451
  8
0
  6
CONTINUOUS
 62
     7
 10
14.72221488349024
 20
450.0668146669498
 30
0.0
 11
14.80865828381747
 21
450.0206079474352
 31
0.0
  0
LINE
  5
452
  8
0
  6
CONTINUOUS
 62
     7
 10
14.80865828381747
 20
450.0206079474352
 30
0.0
 11
14.90245483899197
 21
449.9921539900496
 31
0.0
  0
LINE
  5
453
  8
0
  6
CONTINUOUS
 62
     7
 10
14.90245483899197
 20
449.9921539900496
 30
0.0
 11
15.00000000000001
 21
449.9825462644186
 31
0.0
  0
LINE
  5
454
  8
0
  6
CONTINUOUS
 62
     7
 10
6.247837546321105
 20
437.8733079547588
 30
0.0
 11
6.506846120882092
 21
440.8337895088546
 31
0.0
  0
LINE
  5
455
  8
0
  6
CONTINUOUS
 62
     7
 10
5.300000000000026
 20
450.0
 30
0.0
 11
5.300000000000026
 21
437.9562329949262
 31
0.0
  0
LINE
  5
456
  8
0
  6
CONTINUOUS
 62
     7
 10
8.500000000000007
 20
450.0
 30
0.0
 11
5.300000000000026
 21
450.0
 31
0.0
  0
ARC
  5
457
  8
0
  6
CONTINUOUS
 62
     7
 10
8.500000000000007
 20
450.5000000000001
 30
0.0
 40
0.5000000000000004
 50
269.9999999999999
 51
0.0
  0
LINE
  5
458
  8
0
  6
CONTINUOUS
 62
     7
 10
9.000000000000007
 20
450.5000000000001
 30
0.0
 11
9.000000000000007
 21
459.4999999999999
 31
0.0
  0
ARC
  5
459
  8
0
  6
CONTINUOUS
 62
     7
 10
9.500000000000009
 20
459.4999999999999
 30
0.0
 40
0.500000000000056
 50
90.0
 51
180.0
  0
LINE
  5
45A
  8
0
  6
CONTINUOUS
 62
     7
 10
9.500000000000009
 20
460.0
 30
0.0
 11
14.00000000000001
 21
460.0
 31
0.0
  0
LINE
  5
45B
  8
0
  6
CONTINUOUS
 62
     7
 10
6.506846120882092
 20
440.8337895088546
 30
0.0
 11
25.01737757881007
 21
439.214327850446
 31
0.0
  0
LINE
  5
45C
  8
0
  6
CONTINUOUS
 62
     7
 10
5.300000000000026
 20
450.0
 30
0.0
 11
5.000000000000032
 21
450.0
 31
0.0
  0
CIRCLE
  5
45D
  8
0
  6
CONTINUOUS
 62
     7
 10
22.00000000000002
 20
330.0
 30
0.0
 40
2.250000000000002
  0
LINE
  5
45E
  8
0
  6
CONTINUOUS
 62
   253
 10
8.621739364037929
 20
369.543279865424
 30
0.0
 11
8.300245084102153
 21
371.3631126220554
 31
0.0
  0
LINE
  5
45F
  8
0
  6
CONTINUOUS
 62
   253
 10
8.300245084102153
 20
371.3631126220554
 30
0.0
 11
7.537867077465315
 21
372.8397102034496
 31
0.0
  0
LINE
  5
460
  8
0
  6
CONTINUOUS
 62
   253
 10
7.537867077465315
 20
372.8397102034496
 30
0.0
 11
6.364763272365654
 21
373.9146617904208
 31
0.0
  0
LINE
  5
461
  8
0
  6
CONTINUOUS
 62
   253
 10
6.364763272365654
 20
373.9146617904208
 30
0.0
 11
4.827338969142808
 21
374.5454447596284
 31
0.0
  0
LINE
  5
462
  8
0
  6
CONTINUOUS
 62
   253
 10
4.827338969142808
 20
374.5454447596284
 30
0.0
 11
2.986411152815838
 21
374.7071067811866
 31
0.0
  0
LINE
  5
463
  8
0
  6
CONTINUOUS
 62
   253
 10
2.986411152815865
 20
375.414213562373
 30
0.0
 11
2.986411152815865
 21
374.7071067811864
 31
0.0
  0
LINE
  5
464
  8
0
  6
CONTINUOUS
 62
   253
 10
-5.068639773066763
 20
375.414213562373
 30
0.0
 11
-5.068639773066763
 21
374.7071067811864
 31
0.0
  0
LINE
  5
465
  8
0
  6
CONTINUOUS
 62
   253
 10
-5.068639773066763
 20
374.7071067811864
 30
0.0
 11
-6.875583507520877
 21
374.585343307138
 31
0.0
  0
LINE
  5
466
  8
0
  6
CONTINUOUS
 62
   253
 10
-6.875583507520877
 20
374.585343307138
 30
0.0
 11
-8.390871649451487
 21
374.067049947118
 31
0.0
  0
LINE
  5
467
  8
0
  6
CONTINUOUS
 62
   253
 10
-8.390871649451487
 20
374.067049947118
 30
0.0
 11
-9.564007987570205
 21
373.1694985653308
 31
0.0
  0
LINE
  5
468
  8
0
  6
CONTINUOUS
 62
   253
 10
-9.564007987570205
 20
373.1694985653308
 30
0.0
 11
-10.35589834647865
 21
371.9225996078242
 31
0.0
  0
LINE
  5
469
  8
0
  6
CONTINUOUS
 62
   253
 10
-10.35589834647865
 20
371.9225996078242
 30
0.0
 11
-10.74015338029992
 21
370.367905351998
 31
0.0
  0
LINE
  5
46A
  8
0
  6
CONTINUOUS
 62
   253
 10
-10.74015338029992
 20
370.367905351998
 30
0.0
 11
-10.70396798428883
 21
368.5572251979644
 31
0.0
  0
LINE
  5
46B
  8
0
  6
CONTINUOUS
 62
   253
 10
2.986411152815865
 20
374.7071067811864
 30
0.0
 11
-5.068639773066763
 21
374.7071067811864
 31
0.0
  0
LINE
  5
46C
  8
0
  6
CONTINUOUS
 62
     7
 10
4.70000000000001
 20
405.8581737471504
 30
0.0
 11
5.000000000000004
 21
405.8319271480928
 31
0.0
  0
LINE
  5
46D
  8
0
  6
CONTINUOUS
 62
     7
 10
-5.000000000000004
 20
450.0
 30
0.0
 11
-4.902454838991946
 21
450.009607725631
 31
0.0
  0
LINE
  5
46E
  8
0
  6
CONTINUOUS
 62
     7
 10
-4.902454838991946
 20
450.009607725631
 30
0.0
 11
-4.808658283817477
 21
450.0380616830167
 31
0.0
  0
LINE
  5
46F
  8
0
  6
CONTINUOUS
 62
     7
 10
-4.808658283817477
 20
450.0380616830167
 30
0.0
 11
-4.722214883490228
 21
450.0842684025312
 31
0.0
  0
LINE
  5
470
  8
0
  6
CONTINUOUS
 62
     7
 10
-4.722214883490228
 20
450.0842684025312
 30
0.0
 11
-4.64644660940676
 21
450.1464521858572
 31
0.0
  0
LINE
  5
471
  8
0
  6
CONTINUOUS
 62
     7
 10
-4.64644660940676
 20
450.1464521858572
 30
0.0
 11
-4.58426519384876
 21
450.2222233450743
 31
0.0
  0
LINE
  5
472
  8
0
  6
CONTINUOUS
 62
     7
 10
-4.58426519384876
 20
450.2222233450743
 30
0.0
 11
-4.538060233744395
 21
450.3086700370266
 31
0.0
  0
LINE
  5
473
  8
0
  6
CONTINUOUS
 62
     7
 10
-4.538060233744395
 20
450.3086700370266
 30
0.0
 11
-4.50960735979844
 21
450.4024701638223
 31
0.0
  0
LINE
  5
474
  8
0
  6
CONTINUOUS
 62
     7
 10
-4.50960735979844
 20
450.4024701638223
 30
0.0
 11
-4.50000000000006
 21
450.5000190391928
 31
0.0
  0
LINE
  5
475
  8
0
  6
CONTINUOUS
 62
     7
 10
14.49999999999996
 20
450.5000190391928
 30
0.0
 11
14.50960735979834
 21
450.4024701638223
 31
0.0
  0
LINE
  5
476
  8
0
  6
CONTINUOUS
 62
     7
 10
14.50960735979834
 20
450.4024701638223
 30
0.0
 11
14.53806023374432
 21
450.3086700370266
 31
0.0
  0
LINE
  5
477
  8
0
  6
CONTINUOUS
 62
     7
 10
14.53806023374432
 20
450.3086700370266
 30
0.0
 11
14.5842651938487
 21
450.2222233450743
 31
0.0
  0
LINE
  5
478
  8
0
  6
CONTINUOUS
 62
     7
 10
14.5842651938487
 20
450.2222233450743
 30
0.0
 11
14.6464466094067
 21
450.1464521858571
 31
0.0
  0
LINE
  5
479
  8
0
  6
CONTINUOUS
 62
     7
 10
14.6464466094067
 20
450.1464521858571
 30
0.0
 11
14.72221488349018
 21
450.0842684025312
 31
0.0
  0
LINE
  5
47A
  8
0
  6
CONTINUOUS
 62
     7
 10
14.72221488349018
 20
450.0842684025312
 30
0.0
 11
14.80865828381744
 21
450.0380616830167
 31
0.0
  0
LINE
  5
47B
  8
0
  6
CONTINUOUS
 62
     7
 10
14.80865828381744
 20
450.0380616830167
 30
0.0
 11
14.90245483899194
 21
450.009607725631
 31
0.0
  0
LINE
  5
47C
  8
0
  6
CONTINUOUS
 62
     7
 10
14.90245483899194
 20
450.009607725631
 30
0.0
 11
15.00000000000001
 21
449.9999999999998
 31
0.0
  0
LINE
  5
47D
  8
0
  6
CONTINUOUS
 62
     7
 10
5.000000000000032
 20
450.0
 30
0.0
 11
4.700000000000037
 21
450.0
 31
0.0
  0
LINE
  5
47E
  8
0
  6
CONTINUOUS
 62
   253
 10
-5.068639773066763
 20
374.7071067811864
 30
0.0
 11
-4.39834329097695
 21
374.0928932188134
 31
0.0
  0
LINE
  5
47F
  8
0
  6
CONTINUOUS
 62
   253
 10
-4.398343290976977
 20
374.0928932188134
 30
0.0
 11
-6.059600976691947
 21
373.8376330766858
 31
0.0
  0
LINE
  5
480
  8
0
  6
CONTINUOUS
 62
   253
 10
-6.059600976691947
 20
373.8376330766858
 30
0.0
 11
-7.485489118486941
 21
373.2374197095844
 31
0.0
  0
LINE
  5
481
  8
0
  6
CONTINUOUS
 62
   253
 10
-7.485489118486941
 20
373.2374197095844
 30
0.0
 11
-8.6284907148826
 21
372.3122549245352
 31
0.0
  0
LINE
  5
482
  8
0
  6
CONTINUOUS
 62
   253
 10
-8.6284907148826
 20
372.3122549245352
 30
0.0
 11
-9.450515815514121
 21
371.0929693702906
 31
0.0
  0
LINE
  5
483
  8
0
  6
CONTINUOUS
 62
   253
 10
-9.450515815514121
 20
371.0929693702906
 30
0.0
 11
-9.924170849470975
 21
369.6201951215458
 31
0.0
  0
LINE
  5
484
  8
0
  6
CONTINUOUS
 62
   253
 10
-9.924170849470975
 20
369.6201951215458
 30
0.0
 11
-10.03367150219901
 21
367.9430116355912
 31
0.0
  0
LINE
  5
485
  8
0
  6
CONTINUOUS
 62
   253
 10
-10.03367150219901
 20
367.9430116355914
 30
0.0
 11
-10.7039679842888
 21
368.5572251979644
 31
0.0
  0
LINE
  5
486
  8
0
  6
CONTINUOUS
 62
   253
 10
8.621739364037929
 20
369.543279865424
 30
0.0
 11
8.058916329331145
 21
368.9290663030508
 31
0.0
  0
LINE
  5
487
  8
0
  6
CONTINUOUS
 62
   253
 10
8.058916329331145
 20
368.9290663030508
 30
0.0
 11
7.623595062170363
 21
370.6246787008726
 31
0.0
  0
LINE
  5
488
  8
0
  6
CONTINUOUS
 62
   253
 10
7.623595062170363
 20
370.6246787008726
 30
0.0
 11
6.803155164185531
 21
372.0379128466504
 31
0.0
  0
LINE
  5
489
  8
0
  6
CONTINUOUS
 62
   253
 10
6.803155164185531
 20
372.0379128466504
 30
0.0
 11
5.630051359085924
 21
373.1128644336218
 31
0.0
  0
LINE
  5
48A
  8
0
  6
CONTINUOUS
 62
   253
 10
5.630051359085924
 20
373.1128644336218
 30
0.0
 11
4.150688947210989
 21
373.8070108384456
 31
0.0
  0
LINE
  5
48B
  8
0
  6
CONTINUOUS
 62
   253
 10
4.150688947210989
 20
373.8070108384456
 30
0.0
 11
2.42358811810911
 21
374.0928932188134
 31
0.0
  0
LINE
  5
48C
  8
0
  6
CONTINUOUS
 62
   253
 10
2.423588118109082
 20
374.0928932188134
 30
0.0
 11
2.986411152815865
 21
374.7071067811864
 31
0.0
  0
LINE
  5
48D
  8
0
  6
CONTINUOUS
 62
   253
 10
-4.39834329097695
 20
374.0928932188134
 30
0.0
 11
2.423588118109082
 21
374.0928932188134
 31
0.0
  0
LINE
  5
48E
  8
0
  6
CONTINUOUS
 62
   253
 10
8.058916329331145
 20
368.9290663030508
 30
0.0
 11
14.08859379211677
 21
300.00953753463
 31
0.0
  0
LINE
  5
48F
  8
0
  6
CONTINUOUS
 62
   253
 10
-4.090262644432921
 20
300.00953753463
 30
0.0
 11
-10.03367150219901
 21
367.9430116355914
 31
0.0
  0
LINE
  5
490
  8
0
  6
CONTINUOUS
 62
   253
 10
13.37900960245858
 20
300.0069814942326
 30
0.0
 11
7.354500302928391
 21
368.8674378863346
 31
0.0
  0
LINE
  5
491
  8
0
  6
CONTINUOUS
 62
   253
 10
7.354500302928391
 20
368.8674378863346
 30
0.0
 11
8.058916329331145
 21
368.9290663030508
 31
0.0
  0
LINE
  5
492
  8
0
  6
CONTINUOUS
 62
   253
 10
-9.329255475796245
 20
368.0046400523076
 30
0.0
 11
-10.03367150219901
 21
367.9430116355914
 31
0.0
  0
LINE
  5
493
  8
0
  6
CONTINUOUS
 62
   253
 10
-9.329255475796245
 20
368.0046400523076
 30
0.0
 11
-3.380231205658155
 21
300.0069814942326
 31
0.0
  0
LINE
  5
494
  8
0
  6
CONTINUOUS
 62
   253
 10
-4.39834329097695
 20
373.385786437627
 30
0.0
 11
-4.39834329097695
 21
374.0928932188134
 31
0.0
  0
LINE
  5
495
  8
0
  6
CONTINUOUS
 62
   253
 10
-4.39834329097695
 20
373.385786437627
 30
0.0
 11
-5.915681412300922
 21
373.2208386055498
 31
0.0
  0
LINE
  5
496
  8
0
  6
CONTINUOUS
 62
   253
 10
-5.915681412300922
 20
373.2208386055498
 30
0.0
 11
-7.202446036430887
 21
372.7314919124342
 31
0.0
  0
LINE
  5
497
  8
0
  6
CONTINUOUS
 62
   253
 10
-7.202446036430887
 20
372.7314919124342
 30
0.0
 11
-8.215756382780894
 21
371.9340535894432
 31
0.0
  0
LINE
  5
498
  8
0
  6
CONTINUOUS
 62
   253
 10
-8.215756382780894
 20
371.9340535894432
 30
0.0
 11
-8.92184439632966
 21
370.8550978655522
 31
0.0
  0
LINE
  5
499
  8
0
  6
CONTINUOUS
 62
   253
 10
-8.92184439632966
 20
370.8550978655522
 30
0.0
 11
-9.297180050982567
 21
369.5305803948022
 31
0.0
  0
LINE
  5
49A
  8
0
  6
CONTINUOUS
 62
   253
 10
-9.297180050982567
 20
369.5305803948022
 30
0.0
 11
-9.329255475796245
 21
368.0046400523074
 31
0.0
  0
LINE
  5
49B
  8
0
  6
CONTINUOUS
 62
   253
 10
7.354500302928418
 20
368.8674378863346
 30
0.0
 11
7.023393501073671
 21
370.4054451414078
 31
0.0
  0
LINE
  5
49C
  8
0
  6
CONTINUOUS
 62
   253
 10
7.023393501073671
 20
370.4054451414078
 30
0.0
 11
6.33091066780167
 21
371.6697465220457
 31
0.0
  0
LINE
  5
49D
  8
0
  6
CONTINUOUS
 62
   253
 10
6.33091066780167
 20
371.6697465220457
 30
0.0
 11
5.304444838339473
 21
372.6103291606456
 31
0.0
  0
LINE
  5
49E
  8
0
  6
CONTINUOUS
 62
   253
 10
5.304444838339473
 20
372.6103291606456
 30
0.0
 11
3.984600650484199
 21
373.1899857617842
 31
0.0
  0
LINE
  5
49F
  8
0
  6
CONTINUOUS
 62
   253
 10
3.984600650484199
 20
373.1899857617842
 30
0.0
 11
2.423588118109082
 21
373.385786437627
 31
0.0
  0
LINE
  5
4A0
  8
0
  6
CONTINUOUS
 62
   253
 10
2.423588118109082
 20
373.385786437627
 30
0.0
 11
2.423588118109082
 21
374.0928932188134
 31
0.0
  0
LINE
  5
4A1
  8
0
  6
CONTINUOUS
 62
   253
 10
2.423588118109082
 20
373.385786437627
 30
0.0
 11
-4.39834329097695
 21
373.385786437627
 31
0.0
  0
LINE
  5
4A2
  8
0
  6
CONTINUOUS
 62
   253
 10
-9.228522326013746
 20
191.822045751136
 30
0.0
 11
-11.23067413376477
 21
190.6585263278304
 31
0.0
  0
LINE
  5
4A3
  8
0
  6
CONTINUOUS
 62
   253
 10
-6.591709091455414
 20
163.3339669924066
 30
0.0
 11
-6.926567962215316
 21
163.3632633474792
 31
0.0
  0
LINE
  5
4A4
  8
0
  6
CONTINUOUS
 62
     7
 10
-16.01714014425645
 20
174.1946803014204
 30
0.0
 11
-15.20075428935059
 21
183.526013322229
 31
0.0
  0
ARC
  5
4A5
  8
0
  6
CONTINUOUS
 62
     7
 10
-6.03679012866011
 20
173.3227330747552
 30
0.0
 40
10.01837130789644
 50
175.0532643984772
 51
264.8949578803181
  0
LINE
  5
4A6
  8
0
  6
CONTINUOUS
 62
     7
 10
-16.0178459187669
 20
174.1866132618518
 30
0.0
 11
-16.01714014425645
 21
174.1946803014204
 31
0.0
  0
LINE
  5
4A7
  8
0
  6
CONTINUOUS
 62
   253
 10
-6.926567962215316
 20
163.3632633474792
 30
0.0
 11
-6.928244340648718
 21
163.3441022543064
 31
0.0
  0
ARC
  5
4A8
  8
0
  6
CONTINUOUS
 62
     7
 10
-5.219731957711304
 20
182.6505913227082
 30
0.0
 40
10.01934486195036
 50
85.11059377445008
 51
174.9411839467544
  0
LINE
  5
4A9
  8
0
  6
CONTINUOUS
 62
   253
 10
-4.365756131123416
 20
192.6334765143898
 30
0.0
 11
-4.366887495784996
 21
192.6205449571344
 31
0.0
  0
LINE
  5
4AA
  8
0
  6
CONTINUOUS
 62
     7
 10
-15.20075428935059
 20
183.526013322229
 30
0.0
 11
-15.20004851484014
 21
183.5340803617974
 31
0.0
  0
LINE
  5
4AB
  8
0
  6
CONTINUOUS
 62
     7
 10
5.299999999999944
 20
161.9912738069582
 30
0.0
 11
5.000000000000004
 21
162.0148923451136
 31
0.0
  0
LINE
  5
4AC
  8
0
  6
CONTINUOUS
 62
     7
 10
5.000000000000004
 20
162.0148923451136
 30
0.0
 11
4.699999999999982
 21
162.0437670050738
 31
0.0
  0
LINE
  5
4AD
  8
0
  6
CONTINUOUS
 62
     7
 10
3.752162453678903
 20
162.126692045241
 30
0.0
 11
4.699999999999982
 21
162.0437670050738
 31
0.0
  0
LINE
  5
4AE
  8
0
  6
CONTINUOUS
 62
     7
 10
3.750641260390569
 20
162.1093047263928
 30
0.0
 11
2.683557141772985
 21
162.2026624898004
 31
0.0
  0
LINE
  5
4AF
  8
0
  6
CONTINUOUS
 62
     7
 10
-6.928244340648703
 20
163.3441022543064
 30
0.0
 11
2.524738800957882
 21
162.3919348180368
 31
0.0
  0
LINE
  5
4B0
  8
0
  6
CONTINUOUS
 62
   253
 10
7.768888853659201
 20
161.783957777543
 30
0.0
 11
7.580346430854062
 21
161.9725002003482
 31
0.0
  0
LINE
  5
4B1
  8
0
  6
CONTINUOUS
 62
     7
 10
5.299999999999944
 20
161.9912738069582
 30
0.0
 11
8.045751053086692
 21
161.7510517169486
 31
0.0
  0
LINE
  5
4B2
  8
0
  6
CONTINUOUS
 62
     7
 10
5.108957095966482
 20
191.9296850917376
 30
0.0
 11
-4.365756131123236
 21
192.6334765143898
 31
0.0
  0
LINE
  5
4B3
  8
0
  6
CONTINUOUS
 62
     7
 10
5.279320912066232
 20
192.072637306993
 30
0.0
 11
5.745131186180946
 21
192.031884188654
 31
0.0
  0
LINE
  5
4B4
  8
0
  6
CONTINUOUS
 62
   253
 10
5.469800167368644
 20
192.0472887747316
 30
0.0
 11
5.745131186180946
 21
192.031884188654
 31
0.0
  0
LINE
  5
4B5
  8
0
  6
CONTINUOUS
 62
   253
 10
5.311594289931554
 20
191.8890828972946
 30
0.0
 11
5.469800167368644
 21
192.0472887747316
 31
0.0
  0
LINE
  5
4B6
  8
0
  6
CONTINUOUS
 62
     7
 10
5.108957095966482
 20
191.9296850917376
 30
0.0
 11
4.564176505989476
 21
191.8771401035988
 31
0.0
  0
LINE
  5
4B7
  8
0
  6
CONTINUOUS
 62
     7
 10
-29.91254093378851
 20
299.803455086404
 30
0.0
 11
-27.41263612612807
 21
299.781828305231
 31
0.0
  0
LINE
  5
4B8
  8
0
  6
CONTINUOUS
 62
     7
 10
-23.00000000000001
 20
299.9040044543016
 30
0.0
 11
-22.17563973287567
 21
299.9040044543016
 31
0.0
  0
LINE
  5
4B9
  8
0
  6
CONTINUOUS
 62
     7
 10
-22.99999999999998
 20
299.9149772627907
 30
0.0
 11
-23.00000000000001
 21
299.9040044543016
 31
0.0
  0
LINE
  5
4BA
  8
0
  6
CONTINUOUS
 62
     7
 10
-26.48959381471763
 20
299.884524038926
 30
0.0
 11
-22.99999999999998
 21
299.9149772627907
 31
0.0
  0
LINE
  5
4BB
  8
0
  6
CONTINUOUS
 62
     7
 10
-27.07530409847289
 20
299.8723346947826
 30
0.0
 11
-26.48959381471763
 21
299.884524038926
 31
0.0
  0
LINE
  5
4BC
  8
0
  6
CONTINUOUS
 62
     7
 10
-27.16581048802441
 20
299.781828305231
 30
0.0
 11
-27.07530409847289
 21
299.8723346947826
 31
0.0
  0
LINE
  5
4BD
  8
0
  6
CONTINUOUS
 62
     7
 10
-27.41263612612807
 20
299.781828305231
 30
0.0
 11
-27.16581048802441
 21
299.781828305231
 31
0.0
  0
LINE
  5
4BE
  8
0
  6
CONTINUOUS
 62
     7
 10
-29.98243203143613
 20
299.9084821211794
 30
0.0
 11
-30.0
 21
299.8909141526154
 31
0.0
  0
LINE
  5
4BF
  8
0
  6
CONTINUOUS
 62
     7
 10
-22.99127313220924
 20
299.9563656610462
 30
0.0
 11
-23.03490747116303
 21
300.0
 31
0.0
  0
LINE
  5
4C0
  8
0
  6
CONTINUOUS
 62
     7
 10
-22.99127313220924
 20
299.9563656610462
 30
0.0
 11
-22.22207808780595
 21
299.9563656610462
 31
0.0
  0
LINE
  5
4C1
  8
0
  6
CONTINUOUS
 62
     7
 10
22.96509252883697
 20
300.0
 30
0.0
 11
-12.96509252883693
 21
300.0
 31
0.0
  0
LINE
  5
4C2
  8
0
  6
CONTINUOUS
 62
     7
 10
-12.96509252883693
 20
300.0
 30
0.0
 11
-13.81059050968039
 21
300.0
 31
0.0
  0
LINE
  5
4C3
  8
0
  6
CONTINUOUS
 62
     7
 10
33.03490747116302
 20
300.0
 30
0.0
 11
34.6069416553772
 21
300.0
 31
0.0
  0
LINE
  5
4C4
  8
0
  6
CONTINUOUS
 62
     7
 10
39.98243203143614
 20
299.9084821211794
 30
0.0
 11
40.00000000000001
 21
299.8909141526156
 31
0.0
  0
LINE
  5
4C5
  8
0
  6
CONTINUOUS
 62
     7
 10
37.41263612612808
 20
299.781828305231
 30
0.0
 11
39.91254093378851
 21
299.803455086404
 31
0.0
  0
LINE
  5
4C6
  8
0
  6
CONTINUOUS
 62
     7
 10
37.41263612612808
 20
299.781828305231
 30
0.0
 11
37.16581048802442
 21
299.781828305231
 31
0.0
  0
LINE
  5
4C7
  8
0
  6
CONTINUOUS
 62
     7
 10
37.16581048802442
 20
299.781828305231
 30
0.0
 11
37.0753040984729
 21
299.8723346947826
 31
0.0
  0
LINE
  5
4C8
  8
0
  6
CONTINUOUS
 62
     7
 10
36.48959381471764
 20
299.884524038926
 30
0.0
 11
37.0753040984729
 21
299.8723346947826
 31
0.0
  0
LINE
  5
4C9
  8
0
  6
CONTINUOUS
 62
     7
 10
36.48959381471764
 20
299.884524038926
 30
0.0
 11
35.0
 21
299.8975235272092
 31
0.0
  0
LINE
  5
4CA
  8
0
  6
CONTINUOUS
 62
     7
 10
35.0
 20
299.8975235272092
 30
0.0
 11
35.0
 21
299.8952775865108
 31
0.0
  0
LINE
  5
4CB
  8
0
  6
CONTINUOUS
 62
     7
 10
35.0
 20
299.8952775865108
 30
0.0
 11
33.22074392588439
 21
299.8952775865108
 31
0.0
  0
LINE
  5
4CC
  8
0
  6
CONTINUOUS
 62
     7
 10
32.21891422412548
 20
299.9040044543016
 30
0.0
 11
33.22074392588439
 21
299.8952775865108
 31
0.0
  0
LINE
  5
4CD
  8
0
  6
CONTINUOUS
 62
     7
 10
23.80784637511438
 20
299.9476387932554
 30
0.0
 11
23.78337255467955
 21
299.9476387932554
 31
0.0
  0
LINE
  5
4CE
  8
0
  6
CONTINUOUS
 62
     7
 10
23.78337255467955
 20
299.9476387932554
 30
0.0
 11
23.78108577587448
 21
299.9040044543016
 31
0.0
  0
LINE
  5
4CF
  8
0
  6
CONTINUOUS
 62
     7
 10
22.77925607411557
 20
299.8952775865108
 30
0.0
 11
23.78108577587448
 21
299.9040044543016
 31
0.0
  0
LINE
  5
4D0
  8
0
  6
CONTINUOUS
 62
     7
 10
22.77925607411557
 20
299.8952775865108
 30
0.0
 11
21.08726867790758
 21
299.8952775865108
 31
0.0
  0
LINE
  5
4D1
  8
0
  6
CONTINUOUS
 62
     7
 10
15.41732279488916
 20
299.9825462644184
 30
0.0
 11
20.99999999999999
 21
299.9825462644184
 31
0.0
  0
LINE
  5
4D2
  8
0
  6
CONTINUOUS
 62
     7
 10
14.70729135611437
 20
299.9851023048158
 30
0.0
 11
15.41732279488916
 21
299.9825462644184
 31
0.0
  0
LINE
  5
4D3
  8
0
  6
CONTINUOUS
 62
     7
 10
14.09026264443294
 20
299.99046246537
 30
0.0
 11
14.70729135611437
 21
299.9851023048158
 31
0.0
  0
LINE
  5
4D4
  8
0
  6
CONTINUOUS
 62
     7
 10
13.38023120565818
 20
299.9930185057674
 30
0.0
 11
14.09026264443294
 21
299.99046246537
 31
0.0
  0
LINE
  5
4D5
  8
0
  6
CONTINUOUS
 62
     7
 10
13.38023120565818
 20
299.9930185057674
 30
0.0
 11
-3.379009602458558
 21
299.9930185057674
 31
0.0
  0
LINE
  5
4D6
  8
0
  6
CONTINUOUS
 62
     7
 10
-4.088593792116734
 20
299.99046246537
 30
0.0
 11
-3.379009602458558
 21
299.9930185057674
 31
0.0
  0
LINE
  5
4D7
  8
0
  6
CONTINUOUS
 62
     7
 10
-4.704684597231862
 20
299.9851023048158
 30
0.0
 11
-4.088593792116734
 21
299.99046246537
 31
0.0
  0
LINE
  5
4D8
  8
0
  6
CONTINUOUS
 62
     7
 10
-5.414268786890053
 20
299.9825462644184
 30
0.0
 11
-4.704684597231862
 21
299.9851023048158
 31
0.0
  0
LINE
  5
4D9
  8
0
  6
CONTINUOUS
 62
     7
 10
-13.77654984491104
 20
299.9825462644184
 30
0.0
 11
-5.414268786890053
 21
299.9825462644184
 31
0.0
  0
LINE
  5
4DA
  8
0
  6
CONTINUOUS
 62
     7
 10
-27.16581048802441
 20
299.781828305231
 30
0.0
 11
-27.16581048802441
 21
150.218171694769
 31
0.0
  0
LINE
  5
4DB
  8
0
  6
CONTINUOUS
 62
     7
 10
-27.16581048802441
 20
150.218171694769
 30
0.0
 11
-27.07530409847289
 21
150.1276653052174
 31
0.0
  0
LINE
  5
4DC
  8
0
  6
CONTINUOUS
 62
     7
 10
-18.96509252883696
 20
150.0
 30
0.0
 11
-18.99999999999999
 21
150.034907471163
 31
0.0
  0
LINE
  5
4DD
  8
0
  6
CONTINUOUS
 62
     7
 10
-18.99999999999999
 20
150.034907471163
 30
0.0
 11
-21.26520538145879
 21
150.034907471163
 31
0.0
  0
LINE
  5
4DE
  8
0
  6
CONTINUOUS
 62
     7
 10
-23.01513874682108
 20
150.019768724342
 30
0.0
 11
-21.26520538145879
 21
150.034907471163
 31
0.0
  0
LINE
  5
4DF
  8
0
  6
CONTINUOUS
 62
     7
 10
-23.01513874682108
 20
150.019768724342
 30
0.0
 11
-23.03490747116303
 21
150.0
 31
0.0
  0
LINE
  5
4E0
  8
0
  6
CONTINUOUS
 62
     7
 10
-23.03490747116303
 20
150.0
 30
0.0
 11
-24.60694165537719
 21
150.0
 31
0.0
  0
LINE
  5
4E1
  8
0
  6
CONTINUOUS
 62
     7
 10
-24.60694165537719
 20
150.0
 30
0.0
 11
-24.99999999999999
 21
150.0654515084306
 31
0.0
  0
LINE
  5
4E2
  8
0
  6
CONTINUOUS
 62
     7
 10
-24.99999999999999
 20
150.0654515084306
 30
0.0
 11
-30.0
 21
150.1090858473844
 31
0.0
  0
LINE
  5
4E3
  8
0
  6
CONTINUOUS
 62
     7
 10
-30.0
 20
150.1090858473844
 30
0.0
 11
-29.91254093378851
 21
150.196544913596
 31
0.0
  0
LINE
  5
4E4
  8
0
  6
CONTINUOUS
 62
     7
 10
-23.06102361874718
 20
150.0784773543286
 30
0.0
 11
-23.05220889610142
 21
150.0696626316828
 31
0.0
  0
LINE
  5
4E5
  8
0
  6
CONTINUOUS
 62
     7
 10
-17.01760604622464
 20
150.0350597818062
 30
0.0
 11
-19.01752989235299
 21
150.0523612067446
 31
0.0
  0
LINE
  5
4E6
  8
0
  6
CONTINUOUS
 62
     7
 10
-17.01760604622464
 20
150.0350597818062
 30
0.0
 11
-17.01730142493837
 21
150.0347551605198
 31
0.0
  0
LINE
  5
4E7
  8
0
  6
CONTINUOUS
 62
     7
 10
-15.01737757881004
 20
150.0174537355816
 30
0.0
 11
-17.01730142493837
 21
150.0347551605198
 31
0.0
  0
LINE
  5
4E8
  8
0
  6
CONTINUOUS
 62
   253
 10
-5.000000000000004
 20
150.0
 30
0.0
 11
-5.000000000000004
 21
150.0174537355814
 31
0.0
  0
LINE
  5
4E9
  8
0
  6
CONTINUOUS
 62
     7
 10
-5.000000000000004
 20
150.0
 30
0.0
 11
-18.96509252883696
 21
150.0
 31
0.0
  0
LINE
  5
4EA
  8
0
  6
CONTINUOUS
 62
     7
 10
-27.41263612612807
 20
150.218171694769
 30
0.0
 11
-27.16581048802441
 21
150.218171694769
 31
0.0
  0
LINE
  5
4EB
  8
0
  6
CONTINUOUS
 62
     7
 10
-27.41263612612807
 20
150.218171694769
 30
0.0
 11
-29.91254093378851
 21
150.196544913596
 31
0.0
  0
LINE
  5
4EC
  8
0
  6
CONTINUOUS
 62
     7
 10
27.01760604622466
 20
150.0350597818062
 30
0.0
 11
27.01730142493838
 21
150.0347551605198
 31
0.0
  0
LINE
  5
4ED
  8
0
  6
CONTINUOUS
 62
     7
 10
33.06102361874719
 20
150.0784773543286
 30
0.0
 11
33.05220889610141
 21
150.069662631683
 31
0.0
  0
LINE
  5
4EE
  8
0
  6
CONTINUOUS
 62
     7
 10
35.0
 20
150.0654515084306
 30
0.0
 11
40.00000000000001
 21
150.1090858473844
 31
0.0
  0
LINE
  5
4EF
  8
0
  6
CONTINUOUS
 62
     7
 10
34.6069416553772
 20
150.0
 30
0.0
 11
35.0
 21
150.0654515084306
 31
0.0
  0
LINE
  5
4F0
  8
0
  6
CONTINUOUS
 62
     7
 10
33.03490747116302
 20
150.0
 30
0.0
 11
34.6069416553772
 21
150.0
 31
0.0
  0
LINE
  5
4F1
  8
0
  6
CONTINUOUS
 62
     7
 10
33.01513874682107
 20
150.019768724342
 30
0.0
 11
33.03490747116302
 21
150.0
 31
0.0
  0
LINE
  5
4F2
  8
0
  6
CONTINUOUS
 62
     7
 10
31.2652053814588
 20
150.034907471163
 30
0.0
 11
33.0151387468211
 21
150.019768724342
 31
0.0
  0
LINE
  5
4F3
  8
0
  6
CONTINUOUS
 62
     7
 10
30.7347946185412
 20
150.034907471163
 30
0.0
 11
31.2652053814588
 21
150.034907471163
 31
0.0
  0
LINE
  5
4F4
  8
0
  6
CONTINUOUS
 62
     7
 10
28.9848612531789
 20
150.019768724342
 30
0.0
 11
30.7347946185412
 21
150.034907471163
 31
0.0
  0
LINE
  5
4F5
  8
0
  6
CONTINUOUS
 62
     7
 10
28.96509252883697
 20
150.0
 30
0.0
 11
28.9848612531789
 21
150.019768724342
 31
0.0
  0
LINE
  5
4F6
  8
0
  6
CONTINUOUS
 62
     7
 10
15.00000000000001
 20
150.0
 30
0.0
 11
28.96509252883697
 21
150.0
 31
0.0
  0
LINE
  5
4F7
  8
0
  6
CONTINUOUS
 62
     7
 10
37.16581048802442
 20
299.781828305231
 30
0.0
 11
37.16581048802442
 21
150.218171694769
 31
0.0
  0
LINE
  5
4F8
  8
0
  6
CONTINUOUS
 62
   253
 10
8.66365562102825
 20
163.0558093905222
 30
0.0
 11
8.852198043833415
 21
162.8672669677172
 31
0.0
  0
LINE
  5
4F9
  8
0
  6
CONTINUOUS
 62
     7
 10
-30.0
 20
240.0
 30
0.0
 11
-30.0
 21
299.8909141526156
 31
0.0
  0
LINE
  5
4FA
  8
0
  6
CONTINUOUS
 62
     7
 10
40.00000000000001
 20
240.0
 30
0.0
 11
40.00000000000001
 21
299.8909141526156
 31
0.0
  0
LINE
  5
4FB
  8
0
  6
CONTINUOUS
 62
   253
 10
39.91254093378848
 20
239.9999999999988
 30
0.0
 11
40.00000000000001
 21
240.0
 31
0.0
  0
LINE
  5
4FC
  8
0
  6
CONTINUOUS
 62
     7
 10
-30.0
 20
150.1090858473844
 30
0.0
 11
-30.0
 21
237.5
 31
0.0
  0
LINE
  5
4FD
  8
0
  6
CONTINUOUS
 62
     7
 10
-30.0
 20
240.0
 30
0.0
 11
-30.0
 21
237.5000000000002
 31
0.0
  0
LINE
  5
4FE
  8
0
  6
CONTINUOUS
 62
     7
 10
40.00000000000001
 20
240.0
 30
0.0
 11
40.00000000000001
 21
237.5000000000002
 31
0.0
  0
LINE
  5
4FF
  8
0
  6
CONTINUOUS
 62
     7
 10
40.00000000000001
 20
150.1090858473844
 30
0.0
 11
40.00000000000001
 21
237.5
 31
0.0
  0
LINE
  5
500
  8
0
  6
CONTINUOUS
 62
     7
 10
1.986323218644698
 20
162.4461506592262
 30
0.0
 11
2.204145473322566
 21
162.3266486773564
 31
0.0
  0
LINE
  5
501
  8
0
  6
CONTINUOUS
 62
     7
 10
2.204145473322566
 20
162.3266486773564
 30
0.0
 11
2.438701459941766
 21
162.2447369890186
 31
0.0
  0
LINE
  5
502
  8
0
  6
CONTINUOUS
 62
     7
 10
2.438701459941766
 20
162.2447369890186
 30
0.0
 11
2.683557141773041
 21
162.2026624898004
 31
0.0
  0
LINE
  5
503
  8
0
  6
CONTINUOUS
 62
     7
 10
5.183212568321411
 20
192.094129238437
 30
0.0
 11
4.83131299827097
 21
192.0560576831254
 31
0.0
  0
LINE
  5
504
  8
0
  6
CONTINUOUS
 62
     7
 10
4.83131299827097
 20
192.0560576831254
 30
0.0
 11
4.498123917852509
 21
191.9365946801594
 31
0.0
  0
LINE
  5
505
  8
0
  6
CONTINUOUS
 62
     7
 10
5.279320912066232
 20
192.072637306993
 30
0.0
 11
5.181799489046012
 21
192.0779776684108
 31
0.0
  0
LINE
  5
506
  8
0
  6
CONTINUOUS
 62
     7
 10
35.0
 20
283.0872686779076
 30
0.0
 11
35.0
 21
299.8952775865108
 31
0.0
  0
LINE
  5
507
  8
0
  6
CONTINUOUS
 62
     7
 10
23.08719252403593
 20
283.0872686779076
 30
0.0
 11
35.0
 21
283.0872686779076
 31
0.0
  0
LINE
  5
508
  8
0
  6
CONTINUOUS
 62
     7
 10
21.08726867790756
 20
285.087192524036
 30
0.0
 11
21.12569586622942
 21
284.6970186230316
 31
0.0
  0
LINE
  5
509
  8
0
  6
CONTINUOUS
 62
     7
 10
21.12569586622942
 20
284.6970186230316
 30
0.0
 11
21.23950083861894
 21
284.3218432897482
 31
0.0
  0
LINE
  5
50A
  8
0
  6
CONTINUOUS
 62
     7
 10
21.23950083861894
 20
284.3218432897482
 30
0.0
 11
21.42431055648841
 21
283.9760829084186
 31
0.0
  0
LINE
  5
50B
  8
0
  6
CONTINUOUS
 62
     7
 10
21.42431055648841
 20
283.9760829084186
 30
0.0
 11
21.67302357241724
 21
283.6730235724172
 31
0.0
  0
LINE
  5
50C
  8
0
  6
CONTINUOUS
 62
     7
 10
21.67302357241724
 20
283.6730235724172
 30
0.0
 11
21.97608290841846
 21
283.4243105564884
 31
0.0
  0
LINE
  5
50D
  8
0
  6
CONTINUOUS
 62
     7
 10
21.97608290841846
 20
283.4243105564884
 30
0.0
 11
22.32184328974812
 21
283.239500838619
 31
0.0
  0
LINE
  5
50E
  8
0
  6
CONTINUOUS
 62
     7
 10
22.32184328974812
 20
283.239500838619
 30
0.0
 11
22.6970186230317
 21
283.1256958662294
 31
0.0
  0
LINE
  5
50F
  8
0
  6
CONTINUOUS
 62
     7
 10
22.6970186230317
 20
283.1256958662294
 30
0.0
 11
23.08719252403588
 21
283.0872686779076
 31
0.0
  0
LINE
  5
510
  8
0
  6
CONTINUOUS
 62
     7
 10
21.08726867790758
 20
299.8952775865108
 30
0.0
 11
21.08726867790758
 21
285.087192524036
 31
0.0
  0
LINE
  5
511
  8
0
  6
CONTINUOUS
 62
     7
 10
35.0
 20
283.0850227372094
 30
0.0
 11
35.0
 21
283.0872686779076
 31
0.0
  0
LINE
  5
512
  8
0
  6
CONTINUOUS
 62
     7
 10
27.01730142493838
 20
283.0173014249384
 30
0.0
 11
27.01760604622466
 21
283.0176060462246
 31
0.0
  0
LINE
  5
513
  8
0
  6
CONTINUOUS
 62
   253
 10
-14.01288127071096
 20
296.9737977293448
 30
0.0
 11
-13.93834787590445
 21
296.895255919228
 31
0.0
  0
LINE
  5
514
  8
0
  6
CONTINUOUS
 62
     7
 10
-13.19685521766903
 20
312.5445023881854
 30
0.0
 11
-14.01288127071096
 21
296.9737977293448
 31
0.0
  0
LINE
  5
515
  8
0
  6
CONTINUOUS
 62
     7
 10
-17.01730142493837
 20
295.0173014249384
 30
0.0
 11
-17.01760604622464
 21
295.0176060462246
 31
0.0
  0
LINE
  5
516
  8
0
  6
CONTINUOUS
 62
     7
 10
-19.01752989235299
 20
295.034907471163
 30
0.0
 11
-17.01760604622464
 21
295.0176060462246
 31
0.0
  0
LINE
  5
517
  8
0
  6
CONTINUOUS
 62
     7
 10
-23.05220889610142
 20
295.0522088961014
 30
0.0
 11
-23.06102361874718
 21
295.0610236187472
 31
0.0
  0
LINE
  5
518
  8
0
  6
CONTINUOUS
 62
     7
 10
-23.00000000000001
 20
295.0675690016278
 30
0.0
 11
-23.00000000000001
 21
295.0785418101168
 31
0.0
  0
LINE
  5
519
  8
0
  6
CONTINUOUS
 62
     7
 10
-16.01006429071468
 20
295.0785418101168
 30
0.0
 11
-23.00000000000001
 21
295.0785418101168
 31
0.0
  0
LINE
  5
51A
  8
0
  6
CONTINUOUS
 62
     7
 10
-17.01730142493837
 20
295.0173014249384
 30
0.0
 11
-15.93738733414951
 21
295.0019562777226
 31
0.0
  0
LINE
  5
51B
  8
0
  6
CONTINUOUS
 62
     7
 10
-22.17563973287567
 20
299.9040044543016
 30
0.0
 11
-22.83810015862239
 21
312.5445023881854
 31
0.0
  0
LINE
  5
51C
  8
0
  6
CONTINUOUS
 62
     7
 10
-20.16921239533213
 20
299.0
 30
0.0
 11
-20.15081999566443
 21
298.9825462644184
 31
0.0
  0
LINE
  5
51D
  8
0
  6
CONTINUOUS
 62
     7
 10
-20.15081999566443
 20
298.9825462644184
 30
0.0
 11
-20.04783386014238
 21
297.0174537355816
 31
0.0
  0
LINE
  5
51E
  8
0
  6
CONTINUOUS
 62
     7
 10
-20.07681906923381
 20
296.9869096983138
 30
0.0
 11
-20.04783386014238
 21
297.0174537355816
 31
0.0
  0
LINE
  5
51F
  8
0
  6
CONTINUOUS
 62
     7
 10
-20.90623404918889
 20
312.8130903016862
 30
0.0
 11
-20.07681906923381
 21
296.9869096983138
 31
0.0
  0
LINE
  5
520
  8
0
  6
CONTINUOUS
 62
     7
 10
-20.07681906923381
 20
296.9869096983138
 30
0.0
 11
-15.92318093076622
 21
296.9869096983138
 31
0.0
  0
LINE
  5
521
  8
0
  6
CONTINUOUS
 62
     7
 10
-20.04783386014238
 20
297.0174537355816
 30
0.0
 11
-15.95216613985767
 21
297.0174537355816
 31
0.0
  0
LINE
  5
522
  8
0
  6
CONTINUOUS
 62
     7
 10
-15.09376595081115
 20
312.8130903016862
 30
0.0
 11
-15.10756025056194
 21
312.8
 31
0.0
  0
LINE
  5
523
  8
0
  6
CONTINUOUS
 62
     7
 10
-15.92318093076622
 20
296.9869096983138
 30
0.0
 11
-15.09376595081115
 21
312.8130903016862
 31
0.0
  0
LINE
  5
524
  8
0
  6
CONTINUOUS
 62
     7
 10
-15.92318093076622
 20
296.9869096983138
 30
0.0
 11
-15.95216613985767
 21
297.0174537355816
 31
0.0
  0
LINE
  5
525
  8
0
  6
CONTINUOUS
 62
     7
 10
-15.95216613985767
 20
297.0174537355816
 30
0.0
 11
-15.84918000433563
 21
298.9825462644184
 31
0.0
  0
LINE
  5
526
  8
0
  6
CONTINUOUS
 62
     7
 10
-15.83078760466791
 20
299.0
 30
0.0
 11
-15.84918000433563
 21
298.9825462644184
 31
0.0
  0
LINE
  5
527
  8
0
  6
CONTINUOUS
 62
     7
 10
-15.09376595081115
 20
312.8130903016862
 30
0.0
 11
-17.01309030168613
 21
312.8130903016862
 31
0.0
  0
LINE
  5
528
  8
0
  6
CONTINUOUS
 62
     7
 10
-16.01006429071469
 20
295.0785418101168
 30
0.0
 11
-15.63273776136673
 21
295.1144575138604
 31
0.0
  0
LINE
  5
529
  8
0
  6
CONTINUOUS
 62
     7
 10
-15.63273776136673
 20
295.1144575138604
 30
0.0
 11
-15.26896785480965
 21
295.220914736433
 31
0.0
  0
LINE
  5
52A
  8
0
  6
CONTINUOUS
 62
     7
 10
-15.26896785480965
 20
295.220914736433
 30
0.0
 11
-14.93181912576112
 21
295.3940901373534
 31
0.0
  0
LINE
  5
52B
  8
0
  6
CONTINUOUS
 62
     7
 10
-14.93181912576112
 20
295.3940901373534
 30
0.0
 11
-14.6334000470201
 21
295.6277642370548
 31
0.0
  0
LINE
  5
52C
  8
0
  6
CONTINUOUS
 62
     7
 10
-14.6334000470201
 20
295.6277642370548
 30
0.0
 11
-14.38442814170413
 21
295.9135447853628
 31
0.0
  0
LINE
  5
52D
  8
0
  6
CONTINUOUS
 62
     7
 10
-14.38442814170413
 20
295.9135447853628
 30
0.0
 11
-14.19384507052099
 21
296.2411681635906
 31
0.0
  0
LINE
  5
52E
  8
0
  6
CONTINUOUS
 62
     7
 10
-14.19384507052099
 20
296.2411681635906
 30
0.0
 11
-14.06849549796014
 21
296.5988679955912
 31
0.0
  0
LINE
  5
52F
  8
0
  6
CONTINUOUS
 62
     7
 10
-14.06849549796014
 20
296.5988679955912
 30
0.0
 11
-14.01288127071096
 21
296.973797729345
 31
0.0
  0
LINE
  5
530
  8
0
  6
CONTINUOUS
 62
     7
 10
-23.00000000000001
 20
295.0785418101168
 30
0.0
 11
-23.00000000000001
 21
299.9040044543016
 31
0.0
  0
LINE
  5
531
  8
0
  6
CONTINUOUS
 62
     7
 10
-18.98690969831387
 20
314.7563656610462
 30
0.0
 11
-18.98690969831387
 21
312.8130903016862
 31
0.0
  0
LINE
  5
532
  8
0
  6
CONTINUOUS
 62
     7
 10
-17.01309030168613
 20
312.8130903016862
 30
0.0
 11
-17.01309030168613
 21
314.7563656610462
 31
0.0
  0
LINE
  5
533
  8
0
  6
CONTINUOUS
 62
     7
 10
-15.01737757881004
 20
295.2232072508929
 30
0.0
 11
-15.9373873341495
 21
295.0019562777226
 31
0.0
  0
LINE
  5
534
  8
0
  6
CONTINUOUS
 62
     7
 10
-15.01737757881001
 20
295.2232072508929
 30
0.0
 11
-14.66981729316127
 21
295.4514706635654
 31
0.0
  0
LINE
  5
535
  8
0
  6
CONTINUOUS
 62
     7
 10
-14.66981729316127
 20
295.4514706635654
 30
0.0
 11
-14.37697421687653
 21
295.7466731496668
 31
0.0
  0
LINE
  5
536
  8
0
  6
CONTINUOUS
 62
     7
 10
-14.37697421687653
 20
295.7466731496668
 30
0.0
 11
-14.15150660557518
 21
296.0960544671726
 31
0.0
  0
LINE
  5
537
  8
0
  6
CONTINUOUS
 62
     7
 10
-14.15150660557518
 20
296.0960544671726
 30
0.0
 11
-14.00316038425547
 21
296.4845124730454
 31
0.0
  0
LINE
  5
538
  8
0
  6
CONTINUOUS
 62
     7
 10
-14.00316038425547
 20
296.4845124730454
 30
0.0
 11
-13.93834787590442
 21
296.895255919228
 31
0.0
  0
LINE
  5
539
  8
0
  6
CONTINUOUS
 62
     7
 10
-21.10179649216207
 20
314.6005515681063
 30
0.0
 11
-22.70148060952405
 21
312.9148362385026
 31
0.0
  0
LINE
  5
53A
  8
0
  6
CONTINUOUS
 62
     7
 10
-13.19685521766903
 20
312.5445023881854
 30
0.0
 11
-13.20182392310894
 21
312.6456522377564
 31
0.0
  0
LINE
  5
53B
  8
0
  6
CONTINUOUS
 62
     7
 10
-13.20182392310894
 20
312.6456522377564
 30
0.0
 11
-13.22707212296632
 21
312.7437246442398
 31
0.0
  0
LINE
  5
53C
  8
0
  6
CONTINUOUS
 62
     7
 10
-13.22707212296632
 20
312.7437246442398
 30
0.0
 11
-13.27156410784554
 21
312.834696567838
 31
0.0
  0
LINE
  5
53D
  8
0
  6
CONTINUOUS
 62
     7
 10
-13.27156410784554
 20
312.834696567838
 30
0.0
 11
-13.33347476676734
 21
312.9148362385026
 31
0.0
  0
LINE
  5
53E
  8
0
  6
CONTINUOUS
 62
     7
 10
-20.73912028625946
 20
314.7563656610462
 30
0.0
 11
-18.98690969831387
 21
314.7563656610462
 31
0.0
  0
LINE
  5
53F
  8
0
  6
CONTINUOUS
 62
     7
 10
-20.73912028625943
 20
314.7563656610462
 30
0.0
 11
-20.83987147152654
 21
314.7461099909432
 31
0.0
  0
LINE
  5
540
  8
0
  6
CONTINUOUS
 62
     7
 10
-20.83987147152654
 20
314.7461099909432
 30
0.0
 11
-20.93648808450235
 21
314.715763679692
 31
0.0
  0
LINE
  5
541
  8
0
  6
CONTINUOUS
 62
     7
 10
-20.93648808450235
 20
314.715763679692
 30
0.0
 11
-21.02500680366715
 21
314.6665715669188
 31
0.0
  0
LINE
  5
542
  8
0
  6
CONTINUOUS
 62
     7
 10
-21.02500680366715
 20
314.6665715669188
 30
0.0
 11
-21.10179649216207
 21
314.6005515681063
 31
0.0
  0
LINE
  5
543
  8
0
  6
CONTINUOUS
 62
     7
 10
-13.33347476676737
 20
312.9148362385026
 30
0.0
 11
-14.93315888412936
 21
314.6005515681063
 31
0.0
  0
LINE
  5
544
  8
0
  6
CONTINUOUS
 62
     7
 10
-22.70148060952408
 20
312.9148362385026
 30
0.0
 11
-22.76339126844586
 21
312.834696567838
 31
0.0
  0
LINE
  5
545
  8
0
  6
CONTINUOUS
 62
     7
 10
-22.76339126844586
 20
312.834696567838
 30
0.0
 11
-22.80788325332511
 21
312.7437246442398
 31
0.0
  0
LINE
  5
546
  8
0
  6
CONTINUOUS
 62
     7
 10
-22.80788325332511
 20
312.7437246442398
 30
0.0
 11
-22.83313145318247
 21
312.6456522377564
 31
0.0
  0
LINE
  5
547
  8
0
  6
CONTINUOUS
 62
     7
 10
-22.83313145318247
 20
312.6456522377564
 30
0.0
 11
-22.83810015862242
 21
312.5445023881854
 31
0.0
  0
LINE
  5
548
  8
0
  6
CONTINUOUS
 62
     7
 10
-18.98690969831387
 20
312.8130903016862
 30
0.0
 11
-20.90623404918889
 21
312.8130903016862
 31
0.0
  0
LINE
  5
549
  8
0
  6
CONTINUOUS
 62
     7
 10
-19.0
 20
312.8
 30
0.0
 11
-18.98690969831387
 21
312.8130903016862
 31
0.0
  0
LINE
  5
54A
  8
0
  6
CONTINUOUS
 62
     7
 10
-17.01309030168613
 20
314.7563656610462
 30
0.0
 11
-15.29583509003199
 21
314.7563656610462
 31
0.0
  0
LINE
  5
54B
  8
0
  6
CONTINUOUS
 62
     7
 10
-14.93315888412936
 20
314.6005515681064
 30
0.0
 11
-15.00994857262425
 21
314.666571566919
 31
0.0
  0
LINE
  5
54C
  8
0
  6
CONTINUOUS
 62
     7
 10
-15.00994857262425
 20
314.666571566919
 30
0.0
 11
-15.09846729178905
 21
314.715763679692
 31
0.0
  0
LINE
  5
54D
  8
0
  6
CONTINUOUS
 62
     7
 10
-15.09846729178905
 20
314.715763679692
 30
0.0
 11
-15.19508390476489
 21
314.7461099909434
 31
0.0
  0
LINE
  5
54E
  8
0
  6
CONTINUOUS
 62
     7
 10
-15.19508390476489
 20
314.7461099909434
 30
0.0
 11
-15.29583509003199
 21
314.7563656610462
 31
0.0
  0
LINE
  5
54F
  8
0
  6
CONTINUOUS
 62
     7
 10
-17.01309030168613
 20
312.8130903016862
 30
0.0
 11
-17.0
 21
312.8
 31
0.0
  0
LINE
  5
550
  8
0
  6
CONTINUOUS
 62
     7
 10
-15.83078760466791
 20
299.0
 30
0.0
 11
-20.16921239533213
 21
299.0
 31
0.0
  0
LINE
  5
551
  8
0
  6
CONTINUOUS
 62
     7
 10
-15.84918000433563
 20
298.9825462644184
 30
0.0
 11
-20.15081999566443
 21
298.9825462644184
 31
0.0
  0
LINE
  5
552
  8
0
  6
CONTINUOUS
 62
     7
 10
-17.0
 20
300.8
 30
0.0
 11
-19.0
 21
300.8
 31
0.0
  0
LINE
  5
553
  8
0
  6
CONTINUOUS
 62
     7
 10
-19.0
 20
300.8
 30
0.0
 11
-19.0
 21
312.8
 31
0.0
  0
LINE
  5
554
  8
0
  6
CONTINUOUS
 62
     7
 10
-17.0
 20
312.8
 30
0.0
 11
-17.0
 21
300.8
 31
0.0
  0
LINE
  5
555
  8
0
  6
CONTINUOUS
 62
   253
 10
-21.05228504997307
 20
295.034907471163
 30
0.0
 11
-21.05228504997313
 21
173.4849901511152
 31
0.0
  0
LINE
  5
556
  8
0
  6
CONTINUOUS
 62
     7
 10
-22.10904986183994
 20
161.4061130797602
 30
0.0
 11
-21.05228504997317
 21
173.4849901511152
 31
0.0
  0
LINE
  5
557
  8
0
  6
CONTINUOUS
 62
     7
 10
-21.05228504997307
 20
161.3136581387086
 30
0.0
 11
-22.10904986183992
 21
161.4061130797602
 31
0.0
  0
LINE
  5
558
  8
0
  6
CONTINUOUS
 62
   253
 10
-21.05228504997307
 20
161.3136581387086
 30
0.0
 11
-21.05228504997307
 21
150.0523612067446
 31
0.0
  0
LINE
  5
559
  8
0
  6
CONTINUOUS
 62
     7
 10
-19.01752989235299
 20
161.135640129366
 30
0.0
 11
-21.05228504997307
 21
161.3136581387086
 31
0.0
  0
LINE
  5
55A
  8
0
  6
CONTINUOUS
 62
   253
 10
-17.01760604622464
 20
160.9606694649146
 30
0.0
 11
-17.01760604622464
 21
150.0350597818062
 31
0.0
  0
LINE
  5
55B
  8
0
  6
CONTINUOUS
 62
   253
 10
-19.01752989235299
 20
150.0523612067446
 30
0.0
 11
-19.01752989235299
 21
161.135640129366
 31
0.0
  0
LINE
  5
55C
  8
0
  6
CONTINUOUS
 62
     7
 10
-19.01752989235299
 20
161.135640129366
 30
0.0
 11
-17.01760604622464
 21
160.9606694649146
 31
0.0
  0
LINE
  5
55D
  8
0
  6
CONTINUOUS
 62
   253
 10
-19.01752989235298
 20
196.2693344433832
 30
0.0
 11
-19.01752989235299
 21
295.034907471163
 31
0.0
  0
LINE
  5
55E
  8
0
  6
CONTINUOUS
 62
     7
 10
-19.05859886567192
 20
196.2729275129712
 30
0.0
 11
-19.01752989235298
 21
196.2693344433832
 31
0.0
  0
LINE
  5
55F
  8
0
  6
CONTINUOUS
 62
     7
 10
-21.05228504997313
 20
173.4849901511152
 30
0.0
 11
-19.05859886567192
 21
196.2729275129712
 31
0.0
  0
LINE
  5
560
  8
0
  6
CONTINUOUS
 62
   253
 10
-17.01760604622464
 20
295.0176060462246
 30
0.0
 11
-17.01760604622464
 21
196.0943637789318
 31
0.0
  0
LINE
  5
561
  8
0
  6
CONTINUOUS
 62
     7
 10
-17.01760604622464
 20
196.0943637789318
 30
0.0
 11
-19.01752989235298
 21
196.2693344433832
 31
0.0
  0
LINE
  5
562
  8
0
  6
CONTINUOUS
 62
   253
 10
-17.01730142493837
 20
272.9929805456926
 30
0.0
 11
-17.01730142493837
 21
295.0173014249384
 31
0.0
  0
LINE
  5
563
  8
0
  6
CONTINUOUS
 62
   253
 10
-17.01730142493837
 20
267.0070194543074
 30
0.0
 11
-17.01730142493837
 21
272.9929805456926
 31
0.0
  0
LINE
  5
564
  8
0
  6
CONTINUOUS
 62
   253
 10
-17.01730142493837
 20
196.0943371280226
 30
0.0
 11
-17.01730142493837
 21
267.0070194543074
 31
0.0
  0
LINE
  5
565
  8
0
  6
CONTINUOUS
 62
     7
 10
-17.01760604622464
 20
196.0943637789318
 30
0.0
 11
-17.01730142493837
 21
196.0943371280226
 31
0.0
  0
LINE
  5
566
  8
0
  6
CONTINUOUS
 62
   253
 10
-15.01737757881004
 20
272.9929805456926
 30
0.0
 11
-17.01730142493837
 21
272.9929805456926
 31
0.0
  0
ARC
  5
567
  8
0
  6
CONTINUOUS
 62
     7
 10
-12.00000000000001
 20
270.0
 30
0.0
 40
4.249999999999962
 50
135.2325717243518
 51
224.7674282756482
  0
LINE
  5
568
  8
0
  6
CONTINUOUS
 62
   253
 10
-15.01737757881004
 20
267.0070194543074
 30
0.0
 11
-17.01730142493837
 21
267.0070194543074
 31
0.0
  0
LINE
  5
569
  8
0
  6
CONTINUOUS
 62
   253
 10
-17.01730142493837
 20
150.0347551605198
 30
0.0
 11
-17.01730142493837
 21
160.9606428140054
 31
0.0
  0
LINE
  5
56A
  8
0
  6
CONTINUOUS
 62
     7
 10
-17.01730142493837
 20
160.9606428140054
 30
0.0
 11
-17.01760604622464
 21
160.9606694649146
 31
0.0
  0
LINE
  5
56B
  8
0
  6
CONTINUOUS
 62
   253
 10
-15.01737757881004
 20
160.785672149554
 30
0.0
 11
-15.01737757881004
 21
150.0174537355814
 31
0.0
  0
LINE
  5
56C
  8
0
  6
CONTINUOUS
 62
     7
 10
-15.01737757881004
 20
160.785672149554
 30
0.0
 11
-17.01730142493837
 21
160.9606428140054
 31
0.0
  0
LINE
  5
56D
  8
0
  6
CONTINUOUS
 62
   253
 10
-15.01737757881004
 20
267.0070194543074
 30
0.0
 11
-15.01737757881004
 21
195.9193664635712
 31
0.0
  0
LINE
  5
56E
  8
0
  6
CONTINUOUS
 62
     7
 10
-17.01730142493837
 20
196.0943371280226
 30
0.0
 11
-15.01737757881004
 21
195.9193664635712
 31
0.0
  0
LINE
  5
56F
  8
0
  6
CONTINUOUS
 62
   253
 10
-15.01737757881004
 20
295.2232072508929
 30
0.0
 11
-15.01737757881004
 21
272.9929805456926
 31
0.0
  0
ARC
  5
570
  8
0
  6
CONTINUOUS
 62
     7
 10
-1.750000000000002
 20
142.5
 30
0.0
 40
1.500000000000001
 50
270.0
 51
0.0
  0
LINE
  5
571
  8
0
  6
CONTINUOUS
 62
     7
 10
-3.250000000000003
 20
156.51
 30
0.0
 11
-3.250000000000003
 21
142.5
 31
0.0
  0
ARC
  5
572
  8
0
  6
CONTINUOUS
 62
     7
 10
-1.750000000000002
 20
142.5
 30
0.0
 40
1.500000000000001
 50
180.0
 51
270.0
  0
LINE
  5
573
  8
0
  6
CONTINUOUS
 62
     7
 10
-0.2500000000000002
 20
156.51
 30
0.0
 11
-0.2500000000000002
 21
142.5
 31
0.0
  0
LINE
  5
574
  8
0
  6
CONTINUOUS
 62
     7
 10
13.25000000000001
 20
156.51
 30
0.0
 11
13.25000000000001
 21
142.5
 31
0.0
  0
LINE
  5
575
  8
0
  6
CONTINUOUS
 62
     7
 10
-1.750000000000002
 20
158.0
 30
0.0
 11
-1.739999999999992
 21
158.0
 31
0.0
  0
ARC
  5
576
  8
0
  6
CONTINUOUS
 62
     7
 10
-1.739999999999992
 20
156.51
 30
0.0
 40
1.490000000000019
 50
0.0
 51
90.0
  0
LINE
  5
577
  8
0
  6
CONTINUOUS
 62
     7
 10
-1.759999999999998
 20
158.0
 30
0.0
 11
-1.750000000000002
 21
158.0
 31
0.0
  0
ARC
  5
578
  8
0
  6
CONTINUOUS
 62
     7
 10
-1.759999999999998
 20
156.51
 30
0.0
 40
1.490000000000005
 50
90.0
 51
180.0
  0
ARC
  5
579
  8
0
  6
CONTINUOUS
 62
     7
 10
11.75000000000001
 20
142.5
 30
0.0
 40
1.500000000000001
 50
270.0
 51
0.0
  0
LINE
  5
57A
  8
0
  6
CONTINUOUS
 62
     7
 10
10.25000000000001
 20
156.51
 30
0.0
 11
10.25000000000001
 21
142.5
 31
0.0
  0
ARC
  5
57B
  8
0
  6
CONTINUOUS
 62
     7
 10
11.75000000000001
 20
142.5
 30
0.0
 40
1.500000000000001
 50
180.0
 51
270.0
  0
LINE
  5
57C
  8
0
  6
CONTINUOUS
 62
     7
 10
11.75999999999999
 20
158.0
 30
0.0
 11
11.75000000000001
 21
158.0
 31
0.0
  0
ARC
  5
57D
  8
0
  6
CONTINUOUS
 62
     7
 10
11.75999999999999
 20
156.51
 30
0.0
 40
1.490000000000019
 50
0.0
 51
90.0
  0
ARC
  5
57E
  8
0
  6
CONTINUOUS
 62
     7
 10
11.74
 20
156.51
 30
0.0
 40
1.490000000000019
 50
90.0
 51
180.0
  0
LINE
  5
57F
  8
0
  6
CONTINUOUS
 62
     7
 10
11.75000000000001
 20
158.0
 30
0.0
 11
11.74
 21
158.0
 31
0.0
  0
ARC
  5
580
  8
0
  6
CONTINUOUS
 62
     7
 10
6.937740233371292
 20
165.896652414453
 30
0.0
 40
4.429840340670594
 50
294.5611302013165
 51
311.631024434792
  0
LINE
  5
581
  8
0
  6
CONTINUOUS
 62
     7
 10
8.779064792093255
 20
161.8676315267832
 30
0.0
 11
8.551496035209688
 21
161.7948866916386
 31
0.0
  0
LINE
  5
582
  8
0
  6
CONTINUOUS
 62
     7
 10
8.551496035209688
 20
161.7948866916386
 30
0.0
 11
8.303816955240906
 21
161.7522067033634
 31
0.0
  0
LINE
  5
583
  8
0
  6
CONTINUOUS
 62
     7
 10
8.303816955240906
 20
161.7522067033634
 30
0.0
 11
8.045751053086692
 21
161.7510517169486
 31
0.0
  0
LINE
  5
584
  8
0
  6
CONTINUOUS
 62
     7
 10
5.745131186180946
 20
192.031884188654
 30
0.0
 11
5.992222697618427
 21
191.9877247765352
 31
0.0
  0
LINE
  5
585
  8
0
  6
CONTINUOUS
 62
     7
 10
5.992222697618427
 20
191.9877247765352
 30
0.0
 11
6.235556597542907
 21
191.9006156682898
 31
0.0
  0
LINE
  5
586
  8
0
  6
CONTINUOUS
 62
     7
 10
6.235556597542907
 20
191.9006156682898
 30
0.0
 11
6.446232074301506
 21
191.7895906742172
 31
0.0
  0
ARC
  5
587
  8
0
  6
CONTINUOUS
 62
     7
 10
3.921633804814611
 20
188.13641725026
 30
0.0
 40
4.440638747725795
 50
38.34946628301083
 51
55.35281553763792
  0
LINE
  5
588
  8
0
  6
CONTINUOUS
 62
   253
 10
7.404164742344177
 20
190.8916397017062
 30
0.0
 11
9.88062063811318
 21
162.5856192875848
 31
0.0
  0
LINE
  5
589
  8
0
  6
CONTINUOUS
 62
     7
 10
5.361889127558389
 20
194.1364116557926
 30
0.0
 11
5.181799489045985
 21
192.0779776684108
 31
0.0
  0
LINE
  5
58A
  8
0
  6
CONTINUOUS
 62
     7
 10
5.300000000000026
 20
205.7606014577536
 30
0.0
 11
5.299999999999999
 21
194.1418262528494
 31
0.0
  0
ARC
  5
58B
  8
0
  6
CONTINUOUS
 62
     7
 10
5.000000000000004
 20
210.0
 30
0.0
 40
4.249999999999948
 50
274.0477741968131
 51
85.95222580318716
  0
LINE
  5
58C
  8
0
  6
CONTINUOUS
 62
     7
 10
5.299999999999999
 20
224.0
 30
0.0
 11
5.299999999999999
 21
214.2393985422462
 31
0.0
  0
LINE
  5
58D
  8
0
  6
CONTINUOUS
 62
     7
 10
5.299999999999999
 20
224.0
 30
0.0
 11
4.699999999999982
 21
224.0
 31
0.0
  0
LINE
  5
58E
  8
0
  6
CONTINUOUS
 62
     7
 10
4.699999999999982
 20
224.0
 30
0.0
 11
4.699999999999982
 21
214.2393985422464
 31
0.0
  0
ARC
  5
58F
  8
0
  6
CONTINUOUS
 62
     7
 10
5.000000000000004
 20
210.0
 30
0.0
 40
4.250000000000004
 50
94.04777419681295
 51
265.952225803187
  0
LINE
  5
590
  8
0
  6
CONTINUOUS
 62
     7
 10
4.699999999999982
 20
205.7606014577536
 30
0.0
 11
4.699999999999982
 21
194.194319450965
 31
0.0
  0
ARC
  5
591
  8
0
  6
CONTINUOUS
 62
     7
 10
-12.00000000000001
 20
270.0
 30
0.0
 40
4.250000000000004
 50
224.7674282756482
 51
135.2325717243518
  0
LINE
  5
592
  8
0
  6
CONTINUOUS
 62
   253
 10
0.6738446095593542
 20
230.3950917178598
 30
0.0
 11
-5.414268786890053
 21
299.9825462644184
 31
0.0
  0
LINE
  5
593
  8
0
  6
CONTINUOUS
 62
   253
 10
0.6738446095593542
 20
230.3950917178598
 30
0.0
 11
1.099553354801136
 21
228.4176538184798
 31
0.0
  0
LINE
  5
594
  8
0
  6
CONTINUOUS
 62
   253
 10
1.099553354801136
 20
228.4176538184798
 30
0.0
 11
1.989888426150804
 21
226.7921234719456
 31
0.0
  0
LINE
  5
595
  8
0
  6
CONTINUOUS
 62
   253
 10
1.989888426150804
 20
226.7921234719456
 30
0.0
 11
3.309630206887931
 21
225.5828029366028
 31
0.0
  0
LINE
  5
596
  8
0
  6
CONTINUOUS
 62
   253
 10
3.309630206887931
 20
225.5828029366028
 30
0.0
 11
5.00657273413041
 21
224.8375301637102
 31
0.0
  0
LINE
  5
597
  8
0
  6
CONTINUOUS
 62
   253
 10
5.00657273413041
 20
224.8375301637102
 30
0.0
 11
7.013588847184171
 21
224.5857864376268
 31
0.0
  0
LINE
  5
598
  8
0
  6
CONTINUOUS
 62
   253
 10
15.06863977306677
 20
224.5857864376268
 30
0.0
 11
7.013588847184171
 21
224.5857864376268
 31
0.0
  0
LINE
  5
599
  8
0
  6
CONTINUOUS
 62
   253
 10
15.06863977306677
 20
224.5857864376268
 30
0.0
 11
17.01950307191188
 21
224.797862221726
 31
0.0
  0
LINE
  5
59A
  8
0
  6
CONTINUOUS
 62
   253
 10
17.01950307191188
 20
224.797862221726
 30
0.0
 11
18.67391473150753
 21
225.4270222557316
 31
0.0
  0
LINE
  5
59B
  8
0
  6
CONTINUOUS
 62
   253
 10
18.67391473150753
 20
225.4270222557316
 30
0.0
 11
19.97674231967186
 21
226.4523000995772
 31
0.0
  0
LINE
  5
59C
  8
0
  6
CONTINUOUS
 62
   253
 10
19.97674231967186
 20
226.4523000995772
 30
0.0
 11
20.88456976566308
 21
227.8395288874372
 31
0.0
  0
LINE
  5
59D
  8
0
  6
CONTINUOUS
 62
   253
 10
20.88456976566308
 20
227.8395288874372
 30
0.0
 11
21.36714417878829
 21
229.5424799212586
 31
0.0
  0
LINE
  5
59E
  8
0
  6
CONTINUOUS
 62
   253
 10
21.36714417878829
 20
229.5424799212586
 30
0.0
 11
21.40838401069156
 21
231.5044032187518
 31
0.0
  0
LINE
  5
59F
  8
0
  6
CONTINUOUS
 62
   253
 10
15.41732279488916
 20
299.9825462644184
 30
0.0
 11
21.40838401069159
 21
231.5044032187518
 31
0.0
  0
LINE
  5
5A0
  8
0
  6
CONTINUOUS
 62
     7
 10
15.00000000000001
 20
150.0174537355816
 30
0.0
 11
14.90245483899194
 21
150.0078460099504
 31
0.0
  0
LINE
  5
5A1
  8
0
  6
CONTINUOUS
 62
     7
 10
14.90245483899194
 20
150.0078460099504
 30
0.0
 11
14.80865828381747
 21
149.9793920525648
 31
0.0
  0
LINE
  5
5A2
  8
0
  6
CONTINUOUS
 62
     7
 10
14.80865828381747
 20
149.9793920525648
 30
0.0
 11
14.72221488349018
 21
149.9331853330502
 31
0.0
  0
LINE
  5
5A3
  8
0
  6
CONTINUOUS
 62
     7
 10
14.72221488349018
 20
149.9331853330502
 30
0.0
 11
14.64644660940673
 21
149.8710015497242
 31
0.0
  0
LINE
  5
5A4
  8
0
  6
CONTINUOUS
 62
     7
 10
14.64644660940673
 20
149.8710015497242
 30
0.0
 11
14.58426519384873
 21
149.7952303905072
 31
0.0
  0
LINE
  5
5A5
  8
0
  6
CONTINUOUS
 62
     7
 10
14.58426519384873
 20
149.7952303905072
 30
0.0
 11
14.53806023374435
 21
149.7087836985548
 31
0.0
  0
LINE
  5
5A6
  8
0
  6
CONTINUOUS
 62
     7
 10
14.53806023374435
 20
149.7087836985548
 30
0.0
 11
14.50960735979839
 21
149.614983571759
 31
0.0
  0
LINE
  5
5A7
  8
0
  6
CONTINUOUS
 62
     7
 10
14.50960735979839
 20
149.614983571759
 30
0.0
 11
14.50000000000001
 21
149.5174346963886
 31
0.0
  0
LINE
  5
5A8
  8
0
  6
CONTINUOUS
 62
     7
 10
14.49999999999998
 20
149.5174346963886
 30
0.0
 11
14.49999999999998
 21
140.5
 31
0.0
  0
ARC
  5
5A9
  8
0
  6
CONTINUOUS
 62
     7
 10
14.00000000000001
 20
140.5
 30
0.0
 40
0.5000000000000004
 50
270.0
 51
0.0
  0
LINE
  5
5AA
  8
0
  6
CONTINUOUS
 62
     7
 10
9.500000000000009
 20
140.0
 30
0.0
 11
14.00000000000001
 21
140.0
 31
0.0
  0
ARC
  5
5AB
  8
0
  6
CONTINUOUS
 62
     7
 10
9.500000000000009
 20
140.5
 30
0.0
 40
0.5000000000000004
 50
180.0
 51
270.0
  0
LINE
  5
5AC
  8
0
  6
CONTINUOUS
 62
     7
 10
9.000000000000007
 20
149.5
 30
0.0
 11
9.000000000000007
 21
140.5
 31
0.0
  0
ARC
  5
5AD
  8
0
  6
CONTINUOUS
 62
     7
 10
8.500000000000007
 20
149.5
 30
0.0
 40
0.5000000000000004
 50
0.0
 51
90.00000000000006
  0
LINE
  5
5AE
  8
0
  6
CONTINUOUS
 62
     7
 10
5.299999999999944
 20
150.0
 30
0.0
 11
8.500000000000007
 21
150.0
 31
0.0
  0
LINE
  5
5AF
  8
0
  6
CONTINUOUS
 62
     7
 10
5.299999999999944
 20
150.0
 30
0.0
 11
5.299999999999944
 21
161.9912738069582
 31
0.0
  0
LINE
  5
5B0
  8
0
  6
CONTINUOUS
 62
     7
 10
-15.01737757881004
 20
195.9193664635712
 30
0.0
 11
4.699999999999978
 21
194.194319450965
 31
0.0
  0
LINE
  5
5B1
  8
0
  6
CONTINUOUS
 62
     7
 10
5.299999999999999
 20
194.1418262528494
 30
0.0
 11
5.361889127558389
 21
194.1364116557926
 31
0.0
  0
LINE
  5
5B2
  8
0
  6
CONTINUOUS
 62
     7
 10
4.999999999999977
 20
206.05
 30
0.0
 11
5.000000000000004
 21
194.1680728519072
 31
0.0
  0
LINE
  5
5B3
  8
0
  6
CONTINUOUS
 62
     7
 10
5.000000000000004
 20
194.1680728519072
 30
0.0
 11
4.699999999999982
 21
194.194319450965
 31
0.0
  0
CIRCLE
  5
5B4
  8
0
  6
CONTINUOUS
 62
     7
 10
5.000000000000004
 20
210.0
 30
0.0
 40
2.250000000000002
  0
LINE
  5
5B5
  8
0
  6
CONTINUOUS
 62
     7
 10
5.000000000000032
 20
213.95
 30
0.0
 11
5.299999999999999
 21
214.2393985422462
 31
0.0
  0
LINE
  5
5B6
  8
0
  6
CONTINUOUS
 62
     7
 10
5.300000000000026
 20
205.7606014577536
 30
0.0
 11
4.999999999999977
 21
206.05
 31
0.0
  0
LINE
  5
5B7
  8
0
  6
CONTINUOUS
 62
     7
 10
4.999999999999977
 20
206.05
 30
0.0
 11
4.699999999999982
 21
205.7606014577536
 31
0.0
  0
LINE
  5
5B8
  8
0
  6
CONTINUOUS
 62
     7
 10
4.999999999999977
 20
224.0
 30
0.0
 11
5.000000000000032
 21
213.95
 31
0.0
  0
LINE
  5
5B9
  8
0
  6
CONTINUOUS
 62
     7
 10
4.699999999999982
 20
214.2393985422464
 30
0.0
 11
5.000000000000032
 21
213.95
 31
0.0
  0
ARC
  5
5BA
  8
0
  6
CONTINUOUS
 62
     7
 10
-4.000000000000004
 20
140.5
 30
0.0
 40
0.5000000000000004
 50
180.000000000001
 51
270.0
  0
LINE
  5
5BB
  8
0
  6
CONTINUOUS
 62
     7
 10
-4.49999999999999
 20
149.5174346963886
 30
0.0
 11
-4.49999999999999
 21
140.5
 31
0.0
  0
LINE
  5
5BC
  8
0
  6
CONTINUOUS
 62
     7
 10
-4.500000000000004
 20
149.5174346963886
 30
0.0
 11
-4.509607359798384
 21
149.614983571759
 31
0.0
  0
LINE
  5
5BD
  8
0
  6
CONTINUOUS
 62
     7
 10
-4.509607359798384
 20
149.614983571759
 30
0.0
 11
-4.538060233744353
 21
149.7087836985548
 31
0.0
  0
LINE
  5
5BE
  8
0
  6
CONTINUOUS
 62
     7
 10
-4.538060233744353
 20
149.7087836985548
 30
0.0
 11
-4.584265193848733
 21
149.7952303905072
 31
0.0
  0
LINE
  5
5BF
  8
0
  6
CONTINUOUS
 62
     7
 10
-4.584265193848733
 20
149.7952303905072
 30
0.0
 11
-4.646446609406718
 21
149.8710015497242
 31
0.0
  0
LINE
  5
5C0
  8
0
  6
CONTINUOUS
 62
     7
 10
-4.646446609406718
 20
149.8710015497242
 30
0.0
 11
-4.7222148834902
 21
149.9331853330502
 31
0.0
  0
LINE
  5
5C1
  8
0
  6
CONTINUOUS
 62
     7
 10
-4.7222148834902
 20
149.9331853330502
 30
0.0
 11
-4.808658283817463
 21
149.9793920525648
 31
0.0
  0
LINE
  5
5C2
  8
0
  6
CONTINUOUS
 62
     7
 10
-4.808658283817463
 20
149.9793920525648
 30
0.0
 11
-4.902454838991946
 21
150.0078460099504
 31
0.0
  0
LINE
  5
5C3
  8
0
  6
CONTINUOUS
 62
     7
 10
-4.902454838991946
 20
150.0078460099504
 30
0.0
 11
-5.000000000000004
 21
150.0174537355816
 31
0.0
  0
LINE
  5
5C4
  8
0
  6
CONTINUOUS
 62
     7
 10
3.752162453678903
 20
162.126692045241
 30
0.0
 11
3.493153879117916
 21
159.1662104911454
 31
0.0
  0
LINE
  5
5C5
  8
0
  6
CONTINUOUS
 62
     7
 10
4.699999999999982
 20
150.0
 30
0.0
 11
4.699999999999982
 21
162.0437670050738
 31
0.0
  0
LINE
  5
5C6
  8
0
  6
CONTINUOUS
 62
     7
 10
1.500000000000001
 20
150.0
 30
0.0
 11
4.699999999999982
 21
150.0
 31
0.0
  0
ARC
  5
5C7
  8
0
  6
CONTINUOUS
 62
     7
 10
1.500000000000001
 20
149.5
 30
0.0
 40
0.5000000000000004
 50
89.99999999999994
 51
180.0
  0
LINE
  5
5C8
  8
0
  6
CONTINUOUS
 62
     7
 10
1.000000000000001
 20
149.5
 30
0.0
 11
1.000000000000001
 21
140.5
 31
0.0
  0
ARC
  5
5C9
  8
0
  6
CONTINUOUS
 62
     7
 10
0.5000000000000004
 20
140.5
 30
0.0
 40
0.5000000000000004
 50
270.0
 51
359.999999999999
  0
LINE
  5
5CA
  8
0
  6
CONTINUOUS
 62
     7
 10
0.5000000000000004
 20
140.0
 30
0.0
 11
-4.000000000000004
 21
140.0
 31
0.0
  0
LINE
  5
5CB
  8
0
  6
CONTINUOUS
 62
     7
 10
3.493153879117916
 20
159.1662104911454
 30
0.0
 11
-15.01737757881004
 21
160.785672149554
 31
0.0
  0
LINE
  5
5CC
  8
0
  6
CONTINUOUS
 62
     7
 10
4.699999999999982
 20
150.0
 30
0.0
 11
4.999999999999977
 21
150.0
 31
0.0
  0
LINE
  5
5CD
  8
0
  6
CONTINUOUS
 62
     7
 10
-4.500000000000004
 20
149.4999809608072
 30
0.0
 11
-4.509607359798384
 21
149.5975298361774
 31
0.0
  0
LINE
  5
5CE
  8
0
  6
CONTINUOUS
 62
     7
 10
-4.509607359798384
 20
149.5975298361774
 30
0.0
 11
-4.538060233744353
 21
149.6913299629734
 31
0.0
  0
LINE
  5
5CF
  8
0
  6
CONTINUOUS
 62
     7
 10
-4.538060233744353
 20
149.6913299629734
 30
0.0
 11
-4.584265193848733
 21
149.7777766549258
 31
0.0
  0
LINE
  5
5D0
  8
0
  6
CONTINUOUS
 62
     7
 10
-4.584265193848733
 20
149.7777766549258
 30
0.0
 11
-4.646446609406718
 21
149.8535478141428
 31
0.0
  0
LINE
  5
5D1
  8
0
  6
CONTINUOUS
 62
     7
 10
-4.646446609406718
 20
149.8535478141428
 30
0.0
 11
-4.722214883490228
 21
149.9157315974688
 31
0.0
  0
LINE
  5
5D2
  8
0
  6
CONTINUOUS
 62
     7
 10
-4.722214883490228
 20
149.9157315974688
 30
0.0
 11
-4.808658283817463
 21
149.9619383169834
 31
0.0
  0
LINE
  5
5D3
  8
0
  6
CONTINUOUS
 62
     7
 10
-4.808658283817463
 20
149.9619383169834
 30
0.0
 11
-4.902454838991946
 21
149.9903922743688
 31
0.0
  0
LINE
  5
5D4
  8
0
  6
CONTINUOUS
 62
     7
 10
-4.902454838991946
 20
149.9903922743688
 30
0.0
 11
-5.000000000000004
 21
150.0
 31
0.0
  0
LINE
  5
5D5
  8
0
  6
CONTINUOUS
 62
     7
 10
15.00000000000001
 20
150.0
 30
0.0
 11
14.90245483899194
 21
149.9903922743688
 31
0.0
  0
LINE
  5
5D6
  8
0
  6
CONTINUOUS
 62
     7
 10
14.90245483899194
 20
149.9903922743688
 30
0.0
 11
14.80865828381747
 21
149.9619383169834
 31
0.0
  0
LINE
  5
5D7
  8
0
  6
CONTINUOUS
 62
     7
 10
14.80865828381747
 20
149.9619383169834
 30
0.0
 11
14.72221488349021
 21
149.9157315974688
 31
0.0
  0
LINE
  5
5D8
  8
0
  6
CONTINUOUS
 62
     7
 10
14.72221488349021
 20
149.9157315974688
 30
0.0
 11
14.64644660940673
 21
149.8535478141428
 31
0.0
  0
LINE
  5
5D9
  8
0
  6
CONTINUOUS
 62
     7
 10
14.64644660940673
 20
149.8535478141428
 30
0.0
 11
14.58426519384873
 21
149.7777766549258
 31
0.0
  0
LINE
  5
5DA
  8
0
  6
CONTINUOUS
 62
     7
 10
14.58426519384873
 20
149.7777766549258
 30
0.0
 11
14.53806023374435
 21
149.6913299629734
 31
0.0
  0
LINE
  5
5DB
  8
0
  6
CONTINUOUS
 62
     7
 10
14.53806023374435
 20
149.6913299629734
 30
0.0
 11
14.50960735979839
 21
149.5975298361774
 31
0.0
  0
LINE
  5
5DC
  8
0
  6
CONTINUOUS
 62
     7
 10
14.50960735979839
 20
149.5975298361774
 30
0.0
 11
14.50000000000001
 21
149.4999809608072
 31
0.0
  0
LINE
  5
5DD
  8
0
  6
CONTINUOUS
 62
     7
 10
5.299999999999999
 20
194.1418262528494
 30
0.0
 11
5.000000000000004
 21
194.1680728519072
 31
0.0
  0
LINE
  5
5DE
  8
0
  6
CONTINUOUS
 62
   253
 10
1.378260635962081
 20
230.456720134576
 30
0.0
 11
1.699754915897828
 21
228.6368873779444
 31
0.0
  0
LINE
  5
5DF
  8
0
  6
CONTINUOUS
 62
   253
 10
1.699754915897828
 20
228.6368873779444
 30
0.0
 11
2.462132922534721
 21
227.1602897965504
 31
0.0
  0
LINE
  5
5E0
  8
0
  6
CONTINUOUS
 62
   253
 10
2.462132922534721
 20
227.1602897965504
 30
0.0
 11
3.635236727634355
 21
226.0853382095792
 31
0.0
  0
LINE
  5
5E1
  8
0
  6
CONTINUOUS
 62
   253
 10
3.635236727634355
 20
226.0853382095792
 30
0.0
 11
5.172661030857145
 21
225.4545552403714
 31
0.0
  0
LINE
  5
5E2
  8
0
  6
CONTINUOUS
 62
   253
 10
5.172661030857145
 20
225.4545552403714
 30
0.0
 11
7.013588847184115
 21
225.2928932188134
 31
0.0
  0
LINE
  5
5E3
  8
0
  6
CONTINUOUS
 62
   253
 10
7.013588847184171
 20
224.5857864376268
 30
0.0
 11
7.013588847184171
 21
225.2928932188134
 31
0.0
  0
LINE
  5
5E4
  8
0
  6
CONTINUOUS
 62
   253
 10
21.40838401069159
 20
231.5044032187518
 30
0.0
 11
20.70396798428883
 21
231.4427748020356
 31
0.0
  0
LINE
  5
5E5
  8
0
  6
CONTINUOUS
 62
   253
 10
20.70396798428883
 20
231.4427748020356
 30
0.0
 11
14.70729135611437
 21
299.9851023048158
 31
0.0
  0
LINE
  5
5E6
  8
0
  6
CONTINUOUS
 62
   253
 10
7.013588847184171
 20
225.2928932188134
 30
0.0
 11
15.06863977306677
 21
225.2928932188134
 31
0.0
  0
LINE
  5
5E7
  8
0
  6
CONTINUOUS
 62
   253
 10
-4.704684597231862
 20
299.9851023048158
 30
0.0
 11
1.378260635962109
 21
230.456720134576
 31
0.0
  0
LINE
  5
5E8
  8
0
  6
CONTINUOUS
 62
   253
 10
0.6738446095593542
 20
230.3950917178598
 30
0.0
 11
1.378260635962109
 21
230.456720134576
 31
0.0
  0
LINE
  5
5E9
  8
0
  6
CONTINUOUS
 62
   253
 10
15.06863977306677
 20
224.5857864376268
 30
0.0
 11
15.06863977306677
 21
225.2928932188134
 31
0.0
  0
LINE
  5
5EA
  8
0
  6
CONTINUOUS
 62
   253
 10
15.06863977306677
 20
225.2928932188134
 30
0.0
 11
16.87558350752089
 21
225.414656692862
 31
0.0
  0
LINE
  5
5EB
  8
0
  6
CONTINUOUS
 62
   253
 10
16.87558350752089
 20
225.414656692862
 30
0.0
 11
18.39087164945149
 21
225.9329500528818
 31
0.0
  0
LINE
  5
5EC
  8
0
  6
CONTINUOUS
 62
   253
 10
18.39087164945149
 20
225.9329500528818
 30
0.0
 11
19.56400798757019
 21
226.8305014346692
 31
0.0
  0
LINE
  5
5ED
  8
0
  6
CONTINUOUS
 62
   253
 10
19.56400798757019
 20
226.8305014346692
 30
0.0
 11
20.35589834647869
 21
228.0774003921758
 31
0.0
  0
LINE
  5
5EE
  8
0
  6
CONTINUOUS
 62
   253
 10
20.35589834647869
 20
228.0774003921758
 30
0.0
 11
20.74015338029991
 21
229.632094648002
 31
0.0
  0
LINE
  5
5EF
  8
0
  6
CONTINUOUS
 62
   253
 10
20.74015338029991
 20
229.632094648002
 30
0.0
 11
20.70396798428883
 21
231.4427748020356
 31
0.0
  0
CIRCLE
  5
5F0
  8
0
  6
CONTINUOUS
 62
     7
 10
-12.00000000000001
 20
270.0
 30
0.0
 40
2.250000000000002
  0
LINE
  5
5F1
  8
0
  6
CONTINUOUS
 62
     7
 10
4.999999999999977
 20
150.0
 30
0.0
 11
5.299999999999944
 21
150.0
 31
0.0
  0
LINE
  5
5F2
  8
0
  6
CONTINUOUS
 62
   253
 10
15.06863977306677
 20
225.2928932188134
 30
0.0
 11
14.39834329097697
 21
225.9071067811866
 31
0.0
  0
LINE
  5
5F3
  8
0
  6
CONTINUOUS
 62
   253
 10
14.39834329097694
 20
225.9071067811866
 30
0.0
 11
16.05960097669199
 21
226.1623669233142
 31
0.0
  0
LINE
  5
5F4
  8
0
  6
CONTINUOUS
 62
   253
 10
16.05960097669199
 20
226.1623669233142
 30
0.0
 11
17.48548911848696
 21
226.7625802904156
 31
0.0
  0
LINE
  5
5F5
  8
0
  6
CONTINUOUS
 62
   253
 10
17.48548911848696
 20
226.7625802904156
 30
0.0
 11
18.6284907148826
 21
227.6877450754646
 31
0.0
  0
LINE
  5
5F6
  8
0
  6
CONTINUOUS
 62
   253
 10
18.6284907148826
 20
227.6877450754646
 30
0.0
 11
19.45051581551413
 21
228.9070306297094
 31
0.0
  0
LINE
  5
5F7
  8
0
  6
CONTINUOUS
 62
   253
 10
19.45051581551413
 20
228.9070306297094
 30
0.0
 11
19.92417084947101
 21
230.3798048784542
 31
0.0
  0
LINE
  5
5F8
  8
0
  6
CONTINUOUS
 62
   253
 10
19.92417084947101
 20
230.3798048784542
 30
0.0
 11
20.03367150219901
 21
232.0569883644089
 31
0.0
  0
LINE
  5
5F9
  8
0
  6
CONTINUOUS
 62
   253
 10
20.03367150219903
 20
232.0569883644086
 30
0.0
 11
20.70396798428883
 21
231.4427748020356
 31
0.0
  0
LINE
  5
5FA
  8
0
  6
CONTINUOUS
 62
   253
 10
1.378260635962109
 20
230.456720134576
 30
0.0
 11
1.941083670668864
 21
231.0709336969493
 31
0.0
  0
LINE
  5
5FB
  8
0
  6
CONTINUOUS
 62
   253
 10
1.941083670668864
 20
231.0709336969493
 30
0.0
 11
2.376404937829673
 21
229.3753212991274
 31
0.0
  0
LINE
  5
5FC
  8
0
  6
CONTINUOUS
 62
   253
 10
2.376404937829673
 20
229.3753212991274
 30
0.0
 11
3.19684483581445
 21
227.9620871533496
 31
0.0
  0
LINE
  5
5FD
  8
0
  6
CONTINUOUS
 62
   253
 10
3.19684483581445
 20
227.9620871533496
 30
0.0
 11
4.369948640914084
 21
226.8871355663782
 31
0.0
  0
LINE
  5
5FE
  8
0
  6
CONTINUOUS
 62
   253
 10
4.369948640914084
 20
226.8871355663782
 30
0.0
 11
5.849311052789019
 21
226.1929891615544
 31
0.0
  0
LINE
  5
5FF
  8
0
  6
CONTINUOUS
 62
   253
 10
5.849311052789019
 20
226.1929891615544
 30
0.0
 11
7.576411881890898
 21
225.9071067811866
 31
0.0
  0
LINE
  5
600
  8
0
  6
CONTINUOUS
 62
   253
 10
7.576411881890927
 20
225.9071067811866
 30
0.0
 11
7.013588847184171
 21
225.2928932188134
 31
0.0
  0
LINE
  5
601
  8
0
  6
CONTINUOUS
 62
   253
 10
14.39834329097697
 20
225.9071067811866
 30
0.0
 11
7.576411881890927
 21
225.9071067811866
 31
0.0
  0
LINE
  5
602
  8
0
  6
CONTINUOUS
 62
   253
 10
1.941083670668864
 20
231.0709336969493
 30
0.0
 11
-4.088593792116734
 21
299.99046246537
 31
0.0
  0
LINE
  5
603
  8
0
  6
CONTINUOUS
 62
   253
 10
14.09026264443294
 20
299.99046246537
 30
0.0
 11
20.03367150219903
 21
232.0569883644086
 31
0.0
  0
LINE
  5
604
  8
0
  6
CONTINUOUS
 62
   253
 10
14.39834329097697
 20
226.614213562373
 30
0.0
 11
14.39834329097697
 21
225.9071067811866
 31
0.0
  0
LINE
  5
605
  8
0
  6
CONTINUOUS
 62
   253
 10
14.39834329097697
 20
226.614213562373
 30
0.0
 11
15.91568141230099
 21
226.7791613944503
 31
0.0
  0
LINE
  5
606
  8
0
  6
CONTINUOUS
 62
   253
 10
15.91568141230099
 20
226.7791613944503
 30
0.0
 11
17.20244603643092
 21
227.2685080875658
 31
0.0
  0
LINE
  5
607
  8
0
  6
CONTINUOUS
 62
   253
 10
17.20244603643092
 20
227.2685080875658
 30
0.0
 11
18.215756382781
 21
228.0659464105566
 31
0.0
  0
LINE
  5
608
  8
0
  6
CONTINUOUS
 62
   253
 10
18.215756382781
 20
228.0659464105566
 30
0.0
 11
18.92184439632974
 21
229.1449021344478
 31
0.0
  0
LINE
  5
609
  8
0
  6
CONTINUOUS
 62
   253
 10
18.92184439632974
 20
229.1449021344478
 30
0.0
 11
19.29718005098263
 21
230.4694196051978
 31
0.0
  0
LINE
  5
60A
  8
0
  6
CONTINUOUS
 62
   253
 10
19.29718005098263
 20
230.4694196051978
 30
0.0
 11
19.32925547579628
 21
231.9953599476924
 31
0.0
  0
LINE
  5
60B
  8
0
  6
CONTINUOUS
 62
   253
 10
7.576411881890927
 20
226.614213562373
 30
0.0
 11
14.39834329097697
 21
226.614213562373
 31
0.0
  0
LINE
  5
60C
  8
0
  6
CONTINUOUS
 62
   253
 10
2.645499697071618
 20
231.1325621136654
 30
0.0
 11
2.976606498926393
 21
229.594554858592
 31
0.0
  0
LINE
  5
60D
  8
0
  6
CONTINUOUS
 62
   253
 10
2.976606498926393
 20
229.594554858592
 30
0.0
 11
3.669089332198366
 21
228.3302534779544
 31
0.0
  0
LINE
  5
60E
  8
0
  6
CONTINUOUS
 62
   253
 10
3.669089332198366
 20
228.3302534779544
 30
0.0
 11
4.695555161660509
 21
227.3896708393544
 31
0.0
  0
LINE
  5
60F
  8
0
  6
CONTINUOUS
 62
   253
 10
4.695555161660509
 20
227.3896708393544
 30
0.0
 11
6.015399349515782
 21
226.8100142382158
 31
0.0
  0
LINE
  5
610
  8
0
  6
CONTINUOUS
 62
   253
 10
6.015399349515782
 20
226.8100142382158
 30
0.0
 11
7.576411881890927
 21
226.6142135623732
 31
0.0
  0
LINE
  5
611
  8
0
  6
CONTINUOUS
 62
   253
 10
7.576411881890927
 20
226.614213562373
 30
0.0
 11
7.576411881890927
 21
225.9071067811866
 31
0.0
  0
LINE
  5
612
  8
0
  6
CONTINUOUS
 62
   253
 10
-3.379009602458558
 20
299.9930185057674
 30
0.0
 11
2.645499697071618
 21
231.1325621136654
 31
0.0
  0
LINE
  5
613
  8
0
  6
CONTINUOUS
 62
   253
 10
2.645499697071618
 20
231.1325621136654
 30
0.0
 11
1.941083670668864
 21
231.0709336969493
 31
0.0
  0
LINE
  5
614
  8
0
  6
CONTINUOUS
 62
   253
 10
19.32925547579628
 20
231.9953599476924
 30
0.0
 11
20.03367150219903
 21
232.0569883644086
 31
0.0
  0
LINE
  5
615
  8
0
  6
CONTINUOUS
 62
   253
 10
19.32925547579628
 20
231.9953599476924
 30
0.0
 11
13.38023120565818
 21
299.9930185057674
 31
0.0
  0
LINE
  5
616
  8
0
  6
CONTINUOUS
 62
     7
 10
103.9197737636464
 20
361.0981684806408
 30
0.0
 11
103.9197737636464
 21
300.0785418101169
 31
0.0
  0
LINE
  5
617
  8
0
  6
CONTINUOUS
 62
     7
 10
103.9197737636464
 20
300.0785418101169
 30
0.0
 11
102.4328635668938
 21
300.0915178788206
 31
0.0
  0
LINE
  5
618
  8
0
  6
CONTINUOUS
 62
     7
 10
100.4197737636464
 20
362.5
 30
0.0
 11
103.9197737636464
 21
362.5
 31
0.0
  0
LINE
  5
619
  8
0
  6
CONTINUOUS
 62
     7
 10
103.9197737636464
 20
362.5
 30
0.0
 11
103.9197737636464
 21
361.0981684806408
 31
0.0
  0
LINE
  5
61A
  8
0
  6
CONTINUOUS
 62
     7
 10
87.9197737636464
 20
300.218171694769
 30
0.0
 11
87.9197737636464
 21
360.0000000000012
 31
0.0
  0
LINE
  5
61B
  8
0
  6
CONTINUOUS
 62
   253
 10
87.9197737636464
 20
360.0000000000012
 30
0.0
 11
90.3979574249004
 21
360.0000000000012
 31
0.0
  0
LINE
  5
61C
  8
0
  6
CONTINUOUS
 62
   253
 10
90.3979574249004
 20
360.0000000000012
 30
0.0
 11
90.3979574249004
 21
300.196544913596
 31
0.0
  0
LINE
  5
61D
  8
0
  6
CONTINUOUS
 62
     7
 10
90.3979574249004
 20
300.196544913596
 30
0.0
 11
87.9197737636464
 21
300.218171694769
 31
0.0
  0
LINE
  5
61E
  8
0
  6
CONTINUOUS
 62
     7
 10
100.4197737636464
 20
360.0
 30
0.0
 11
100.4197737636464
 21
300.1090858473844
 31
0.0
  0
LINE
  5
61F
  8
0
  6
CONTINUOUS
 62
   253
 10
90.3979574249004
 20
360.0000000000012
 30
0.0
 11
100.4197737636464
 21
360.0
 31
0.0
  0
LINE
  5
620
  8
0
  6
CONTINUOUS
 62
     7
 10
100.4197737636464
 20
300.1090858473844
 30
0.0
 11
90.3979574249004
 21
300.196544913596
 31
0.0
  0
LINE
  5
621
  8
0
  6
CONTINUOUS
 62
     7
 10
100.4197737636464
 20
360.0
 30
0.0
 11
100.4197737636466
 21
362.4999999999998
 31
0.0
  0
LINE
  5
622
  8
0
  6
CONTINUOUS
 62
     7
 10
102.4328635668938
 20
300.0915178788206
 30
0.0
 11
100.4197737636464
 21
300.1090858473846
 31
0.0
  0
LINE
  5
623
  8
0
  6
CONTINUOUS
 62
     7
 10
100.4197737636464
 20
449.8909141526153
 30
0.0
 11
100.4197737636464
 21
362.5
 31
0.0
  0
LINE
  5
624
  8
0
  6
CONTINUOUS
 62
   253
 10
90.3979574249004
 20
449.803455086404
 30
0.0
 11
90.3979574249004
 21
360.0000000000012
 31
0.0
  0
LINE
  5
625
  8
0
  6
CONTINUOUS
 62
     7
 10
100.4197737636464
 20
449.8909141526153
 30
0.0
 11
90.3979574249004
 21
449.803455086404
 31
0.0
  0
LINE
  5
626
  8
0
  6
CONTINUOUS
 62
     7
 10
105.4197737636464
 20
449.9345484915693
 30
0.0
 11
100.4197737636464
 21
449.8909141526153
 31
0.0
  0
LINE
  5
627
  8
0
  6
CONTINUOUS
 62
     7
 10
105.4197737636464
 20
300.0654515084306
 30
0.0
 11
105.4197737636464
 21
449.9345484915693
 31
0.0
  0
LINE
  5
628
  8
0
  6
CONTINUOUS
 62
     7
 10
105.4197737636464
 20
300.0654515084306
 30
0.0
 11
103.9197737636464
 21
300.0785418101169
 31
0.0
  0
LINE
  5
629
  8
0
  6
CONTINUOUS
 62
     7
 10
87.9197737636464
 20
360.0000000000012
 30
0.0
 11
87.9197737636464
 21
449.781828305231
 31
0.0
  0
LINE
  5
62A
  8
0
  6
CONTINUOUS
 62
     7
 10
87.9197737636464
 20
449.781828305231
 30
0.0
 11
90.3979574249004
 21
449.803455086404
 31
0.0
  0
LINE
  5
62B
  8
0
  6
CONTINUOUS
 62
     7
 10
112.9197737636464
 20
300.0
 30
0.0
 11
112.9197737636464
 21
450.0
 31
0.0
  0
LINE
  5
62C
  8
0
  6
CONTINUOUS
 62
     7
 10
112.9197737636464
 20
450.0
 30
0.0
 11
105.4197737636464
 21
449.9345484915693
 31
0.0
  0
LINE
  5
62D
  8
0
  6
CONTINUOUS
 62
     7
 10
112.9197737636464
 20
300.0
 30
0.0
 11
105.4197737636464
 21
300.0654515084306
 31
0.0
  0
LINE
  5
62E
  8
0
  6
CONTINUOUS
 62
     7
 10
106.9197737636464
 20
300.0523612067446
 30
0.0
 11
106.9197737636464
 21
299.9476387932554
 31
0.0
  0
LINE
  5
62F
  8
0
  6
CONTINUOUS
 62
     7
 10
101.9197737636464
 20
300.0959955456984
 30
0.0
 11
101.9197737636464
 21
299.9040044543016
 31
0.0
  0
LINE
  5
630
  8
0
  6
CONTINUOUS
 62
     7
 10
78.9197737636462
 20
425.8784556203274
 30
0.0
 11
78.91977376364639
 21
432.1583601330188
 31
0.0
  0
LINE
  5
631
  8
0
  6
CONTINUOUS
 62
   253
 10
80.0112264738792
 20
435.1110560363132
 30
0.0
 11
79.8886421950252
 21
435.0770052682636
 31
0.0
  0
LINE
  5
632
  8
0
  6
CONTINUOUS
 62
   253
 10
79.8886421950252
 20
435.0770052682636
 30
0.0
 11
79.7732411850034
 21
435.0295063921026
 31
0.0
  0
LINE
  5
633
  8
0
  6
CONTINUOUS
 62
   253
 10
79.7732411850034
 20
435.0295063921026
 30
0.0
 11
79.66536175284757
 21
434.9683875859892
 31
0.0
  0
LINE
  5
634
  8
0
  6
CONTINUOUS
 62
   253
 10
79.66536175284757
 20
434.9683875859892
 30
0.0
 11
79.5630646128354
 21
434.8916272577616
 31
0.0
  0
LINE
  5
635
  8
0
  6
CONTINUOUS
 62
   253
 10
79.5630646128354
 20
434.8916272577616
 30
0.0
 11
79.46877857357501
 21
434.8003224418982
 31
0.0
  0
LINE
  5
636
  8
0
  6
CONTINUOUS
 62
   253
 10
79.46877857357501
 20
434.8003224418982
 30
0.0
 11
79.3826808950254
 21
434.6945910113072
 31
0.0
  0
LINE
  5
637
  8
0
  6
CONTINUOUS
 62
   253
 10
79.3826808950254
 20
434.6945910113072
 30
0.0
 11
79.30991795903061
 21
434.5831813044664
 31
0.0
  0
LINE
  5
638
  8
0
  6
CONTINUOUS
 62
   253
 10
79.30991795903061
 20
434.5831813044664
 30
0.0
 11
79.2440688150918
 21
434.4592974148454
 31
0.0
  0
LINE
  5
639
  8
0
  6
CONTINUOUS
 62
   253
 10
79.2440688150918
 20
434.4592974148454
 30
0.0
 11
79.1850706907238
 21
434.323316845718
 31
0.0
  0
LINE
  5
63A
  8
0
  6
CONTINUOUS
 62
   253
 10
79.1850706907238
 20
434.323316845718
 30
0.0
 11
79.13286081344178
 21
434.1756171003578
 31
0.0
  0
LINE
  5
63B
  8
0
  6
CONTINUOUS
 62
   253
 10
79.13286081344178
 20
434.1756171003578
 30
0.0
 11
79.08567850527379
 21
434.0102465143034
 31
0.0
  0
LINE
  5
63C
  8
0
  6
CONTINUOUS
 62
   253
 10
79.08567850527379
 20
434.0102465143034
 30
0.0
 11
79.045184815874
 21
433.8326742221724
 31
0.0
  0
LINE
  5
63D
  8
0
  6
CONTINUOUS
 62
   253
 10
79.045184815874
 20
433.8326742221724
 30
0.0
 11
79.01108829116002
 21
433.6435650511971
 31
0.0
  0
LINE
  5
63E
  8
0
  6
CONTINUOUS
 62
   253
 10
79.01108829116002
 20
433.6435650511971
 30
0.0
 11
78.9830974770492
 21
433.4435838286082
 31
0.0
  0
LINE
  5
63F
  8
0
  6
CONTINUOUS
 62
   253
 10
78.9830974770492
 20
433.4435838286082
 30
0.0
 11
78.96738550688681
 21
433.3018354598698
 31
0.0
  0
LINE
  5
640
  8
0
  6
CONTINUOUS
 62
   253
 10
78.96738550688681
 20
433.3018354598698
 30
0.0
 11
78.9541552645622
 21
433.1552455326418
 31
0.0
  0
LINE
  5
641
  8
0
  6
CONTINUOUS
 62
     7
 10
78.92755936401579
 20
433.0416133459134
 30
0.0
 11
78.9541552645622
 21
433.1552455326418
 31
0.0
  0
LINE
  5
642
  8
0
  6
CONTINUOUS
 62
     7
 10
78.9197737636462
 20
432.9712138968376
 30
0.0
 11
78.92755936401579
 21
433.0416133459134
 31
0.0
  0
LINE
  5
643
  8
0
  6
CONTINUOUS
 62
     7
 10
78.91977376364639
 20
432.1583601330188
 30
0.0
 11
78.9197737636462
 21
432.9712138968376
 31
0.0
  0
LINE
  5
644
  8
0
  6
CONTINUOUS
 62
     7
 10
78.9197737636462
 20
416.5309885203818
 30
0.0
 11
78.9197737636462
 21
425.8784556203274
 31
0.0
  0
LINE
  5
645
  8
0
  6
CONTINUOUS
 62
     7
 10
78.32632422087201
 20
407.330982240973
 30
0.0
 11
78.21632611112442
 21
407.3389043928316
 31
0.0
  0
ARC
  5
646
  8
0
  6
CONTINUOUS
 62
   253
 10
84.7264240065528
 20
410.6761305040382
 30
0.0
 40
5.810191812424092
 50
177.959434674947
 51
191.5720156028234
  0
LINE
  5
647
  8
0
  6
CONTINUOUS
 62
   253
 10
79.0343339690028
 20
409.5106092036818
 30
0.0
 11
79.11367096586
 21
409.2686748502714
 31
0.0
  0
LINE
  5
648
  8
0
  6
CONTINUOUS
 62
   253
 10
79.11367096586
 20
409.2686748502714
 30
0.0
 11
79.2201925151392
 21
409.0717355165466
 31
0.0
  0
LINE
  5
649
  8
0
  6
CONTINUOUS
 62
   253
 10
79.2201925151392
 20
409.0717355165466
 30
0.0
 11
79.42365640280241
 21
408.8774764616974
 31
0.0
  0
LINE
  5
64A
  8
0
  6
CONTINUOUS
 62
   253
 10
79.42365640280241
 20
408.8774764616974
 30
0.0
 11
79.684853226755
 21
408.7914744876072
 31
0.0
  0
LINE
  5
64B
  8
0
  6
CONTINUOUS
 62
   253
 10
79.684853226755
 20
408.7914744876072
 30
0.0
 11
79.89608858947881
 21
408.7923887677718
 31
0.0
  0
LINE
  5
64C
  8
0
  6
CONTINUOUS
 62
   253
 10
79.89608858947881
 20
408.7923887677718
 30
0.0
 11
80.0112264738792
 21
408.8101520743804
 31
0.0
  0
LINE
  5
64D
  8
0
  6
CONTINUOUS
 62
     7
 10
78.9197737636462
 20
413.3403873319182
 30
0.0
 11
78.9197737636462
 21
416.5309885203818
 31
0.0
  0
LINE
  5
64E
  8
0
  6
CONTINUOUS
 62
     7
 10
78.9197737636462
 20
413.3403873319182
 30
0.0
 11
79.0181616619636
 21
413.2767428973924
 31
0.0
  0
LINE
  5
64F
  8
0
  6
CONTINUOUS
 62
     7
 10
75.41977376364639
 20
410.1420689157128
 30
0.0
 11
75.41977376364639
 21
432.834483402619
 31
0.0
  0
LINE
  5
650
  8
0
  6
CONTINUOUS
 62
     7
 10
75.41977376364639
 20
432.834483402619
 30
0.0
 11
75.41977376364639
 21
435.6405798864706
 31
0.0
  0
LINE
  5
651
  8
0
  6
CONTINUOUS
 62
   253
 10
87.9197737636464
 20
409.4014126632664
 30
0.0
 11
85.3975522049546
 21
409.3150683398084
 31
0.0
  0
LINE
  5
652
  8
0
  6
CONTINUOUS
 62
   253
 10
85.3975522049546
 20
409.3150683398084
 30
0.0
 11
83.181306835904
 21
409.183919450514
 31
0.0
  0
LINE
  5
653
  8
0
  6
CONTINUOUS
 62
   253
 10
83.181306835904
 20
409.183919450514
 30
0.0
 11
81.3611863323928
 21
409.0133006478002
 31
0.0
  0
LINE
  5
654
  8
0
  6
CONTINUOUS
 62
   253
 10
81.3611863323928
 20
409.0133006478002
 30
0.0
 11
80.0112264738792
 21
408.8101520743804
 31
0.0
  0
LINE
  5
655
  8
0
  6
CONTINUOUS
 62
   253
 10
87.9197737636464
 20
435.8545581049832
 30
0.0
 11
85.3975522049546
 21
435.7196603963878
 31
0.0
  0
LINE
  5
656
  8
0
  6
CONTINUOUS
 62
   253
 10
85.3975522049546
 20
435.7196603963878
 30
0.0
 11
83.181306835904
 21
435.545848238836
 31
0.0
  0
LINE
  5
657
  8
0
  6
CONTINUOUS
 62
   253
 10
83.181306835904
 20
435.545848238836
 30
0.0
 11
81.3611863323928
 21
435.340191668921
 31
0.0
  0
LINE
  5
658
  8
0
  6
CONTINUOUS
 62
   253
 10
81.3611863323928
 20
435.340191668921
 30
0.0
 11
80.0112264738792
 21
435.1110560363132
 31
0.0
  0
LINE
  5
659
  8
0
  6
CONTINUOUS
 62
     7
 10
75.41977376364639
 20
409.0948923293932
 30
0.0
 11
75.41977376364639
 21
410.1420689157128
 31
0.0
  0
LINE
  5
65A
  8
0
  6
CONTINUOUS
 62
   253
 10
79.04649121770419
 20
412.7198774627738
 30
0.0
 11
79.07374182709
 21
412.691786132417
 31
0.0
  0
LINE
  5
65B
  8
0
  6
CONTINUOUS
 62
   253
 10
79.03979675120642
 20
412.727498948716
 30
0.0
 11
79.04649121770419
 21
412.7198774627738
 31
0.0
  0
LINE
  5
65C
  8
0
  6
CONTINUOUS
 62
   253
 10
78.99550406447159
 20
412.7875565024354
 30
0.0
 11
79.03979675120642
 21
412.727498948716
 31
0.0
  0
LINE
  5
65D
  8
0
  6
CONTINUOUS
 62
     7
 10
76.8129800373736
 20
407.350192796335
 30
0.0
 11
76.89337295239262
 21
407.3434398303042
 31
0.0
  0
LINE
  5
65E
  8
0
  6
CONTINUOUS
 62
     7
 10
75.41977376364639
 20
409.0948923293932
 30
0.0
 11
75.4388022187434
 21
408.9168621368648
 31
0.0
  0
LINE
  5
65F
  8
0
  6
CONTINUOUS
 62
   253
 10
113.0197737636464
 20
376.1
 30
0.0
 11
113.1197737636464
 21
376.1
 31
0.0
  0
ARC
  5
660
  8
0
  6
CONTINUOUS
 62
     7
 10
113.0197737636464
 20
376.1
 30
0.0
 40
0.099999999999989
 50
270.0
 51
0.0
  0
LINE
  5
661
  8
0
  6
CONTINUOUS
 62
   253
 10
113.0197737636464
 20
376.1
 30
0.0
 11
113.0197737636464
 21
376.0
 31
0.0
  0
LINE
  5
662
  8
0
  6
CONTINUOUS
 62
     7
 10
113.1197737636464
 20
403.9
 30
0.0
 11
113.1197737636464
 21
376.1
 31
0.0
  0
LINE
  5
663
  8
0
  6
CONTINUOUS
 62
   253
 10
113.0197737636464
 20
376.1
 30
0.0
 11
113.0197737636464
 21
403.9
 31
0.0
  0
LINE
  5
664
  8
0
  6
CONTINUOUS
 62
   253
 10
113.0197737636464
 20
403.9
 30
0.0
 11
113.1197737636464
 21
403.9
 31
0.0
  0
LINE
  5
665
  8
0
  6
CONTINUOUS
 62
   253
 10
112.9197737636464
 20
376.1
 30
0.0
 11
113.0197737636464
 21
376.1
 31
0.0
  0
LINE
  5
666
  8
0
  6
CONTINUOUS
 62
   253
 10
113.0197737636464
 20
403.9
 30
0.0
 11
112.9197737636464
 21
403.9
 31
0.0
  0
LINE
  5
667
  8
0
  6
CONTINUOUS
 62
     7
 10
113.0197737636464
 20
376.0
 30
0.0
 11
112.9197737636464
 21
376.0
 31
0.0
  0
ARC
  5
668
  8
0
  6
CONTINUOUS
 62
     7
 10
113.0197737636464
 20
403.9
 30
0.0
 40
0.099999999999989
 50
0.0
 51
90.0
  0
LINE
  5
669
  8
0
  6
CONTINUOUS
 62
   253
 10
113.0197737636464
 20
404.0
 30
0.0
 11
113.0197737636464
 21
403.9
 31
0.0
  0
LINE
  5
66A
  8
0
  6
CONTINUOUS
 62
     7
 10
112.9197737636464
 20
404.0
 30
0.0
 11
113.0197737636464
 21
404.0
 31
0.0
  0
LINE
  5
66B
  8
0
  6
CONTINUOUS
 62
     7
 10
79.11815507275303
 20
412.6917465278162
 30
0.0
 11
79.07374182709
 21
412.6917861324172
 31
0.0
  0
LINE
  5
66C
  8
0
  6
CONTINUOUS
 62
   253
 10
76.411047228148
 20
436.6660330075934
 30
0.0
 11
76.411047228148
 21
436.6367366525208
 31
0.0
  0
LINE
  5
66D
  8
0
  6
CONTINUOUS
 62
   253
 10
87.9197737636464
 20
437.9868584270998
 30
0.0
 11
85.2475166593048
 21
437.8956925080846
 31
0.0
  0
LINE
  5
66E
  8
0
  6
CONTINUOUS
 62
   253
 10
85.2475166593048
 20
437.8956925080846
 30
0.0
 11
82.77874459787817
 21
437.7609384208388
 31
0.0
  0
LINE
  5
66F
  8
0
  6
CONTINUOUS
 62
   253
 10
82.77874459787817
 20
437.7609384208388
 30
0.0
 11
80.61074725010079
 21
437.5879065708808
 31
0.0
  0
LINE
  5
670
  8
0
  6
CONTINUOUS
 62
   253
 10
80.61074725010079
 20
437.5879065708808
 30
0.0
 11
78.8289613200784
 21
437.3834158184736
 31
0.0
  0
LINE
  5
671
  8
0
  6
CONTINUOUS
 62
   253
 10
78.8289613200784
 20
437.3834158184736
 30
0.0
 11
77.5036036452254
 21
437.1555247601482
 31
0.0
  0
LINE
  5
672
  8
0
  6
CONTINUOUS
 62
   253
 10
77.5036036452254
 20
437.1555247601482
 30
0.0
 11
76.68690408256481
 21
436.9132141545476
 31
0.0
  0
LINE
  5
673
  8
0
  6
CONTINUOUS
 62
   253
 10
76.68690408256481
 20
436.9132141545476
 30
0.0
 11
76.411047228148
 21
436.6660330075934
 31
0.0
  0
LINE
  5
674
  8
0
  6
CONTINUOUS
 62
     7
 10
75.41977376364639
 20
435.6405798864706
 30
0.0
 11
75.41977376364639
 21
435.6698762415432
 31
0.0
  0
LINE
  5
675
  8
0
  6
CONTINUOUS
 62
     7
 10
75.43877671226402
 20
435.863160567711
 30
0.0
 11
75.41977376364639
 21
435.6698762415432
 31
0.0
  0
LINE
  5
676
  8
0
  6
CONTINUOUS
 62
     7
 10
110.9197737636464
 20
450.4825653036115
 30
0.0
 11
110.9197737636464
 21
449.9825462644184
 31
0.0
  0
LINE
  5
677
  8
0
  6
CONTINUOUS
 62
     7
 10
112.9197737636464
 20
450.0
 30
0.0
 11
112.9197737636464
 21
450.5000190391928
 31
0.0
  0
LINE
  5
678
  8
0
  6
CONTINUOUS
 62
     7
 10
110.9197737636464
 20
450.4825653036115
 30
0.0
 11
110.9197737636464
 21
459.4999999999999
 31
0.0
  0
LINE
  5
679
  8
0
  6
CONTINUOUS
 62
     7
 10
112.9197737636464
 20
450.5000190391928
 30
0.0
 11
112.9197737636464
 21
459.4999999999999
 31
0.0
  0
LINE
  5
67A
  8
0
  6
CONTINUOUS
 62
     7
 10
110.9197737636464
 20
460.0
 30
0.0
 11
112.9197737636464
 21
460.0
 31
0.0
  0
LINE
  5
67B
  8
0
  6
CONTINUOUS
 62
     7
 10
110.9197737636464
 20
459.4999999999999
 30
0.0
 11
110.9197737636464
 21
460.0
 31
0.0
  0
LINE
  5
67C
  8
0
  6
CONTINUOUS
 62
     7
 10
112.9197737636464
 20
460.0
 30
0.0
 11
112.9197737636464
 21
459.4999999999999
 31
0.0
  0
LINE
  5
67D
  8
0
  6
CONTINUOUS
 62
     7
 10
109.4197737636464
 20
457.4999999999999
 30
0.0
 11
109.4197737636464
 21
449.9694559627325
 31
0.0
  0
ARC
  5
67E
  8
0
  6
CONTINUOUS
 62
     7
 10
110.9197737636464
 20
457.4999999999999
 30
0.0
 40
1.500000000000057
 50
90.0
 51
180.0
  0
LINE
  5
67F
  8
0
  6
CONTINUOUS
 62
     7
 10
103.9197737636464
 20
299.9214581898832
 30
0.0
 11
103.9197737636464
 21
238.9018315193592
 31
0.0
  0
LINE
  5
680
  8
0
  6
CONTINUOUS
 62
     7
 10
102.4328635668938
 20
299.9084821211794
 30
0.0
 11
103.9197737636464
 21
299.9214581898832
 31
0.0
  0
LINE
  5
681
  8
0
  6
CONTINUOUS
 62
     7
 10
103.9197737636464
 20
237.5
 30
0.0
 11
100.4197737636466
 21
237.5000000000002
 31
0.0
  0
LINE
  5
682
  8
0
  6
CONTINUOUS
 62
     7
 10
103.9197737636464
 20
238.9018315193592
 30
0.0
 11
103.9197737636464
 21
237.5
 31
0.0
  0
LINE
  5
683
  8
0
  6
CONTINUOUS
 62
   253
 10
90.3979574249004
 20
299.803455086404
 30
0.0
 11
90.3979574249004
 21
239.9999999999988
 31
0.0
  0
LINE
  5
684
  8
0
  6
CONTINUOUS
 62
   253
 10
90.3979574249004
 20
239.9999999999654
 30
0.0
 11
87.9197737636464
 21
239.9999999999988
 31
0.0
  0
LINE
  5
685
  8
0
  6
CONTINUOUS
 62
     7
 10
87.9197737636464
 20
239.9999999999988
 30
0.0
 11
87.9197737636464
 21
299.781828305231
 31
0.0
  0
LINE
  5
686
  8
0
  6
CONTINUOUS
 62
     7
 10
87.9197737636464
 20
299.781828305231
 30
0.0
 11
90.3979574249004
 21
299.803455086404
 31
0.0
  0
LINE
  5
687
  8
0
  6
CONTINUOUS
 62
     7
 10
100.4197737636464
 20
240.0
 30
0.0
 11
100.4197737636466
 21
237.5000000000002
 31
0.0
  0
LINE
  5
688
  8
0
  6
CONTINUOUS
 62
     7
 10
100.4197737636464
 20
240.0
 30
0.0
 11
100.4197737636464
 21
299.8909141526156
 31
0.0
  0
LINE
  5
689
  8
0
  6
CONTINUOUS
 62
     7
 10
102.4328635668938
 20
299.9084821211794
 30
0.0
 11
100.4197737636464
 21
299.8909141526156
 31
0.0
  0
LINE
  5
68A
  8
0
  6
CONTINUOUS
 62
   253
 10
90.3979574249004
 20
239.9999999999988
 30
0.0
 11
100.4197737636464
 21
240.0
 31
0.0
  0
LINE
  5
68B
  8
0
  6
CONTINUOUS
 62
     7
 10
100.4197737636464
 20
299.8909141526156
 30
0.0
 11
90.3979574249004
 21
299.803455086404
 31
0.0
  0
LINE
  5
68C
  8
0
  6
CONTINUOUS
 62
     7
 10
100.4197737636464
 20
150.1090858473844
 30
0.0
 11
100.4197737636464
 21
237.5
 31
0.0
  0
LINE
  5
68D
  8
0
  6
CONTINUOUS
 62
     7
 10
100.4197737636464
 20
150.1090858473844
 30
0.0
 11
90.3979574249004
 21
150.196544913596
 31
0.0
  0
LINE
  5
68E
  8
0
  6
CONTINUOUS
 62
   253
 10
90.3979574249004
 20
239.9999999999988
 30
0.0
 11
90.3979574249004
 21
150.196544913596
 31
0.0
  0
LINE
  5
68F
  8
0
  6
CONTINUOUS
 62
     7
 10
105.4197737636464
 20
299.9345484915693
 30
0.0
 11
105.4197737636464
 21
150.0654515084306
 31
0.0
  0
LINE
  5
690
  8
0
  6
CONTINUOUS
 62
     7
 10
105.4197737636464
 20
150.0654515084306
 30
0.0
 11
100.4197737636464
 21
150.1090858473844
 31
0.0
  0
LINE
  5
691
  8
0
  6
CONTINUOUS
 62
     7
 10
105.4197737636464
 20
299.9345484915693
 30
0.0
 11
103.9197737636464
 21
299.9214581898832
 31
0.0
  0
LINE
  5
692
  8
0
  6
CONTINUOUS
 62
     7
 10
87.9197737636464
 20
150.218171694769
 30
0.0
 11
87.9197737636464
 21
239.9999999999988
 31
0.0
  0
LINE
  5
693
  8
0
  6
CONTINUOUS
 62
     7
 10
90.3979574249004
 20
150.196544913596
 30
0.0
 11
87.9197737636464
 21
150.218171694769
 31
0.0
  0
LINE
  5
694
  8
0
  6
CONTINUOUS
 62
     7
 10
112.9197737636464
 20
300.0
 30
0.0
 11
112.9197737636464
 21
150.0
 31
0.0
  0
LINE
  5
695
  8
0
  6
CONTINUOUS
 62
     7
 10
112.9197737636464
 20
150.0
 30
0.0
 11
105.4197737636464
 21
150.0654515084306
 31
0.0
  0
LINE
  5
696
  8
0
  6
CONTINUOUS
 62
     7
 10
112.9197737636464
 20
300.0
 30
0.0
 11
105.4197737636464
 21
299.9345484915693
 31
0.0
  0
LINE
  5
697
  8
0
  6
CONTINUOUS
 62
     7
 10
112.9197737636464
 20
224.0
 30
0.0
 11
113.0197737636464
 21
224.0
 31
0.0
  0
LINE
  5
698
  8
0
  6
CONTINUOUS
 62
   253
 10
113.0197737636464
 20
224.0
 30
0.0
 11
113.0197737636464
 21
223.9
 31
0.0
  0
LINE
  5
699
  8
0
  6
CONTINUOUS
 62
   253
 10
113.0197737636464
 20
223.9
 30
0.0
 11
112.9197737636464
 21
223.9
 31
0.0
  0
LINE
  5
69A
  8
0
  6
CONTINUOUS
 62
     7
 10
113.1197737636464
 20
223.9
 30
0.0
 11
113.1197737636464
 21
196.1000000000001
 31
0.0
  0
LINE
  5
69B
  8
0
  6
CONTINUOUS
 62
   253
 10
113.1197737636464
 20
196.1000000000001
 30
0.0
 11
113.0197737636464
 21
196.1000000000001
 31
0.0
  0
LINE
  5
69C
  8
0
  6
CONTINUOUS
 62
   253
 10
113.0197737636464
 20
196.1000000000001
 30
0.0
 11
113.0197737636464
 21
223.9
 31
0.0
  0
LINE
  5
69D
  8
0
  6
CONTINUOUS
 62
   253
 10
113.1197737636464
 20
223.9
 30
0.0
 11
113.0197737636464
 21
223.9
 31
0.0
  0
ARC
  5
69E
  8
0
  6
CONTINUOUS
 62
     7
 10
113.0197737636464
 20
196.1000000000001
 30
0.0
 40
0.099999999999989
 50
270.0
 51
0.0
  0
LINE
  5
69F
  8
0
  6
CONTINUOUS
 62
   253
 10
113.0197737636464
 20
196.1000000000001
 30
0.0
 11
113.0197737636464
 21
196.0
 31
0.0
  0
ARC
  5
6A0
  8
0
  6
CONTINUOUS
 62
     7
 10
113.0197737636464
 20
223.9
 30
0.0
 40
0.099999999999989
 50
0.0
 51
90.0
  0
LINE
  5
6A1
  8
0
  6
CONTINUOUS
 62
   253
 10
112.9197737636464
 20
196.1000000000001
 30
0.0
 11
113.0197737636464
 21
196.1000000000001
 31
0.0
  0
LINE
  5
6A2
  8
0
  6
CONTINUOUS
 62
     7
 10
113.0197737636464
 20
196.0
 30
0.0
 11
112.9197737636464
 21
196.0
 31
0.0
  0
LINE
  5
6A3
  8
0
  6
CONTINUOUS
 62
     7
 10
110.9197737636464
 20
150.0174537355816
 30
0.0
 11
110.9197737636464
 21
149.5174346963886
 31
0.0
  0
LINE
  5
6A4
  8
0
  6
CONTINUOUS
 62
     7
 10
112.9197737636464
 20
149.4999809608072
 30
0.0
 11
112.9197737636464
 21
150.0
 31
0.0
  0
LINE
  5
6A5
  8
0
  6
CONTINUOUS
 62
     7
 10
110.9197737636464
 20
149.5174346963886
 30
0.0
 11
110.9197737636464
 21
140.5
 31
0.0
  0
LINE
  5
6A6
  8
0
  6
CONTINUOUS
 62
     7
 10
112.9197737636464
 20
149.4999809608072
 30
0.0
 11
112.9197737636464
 21
140.5
 31
0.0
  0
LINE
  5
6A7
  8
0
  6
CONTINUOUS
 62
     7
 10
112.9197737636464
 20
140.0
 30
0.0
 11
110.9197737636464
 21
140.0
 31
0.0
  0
LINE
  5
6A8
  8
0
  6
CONTINUOUS
 62
     7
 10
110.9197737636464
 20
140.0
 30
0.0
 11
110.9197737636464
 21
140.5
 31
0.0
  0
LINE
  5
6A9
  8
0
  6
CONTINUOUS
 62
     7
 10
112.9197737636464
 20
140.5
 30
0.0
 11
112.9197737636464
 21
140.0
 31
0.0
  0
ARC
  5
6AA
  8
0
  6
CONTINUOUS
 62
     7
 10
110.9197737636464
 20
142.5
 30
0.0
 40
1.500000000000001
 50
180.0
 51
270.0
  0
LINE
  5
6AB
  8
0
  6
CONTINUOUS
 62
     7
 10
109.4197737636464
 20
142.5
 30
0.0
 11
109.4197737636464
 21
150.0305440372676
 31
0.0
  0
LINE
  5
6AC
  8
0
  6
CONTINUOUS
 62
     7
 10
75.41977376364639
 20
164.3301237584568
 30
0.0
 11
75.42129294130977
 21
164.3137182659892
 31
0.0
  0
LINE
  5
6AD
  8
0
  6
CONTINUOUS
 62
     7
 10
75.41977376364639
 20
164.3301237584568
 30
0.0
 11
75.41977376364639
 21
190.9051076706068
 31
0.0
  0
LINE
  5
6AE
  8
0
  6
CONTINUOUS
 62
   253
 10
78.61507803244241
 20
192.6334765143898
 30
0.0
 11
77.1276080701988
 21
192.6205449571344
 31
0.0
  0
LINE
  5
6AF
  8
0
  6
CONTINUOUS
 62
     7
 10
78.61507803244218
 20
192.6334765143898
 30
0.0
 11
80.1925488234404
 21
192.3974276511714
 31
0.0
  0
LINE
  5
6B0
  8
0
  6
CONTINUOUS
 62
     7
 10
80.1925488234404
 20
192.3974276511714
 30
0.0
 11
82.3363049710068
 21
192.2007176832562
 31
0.0
  0
LINE
  5
6B1
  8
0
  6
CONTINUOUS
 62
     7
 10
82.3363049710068
 20
192.2007176832562
 30
0.0
 11
84.95086395105741
 21
192.0521080382302
 31
0.0
  0
LINE
  5
6B2
  8
0
  6
CONTINUOUS
 62
     7
 10
84.95086395105741
 20
192.0521080382302
 30
0.0
 11
87.9197737636464
 21
191.9582177637058
 31
0.0
  0
LINE
  5
6B3
  8
0
  6
CONTINUOUS
 62
   253
 10
79.01883346611021
 20
192.5868280263798
 30
0.0
 11
78.81903993340359
 21
192.626390858453
 31
0.0
  0
LINE
  5
6B4
  8
0
  6
CONTINUOUS
 62
   253
 10
78.81903993340359
 20
192.626390858453
 30
0.0
 11
78.61507803244218
 21
192.6334765143898
 31
0.0
  0
LINE
  5
6B5
  8
0
  6
CONTINUOUS
 62
   253
 10
78.61507803244241
 20
192.6334765143898
 30
0.0
 11
78.32632422087201
 21
192.669017759027
 31
0.0
  0
LINE
  5
6B6
  8
0
  6
CONTINUOUS
 62
   253
 10
76.89337295239262
 20
192.6565601696958
 30
0.0
 11
76.93210302372361
 21
192.6556588717262
 31
0.0
  0
LINE
  5
6B7
  8
0
  6
CONTINUOUS
 62
   253
 10
76.93210302372361
 20
192.6556588717262
 30
0.0
 11
77.12760807019858
 21
192.6205449571344
 31
0.0
  0
LINE
  5
6B8
  8
0
  6
CONTINUOUS
 62
     7
 10
76.81874239916142
 20
192.6507308861006
 30
0.0
 11
76.84547799289301
 21
192.6540778956948
 31
0.0
  0
LINE
  5
6B9
  8
0
  6
CONTINUOUS
 62
     7
 10
76.84547799289301
 20
192.6540778956948
 30
0.0
 11
76.89337295239262
 21
192.6565601696958
 31
0.0
  0
LINE
  5
6BA
  8
0
  6
CONTINUOUS
 62
     7
 10
75.423363327767
 20
191.0298803212286
 30
0.0
 11
75.41977376364639
 21
190.9051076706068
 31
0.0
  0
LINE
  5
6BB
  8
0
  6
CONTINUOUS
 62
     7
 10
76.89432571685639
 20
407.3434315445416
 30
0.0
 11
78.32719940417782
 21
407.3309746287064
 31
0.0
  0
LINE
  5
6BC
  8
0
  6
CONTINUOUS
 62
     7
 10
78.21551680820421
 20
407.3390183388249
 30
0.0
 11
78.22969701790339
 21
407.3381590315868
 31
0.0
  0
LINE
  5
6BD
  8
0
  6
CONTINUOUS
 62
     7
 10
78.22969701790339
 20
407.3381590315868
 30
0.0
 11
79.01879568660081
 21
407.4131612758746
 31
0.0
  0
LINE
  5
6BE
  8
0
  6
CONTINUOUS
 62
     7
 10
78.91977419050822
 20
410.8216932919022
 30
0.0
 11
79.0205196728246
 21
413.2735008546644
 31
0.0
  0
LINE
  5
6BF
  8
0
  6
CONTINUOUS
 62
     7
 10
75.43880193541119
 20
408.9168634495662
 30
0.0
 11
75.453340980816
 21
408.7543025917516
 31
0.0
  0
LINE
  5
6C0
  8
0
  6
CONTINUOUS
 62
     7
 10
75.453340980816
 20
408.7543025917516
 30
0.0
 11
75.4779767388608
 21
408.5951675371484
 31
0.0
  0
LINE
  5
6C1
  8
0
  6
CONTINUOUS
 62
     7
 10
75.4779767388608
 20
408.5951675371484
 30
0.0
 11
75.51377928468821
 21
408.4398092561722
 31
0.0
  0
LINE
  5
6C2
  8
0
  6
CONTINUOUS
 62
     7
 10
75.51377928468821
 20
408.4398092561722
 30
0.0
 11
75.56183672758581
 21
408.2888548362744
 31
0.0
  0
LINE
  5
6C3
  8
0
  6
CONTINUOUS
 62
     7
 10
75.56183672758581
 20
408.2888548362744
 30
0.0
 11
75.6232003708816
 21
408.143220044346
 31
0.0
  0
LINE
  5
6C4
  8
0
  6
CONTINUOUS
 62
     7
 10
75.6232003708816
 20
408.143220044346
 30
0.0
 11
75.69882089725299
 21
408.0041127868706
 31
0.0
  0
LINE
  5
6C5
  8
0
  6
CONTINUOUS
 62
     7
 10
75.69882089725299
 20
408.0041127868706
 30
0.0
 11
75.78947719331819
 21
407.8730246228894
 31
0.0
  0
LINE
  5
6C6
  8
0
  6
CONTINUOUS
 62
     7
 10
75.78947719331819
 20
407.8730246228894
 30
0.0
 11
75.86215556883998
 21
407.7869961999896
 31
0.0
  0
LINE
  5
6C7
  8
0
  6
CONTINUOUS
 62
     7
 10
75.86215556883998
 20
407.7869961999896
 30
0.0
 11
75.942390700556
 21
407.706598762426
 31
0.0
  0
LINE
  5
6C8
  8
0
  6
CONTINUOUS
 62
     7
 10
75.942390700556
 20
407.706598762426
 30
0.0
 11
76.0301272696928
 21
407.6324973123606
 31
0.0
  0
LINE
  5
6C9
  8
0
  6
CONTINUOUS
 62
     7
 10
76.0301272696928
 20
407.6324973123606
 30
0.0
 11
76.12522979753022
 21
407.5653650771288
 31
0.0
  0
LINE
  5
6CA
  8
0
  6
CONTINUOUS
 62
     7
 10
76.12522979753022
 20
407.5653650771288
 30
0.0
 11
76.22745495105781
 21
407.5059003566956
 31
0.0
  0
LINE
  5
6CB
  8
0
  6
CONTINUOUS
 62
     7
 10
76.22745495105781
 20
407.5059003566956
 30
0.0
 11
76.3178276469654
 21
407.4627152088416
 31
0.0
  0
LINE
  5
6CC
  8
0
  6
CONTINUOUS
 62
     7
 10
76.3178276469654
 20
407.4627152088416
 30
0.0
 11
76.41262593222761
 21
407.4257558424958
 31
0.0
  0
LINE
  5
6CD
  8
0
  6
CONTINUOUS
 62
     7
 10
76.41262593222761
 20
407.4257558424958
 30
0.0
 11
76.5115157026026
 21
407.3954217021428
 31
0.0
  0
LINE
  5
6CE
  8
0
  6
CONTINUOUS
 62
     7
 10
76.5115157026026
 20
407.3954217021428
 30
0.0
 11
76.61410101069579
 21
407.3720959592546
 31
0.0
  0
LINE
  5
6CF
  8
0
  6
CONTINUOUS
 62
     7
 10
76.61410101069579
 20
407.3720959592546
 30
0.0
 11
76.71992424572221
 21
407.3561380970174
 31
0.0
  0
LINE
  5
6D0
  8
0
  6
CONTINUOUS
 62
     7
 10
76.71992424572221
 20
407.3561380970174
 30
0.0
 11
76.82846739713759
 21
407.3478763462766
 31
0.0
  0
ARC
  5
6D1
  8
0
  6
CONTINUOUS
 62
     7
 10
80.46351911356741
 20
424.8607293015114
 30
0.0
 40
12.66093606902269
 50
92.99582707217967
 51
109.886504496983
  0
LINE
  5
6D2
  8
0
  6
CONTINUOUS
 62
     7
 10
76.1567996067962
 20
436.7666719031652
 30
0.0
 11
75.95043551278441
 21
436.6405063528198
 31
0.0
  0
LINE
  5
6D3
  8
0
  6
CONTINUOUS
 62
     7
 10
75.95043551278441
 20
436.6405063528198
 30
0.0
 11
75.75682905754721
 21
436.475092715445
 31
0.0
  0
LINE
  5
6D4
  8
0
  6
CONTINUOUS
 62
     7
 10
75.75682905754721
 20
436.475092715445
 30
0.0
 11
75.59780796212881
 21
436.2754454059809
 31
0.0
  0
LINE
  5
6D5
  8
0
  6
CONTINUOUS
 62
     7
 10
75.59780796212881
 20
436.2754454059809
 30
0.0
 11
75.54265907630177
 21
436.1791369197006
 31
0.0
  0
LINE
  5
6D6
  8
0
  6
CONTINUOUS
 62
     7
 10
75.54265907630177
 20
436.1791369197006
 30
0.0
 11
75.43877625628059
 21
435.863158270974
 31
0.0
  0
ARC
  5
6D7
  8
0
  6
CONTINUOUS
 62
     7
 10
88.0536884898164
 20
343.7294492224428
 30
0.0
 40
64.3214153207934
 50
90.11846726565771
 51
98.07474136266683
  0
LINE
  5
6D8
  8
0
  6
CONTINUOUS
 62
     7
 10
75.42129160827282
 20
164.3137254703806
 30
0.0
 11
75.4520461255708
 21
164.0684784391664
 31
0.0
  0
LINE
  5
6D9
  8
0
  6
CONTINUOUS
 62
     7
 10
75.4520461255708
 20
164.0684784391664
 30
0.0
 11
75.52817393724497
 21
163.851864248638
 31
0.0
  0
LINE
  5
6DA
  8
0
  6
CONTINUOUS
 62
     7
 10
75.52817393724497
 20
163.851864248638
 30
0.0
 11
75.64447157888482
 21
163.656417131761
 31
0.0
  0
LINE
  5
6DB
  8
0
  6
CONTINUOUS
 62
     7
 10
75.64447157888482
 20
163.656417131761
 30
0.0
 11
75.78391153115041
 21
163.4970716557672
 31
0.0
  0
LINE
  5
6DC
  8
0
  6
CONTINUOUS
 62
     7
 10
75.78391153115041
 20
163.4970716557672
 30
0.0
 11
75.96405161305277
 21
163.3499254103262
 31
0.0
  0
LINE
  5
6DD
  8
0
  6
CONTINUOUS
 62
     7
 10
75.96405161305277
 20
163.3499254103262
 30
0.0
 11
76.1702171611468
 21
163.2270922399602
 31
0.0
  0
ARC
  5
6DE
  8
0
  6
CONTINUOUS
 62
     7
 10
87.14077002208981
 20
212.351693788988
 30
0.0
 40
50.33467500069394
 50
257.411216077887
 51
270.8843164227474
  0
LINE
  5
6DF
  8
0
  6
CONTINUOUS
 62
     7
 10
81.70403787385041
 20
192.2502369838426
 30
0.0
 11
79.01879568660081
 21
192.5868387241254
 31
0.0
  0
LINE
  5
6E0
  8
0
  6
CONTINUOUS
 62
     7
 10
79.01879568660081
 20
192.5868387241254
 30
0.0
 11
78.82443560155222
 21
192.6259888143212
 31
0.0
  0
LINE
  5
6E1
  8
0
  6
CONTINUOUS
 62
     7
 10
78.82443560155222
 20
192.6259888143212
 30
0.0
 11
78.4047860065438
 21
192.6654667228158
 31
0.0
  0
LINE
  5
6E2
  8
0
  6
CONTINUOUS
 62
     7
 10
78.32719940417782
 20
192.6690253712936
 30
0.0
 11
76.89432571685639
 21
192.6565684554584
 31
0.0
  0
LINE
  5
6E3
  8
0
  6
CONTINUOUS
 62
     7
 10
76.82846739713759
 20
192.6521236537236
 30
0.0
 11
76.75655671927761
 21
192.6476637320926
 31
0.0
  0
LINE
  5
6E4
  8
0
  6
CONTINUOUS
 62
     7
 10
76.75655671927761
 20
192.6476637320926
 30
0.0
 11
76.68311134247138
 21
192.6394062251158
 31
0.0
  0
LINE
  5
6E5
  8
0
  6
CONTINUOUS
 62
     7
 10
76.68311134247138
 20
192.6394062251158
 30
0.0
 11
76.60836795428541
 21
192.627060422864
 31
0.0
  0
LINE
  5
6E6
  8
0
  6
CONTINUOUS
 62
     7
 10
76.60836795428541
 20
192.627060422864
 30
0.0
 11
76.53259054672179
 21
192.610333136985
 31
0.0
  0
LINE
  5
6E7
  8
0
  6
CONTINUOUS
 62
     7
 10
76.53259054672179
 20
192.610333136985
 30
0.0
 11
76.45607125233461
 21
192.588931252191
 31
0.0
  0
LINE
  5
6E8
  8
0
  6
CONTINUOUS
 62
     7
 10
76.45607125233461
 20
192.588931252191
 30
0.0
 11
76.37913088629541
 21
192.5625646079814
 31
0.0
  0
LINE
  5
6E9
  8
0
  6
CONTINUOUS
 62
     7
 10
76.37913088629541
 20
192.5625646079814
 30
0.0
 11
76.30211912925138
 21
192.530949202701
 31
0.0
  0
LINE
  5
6EA
  8
0
  6
CONTINUOUS
 62
     7
 10
76.30211912925138
 20
192.530949202701
 30
0.0
 11
76.22541428304041
 21
192.4938107002006
 31
0.0
  0
LINE
  5
6EB
  8
0
  6
CONTINUOUS
 62
     7
 10
76.22541428304041
 20
192.4938107002006
 30
0.0
 11
76.14942253032042
 21
192.4508882052072
 31
0.0
  0
LINE
  5
6EC
  8
0
  6
CONTINUOUS
 62
     7
 10
76.14942253032042
 20
192.4508882052072
 30
0.0
 11
76.07457663045841
 21
192.4019382569916
 31
0.0
  0
LINE
  5
6ED
  8
0
  6
CONTINUOUS
 62
     7
 10
76.07457663045841
 20
192.4019382569916
 30
0.0
 11
76.00133398807098
 21
192.3467389721022
 31
0.0
  0
LINE
  5
6EE
  8
0
  6
CONTINUOUS
 62
     7
 10
76.00133398807098
 20
192.3467389721022
 30
0.0
 11
75.93017403796401
 21
192.2850942460352
 31
0.0
  0
LINE
  5
6EF
  8
0
  6
CONTINUOUS
 62
     7
 10
75.93017403796401
 20
192.2850942460352
 30
0.0
 11
75.8615949013032
 21
192.2168379010868
 31
0.0
  0
LINE
  5
6F0
  8
0
  6
CONTINUOUS
 62
     7
 10
75.8615949013032
 20
192.2168379010868
 30
0.0
 11
75.79610928306681
 21
192.141837643856
 31
0.0
  0
LINE
  5
6F1
  8
0
  6
CONTINUOUS
 62
     7
 10
75.79610928306681
 20
192.141837643856
 30
0.0
 11
75.734267191704
 21
192.0600454263054
 31
0.0
  0
LINE
  5
6F2
  8
0
  6
CONTINUOUS
 62
     7
 10
75.734267191704
 20
192.0600454263054
 30
0.0
 11
75.67665895902579
 21
191.9715587427904
 31
0.0
  0
LINE
  5
6F3
  8
0
  6
CONTINUOUS
 62
     7
 10
75.67665895902579
 20
191.9715587427904
 30
0.0
 11
75.62379190914162
 21
191.8764332359102
 31
0.0
  0
LINE
  5
6F4
  8
0
  6
CONTINUOUS
 62
     7
 10
75.62379190914162
 20
191.8764332359102
 30
0.0
 11
75.5761553880416
 21
191.7747697286142
 31
0.0
  0
LINE
  5
6F5
  8
0
  6
CONTINUOUS
 62
     7
 10
75.5761553880416
 20
191.7747697286142
 30
0.0
 11
75.53421751277922
 21
191.666720467839
 31
0.0
  0
LINE
  5
6F6
  8
0
  6
CONTINUOUS
 62
     7
 10
75.53421751277922
 20
191.666720467839
 30
0.0
 11
75.49841763611079
 21
191.552488143362
 31
0.0
  0
LINE
  5
6F7
  8
0
  6
CONTINUOUS
 62
     7
 10
75.49841763611079
 20
191.552488143362
 30
0.0
 11
75.46915878135141
 21
191.432323424754
 31
0.0
  0
LINE
  5
6F8
  8
0
  6
CONTINUOUS
 62
     7
 10
75.46915878135141
 20
191.432323424754
 30
0.0
 11
75.4468002550622
 21
191.3065208843068
 31
0.0
  0
LINE
  5
6F9
  8
0
  6
CONTINUOUS
 62
     7
 10
75.4468002550622
 20
191.3065208843068
 30
0.0
 11
75.43165066265358
 21
191.1754132118274
 31
0.0
  0
LINE
  5
6FA
  8
0
  6
CONTINUOUS
 62
     7
 10
75.43165066265358
 20
191.1754132118274
 30
0.0
 11
75.42396156175643
 21
191.039363674809
 31
0.0
  0
LINE
  5
6FB
  8
0
  6
CENTER
 62
     1
 10
5.000000000000004
 20
130.0
 30
0.0
 11
5.000000000000004
 21
470.0000000000001
 31
0.0
  0
LINE
  5
6FD
  8
0
  6
CENTER
 62
     1
 10
-18.25000000000001
 20
270.0
 30
0.0
 11
-5.750000000000005
 21
270.0
 31
0.0
  0
LINE
  5
6FE
  8
0
  6
CENTER
 62
     1
 10
4.828712536734336
 20
81.10968734167618
 30
0.0
 11
40.85639703965305
 21
81.10968734167618
 31
0.0
  0
LINE
  5
6FF
  8
0
  6
CENTER
 62
     1
 10
22.84255478819369
 20
63.09584509021681
 30
0.0
 11
22.84255478819369
 21
99.12352959313553
 31
0.0
  0
LINE
  5
700
  8
0
  6
CENTER
 62
     1
 10
22.00000000000002
 20
323.7500000000001
 30
0.0
 11
22.00000000000002
 21
336.25
 31
0.0
  0
LINE
  5
701
  8
0
  6
CENTER
 62
     1
 10
-12.84722329929389
 20
63.08809167931303
 30
0.0
 11
-12.84722329929389
 21
99.12510251770048
 31
0.0
  0
LINE
  5
702
  8
0
  6
CENTER
 62
     1
 10
-3.249999999999947
 20
210.0
 30
0.0
 11
13.24999999999996
 21
210.0
 31
0.0
  0
LINE
  5
703
  8
0
  6
CENTER
 62
     1
 10
-12.00000000000001
 20
263.75
 30
0.0
 11
-12.00000000000001
 21
276.25
 31
0.0
  0
LINE
  5
704
  8
0
  6
CENTER
 62
     1
 10
-30.8657287184876
 20
81.10659709850675
 30
0.0
 11
5.171282119899839
 21
81.10659709850675
 31
0.0
  0
LINE
  5
705
  8
0
  6
CENTER
 62
     1
 10
-3.250000000000017
 20
390.0
 30
0.0
 11
13.25000000000001
 21
390.0
 31
0.0
  0
LINE
  5
706
  8
0
  6
CENTER
 62
     1
 10
15.75000000000001
 20
330.0
 30
0.0
 11
28.25000000000002
 21
330.0
 31
0.0
  0
ENDSEC
  0
EOF
