  0
SECTION
  2
HEADER
  9
$ACADVER
  1
AC1006
  9
$DWGCODEPAGE
  3
ansi_932
  9
$INSBASE
 10
0.0
 20
0.0
 30
0.0
  9
$EXTMIN
 10
272.9310581284901
 20
250.9973716785025
  9
$EXTMAX
 10
660.494010247513
 20
487.507119953782
  9
$LIMMIN
 10
0.0
 20
0.0
  9
$LIMMAX
 10
12.0
 20
9.0
  9
$ORTHOMODE
 70
     0
  9
$REGENMODE
 70
     1
  9
$FILLMODE
 70
     1
  9
$QTEXTMODE
 70
     0
  9
$MIRRTEXT
 70
     1
  9
$DRAGMODE
 70
     2
  9
$LTSCALE
 40
1.0
  9
$OSMODE
 70
    37
  9
$ATTMODE
 70
     1
  9
$TEXTSIZE
 40
0.2
  9
$TRACEWID
 40
0.05
  9
$TEXTSTYLE
  7
STANDARD
  9
$CLAYER
  8
0
  9
$CELTYPE
  6
BYLAYER
  9
$CECOLOR
 62
   256
  9
$DIMSCALE
 40
1.0
  9
$DIMASZ
 40
3.0
  9
$DIMEXO
 40
0.0625
  9
$DIMDLI
 40
0.38
  9
$DIMRND
 40
0.0
  9
$DIMDLE
 40
0.0
  9
$DIMEXE
 40
1.5
  9
$DIMTP
 40
0.0
  9
$DIMTM
 40
0.0
  9
$DIMTXT
 40
3.0
  9
$DIMCEN
 40
0.09
  9
$DIMTSZ
 40
0.0
  9
$DIMTOL
 70
     0
  9
$DIMLIM
 70
     0
  9
$DIMTIH
 70
     1
  9
$DIMTOH
 70
     1
  9
$DIMSE1
 70
     0
  9
$DIMSE2
 70
     0
  9
$DIMTAD
 70
     1
  9
$DIMZIN
 70
     0
  9
$DIMBLK
  1

  9
$DIMASO
 70
     1
  9
$DIMSHO
 70
     1
  9
$DIMPOST
  1

  9
$DIMAPOST
  1

  9
$DIMALT
 70
     0
  9
$DIMALTD
 70
     2
  9
$DIMALTF
 40
25.4
  9
$DIMLFAC
 40
1.0
  9
$DIMTOFL
 70
     0
  9
$DIMTVP
 40
0.0
  9
$DIMTIX
 70
     0
  9
$DIMSOXD
 70
     0
  9
$DIMSAH
 70
     0
  9
$DIMBLK1
  1

  9
$DIMBLK2
  1

  9
$LUNITS
 70
     2
  9
$LUPREC
 70
     4
  9
$SKETCHINC
 40
0.1
  9
$FILLETRAD
 40
0.5
  9
$AUNITS
 70
     0
  9
$AUPREC
 70
     0
  9
$MENU
  1
.
  9
$ELEVATION
 40
0.0
  9
$THICKNESS
 40
0.0
  9
$LIMCHECK
 70
     0
  9
$CHAMFERA
 40
0.0
  9
$CHAMFERB
 40
0.0
  9
$SKPOLY
 70
     0
  9
$TDCREATE
 40
2459200.598562512
  9
$TDUPDATE
 40
2459200.598562697
  9
$TDINDWG
 40
0.0000000116
  9
$TDUSRTIMER
 40
0.0000000116
  9
$USRTIMER
 70
     1
  9
$ANGBASE
 50
0.0
  9
$ANGDIR
 70
     0
  9
$PDMODE
 70
     0
  9
$PDSIZE
 40
0.0
  9
$PLINEWID
 40
0.0
  9
$COORDS
 70
     1
  9
$SPLFRAME
 70
     0
  9
$SPLINETYPE
 70
     6
  9
$SPLINESEGS
 70
     8
  9
$ATTDIA
 70
     0
  9
$ATTREQ
 70
     1
  9
$HANDLING
 70
     1
  9
$HANDSEED
  5
530
  9
$SURFTAB1
 70
     6
  9
$SURFTAB2
 70
     6
  9
$SURFTYPE
 70
     6
  9
$SURFU
 70
     6
  9
$SURFV
 70
     6
  9
$UCSNAME
  2

  9
$UCSORG
 10
0.0
 20
0.0
 30
0.0
  9
$UCSXDIR
 10
1.0
 20
0.0
 30
0.0
  9
$UCSYDIR
 10
0.0
 20
1.0
 30
0.0
  9
$USERI1
 70
     0
  9
$USERI2
 70
     0
  9
$USERI3
 70
     0
  9
$USERI4
 70
     0
  9
$USERI5
 70
     0
  9
$USERR1
 40
0.0
  9
$USERR2
 40
0.0
  9
$USERR3
 40
0.0
  9
$USERR4
 40
0.0
  9
$USERR5
 40
0.0
  9
$WORLDVIEW
 70
     1
  0
ENDSEC
  0
SECTION
  2
TABLES
  0
TABLE
  2
VPORT
 70
     1
  0
VPORT
  2
*ACTIVE
 70
     0
 10
0.0
 20
0.0
 11
1.0
 21
1.0
 12
466.7125341880015
 22
369.2522458161422
 13
0.0
 23
0.0
 14
0.5
 24
0.5
 15
0.5
 25
0.5
 16
0.0
 26
0.0
 36
1.0
 17
0.0
 27
0.0
 37
0.0
 40
236.5097482752795
 41
1.6
 42
50.0
 43
0.0
 44
0.0
 50
0.0
 51
0.0
 71
     0
 72
   100
 73
     1
 74
     3
 75
     0
 76
     0
 77
     0
 78
     0
  0
ENDTAB
  0
TABLE
  2
LTYPE
 70
     2
  0
LTYPE
  2
CONTINUOUS
 70
     0
  3
Solid line
 72
    65
 73
     0
 40
0.0
  0
LTYPE
  2
CENTER
 70
     0
  3

 72
    65
 73
     0
 40
0.0
  0
ENDTAB
  0
TABLE
  2
LAYER
 70
     2
  0
LAYER
  2
0
 70
     0
 62
     7
  6
CONTINUOUS
  0
LAYER
  2
2
 70
     0
 62
     7
  6
CONTINUOUS
  0
ENDTAB
  0
TABLE
  2
STYLE
 70
     2
  0
STYLE
  2
STANDARD
 70
     0
 40
0.0
 41
1.0
 50
0.0
 71
     0
 42
0.2
  3
txt
  4

  0
STYLE
  2
ＭＳ_ゴシック
 70
     0
 40
0.0
 41
1.0
 50
0.0
 71
     0
 42
0.2
  3
ＭＳ ゴシック.shx
  4

  0
ENDTAB
  0
TABLE
  2
VIEW
 70
     0
  0
ENDTAB
  0
TABLE
  2
UCS
 70
     0
  0
ENDTAB
  0
ENDSEC
  0
SECTION
  2
BLOCKS
  0
BLOCK
  8
0
  2
D_FRAME_VIEW_4485
 70
     0
 10
0.0
 20
0.0
 30
0.0
  0
ARC
  5
71
  8
2
  6
CONTINUOUS
 62
     7
 10
294.58105812849
 20
405.731733714395
 30
0.0
 40
17.19999999999999
 50
96.67740532717085
 51
263.3225946728293
  0
LINE
  5
72
  8
2
  6
CONTINUOUS
 62
     7
 10
292.58105812849
 20
422.8150589176451
 30
0.0
 11
292.58105812849
 21
421.5686635579228
 31
0.0
  0
POLYLINE
  5
73
  8
2
  6
CONTINUOUS
 62
     7
 66
     1
 10
0.0
 20
0.0
 30
0.0
  0
VERTEX
  5
254
  8
2
  6
CONTINUOUS
 62
     7
 10
292.58105812849
 20
389.8948038708654
 30
0.0
  0
VERTEX
  5
255
  8
2
  6
CONTINUOUS
 62
     7
 10
295.7844779345628
 20
389.7793992157208
 30
0.0
  0
VERTEX
  5
256
  8
2
  6
CONTINUOUS
 62
     7
 10
298.9465248460398
 20
390.3053694421994
 30
0.0
  0
VERTEX
  5
257
  8
2
  6
CONTINUOUS
 62
     7
 10
301.9400665323083
 20
391.4515675456558
 30
0.0
  0
VERTEX
  5
258
  8
2
  6
CONTINUOUS
 62
     7
 10
304.6447455344128
 20
393.1719098213521
 30
0.0
  0
VERTEX
  5
259
  8
2
  6
CONTINUOUS
 62
     7
 10
306.9518183217468
 20
395.3972286923721
 30
0.0
  0
VERTEX
  5
25A
  8
2
  6
CONTINUOUS
 62
     7
 10
308.7685274025466
 20
398.0380536409311
 30
0.0
  0
VERTEX
  5
25B
  8
2
  6
CONTINUOUS
 62
     7
 10
310.0218307043971
 20
400.9882084337693
 30
0.0
  0
VERTEX
  5
25C
  8
2
  6
CONTINUOUS
 62
     7
 10
310.6613382823704
 20
404.1290800126421
 30
0.0
  0
VERTEX
  5
25D
  8
2
  6
CONTINUOUS
 62
     7
 10
310.6613382823704
 20
407.334387416148
 30
0.0
  0
VERTEX
  5
25E
  8
2
  6
CONTINUOUS
 62
     7
 10
310.0218307043971
 20
410.4752589950209
 30
0.0
  0
VERTEX
  5
25F
  8
2
  6
CONTINUOUS
 62
     7
 10
308.7685274025465
 20
413.425413787859
 30
0.0
  0
VERTEX
  5
260
  8
2
  6
CONTINUOUS
 62
     7
 10
306.9518183217466
 20
416.066238736418
 30
0.0
  0
VERTEX
  5
261
  8
2
  6
CONTINUOUS
 62
     7
 10
304.6447455344126
 20
418.2915576074381
 30
0.0
  0
VERTEX
  5
262
  8
2
  6
CONTINUOUS
 62
     7
 10
301.940066532308
 20
420.0118998831342
 30
0.0
  0
VERTEX
  5
263
  8
2
  6
CONTINUOUS
 62
     7
 10
298.9465248460396
 20
421.1580979865906
 30
0.0
  0
VERTEX
  5
264
  8
2
  6
CONTINUOUS
 62
     7
 10
295.7844779345625
 20
421.6840682130691
 30
0.0
  0
VERTEX
  5
265
  8
2
  6
CONTINUOUS
 62
     7
 10
292.5810581284898
 20
421.5686635579245
 30
0.0
  0
SEQEND
  5
510
  8
2
  6
CONTINUOUS
 62
     7
  0
LINE
  5
74
  8
2
  6
CONTINUOUS
 62
     7
 10
292.58105812849
 20
389.8948038708654
 30
0.0
 11
292.58105812849
 21
388.6484085111449
 31
0.0
  0
LINE
  5
75
  8
2
  6
CONTINUOUS
 62
     7
 10
292.58105812849
 20
460.815058917645
 30
0.0
 11
292.58105812849
 21
459.5686635579228
 31
0.0
  0
POLYLINE
  5
76
  8
2
  6
CONTINUOUS
 62
     7
 66
     1
 10
0.0
 20
0.0
 30
0.0
  0
VERTEX
  5
266
  8
2
  6
CONTINUOUS
 62
     7
 10
292.58105812849
 20
427.8948038708654
 30
0.0
  0
VERTEX
  5
267
  8
2
  6
CONTINUOUS
 62
     7
 10
295.7844779345627
 20
427.7793992157208
 30
0.0
  0
VERTEX
  5
268
  8
2
  6
CONTINUOUS
 62
     7
 10
298.9465248460398
 20
428.3053694421994
 30
0.0
  0
VERTEX
  5
269
  8
2
  6
CONTINUOUS
 62
     7
 10
301.9400665323082
 20
429.4515675456558
 30
0.0
  0
VERTEX
  5
26A
  8
2
  6
CONTINUOUS
 62
     7
 10
304.6447455344127
 20
431.1719098213521
 30
0.0
  0
VERTEX
  5
26B
  8
2
  6
CONTINUOUS
 62
     7
 10
306.9518183217467
 20
433.3972286923721
 30
0.0
  0
VERTEX
  5
26C
  8
2
  6
CONTINUOUS
 62
     7
 10
308.7685274025465
 20
436.0380536409311
 30
0.0
  0
VERTEX
  5
26D
  8
2
  6
CONTINUOUS
 62
     7
 10
310.0218307043971
 20
438.9882084337693
 30
0.0
  0
VERTEX
  5
26E
  8
2
  6
CONTINUOUS
 62
     7
 10
310.6613382823703
 20
442.1290800126421
 30
0.0
  0
VERTEX
  5
26F
  8
2
  6
CONTINUOUS
 62
     7
 10
310.6613382823703
 20
445.334387416148
 30
0.0
  0
VERTEX
  5
270
  8
2
  6
CONTINUOUS
 62
     7
 10
310.021830704397
 20
448.4752589950209
 30
0.0
  0
VERTEX
  5
271
  8
2
  6
CONTINUOUS
 62
     7
 10
308.7685274025464
 20
451.425413787859
 30
0.0
  0
VERTEX
  5
272
  8
2
  6
CONTINUOUS
 62
     7
 10
306.9518183217465
 20
454.066238736418
 30
0.0
  0
VERTEX
  5
273
  8
2
  6
CONTINUOUS
 62
     7
 10
304.6447455344125
 20
456.2915576074381
 30
0.0
  0
VERTEX
  5
274
  8
2
  6
CONTINUOUS
 62
     7
 10
301.940066532308
 20
458.0118998831342
 30
0.0
  0
VERTEX
  5
275
  8
2
  6
CONTINUOUS
 62
     7
 10
298.9465248460396
 20
459.1580979865906
 30
0.0
  0
VERTEX
  5
276
  8
2
  6
CONTINUOUS
 62
     7
 10
295.7844779345625
 20
459.6840682130691
 30
0.0
  0
VERTEX
  5
277
  8
2
  6
CONTINUOUS
 62
     7
 10
292.5810581284898
 20
459.5686635579245
 30
0.0
  0
SEQEND
  5
511
  8
2
  6
CONTINUOUS
 62
     7
  0
LINE
  5
77
  8
2
  6
CONTINUOUS
 62
     7
 10
292.58105812849
 20
427.8948038708654
 30
0.0
 11
292.58105812849
 21
426.6484085111449
 31
0.0
  0
ARC
  5
78
  8
2
  6
CONTINUOUS
 62
     7
 10
294.58105812849
 20
443.7317337143949
 30
0.0
 40
17.19999999999999
 50
96.67740532717076
 51
263.3225946728293
  0
ARC
  5
79
  8
2
  6
CONTINUOUS
 62
     7
 10
294.58105812849
 20
405.731733714395
 30
0.0
 40
17.20000000000003
 50
90.0
 51
91.61874018147451
  0
ARC
  5
7A
  8
2
  6
CONTINUOUS
 62
     7
 10
294.58105812849
 20
443.731733714395
 30
0.0
 40
17.19999999999999
 50
268.3812598185255
 51
270.0
  0
LINE
  5
7B
  8
2
  6
CONTINUOUS
 62
     7
 10
294.58105812849
 20
374.731733714395
 30
0.0
 11
294.58105812849
 21
388.481733714395
 31
0.0
  0
LINE
  5
7C
  8
2
  6
CONTINUOUS
 62
     7
 10
294.58105812849
 20
426.481733714395
 30
0.0
 11
294.58105812849
 21
426.0387972707178
 31
0.0
  0
LINE
  5
7D
  8
2
  6
CONTINUOUS
 62
     7
 10
294.58105812849
 20
426.0387972707178
 30
0.0
 11
294.58105812849
 21
423.4246701580722
 31
0.0
  0
LINE
  5
7E
  8
2
  6
CONTINUOUS
 62
     7
 10
294.58105812849
 20
423.4246701580722
 30
0.0
 11
294.58105812849
 21
422.981733714395
 31
0.0
  0
LINE
  5
7F
  8
2
  6
CONTINUOUS
 62
     7
 10
320.515348851679
 20
470.9731408559617
 30
0.0
 11
294.58105812849
 21
474.731733714395
 31
0.0
  0
ARC
  5
80
  8
2
  6
CONTINUOUS
 62
     7
 10
319.0810581284901
 20
461.0765348659582
 30
0.0
 40
10.0
 50
0.0
 51
81.75367918553154
  0
LINE
  5
81
  8
2
  6
CONTINUOUS
 62
     7
 10
329.08105812849
 20
453.881733714395
 30
0.0
 11
329.0810581284901
 21
461.0765348659582
 31
0.0
  0
ARC
  5
82
  8
2
  6
CONTINUOUS
 62
     7
 10
329.08105812849
 20
439.731733714395
 30
0.0
 40
14.15000000000001
 50
90.0
 51
270.0
  0
LINE
  5
83
  8
2
  6
CONTINUOUS
 62
     7
 10
329.08105812849
 20
423.881733714395
 30
0.0
 11
329.08105812849
 21
425.5817337143949
 31
0.0
  0
ARC
  5
84
  8
2
  6
CONTINUOUS
 62
     7
 10
329.08105812849
 20
409.731733714395
 30
0.0
 40
14.15000000000001
 50
90.0
 51
270.0
  0
LINE
  5
85
  8
2
  6
CONTINUOUS
 62
     7
 10
329.08105812849
 20
395.5817337143949
 30
0.0
 11
329.0810581284901
 21
388.3869325628318
 31
0.0
  0
ARC
  5
86
  8
2
  6
CONTINUOUS
 62
     7
 10
319.0810581284901
 20
388.3869325628318
 30
0.0
 40
10.0
 50
278.2463208144687
 51
0.0
  0
LINE
  5
87
  8
2
  6
CONTINUOUS
 62
     7
 10
320.5153488516791
 20
378.4903265728282
 30
0.0
 11
294.58105812849
 21
374.731733714395
 31
0.0
  0
LINE
  5
88
  8
2
  6
CONTINUOUS
 62
     7
 10
294.58105812849
 20
474.731733714395
 30
0.0
 11
294.58105812849
 21
460.981733714395
 31
0.0
  0
ARC
  5
89
  8
2
  6
CONTINUOUS
 62
     7
 10
294.58105812849
 20
405.731733714395
 30
0.0
 40
17.25
 50
270.0000000000002
 51
89.99999999999982
  0
ARC
  5
8A
  8
2
  6
CONTINUOUS
 62
     7
 10
294.58105812849
 20
443.731733714395
 30
0.0
 40
17.25
 50
270.0000000000002
 51
89.99999999999977
  0
POLYLINE
  5
8B
  8
2
  6
CONTINUOUS
 62
     7
 66
     1
 10
0.0
 20
0.0
 30
0.0
  0
VERTEX
  5
278
  8
2
  6
CONTINUOUS
 62
     7
 10
331.08105812849
 20
422.8629965590962
 30
0.0
  0
VERTEX
  5
279
  8
2
  6
CONTINUOUS
 62
     7
 10
328.4177755891701
 20
422.9687714969797
 30
0.0
  0
VERTEX
  5
27A
  8
2
  6
CONTINUOUS
 62
     7
 10
325.7871262235997
 20
422.5399060408553
 30
0.0
  0
VERTEX
  5
27B
  8
2
  6
CONTINUOUS
 62
     7
 10
323.2953612517578
 20
421.5937219510898
 30
0.0
  0
VERTEX
  5
27C
  8
2
  6
CONTINUOUS
 62
     7
 10
321.0431223903335
 20
420.168435348455
 30
0.0
  0
VERTEX
  5
27D
  8
2
  6
CONTINUOUS
 62
     7
 10
319.1213769608719
 20
418.3216131752925
 30
0.0
  0
VERTEX
  5
27E
  8
2
  6
CONTINUOUS
 62
     7
 10
317.6077437441355
 20
416.1278480822044
 30
0.0
  0
VERTEX
  5
27F
  8
2
  6
CONTINUOUS
 62
     7
 10
316.5633579784359
 20
413.6757456509678
 30
0.0
  0
VERTEX
  5
280
  8
2
  6
CONTINUOUS
 62
     7
 10
316.0304021238101
 20
411.0643456389298
 30
0.0
  0
VERTEX
  5
281
  8
2
  6
CONTINUOUS
 62
     7
 10
316.0304021238101
 20
408.39912178986
 30
0.0
  0
VERTEX
  5
282
  8
2
  6
CONTINUOUS
 62
     7
 10
316.563357978436
 20
405.787721777822
 30
0.0
  0
VERTEX
  5
283
  8
2
  6
CONTINUOUS
 62
     7
 10
317.6077437441356
 20
403.3356193465854
 30
0.0
  0
VERTEX
  5
284
  8
2
  6
CONTINUOUS
 62
     7
 10
319.121376960872
 20
401.1418542534973
 30
0.0
  0
VERTEX
  5
285
  8
2
  6
CONTINUOUS
 62
     7
 10
321.0431223903336
 20
399.2950320803349
 30
0.0
  0
VERTEX
  5
286
  8
2
  6
CONTINUOUS
 62
     7
 10
323.2953612517579
 20
397.8697454777
 30
0.0
  0
VERTEX
  5
287
  8
2
  6
CONTINUOUS
 62
     7
 10
325.7871262235999
 20
396.9235613879346
 30
0.0
  0
VERTEX
  5
288
  8
2
  6
CONTINUOUS
 62
     7
 10
328.4177755891703
 20
396.4946959318102
 30
0.0
  0
VERTEX
  5
289
  8
2
  6
CONTINUOUS
 62
     7
 10
331.0810581284902
 20
396.6004708696938
 30
0.0
  0
SEQEND
  5
512
  8
2
  6
CONTINUOUS
 62
     7
  0
LINE
  5
8C
  8
2
  6
CONTINUOUS
 62
     7
 10
331.08105812849
 20
422.8629965590962
 30
0.0
 11
331.08105812849
 21
423.588140174946
 31
0.0
  0
ARC
  5
8D
  8
2
  6
CONTINUOUS
 62
     7
 10
329.08105812849
 20
409.731733714395
 30
0.0
 40
14.0
 50
278.2132107017383
 51
81.7867892982618
  0
LINE
  5
8E
  8
2
  6
CONTINUOUS
 62
     7
 10
331.08105812849
 20
395.875327253844
 30
0.0
 11
331.08105812849
 21
396.6004708696952
 31
0.0
  0
POLYLINE
  5
8F
  8
2
  6
CONTINUOUS
 62
     7
 66
     1
 10
0.0
 20
0.0
 30
0.0
  0
VERTEX
  5
28A
  8
2
  6
CONTINUOUS
 62
     7
 10
331.0810581284881
 20
452.8629965590965
 30
0.0
  0
VERTEX
  5
28B
  8
2
  6
CONTINUOUS
 62
     7
 10
328.4177755891683
 20
452.9687714969796
 30
0.0
  0
VERTEX
  5
28C
  8
2
  6
CONTINUOUS
 62
     7
 10
325.7871262235981
 20
452.5399060408548
 30
0.0
  0
VERTEX
  5
28D
  8
2
  6
CONTINUOUS
 62
     7
 10
323.2953612517563
 20
451.5937219510892
 30
0.0
  0
VERTEX
  5
28E
  8
2
  6
CONTINUOUS
 62
     7
 10
321.0431223903323
 20
450.1684353484541
 30
0.0
  0
VERTEX
  5
28F
  8
2
  6
CONTINUOUS
 62
     7
 10
319.121376960871
 20
448.3216131752915
 30
0.0
  0
VERTEX
  5
290
  8
2
  6
CONTINUOUS
 62
     7
 10
317.6077437441349
 20
446.1278480822033
 30
0.0
  0
VERTEX
  5
291
  8
2
  6
CONTINUOUS
 62
     7
 10
316.5633579784356
 20
443.6757456509667
 30
0.0
  0
VERTEX
  5
292
  8
2
  6
CONTINUOUS
 62
     7
 10
316.03040212381
 20
441.0643456389287
 30
0.0
  0
VERTEX
  5
293
  8
2
  6
CONTINUOUS
 62
     7
 10
316.0304021238102
 20
438.3991217898591
 30
0.0
  0
VERTEX
  5
294
  8
2
  6
CONTINUOUS
 62
     7
 10
316.5633579784362
 20
435.7877217778213
 30
0.0
  0
VERTEX
  5
295
  8
2
  6
CONTINUOUS
 62
     7
 10
317.6077437441359
 20
433.3356193465848
 30
0.0
  0
VERTEX
  5
296
  8
2
  6
CONTINUOUS
 62
     7
 10
319.1213769608724
 20
431.1418542534969
 30
0.0
  0
VERTEX
  5
297
  8
2
  6
CONTINUOUS
 62
     7
 10
321.043122390334
 20
429.2950320803346
 30
0.0
  0
VERTEX
  5
298
  8
2
  6
CONTINUOUS
 62
     7
 10
323.2953612517582
 20
427.8697454776999
 30
0.0
  0
VERTEX
  5
299
  8
2
  6
CONTINUOUS
 62
     7
 10
325.7871262236001
 20
426.9235613879346
 30
0.0
  0
VERTEX
  5
29A
  8
2
  6
CONTINUOUS
 62
     7
 10
328.4177755891704
 20
426.4946959318102
 30
0.0
  0
VERTEX
  5
29B
  8
2
  6
CONTINUOUS
 62
     7
 10
331.0810581284902
 20
426.6004708696938
 30
0.0
  0
SEQEND
  5
513
  8
2
  6
CONTINUOUS
 62
     7
  0
LINE
  5
90
  8
2
  6
CONTINUOUS
 62
     7
 10
331.0810581284902
 20
452.8629965591106
 30
0.0
 11
331.08105812849
 21
453.588140174946
 31
0.0
  0
ARC
  5
91
  8
2
  6
CONTINUOUS
 62
     7
 10
329.08105812849
 20
439.731733714395
 30
0.0
 40
14.0
 50
278.2132107017382
 51
81.78678929826175
  0
LINE
  5
92
  8
2
  6
CONTINUOUS
 62
     7
 10
331.08105812849
 20
425.875327253844
 30
0.0
 11
331.08105812849
 21
426.6004708696952
 31
0.0
  0
LINE
  5
93
  8
2
  6
CONTINUOUS
 62
     7
 10
340.9140981652562
 20
362.5127976046691
 30
0.0
 11
273.08105812849
 21
361.9563474750079
 31
0.0
  0
LINE
  5
94
  8
2
  6
CONTINUOUS
 62
     7
 10
273.08105812849
 20
361.9563474750079
 30
0.0
 11
273.08105812849
 21
363.4562905652278
 31
0.0
  0
POLYLINE
  5
95
  8
2
  6
CONTINUOUS
 62
     7
 66
     1
 10
0.0
 20
0.0
 30
0.0
  0
VERTEX
  5
29C
  8
2
  6
CONTINUOUS
 62
     7
 10
294.58105812849
 20
364.6421123515105
 30
0.0
  0
VERTEX
  5
29D
  8
2
  6
CONTINUOUS
 62
     7
 10
294.5804621293163
 20
364.6177065333789
 30
0.0
  0
VERTEX
  5
29E
  8
2
  6
CONTINUOUS
 62
     7
 10
294.5786755526553
 20
364.5933588986371
 30
0.0
  0
VERTEX
  5
29F
  8
2
  6
CONTINUOUS
 62
     7
 10
294.5757026576999
 20
364.5691274919658
 30
0.0
  0
VERTEX
  5
2A0
  8
2
  6
CONTINUOUS
 62
     7
 10
294.5715505318217
 20
364.5450700809584
 30
0.0
  0
VERTEX
  5
2A1
  8
2
  6
CONTINUOUS
 62
     7
 10
294.5662290736752
 20
364.5212440184032
 30
0.0
  0
VERTEX
  5
2A2
  8
2
  6
CONTINUOUS
 62
     7
 10
294.559750969599
 20
364.4977061055546
 30
0.0
  0
VERTEX
  5
2A3
  8
2
  6
CONTINUOUS
 62
     7
 10
294.5521316633717
 20
364.4745124567192
 30
0.0
  0
VERTEX
  5
2A4
  8
2
  6
CONTINUOUS
 62
     7
 10
294.5433893193944
 20
364.4517183654789
 30
0.0
  0
VERTEX
  5
2A5
  8
2
  6
CONTINUOUS
 62
     7
 10
294.533544779386
 20
364.4293781728721
 30
0.0
  0
VERTEX
  5
2A6
  8
2
  6
CONTINUOUS
 62
     7
 10
294.5226215126974
 20
364.407545137844
 30
0.0
  0
VERTEX
  5
2A7
  8
2
  6
CONTINUOUS
 62
     7
 10
294.5106455603604
 20
364.3862713102779
 30
0.0
  0
VERTEX
  5
2A8
  8
2
  6
CONTINUOUS
 62
     7
 10
294.4976454730057
 20
364.3656074069085
 30
0.0
  0
VERTEX
  5
2A9
  8
2
  6
CONTINUOUS
 62
     7
 10
294.4836522427987
 20
364.3456026904132
 30
0.0
  0
VERTEX
  5
2AA
  8
2
  6
CONTINUOUS
 62
     7
 10
294.4686992295537
 20
364.3263048519698
 30
0.0
  0
VERTEX
  5
2AB
  8
2
  6
CONTINUOUS
 62
     7
 10
294.4528220812051
 20
364.3077598975616
 30
0.0
  0
VERTEX
  5
2AC
  8
2
  6
CONTINUOUS
 62
     7
 10
294.4360586488219
 20
364.2900120382985
 30
0.0
  0
VERTEX
  5
2AD
  8
2
  6
CONTINUOUS
 62
     7
 10
294.4184488963717
 20
364.2731035850182
 30
0.0
  0
VERTEX
  5
2AE
  8
2
  6
CONTINUOUS
 62
     7
 10
294.400034805446
 20
364.2570748474176
 30
0.0
  0
VERTEX
  5
2AF
  8
2
  6
CONTINUOUS
 62
     7
 10
294.3808602751768
 20
364.2419640379542
 30
0.0
  0
VERTEX
  5
2B0
  8
2
  6
CONTINUOUS
 62
     7
 10
294.3609710175807
 20
364.2278071807476
 30
0.0
  0
VERTEX
  5
2B1
  8
2
  6
CONTINUOUS
 62
     7
 10
294.3404144485823
 20
364.2146380256988
 30
0.0
  0
VERTEX
  5
2B2
  8
2
  6
CONTINUOUS
 62
     7
 10
294.3192395749739
 20
364.2024879680299
 30
0.0
  0
VERTEX
  5
2B3
  8
2
  6
CONTINUOUS
 62
     7
 10
294.2974968775845
 20
364.1913859734379
 30
0.0
  0
VERTEX
  5
2B4
  8
2
  6
CONTINUOUS
 62
     7
 10
294.2752381909326
 20
364.1813585090417
 30
0.0
  0
VERTEX
  5
2B5
  8
2
  6
CONTINUOUS
 62
     7
 10
294.2525165796536
 20
364.1724294802829
 30
0.0
  0
VERTEX
  5
2B6
  8
2
  6
CONTINUOUS
 62
     7
 10
294.2293862119938
 20
364.1646201739368
 30
0.0
  0
VERTEX
  5
2B7
  8
2
  6
CONTINUOUS
 62
     7
 10
294.2059022306731
 20
364.1579492073637
 30
0.0
  0
VERTEX
  5
2B8
  8
2
  6
CONTINUOUS
 62
     7
 10
294.1821206214254
 20
364.1524324841261
 30
0.0
  0
VERTEX
  5
2B9
  8
2
  6
CONTINUOUS
 62
     7
 10
294.1580980795287
 20
364.1480831560737
 30
0.0
  0
VERTEX
  5
2BA
  8
2
  6
CONTINUOUS
 62
     7
 10
294.1338918746433
 20
364.1449115919904
 30
0.0
  0
VERTEX
  5
2BB
  8
2
  6
CONTINUOUS
 62
     7
 10
294.1095597142817
 20
364.1429253528744
 30
0.0
  0
VERTEX
  5
2BC
  8
2
  6
CONTINUOUS
 62
     7
 10
294.0851596062338
 20
364.1421291739132
 30
0.0
  0
SEQEND
  5
514
  8
2
  6
CONTINUOUS
 62
     7
  0
LINE
  5
96
  8
2
  6
CONTINUOUS
 62
     7
 10
294.58105812849
 20
364.6421123515105
 30
0.0
 11
294.58105812849
 21
364.6650169771938
 31
0.0
  0
LINE
  5
97
  8
2
  6
CONTINUOUS
 62
     7
 10
294.58105812849
 20
364.6650169771938
 30
0.0
 11
294.58105812849
 21
374.731733714395
 31
0.0
  0
LINE
  5
98
  8
2
  6
CONTINUOUS
 62
     7
 10
294.58105812849
 20
374.731733714395
 30
0.0
 11
320.515348851679
 21
378.4903265728282
 31
0.0
  0
ARC
  5
99
  8
2
  6
CONTINUOUS
 62
     7
 10
319.08105812849
 20
388.3869325628318
 30
0.0
 40
10.0
 50
278.2463208144687
 51
359.9999999999997
  0
LINE
  5
9A
  8
2
  6
CONTINUOUS
 62
     7
 10
329.08105812849
 20
388.3869325628317
 30
0.0
 11
329.08105812849
 21
395.5817337143949
 31
0.0
  0
LINE
  5
9B
  8
2
  6
CONTINUOUS
 62
     7
 10
329.08105812849
 20
395.5817337143949
 30
0.0
 11
329.08105812849
 21
395.731733714395
 31
0.0
  0
ARC
  5
9C
  8
2
  6
CONTINUOUS
 62
     7
 10
329.08105812849
 20
409.731733714395
 30
0.0
 40
14.0
 50
270.0
 51
278.2132107017383
  0
ARC
  5
9D
  8
2
  6
CONTINUOUS
 62
     7
 10
329.08105812849
 20
409.731733714395
 30
0.0
 40
14.0
 50
278.2132107017382
 51
81.78678929826175
  0
ARC
  5
9E
  8
2
  6
CONTINUOUS
 62
     7
 10
329.08105812849
 20
409.731733714395
 30
0.0
 40
14.0
 50
81.7867892982618
 51
90.00000000000004
  0
LINE
  5
9F
  8
2
  6
CONTINUOUS
 62
     7
 10
329.08105812849
 20
425.731733714395
 30
0.0
 11
329.08105812849
 21
425.581733714395
 31
0.0
  0
LINE
  5
A0
  8
2
  6
CONTINUOUS
 62
     7
 10
329.08105812849
 20
425.581733714395
 30
0.0
 11
329.08105812849
 21
423.881733714395
 31
0.0
  0
LINE
  5
A1
  8
2
  6
CONTINUOUS
 62
     7
 10
329.08105812849
 20
423.881733714395
 30
0.0
 11
329.08105812849
 21
423.731733714395
 31
0.0
  0
ARC
  5
A2
  8
2
  6
CONTINUOUS
 62
     7
 10
329.08105812849
 20
439.731733714395
 30
0.0
 40
14.0
 50
81.78678929826175
 51
90.0
  0
ARC
  5
A3
  8
2
  6
CONTINUOUS
 62
     7
 10
329.08105812849
 20
439.731733714395
 30
0.0
 40
14.0
 50
278.2132107017382
 51
81.7867892982618
  0
ARC
  5
A4
  8
2
  6
CONTINUOUS
 62
     7
 10
329.08105812849
 20
439.731733714395
 30
0.0
 40
14.0
 50
270.0
 51
278.2132107017383
  0
LINE
  5
A5
  8
2
  6
CONTINUOUS
 62
     7
 10
329.08105812849
 20
461.0765348659583
 30
0.0
 11
329.08105812849
 21
453.881733714395
 31
0.0
  0
LINE
  5
A6
  8
2
  6
CONTINUOUS
 62
     7
 10
329.08105812849
 20
453.881733714395
 30
0.0
 11
329.08105812849
 21
453.731733714395
 31
0.0
  0
ARC
  5
A7
  8
2
  6
CONTINUOUS
 62
     7
 10
319.08105812849
 20
461.0765348659583
 30
0.0
 40
10.0
 50
0.0
 51
81.75367918553127
  0
LINE
  5
A8
  8
2
  6
CONTINUOUS
 62
     7
 10
294.58105812849
 20
474.7317337143949
 30
0.0
 11
320.515348851679
 21
470.9731408559618
 31
0.0
  0
LINE
  5
A9
  8
2
  6
CONTINUOUS
 62
     7
 10
294.58105812849
 20
484.8213550772794
 30
0.0
 11
294.58105812849
 21
484.7984504515962
 31
0.0
  0
LINE
  5
AA
  8
2
  6
CONTINUOUS
 62
     7
 10
294.58105812849
 20
484.7984504515962
 30
0.0
 11
294.58105812849
 21
474.7317337143949
 31
0.0
  0
POLYLINE
  5
AB
  8
2
  6
CONTINUOUS
 62
     7
 66
     1
 10
0.0
 20
0.0
 30
0.0
  0
VERTEX
  5
2BD
  8
2
  6
CONTINUOUS
 62
     7
 10
294.0851596062338
 20
485.3213382548768
 30
0.0
  0
VERTEX
  5
2BE
  8
2
  6
CONTINUOUS
 62
     7
 10
294.1095597142817
 20
485.3205420759156
 30
0.0
  0
VERTEX
  5
2BF
  8
2
  6
CONTINUOUS
 62
     7
 10
294.1338918746433
 20
485.3185558367995
 30
0.0
  0
VERTEX
  5
2C0
  8
2
  6
CONTINUOUS
 62
     7
 10
294.1580980795287
 20
485.3153842727162
 30
0.0
  0
VERTEX
  5
2C1
  8
2
  6
CONTINUOUS
 62
     7
 10
294.1821206214254
 20
485.3110349446639
 30
0.0
  0
VERTEX
  5
2C2
  8
2
  6
CONTINUOUS
 62
     7
 10
294.2059022306731
 20
485.3055182214263
 30
0.0
  0
VERTEX
  5
2C3
  8
2
  6
CONTINUOUS
 62
     7
 10
294.2293862119937
 20
485.2988472548532
 30
0.0
  0
VERTEX
  5
2C4
  8
2
  6
CONTINUOUS
 62
     7
 10
294.2525165796536
 20
485.291037948507
 30
0.0
  0
VERTEX
  5
2C5
  8
2
  6
CONTINUOUS
 62
     7
 10
294.2752381909326
 20
485.2821089197483
 30
0.0
  0
VERTEX
  5
2C6
  8
2
  6
CONTINUOUS
 62
     7
 10
294.2974968775845
 20
485.272081455352
 30
0.0
  0
VERTEX
  5
2C7
  8
2
  6
CONTINUOUS
 62
     7
 10
294.3192395749739
 20
485.2609794607602
 30
0.0
  0
VERTEX
  5
2C8
  8
2
  6
CONTINUOUS
 62
     7
 10
294.3404144485823
 20
485.2488294030912
 30
0.0
  0
VERTEX
  5
2C9
  8
2
  6
CONTINUOUS
 62
     7
 10
294.3609710175807
 20
485.2356602480423
 30
0.0
  0
VERTEX
  5
2CA
  8
2
  6
CONTINUOUS
 62
     7
 10
294.3808602751768
 20
485.2215033908358
 30
0.0
  0
VERTEX
  5
2CB
  8
2
  6
CONTINUOUS
 62
     7
 10
294.400034805446
 20
485.2063925813723
 30
0.0
  0
VERTEX
  5
2CC
  8
2
  6
CONTINUOUS
 62
     7
 10
294.4184488963717
 20
485.1903638437718
 30
0.0
  0
VERTEX
  5
2CD
  8
2
  6
CONTINUOUS
 62
     7
 10
294.4360586488219
 20
485.1734553904915
 30
0.0
  0
VERTEX
  5
2CE
  8
2
  6
CONTINUOUS
 62
     7
 10
294.4528220812051
 20
485.1557075312284
 30
0.0
  0
VERTEX
  5
2CF
  8
2
  6
CONTINUOUS
 62
     7
 10
294.4686992295537
 20
485.1371625768202
 30
0.0
  0
VERTEX
  5
2D0
  8
2
  6
CONTINUOUS
 62
     7
 10
294.4836522427986
 20
485.1178647383768
 30
0.0
  0
VERTEX
  5
2D1
  8
2
  6
CONTINUOUS
 62
     7
 10
294.4976454730057
 20
485.0978600218814
 30
0.0
  0
VERTEX
  5
2D2
  8
2
  6
CONTINUOUS
 62
     7
 10
294.5106455603604
 20
485.0771961185121
 30
0.0
  0
VERTEX
  5
2D3
  8
2
  6
CONTINUOUS
 62
     7
 10
294.5226215126974
 20
485.0559222909461
 30
0.0
  0
VERTEX
  5
2D4
  8
2
  6
CONTINUOUS
 62
     7
 10
294.5335447793859
 20
485.0340892559179
 30
0.0
  0
VERTEX
  5
2D5
  8
2
  6
CONTINUOUS
 62
     7
 10
294.5433893193944
 20
485.0117490633111
 30
0.0
  0
VERTEX
  5
2D6
  8
2
  6
CONTINUOUS
 62
     7
 10
294.5521316633717
 20
484.9889549720708
 30
0.0
  0
VERTEX
  5
2D7
  8
2
  6
CONTINUOUS
 62
     7
 10
294.559750969599
 20
484.9657613232353
 30
0.0
  0
VERTEX
  5
2D8
  8
2
  6
CONTINUOUS
 62
     7
 10
294.5662290736752
 20
484.9422234103868
 30
0.0
  0
VERTEX
  5
2D9
  8
2
  6
CONTINUOUS
 62
     7
 10
294.5715505318217
 20
484.9183973478316
 30
0.0
  0
VERTEX
  5
2DA
  8
2
  6
CONTINUOUS
 62
     7
 10
294.5757026576999
 20
484.8943399368242
 30
0.0
  0
VERTEX
  5
2DB
  8
2
  6
CONTINUOUS
 62
     7
 10
294.5786755526553
 20
484.8701085301529
 30
0.0
  0
VERTEX
  5
2DC
  8
2
  6
CONTINUOUS
 62
     7
 10
294.5804621293163
 20
484.845760895411
 30
0.0
  0
VERTEX
  5
2DD
  8
2
  6
CONTINUOUS
 62
     7
 10
294.58105812849
 20
484.8213550772794
 30
0.0
  0
SEQEND
  5
515
  8
2
  6
CONTINUOUS
 62
     7
  0
LINE
  5
AC
  8
2
  6
CONTINUOUS
 62
     7
 10
273.08105812849
 20
485.4936397614047
 30
0.0
 11
294.0851596062338
 21
485.3213382548768
 31
0.0
  0
LINE
  5
AD
  8
2
  6
CONTINUOUS
 62
     7
 10
273.08105812849
 20
486.0071768635621
 30
0.0
 11
273.08105812849
 21
485.4936397614047
 31
0.0
  0
LINE
  5
AE
  8
2
  6
CONTINUOUS
 62
     7
 10
273.08105812849
 20
363.4562905652278
 30
0.0
 11
273.08105812849
 21
363.9698276673853
 31
0.0
  0
LINE
  5
AF
  8
2
  6
CONTINUOUS
 62
     7
 10
273.08105812849
 20
363.9698276673853
 30
0.0
 11
294.0851596062338
 21
364.1421291739132
 31
0.0
  0
LINE
  5
B0
  8
2
  6
CONTINUOUS
 62
     7
 10
273.08105812849
 20
487.507119953782
 30
0.0
 11
340.9140981652562
 21
486.9506698241209
 31
0.0
  0
LINE
  5
B1
  8
2
  6
CONTINUOUS
 62
     7
 10
273.08105812849
 20
486.0071768635621
 30
0.0
 11
273.08105812849
 21
487.507119953782
 31
0.0
  0
ARC
  5
B2
  8
2
  6
CONTINUOUS
 62
     7
 10
340.8894892987938
 20
365.512696670253
 30
0.0
 40
2.999999999999909
 50
270.4699999999987
 51
345.6253561591536
  0
ARC
  5
B3
  8
2
  6
CONTINUOUS
 62
     7
 10
340.8894892987936
 20
483.9507707585368
 30
0.0
 40
3.000000000000121
 50
14.37464384084865
 51
89.52999999999923
  0
LINE
  5
B4
  8
2
  6
CONTINUOUS
 62
     7
 10
349.9866428025911
 20
388.9249321680701
 30
0.0
 11
350.0019409296011
 21
389.0302175875427
 31
0.0
  0
LINE
  5
B5
  8
2
  6
CONTINUOUS
 62
     7
 10
349.9866427416985
 20
388.9249317150915
 30
0.0
 11
343.7955686696064
 21
364.7679130167425
 31
0.0
  0
LINE
  5
B6
  8
2
  6
CONTINUOUS
 62
     7
 10
350.0019409296011
 20
460.4332498412475
 30
0.0
 11
349.9866428025911
 21
460.5385352607202
 31
0.0
  0
LINE
  5
B7
  8
2
  6
CONTINUOUS
 62
     7
 10
343.7955686696064
 20
484.6955544120475
 30
0.0
 11
349.9866427416985
 21
460.5385357136985
 31
0.0
  0
ARC
  5
B8
  8
2
  6
CONTINUOUS
 62
     7
 10
98.0810581284901
 20
398.5317337143949
 30
0.0
 40
252.1000000000001
 50
357.8400406937437
 51
0.0
  0
ARC
  5
B9
  8
2
  6
CONTINUOUS
 62
     7
 10
98.0810581284901
 20
450.931733714395
 30
0.0
 40
252.0999999999999
 50
359.9999999999999
 51
2.159959306256269
  0
LINE
  5
BA
  8
2
  6
CONTINUOUS
 62
     7
 10
350.18105812849
 20
450.931733714395
 30
0.0
 11
350.18105812849
 21
398.531733714395
 31
0.0
  0
LINE
  5
BB
  8
2
  6
CONTINUOUS
 62
     7
 10
278.68105812849
 20
485.4477016650962
 30
0.0
 11
278.68105812849
 21
485.4328632547667
 31
0.0
  0
LINE
  5
BC
  8
2
  6
CONTINUOUS
 62
     7
 10
282.68105812849
 20
485.4148887391617
 30
0.0
 11
282.68105812849
 21
485.3979557836037
 31
0.0
  0
LINE
  5
BD
  8
2
  6
CONTINUOUS
 62
     7
 10
282.68105812849
 20
364.0485786896282
 30
0.0
 11
282.68105812849
 21
364.0655116451863
 31
0.0
  0
LINE
  5
BE
  8
2
  6
CONTINUOUS
 62
     7
 10
278.68105812849
 20
364.0157657636937
 30
0.0
 11
278.68105812849
 21
364.0306041740232
 31
0.0
  0
LINE
  5
BF
  8
2
  6
CONTINUOUS
 62
     7
 10
273.08105812849
 20
485.4936397614047
 30
0.0
 11
273.08105812849
 21
485.481733714395
 31
0.0
  0
LINE
  5
C0
  8
2
  6
CONTINUOUS
 62
     7
 10
273.08105812849
 20
363.981733714395
 30
0.0
 11
273.08105812849
 21
363.9698276673852
 31
0.0
  0
LINE
  5
C1
  8
2
  6
CONTINUOUS
 62
     7
 10
273.08105812849
 20
485.4817337143949
 30
0.0
 11
273.08105812849
 21
363.981733714395
 31
0.0
  0
LINE
  5
C2
  8
2
  6
CONTINUOUS
 62
     7
 10
294.0854213962392
 20
485.2984314131283
 30
0.0
 11
273.08105812849
 21
485.4817337143949
 31
0.0
  0
POLYLINE
  5
C3
  8
2
  6
CONTINUOUS
 62
     7
 66
     1
 10
0.0
 20
0.0
 30
0.0
  0
VERTEX
  5
2DE
  8
2
  6
CONTINUOUS
 62
     7
 10
294.58105812849
 20
484.7984504515962
 30
0.0
  0
VERTEX
  5
2DF
  8
2
  6
CONTINUOUS
 62
     7
 10
294.5804625285888
 20
484.8228480982456
 30
0.0
  0
VERTEX
  5
2E0
  8
2
  6
CONTINUOUS
 62
     7
 10
294.5786771478419
 20
484.8471876199514
 30
0.0
  0
VERTEX
  5
2E1
  8
2
  6
CONTINUOUS
 62
     7
 10
294.5757062397398
 20
484.8714110302465
 30
0.0
  0
VERTEX
  5
2E2
  8
2
  6
CONTINUOUS
 62
     7
 10
294.5715568821729
 20
484.8954606192878
 30
0.0
  0
VERTEX
  5
2E3
  8
2
  6
CONTINUOUS
 62
     7
 10
294.5662389605688
 20
484.9192790913439
 30
0.0
  0
VERTEX
  5
2E4
  8
2
  6
CONTINUOUS
 62
     7
 10
294.5597651443421
 20
484.9428097012964
 30
0.0
  0
VERTEX
  5
2E5
  8
2
  6
CONTINUOUS
 62
     7
 10
294.5521508567098
 20
484.9659963898295
 30
0.0
  0
VERTEX
  5
2E6
  8
2
  6
CONTINUOUS
 62
     7
 10
294.5434142379478
 20
484.9887839169854
 30
0.0
  0
VERTEX
  5
2E7
  8
2
  6
CONTINUOUS
 62
     7
 10
294.5335761021732
 20
485.0111179937686
 30
0.0
  0
VERTEX
  5
2E8
  8
2
  6
CONTINUOUS
 62
     7
 10
294.5226598877568
 20
485.0329454114833
 30
0.0
  0
VERTEX
  5
2E9
  8
2
  6
CONTINUOUS
 62
     7
 10
294.5106916014836
 20
485.0542141684981
 30
0.0
  0
VERTEX
  5
2EA
  8
2
  6
CONTINUOUS
 62
     7
 10
294.4976997565939
 20
485.0748735941348
 30
0.0
  0
VERTEX
  5
2EB
  8
2
  6
CONTINUOUS
 62
     7
 10
294.4837153048539
 20
485.0948744693859
 30
0.0
  0
VERTEX
  5
2EC
  8
2
  6
CONTINUOUS
 62
     7
 10
294.4687715628161
 20
485.114169144174
 30
0.0
  0
VERTEX
  5
2ED
  8
2
  6
CONTINUOUS
 62
     7
 10
294.4529041324453
 20
485.1327116508737
 30
0.0
  0
VERTEX
  5
2EE
  8
2
  6
CONTINUOUS
 62
     7
 10
294.4361508163016
 20
485.1504578138241
 30
0.0
  0
VERTEX
  5
2EF
  8
2
  6
CONTINUOUS
 62
     7
 10
294.4185515274788
 20
485.1673653545738
 30
0.0
  0
VERTEX
  5
2F0
  8
2
  6
CONTINUOUS
 62
     7
 10
294.4001481945154
 20
485.1833939926044
 30
0.0
  0
VERTEX
  5
2F1
  8
2
  6
CONTINUOUS
 62
     7
 10
294.3809846615047
 20
485.1985055412948
 30
0.0
  0
VERTEX
  5
2F2
  8
2
  6
CONTINUOUS
 62
     7
 10
294.3611065836402
 20
485.2126639988975
 30
0.0
  0
VERTEX
  5
2F3
  8
2
  6
CONTINUOUS
 62
     7
 10
294.3405613184467
 20
485.2258356343087
 30
0.0
  0
VERTEX
  5
2F4
  8
2
  6
CONTINUOUS
 62
     7
 10
294.319397812956
 20
485.2379890674295
 30
0.0
  0
VERTEX
  5
2F5
  8
2
  6
CONTINUOUS
 62
     7
 10
294.2976664870951
 20
485.2490953439254
 30
0.0
  0
VERTEX
  5
2F6
  8
2
  6
CONTINUOUS
 62
     7
 10
294.2754191135663
 20
485.2591280042078
 30
0.0
  0
VERTEX
  5
2F7
  8
2
  6
CONTINUOUS
 62
     7
 10
294.2527086945033
 20
485.2680631464708
 30
0.0
  0
VERTEX
  5
2F8
  8
2
  6
CONTINUOUS
 62
     7
 10
294.2295893351996
 20
485.2758794836349
 30
0.0
  0
VERTEX
  5
2F9
  8
2
  6
CONTINUOUS
 62
     7
 10
294.2061161152077
 20
485.2825583940616
 30
0.0
  0
VERTEX
  5
2FA
  8
2
  6
CONTINUOUS
 62
     7
 10
294.1823449571177
 20
485.2880839659174
 30
0.0
  0
VERTEX
  5
2FB
  8
2
  6
CONTINUOUS
 62
     7
 10
294.1583324933271
 20
485.292443035082
 30
0.0
  0
VERTEX
  5
2FC
  8
2
  6
CONTINUOUS
 62
     7
 10
294.1341359311202
 20
485.2956252165108
 30
0.0
  0
VERTEX
  5
2FD
  8
2
  6
CONTINUOUS
 62
     7
 10
294.1098129163774
 20
485.297622928976
 30
0.0
  0
VERTEX
  5
2FE
  8
2
  6
CONTINUOUS
 62
     7
 10
294.0854213962392
 20
485.2984314131282
 30
0.0
  0
SEQEND
  5
516
  8
2
  6
CONTINUOUS
 62
     7
  0
LINE
  5
C4
  8
2
  6
CONTINUOUS
 62
     7
 10
294.58105812849
 20
484.7984504515962
 30
0.0
 11
294.58105812849
 21
474.7317337143949
 31
0.0
  0
LINE
  5
C5
  8
2
  6
CONTINUOUS
 62
     7
 10
294.58105812849
 20
474.7317337143949
 30
0.0
 11
294.58105812849
 21
460.981733714395
 31
0.0
  0
LINE
  5
C6
  8
2
  6
CONTINUOUS
 62
     7
 10
294.58105812849
 20
460.981733714395
 30
0.0
 11
294.58105812849
 21
460.931733714395
 31
0.0
  0
ARC
  5
C7
  8
2
  6
CONTINUOUS
 62
     7
 10
294.58105812849
 20
443.731733714395
 30
0.0
 40
17.19999999999999
 50
90.0
 51
96.6774053271708
  0
ARC
  5
C8
  8
2
  6
CONTINUOUS
 62
     7
 10
294.58105812849
 20
443.731733714395
 30
0.0
 40
17.19999999999999
 50
96.67740532717079
 51
263.3225946728293
  0
ARC
  5
C9
  8
2
  6
CONTINUOUS
 62
     7
 10
294.58105812849
 20
443.731733714395
 30
0.0
 40
17.19999999999999
 50
263.3225946728293
 51
268.3812598185255
  0
POLYLINE
  5
CA
  8
2
  6
CONTINUOUS
 62
     7
 66
     1
 10
0.0
 20
0.0
 30
0.0
  0
VERTEX
  5
2FF
  8
2
  6
CONTINUOUS
 62
     7
 10
294.58105812849
 20
426.0387972707178
 30
0.0
  0
VERTEX
  5
300
  8
2
  6
CONTINUOUS
 62
     7
 10
294.5804773225294
 20
426.0628901872095
 30
0.0
  0
VERTEX
  5
301
  8
2
  6
CONTINUOUS
 62
     7
 10
294.5787362539897
 20
426.0869271304632
 30
0.0
  0
VERTEX
  5
302
  8
2
  6
CONTINUOUS
 62
     7
 10
294.5758389677629
 20
426.1108522572791
 30
0.0
  0
VERTEX
  5
303
  8
2
  6
CONTINUOUS
 62
     7
 10
294.5717921948936
 20
426.1346099842323
 30
0.0
  0
VERTEX
  5
304
  8
2
  6
CONTINUOUS
 62
     7
 10
294.5666053369408
 20
426.158145116805
 30
0.0
  0
VERTEX
  5
305
  8
2
  6
CONTINUOUS
 62
     7
 10
294.5602904441366
 20
426.1814029776162
 30
0.0
  0
VERTEX
  5
306
  8
2
  6
CONTINUOUS
 62
     7
 10
294.5528621873906
 20
426.204329533449
 30
0.0
  0
VERTEX
  5
307
  8
2
  6
CONTINUOUS
 62
     7
 10
294.544337824206
 20
426.2268715207824
 30
0.0
  0
VERTEX
  5
308
  8
2
  6
CONTINUOUS
 62
     7
 10
294.5347371585864
 20
426.2489765695337
 30
0.0
  0
VERTEX
  5
309
  8
2
  6
CONTINUOUS
 62
     7
 10
294.5240824950274
 20
426.2705933247269
 30
0.0
  0
VERTEX
  5
30A
  8
2
  6
CONTINUOUS
 62
     7
 10
294.5123985866971
 20
426.2916715658008
 30
0.0
  0
VERTEX
  5
30B
  8
2
  6
CONTINUOUS
 62
     7
 10
294.49971257793
 20
426.3121623232832
 30
0.0
  0
VERTEX
  5
30C
  8
2
  6
CONTINUOUS
 62
     7
 10
294.4860539411642
 20
426.3320179925578
 30
0.0
  0
VERTEX
  5
30D
  8
2
  6
CONTINUOUS
 62
     7
 10
294.4714544084703
 20
426.3511924444602
 30
0.0
  0
VERTEX
  5
30E
  8
2
  6
CONTINUOUS
 62
     7
 10
294.4559478978308
 20
426.3696411324467
 30
0.0
  0
VERTEX
  5
30F
  8
2
  6
CONTINUOUS
 62
     7
 10
294.4395704343407
 20
426.3873211960855
 30
0.0
  0
VERTEX
  5
310
  8
2
  6
CONTINUOUS
 62
     7
 10
294.4223600665138
 20
426.4041915606311
 30
0.0
  0
VERTEX
  5
311
  8
2
  6
CONTINUOUS
 62
     7
 10
294.404356777887
 20
426.4202130324505
 30
0.0
  0
VERTEX
  5
312
  8
2
  6
CONTINUOUS
 62
     7
 10
294.3856023941296
 20
426.4353483900783
 30
0.0
  0
VERTEX
  5
313
  8
2
  6
CONTINUOUS
 62
     7
 10
294.3661404858732
 20
426.4495624706908
 30
0.0
  0
VERTEX
  5
314
  8
2
  6
CONTINUOUS
 62
     7
 10
294.346016267487
 20
426.462822251797
 30
0.0
  0
VERTEX
  5
315
  8
2
  6
CONTINUOUS
 62
     7
 10
294.3252764920351
 20
426.4750969279574
 30
0.0
  0
VERTEX
  5
316
  8
2
  6
CONTINUOUS
 62
     7
 10
294.3039693426581
 20
426.4863579823515
 30
0.0
  0
VERTEX
  5
317
  8
2
  6
CONTINUOUS
 62
     7
 10
294.2821443206336
 20
426.4965792530294
 30
0.0
  0
VERTEX
  5
318
  8
2
  6
CONTINUOUS
 62
     7
 10
294.2598521303732
 20
426.5057369936913
 30
0.0
  0
VERTEX
  5
319
  8
2
  6
CONTINUOUS
 62
     7
 10
294.2371445616246
 20
426.5138099288558
 30
0.0
  0
VERTEX
  5
31A
  8
2
  6
CONTINUOUS
 62
     7
 10
294.2140743691531
 20
426.5207793032873
 30
0.0
  0
VERTEX
  5
31B
  8
2
  6
CONTINUOUS
 62
     7
 10
294.1906951501799
 20
426.5266289255691
 30
0.0
  0
VERTEX
  5
31C
  8
2
  6
CONTINUOUS
 62
     7
 10
294.1670612198638
 20
426.5313452057192
 30
0.0
  0
VERTEX
  5
31D
  8
2
  6
CONTINUOUS
 62
     7
 10
294.1432274851153
 20
426.5349171867631
 30
0.0
  0
VERTEX
  5
31E
  8
2
  6
CONTINUOUS
 62
     7
 10
294.1192493170352
 20
426.5373365701893
 30
0.0
  0
VERTEX
  5
31F
  8
2
  6
CONTINUOUS
 62
     7
 10
294.0951824222753
 20
426.5385977352284
 30
0.0
  0
SEQEND
  5
517
  8
2
  6
CONTINUOUS
 62
     7
  0
LINE
  5
CB
  8
2
  6
CONTINUOUS
 62
     7
 10
294.58105812849
 20
426.0387972707178
 30
0.0
 11
294.58105812849
 21
423.4246701580722
 31
0.0
  0
POLYLINE
  5
CC
  8
2
  6
CONTINUOUS
 62
     7
 66
     1
 10
0.0
 20
0.0
 30
0.0
  0
VERTEX
  5
320
  8
2
  6
CONTINUOUS
 62
     7
 10
294.0951824222753
 20
422.9248696935615
 30
0.0
  0
VERTEX
  5
321
  8
2
  6
CONTINUOUS
 62
     7
 10
294.1192493170352
 20
422.9261308586007
 30
0.0
  0
VERTEX
  5
322
  8
2
  6
CONTINUOUS
 62
     7
 10
294.1432274851153
 20
422.9285502420269
 30
0.0
  0
VERTEX
  5
323
  8
2
  6
CONTINUOUS
 62
     7
 10
294.1670612198638
 20
422.9321222230707
 30
0.0
  0
VERTEX
  5
324
  8
2
  6
CONTINUOUS
 62
     7
 10
294.1906951501799
 20
422.9368385032208
 30
0.0
  0
VERTEX
  5
325
  8
2
  6
CONTINUOUS
 62
     7
 10
294.2140743691531
 20
422.9426881255026
 30
0.0
  0
VERTEX
  5
326
  8
2
  6
CONTINUOUS
 62
     7
 10
294.2371445616246
 20
422.9496574999342
 30
0.0
  0
VERTEX
  5
327
  8
2
  6
CONTINUOUS
 62
     7
 10
294.2598521303732
 20
422.9577304350987
 30
0.0
  0
VERTEX
  5
328
  8
2
  6
CONTINUOUS
 62
     7
 10
294.2821443206336
 20
422.9668881757606
 30
0.0
  0
VERTEX
  5
329
  8
2
  6
CONTINUOUS
 62
     7
 10
294.3039693426581
 20
422.9771094464384
 30
0.0
  0
VERTEX
  5
32A
  8
2
  6
CONTINUOUS
 62
     7
 10
294.3252764920351
 20
422.9883705008326
 30
0.0
  0
VERTEX
  5
32B
  8
2
  6
CONTINUOUS
 62
     7
 10
294.346016267487
 20
423.0006451769929
 30
0.0
  0
VERTEX
  5
32C
  8
2
  6
CONTINUOUS
 62
     7
 10
294.3661404858732
 20
423.0139049580992
 30
0.0
  0
VERTEX
  5
32D
  8
2
  6
CONTINUOUS
 62
     7
 10
294.3856023941296
 20
423.0281190387117
 30
0.0
  0
VERTEX
  5
32E
  8
2
  6
CONTINUOUS
 62
     7
 10
294.404356777887
 20
423.0432543963395
 30
0.0
  0
VERTEX
  5
32F
  8
2
  6
CONTINUOUS
 62
     7
 10
294.4223600665138
 20
423.0592758681589
 30
0.0
  0
VERTEX
  5
330
  8
2
  6
CONTINUOUS
 62
     7
 10
294.4395704343407
 20
423.0761462327045
 30
0.0
  0
VERTEX
  5
331
  8
2
  6
CONTINUOUS
 62
     7
 10
294.4559478978307
 20
423.0938262963433
 30
0.0
  0
VERTEX
  5
332
  8
2
  6
CONTINUOUS
 62
     7
 10
294.4714544084703
 20
423.1122749843298
 30
0.0
  0
VERTEX
  5
333
  8
2
  6
CONTINUOUS
 62
     7
 10
294.4860539411642
 20
423.1314494362322
 30
0.0
  0
VERTEX
  5
334
  8
2
  6
CONTINUOUS
 62
     7
 10
294.49971257793
 20
423.1513051055068
 30
0.0
  0
VERTEX
  5
335
  8
2
  6
CONTINUOUS
 62
     7
 10
294.5123985866971
 20
423.1717958629891
 30
0.0
  0
VERTEX
  5
336
  8
2
  6
CONTINUOUS
 62
     7
 10
294.5240824950274
 20
423.192874104063
 30
0.0
  0
VERTEX
  5
337
  8
2
  6
CONTINUOUS
 62
     7
 10
294.5347371585864
 20
423.2144908592562
 30
0.0
  0
VERTEX
  5
338
  8
2
  6
CONTINUOUS
 62
     7
 10
294.544337824206
 20
423.2365959080076
 30
0.0
  0
VERTEX
  5
339
  8
2
  6
CONTINUOUS
 62
     7
 10
294.5528621873906
 20
423.2591378953409
 30
0.0
  0
VERTEX
  5
33A
  8
2
  6
CONTINUOUS
 62
     7
 10
294.5602904441366
 20
423.2820644511737
 30
0.0
  0
VERTEX
  5
33B
  8
2
  6
CONTINUOUS
 62
     7
 10
294.5666053369408
 20
423.3053223119849
 30
0.0
  0
VERTEX
  5
33C
  8
2
  6
CONTINUOUS
 62
     7
 10
294.5717921948936
 20
423.3288574445577
 30
0.0
  0
VERTEX
  5
33D
  8
2
  6
CONTINUOUS
 62
     7
 10
294.5758389677629
 20
423.3526151715108
 30
0.0
  0
VERTEX
  5
33E
  8
2
  6
CONTINUOUS
 62
     7
 10
294.5787362539897
 20
423.3765402983268
 30
0.0
  0
VERTEX
  5
33F
  8
2
  6
CONTINUOUS
 62
     7
 10
294.5804773225294
 20
423.4005772415805
 30
0.0
  0
VERTEX
  5
340
  8
2
  6
CONTINUOUS
 62
     7
 10
294.58105812849
 20
423.4246701580722
 30
0.0
  0
SEQEND
  5
518
  8
2
  6
CONTINUOUS
 62
     7
  0
ARC
  5
CD
  8
2
  6
CONTINUOUS
 62
     7
 10
294.58105812849
 20
405.731733714395
 30
0.0
 40
17.19999999999999
 50
91.61874018147464
 51
96.6774053271708
  0
ARC
  5
CE
  8
2
  6
CONTINUOUS
 62
     7
 10
294.58105812849
 20
405.731733714395
 30
0.0
 40
17.19999999999999
 50
96.67740532717079
 51
263.3225946728291
  0
ARC
  5
CF
  8
2
  6
CONTINUOUS
 62
     7
 10
294.58105812849
 20
405.731733714395
 30
0.0
 40
17.19999999999999
 50
263.3225946728291
 51
269.9999999999998
  0
LINE
  5
D0
  8
2
  6
CONTINUOUS
 62
     7
 10
294.58105812849
 20
388.531733714395
 30
0.0
 11
294.58105812849
 21
388.481733714395
 31
0.0
  0
LINE
  5
D1
  8
2
  6
CONTINUOUS
 62
     7
 10
294.58105812849
 20
388.481733714395
 30
0.0
 11
294.58105812849
 21
374.731733714395
 31
0.0
  0
LINE
  5
D2
  8
2
  6
CONTINUOUS
 62
     7
 10
294.58105812849
 20
374.731733714395
 30
0.0
 11
294.58105812849
 21
364.6650169771938
 31
0.0
  0
POLYLINE
  5
D3
  8
2
  6
CONTINUOUS
 62
     7
 66
     1
 10
0.0
 20
0.0
 30
0.0
  0
VERTEX
  5
341
  8
2
  6
CONTINUOUS
 62
     7
 10
294.0854213962392
 20
364.1650360156617
 30
0.0
  0
VERTEX
  5
342
  8
2
  6
CONTINUOUS
 62
     7
 10
294.1098129163774
 20
364.1658444998139
 30
0.0
  0
VERTEX
  5
343
  8
2
  6
CONTINUOUS
 62
     7
 10
294.1341359311202
 20
364.1678422122791
 30
0.0
  0
VERTEX
  5
344
  8
2
  6
CONTINUOUS
 62
     7
 10
294.1583324933271
 20
364.171024393708
 30
0.0
  0
VERTEX
  5
345
  8
2
  6
CONTINUOUS
 62
     7
 10
294.1823449571177
 20
364.1753834628726
 30
0.0
  0
VERTEX
  5
346
  8
2
  6
CONTINUOUS
 62
     7
 10
294.2061161152077
 20
364.1809090347284
 30
0.0
  0
VERTEX
  5
347
  8
2
  6
CONTINUOUS
 62
     7
 10
294.2295893351996
 20
364.1875879451551
 30
0.0
  0
VERTEX
  5
348
  8
2
  6
CONTINUOUS
 62
     7
 10
294.2527086945033
 20
364.1954042823192
 30
0.0
  0
VERTEX
  5
349
  8
2
  6
CONTINUOUS
 62
     7
 10
294.2754191135663
 20
364.2043394245822
 30
0.0
  0
VERTEX
  5
34A
  8
2
  6
CONTINUOUS
 62
     7
 10
294.2976664870951
 20
364.2143720848646
 30
0.0
  0
VERTEX
  5
34B
  8
2
  6
CONTINUOUS
 62
     7
 10
294.319397812956
 20
364.2254783613605
 30
0.0
  0
VERTEX
  5
34C
  8
2
  6
CONTINUOUS
 62
     7
 10
294.3405613184467
 20
364.2376317944812
 30
0.0
  0
VERTEX
  5
34D
  8
2
  6
CONTINUOUS
 62
     7
 10
294.3611065836402
 20
364.2508034298924
 30
0.0
  0
VERTEX
  5
34E
  8
2
  6
CONTINUOUS
 62
     7
 10
294.3809846615047
 20
364.2649618874951
 30
0.0
  0
VERTEX
  5
34F
  8
2
  6
CONTINUOUS
 62
     7
 10
294.4001481945154
 20
364.2800734361855
 30
0.0
  0
VERTEX
  5
350
  8
2
  6
CONTINUOUS
 62
     7
 10
294.4185515274788
 20
364.2961020742162
 30
0.0
  0
VERTEX
  5
351
  8
2
  6
CONTINUOUS
 62
     7
 10
294.4361508163017
 20
364.3130096149658
 30
0.0
  0
VERTEX
  5
352
  8
2
  6
CONTINUOUS
 62
     7
 10
294.4529041324454
 20
364.3307557779163
 30
0.0
  0
VERTEX
  5
353
  8
2
  6
CONTINUOUS
 62
     7
 10
294.4687715628161
 20
364.3492982846159
 30
0.0
  0
VERTEX
  5
354
  8
2
  6
CONTINUOUS
 62
     7
 10
294.483715304854
 20
364.3685929594041
 30
0.0
  0
VERTEX
  5
355
  8
2
  6
CONTINUOUS
 62
     7
 10
294.4976997565939
 20
364.3885938346551
 30
0.0
  0
VERTEX
  5
356
  8
2
  6
CONTINUOUS
 62
     7
 10
294.5106916014836
 20
364.4092532602918
 30
0.0
  0
VERTEX
  5
357
  8
2
  6
CONTINUOUS
 62
     7
 10
294.5226598877568
 20
364.4305220173067
 30
0.0
  0
VERTEX
  5
358
  8
2
  6
CONTINUOUS
 62
     7
 10
294.5335761021732
 20
364.4523494350213
 30
0.0
  0
VERTEX
  5
359
  8
2
  6
CONTINUOUS
 62
     7
 10
294.5434142379478
 20
364.4746835118046
 30
0.0
  0
VERTEX
  5
35A
  8
2
  6
CONTINUOUS
 62
     7
 10
294.5521508567098
 20
364.4974710389604
 30
0.0
  0
VERTEX
  5
35B
  8
2
  6
CONTINUOUS
 62
     7
 10
294.5597651443421
 20
364.5206577274935
 30
0.0
  0
VERTEX
  5
35C
  8
2
  6
CONTINUOUS
 62
     7
 10
294.5662389605689
 20
364.544188337446
 30
0.0
  0
VERTEX
  5
35D
  8
2
  6
CONTINUOUS
 62
     7
 10
294.5715568821729
 20
364.5680068095022
 30
0.0
  0
VERTEX
  5
35E
  8
2
  6
CONTINUOUS
 62
     7
 10
294.5757062397398
 20
364.5920563985435
 30
0.0
  0
VERTEX
  5
35F
  8
2
  6
CONTINUOUS
 62
     7
 10
294.5786771478419
 20
364.6162798088386
 30
0.0
  0
VERTEX
  5
360
  8
2
  6
CONTINUOUS
 62
     7
 10
294.5804625285888
 20
364.6406193305443
 30
0.0
  0
VERTEX
  5
361
  8
2
  6
CONTINUOUS
 62
     7
 10
294.58105812849
 20
364.6650169771938
 30
0.0
  0
SEQEND
  5
519
  8
2
  6
CONTINUOUS
 62
     7
  0
LINE
  5
D4
  8
2
  6
CONTINUOUS
 62
     7
 10
294.0854213962392
 20
364.1650360156617
 30
0.0
 11
273.08105812849
 21
363.981733714395
 31
0.0
  0
ENDBLK
  8
0
  0
BLOCK
  8
0
  2
D_FRAME_VIEW_4919
 70
     0
 10
0.0
 20
0.0
 30
0.0
  0
ARC
  5
DA
  8
2
  6
CONTINUOUS
 62
     7
 10
638.844010247513
 20
405.731733714395
 30
0.0
 40
17.19999999999999
 50
91.61874018147464
 51
270.0
  0
LINE
  5
DB
  8
2
  6
CONTINUOUS
 62
     7
 10
638.844010247513
 20
388.531733714395
 30
0.0
 11
638.844010247513
 21
388.0317342521946
 31
0.0
  0
LINE
  5
DC
  8
2
  6
CONTINUOUS
 62
     7
 10
628.808232905854
 20
459.5133917919787
 30
0.0
 11
628.656166077876
 21
460.0058798110476
 31
0.0
  0
ARC
  5
DD
  8
2
  6
CONTINUOUS
 62
     7
 10
638.844010247513
 20
443.731733714395
 30
0.0
 40
19.2
 50
90.0
 51
122.0471446630398
  0
ARC
  5
DE
  8
2
  6
CONTINUOUS
 62
     7
 10
638.844010247513
 20
405.731733714395
 30
0.0
 40
19.2
 50
237.9528553369603
 51
270.0
  0
LINE
  5
DF
  8
2
  6
CONTINUOUS
 62
     7
 10
628.656166077876
 20
389.4575876177424
 30
0.0
 11
628.808232905854
 21
389.9500756368113
 31
0.0
  0
ARC
  5
E0
  8
2
  6
CONTINUOUS
 62
     7
 10
638.844010247513
 20
443.731733714395
 30
0.0
 40
17.2
 50
90.0
 51
268.3812598185254
  0
LINE
  5
E1
  8
2
  6
CONTINUOUS
 62
     7
 10
638.844010247513
 20
461.4317331765953
 30
0.0
 11
638.844010247513
 21
460.931733714395
 31
0.0
  0
LINE
  5
E2
  8
2
  6
CONTINUOUS
 62
     7
 10
615.7101494971873
 20
431.2338442333579
 30
0.0
 11
624.2053504130841
 21
431.3079807286069
 31
0.0
  0
LINE
  5
E3
  8
2
  6
CONTINUOUS
 62
     7
 10
624.2053595246489
 20
431.30796999264
 30
0.0
 11
625.3149548311893
 21
430.8176831381316
 31
0.0
  0
ARC
  5
E4
  8
2
  6
CONTINUOUS
 62
     7
 10
638.844010247513
 20
443.731733714395
 30
0.0
 40
19.2
 50
208.9526794428319
 51
220.3211321546533
  0
LINE
  5
E5
  8
2
  6
CONTINUOUS
 62
     7
 10
624.205359524649
 20
418.1554974361499
 30
0.0
 11
625.3149548311893
 21
418.6457842906584
 31
0.0
  0
ARC
  5
E6
  8
2
  6
CONTINUOUS
 62
     7
 10
638.844010247513
 20
405.731733714395
 30
0.0
 40
19.2
 50
139.6788678453467
 51
151.0473205571683
  0
LINE
  5
E7
  8
2
  6
CONTINUOUS
 62
     7
 10
624.2053504130841
 20
418.1554867001831
 30
0.0
 11
615.7101494971873
 21
418.2296231954321
 31
0.0
  0
ARC
  5
E8
  8
2
  6
CONTINUOUS
 62
     7
 10
638.344010247513
 20
426.0387972707178
 30
0.0
 40
0.500000000000056
 50
0.0
 51
88.38125981852569
  0
ARC
  5
E9
  8
2
  6
CONTINUOUS
 62
     7
 10
638.344010247513
 20
423.4246701580722
 30
0.0
 40
0.4999999999999927
 50
271.6187401814743
 51
359.9999999999999
  0
LINE
  5
EA
  8
2
  6
CONTINUOUS
 62
     7
 10
604.8178422693915
 20
458.7565661984148
 30
0.0
 11
628.656166077876
 21
460.0058798110476
 31
0.0
  0
LINE
  5
EB
  8
2
  6
CONTINUOUS
 62
     7
 10
628.656166077876
 20
389.4575876177424
 30
0.0
 11
604.8178422693913
 21
390.7069012303751
 31
0.0
  0
POLYLINE
  5
EC
  8
2
  6
CONTINUOUS
 62
     7
 66
     1
 10
0.0
 20
0.0
 30
0.0
  0
VERTEX
  5
362
  8
2
  6
CONTINUOUS
 62
     7
 10
629.3909993721983
 20
425.9503154770427
 30
0.0
  0
VERTEX
  5
363
  8
2
  6
CONTINUOUS
 62
     7
 10
629.4162909735503
 20
425.9511766245636
 30
0.0
  0
VERTEX
  5
364
  8
2
  6
CONTINUOUS
 62
     7
 10
629.4415066101981
 20
425.9533163307245
 30
0.0
  0
VERTEX
  5
365
  8
2
  6
CONTINUOUS
 62
     7
 10
629.4665816890933
 20
425.9567291143971
 30
0.0
  0
VERTEX
  5
366
  8
2
  6
CONTINUOUS
 62
     7
 10
629.4914519772447
 20
425.9614062333036
 30
0.0
  0
VERTEX
  5
367
  8
2
  6
CONTINUOUS
 62
     7
 10
629.5160537662582
 20
425.9673357064113
 30
0.0
  0
VERTEX
  5
368
  8
2
  6
CONTINUOUS
 62
     7
 10
629.5403240355342
 20
425.9745023446237
 30
0.0
  0
VERTEX
  5
369
  8
2
  6
CONTINUOUS
 62
     7
 10
629.5642006137032
 20
425.9828877896888
 30
0.0
  0
VERTEX
  5
36A
  8
2
  6
CONTINUOUS
 62
     7
 10
629.5876223378851
 20
425.992470561227
 30
0.0
  0
VERTEX
  5
36B
  8
2
  6
CONTINUOUS
 62
     7
 10
629.6105292103657
 20
426.0032261117547
 30
0.0
  0
VERTEX
  5
36C
  8
2
  6
CONTINUOUS
 62
     7
 10
629.6328625522893
 20
426.0151268895665
 30
0.0
  0
VERTEX
  5
36D
  8
2
  6
CONTINUOUS
 62
     7
 10
629.6545651539708
 20
426.0281424093124
 30
0.0
  0
VERTEX
  5
36E
  8
2
  6
CONTINUOUS
 62
     7
 10
629.6755814214464
 20
426.0422393300894
 30
0.0
  0
VERTEX
  5
36F
  8
2
  6
CONTINUOUS
 62
     7
 10
629.6958575188843
 20
426.0573815408491
 30
0.0
  0
VERTEX
  5
370
  8
2
  6
CONTINUOUS
 62
     7
 10
629.715341506492
 20
426.0735302529001
 30
0.0
  0
VERTEX
  5
371
  8
2
  6
CONTINUOUS
 62
     7
 10
629.7339834735667
 20
426.0906440992703
 30
0.0
  0
VERTEX
  5
372
  8
2
  6
CONTINUOUS
 62
     7
 10
629.7517356663479
 20
426.1086792406743
 30
0.0
  0
VERTEX
  5
373
  8
2
  6
CONTINUOUS
 62
     7
 10
629.7685526103446
 20
426.1275894778121
 30
0.0
  0
VERTEX
  5
374
  8
2
  6
CONTINUOUS
 62
     7
 10
629.7843912268241
 20
426.1473263697158
 30
0.0
  0
VERTEX
  5
375
  8
2
  6
CONTINUOUS
 62
     7
 10
629.7992109431638
 20
426.1678393578358
 30
0.0
  0
VERTEX
  5
376
  8
2
  6
CONTINUOUS
 62
     7
 10
629.8129737967824
 20
426.1890758955543
 30
0.0
  0
VERTEX
  5
377
  8
2
  6
CONTINUOUS
 62
     7
 10
629.825644532387
 20
426.2109815827894
 30
0.0
  0
VERTEX
  5
378
  8
2
  6
CONTINUOUS
 62
     7
 10
629.8371906922827
 20
426.2335003053478
 30
0.0
  0
VERTEX
  5
379
  8
2
  6
CONTINUOUS
 62
     7
 10
629.8475826995182
 20
426.2565743786687
 30
0.0
  0
VERTEX
  5
37A
  8
2
  6
CONTINUOUS
 62
     7
 10
629.8567939336504
 20
426.2801446955899
 30
0.0
  0
VERTEX
  5
37B
  8
2
  6
CONTINUOUS
 62
     7
 10
629.8648007989359
 20
426.3041508777582
 30
0.0
  0
VERTEX
  5
37C
  8
2
  6
CONTINUOUS
 62
     7
 10
629.8715827847749
 20
426.3285314302966
 30
0.0
  0
VERTEX
  5
37D
  8
2
  6
CONTINUOUS
 62
     7
 10
629.8771225182516
 20
426.3532238993309
 30
0.0
  0
VERTEX
  5
37E
  8
2
  6
CONTINUOUS
 62
     7
 10
629.8814058086366
 20
426.3781650319732
 30
0.0
  0
VERTEX
  5
37F
  8
2
  6
CONTINUOUS
 62
     7
 10
629.8844216837389
 20
426.4032909383522
 30
0.0
  0
VERTEX
  5
380
  8
2
  6
CONTINUOUS
 62
     7
 10
629.8861624180125
 20
426.4285372552754
 30
0.0
  0
VERTEX
  5
381
  8
2
  6
CONTINUOUS
 62
     7
 10
629.8866235523459
 20
426.4538393111035
 30
0.0
  0
VERTEX
  5
382
  8
2
  6
CONTINUOUS
 62
     7
 10
629.8858039054851
 20
426.4791322914148
 30
0.0
  0
VERTEX
  5
383
  8
2
  6
CONTINUOUS
 62
     7
 10
629.8837055770593
 20
426.5043514050355
 30
0.0
  0
VERTEX
  5
384
  8
2
  6
CONTINUOUS
 62
     7
 10
629.8803339422028
 20
426.5294320500112
 30
0.0
  0
VERTEX
  5
385
  8
2
  6
CONTINUOUS
 62
     7
 10
629.8756976377853
 20
426.554309979092
 30
0.0
  0
VERTEX
  5
386
  8
2
  6
CONTINUOUS
 62
     7
 10
629.8698085402881
 20
426.5789214643106
 30
0.0
  0
VERTEX
  5
387
  8
2
  6
CONTINUOUS
 62
     7
 10
629.8626817353803
 20
426.6032034602296
 30
0.0
  0
VERTEX
  5
388
  8
2
  6
CONTINUOUS
 62
     7
 10
629.854335479276
 20
426.6270937654399
 30
0.0
  0
VERTEX
  5
389
  8
2
  6
CONTINUOUS
 62
     7
 10
629.8447911519673
 20
426.6505311818979
 30
0.0
  0
VERTEX
  5
38A
  8
2
  6
CONTINUOUS
 62
     7
 10
629.834073202458
 20
426.6734556716919
 30
0.0
  0
VERTEX
  5
38B
  8
2
  6
CONTINUOUS
 62
     7
 10
629.8222090861337
 20
426.6958085108369
 30
0.0
  0
VERTEX
  5
38C
  8
2
  6
CONTINUOUS
 62
     7
 10
629.8092291944314
 20
426.7175324397035
 30
0.0
  0
VERTEX
  5
38D
  8
2
  6
CONTINUOUS
 62
     7
 10
629.7951667769884
 20
426.7385718096954
 30
0.0
  0
VERTEX
  5
38E
  8
2
  6
CONTINUOUS
 62
     7
 10
629.7800578564683
 20
426.7588727258008
 30
0.0
  0
VERTEX
  5
38F
  8
2
  6
CONTINUOUS
 62
     7
 10
629.7639411362856
 20
426.7783831846511
 30
0.0
  0
VERTEX
  5
390
  8
2
  6
CONTINUOUS
 62
     7
 10
629.7468579014607
 20
426.7970532077341
 30
0.0
  0
VERTEX
  5
391
  8
2
  6
CONTINUOUS
 62
     7
 10
629.7288519128641
 20
426.8148349694202
 30
0.0
  0
VERTEX
  5
392
  8
2
  6
CONTINUOUS
 62
     7
 10
629.7099692951169
 20
426.8316829194739
 30
0.0
  0
VERTEX
  5
393
  8
2
  6
CONTINUOUS
 62
     7
 10
629.6902584184368
 20
426.8475538997367
 30
0.0
  0
VERTEX
  5
394
  8
2
  6
CONTINUOUS
 62
     7
 10
629.6697697747315
 20
426.8624072546818
 30
0.0
  0
VERTEX
  5
395
  8
2
  6
CONTINUOUS
 62
     7
 10
629.6485558482581
 20
426.8762049355586
 30
0.0
  0
VERTEX
  5
396
  8
2
  6
CONTINUOUS
 62
     7
 10
629.6266709811767
 20
426.8889115978595
 30
0.0
  0
SEQEND
  5
51A
  8
2
  6
CONTINUOUS
 62
     7
  0
POLYLINE
  5
ED
  8
2
  6
CONTINUOUS
 62
     7
 66
     1
 10
0.0
 20
0.0
 30
0.0
  0
VERTEX
  5
397
  8
2
  6
CONTINUOUS
 62
     7
 10
629.6266709811766
 20
422.5745558309304
 30
0.0
  0
VERTEX
  5
398
  8
2
  6
CONTINUOUS
 62
     7
 10
629.6485558482581
 20
422.5872624932313
 30
0.0
  0
VERTEX
  5
399
  8
2
  6
CONTINUOUS
 62
     7
 10
629.6697697747315
 20
422.6010601741081
 30
0.0
  0
VERTEX
  5
39A
  8
2
  6
CONTINUOUS
 62
     7
 10
629.6902584184368
 20
422.6159135290533
 30
0.0
  0
VERTEX
  5
39B
  8
2
  6
CONTINUOUS
 62
     7
 10
629.7099692951168
 20
422.631784509316
 30
0.0
  0
VERTEX
  5
39C
  8
2
  6
CONTINUOUS
 62
     7
 10
629.728851912864
 20
422.6486324593697
 30
0.0
  0
VERTEX
  5
39D
  8
2
  6
CONTINUOUS
 62
     7
 10
629.7468579014605
 20
422.6664142210558
 30
0.0
  0
VERTEX
  5
39E
  8
2
  6
CONTINUOUS
 62
     7
 10
629.7639411362856
 20
422.6850842441388
 30
0.0
  0
VERTEX
  5
39F
  8
2
  6
CONTINUOUS
 62
     7
 10
629.7800578564683
 20
422.7045947029891
 30
0.0
  0
VERTEX
  5
3A0
  8
2
  6
CONTINUOUS
 62
     7
 10
629.7951667769884
 20
422.7248956190946
 30
0.0
  0
VERTEX
  5
3A1
  8
2
  6
CONTINUOUS
 62
     7
 10
629.8092291944314
 20
422.7459349890864
 30
0.0
  0
VERTEX
  5
3A2
  8
2
  6
CONTINUOUS
 62
     7
 10
629.8222090861336
 20
422.767658917953
 30
0.0
  0
VERTEX
  5
3A3
  8
2
  6
CONTINUOUS
 62
     7
 10
629.834073202458
 20
422.790011757098
 30
0.0
  0
VERTEX
  5
3A4
  8
2
  6
CONTINUOUS
 62
     7
 10
629.8447911519672
 20
422.8129362468921
 30
0.0
  0
VERTEX
  5
3A5
  8
2
  6
CONTINUOUS
 62
     7
 10
629.854335479276
 20
422.8363736633501
 30
0.0
  0
VERTEX
  5
3A6
  8
2
  6
CONTINUOUS
 62
     7
 10
629.8626817353803
 20
422.8602639685603
 30
0.0
  0
VERTEX
  5
3A7
  8
2
  6
CONTINUOUS
 62
     7
 10
629.8698085402881
 20
422.8845459644793
 30
0.0
  0
VERTEX
  5
3A8
  8
2
  6
CONTINUOUS
 62
     7
 10
629.8756976377853
 20
422.909157449698
 30
0.0
  0
VERTEX
  5
3A9
  8
2
  6
CONTINUOUS
 62
     7
 10
629.8803339422028
 20
422.9340353787788
 30
0.0
  0
VERTEX
  5
3AA
  8
2
  6
CONTINUOUS
 62
     7
 10
629.8837055770593
 20
422.9591160237544
 30
0.0
  0
VERTEX
  5
3AB
  8
2
  6
CONTINUOUS
 62
     7
 10
629.8858039054851
 20
422.9843351373752
 30
0.0
  0
VERTEX
  5
3AC
  8
2
  6
CONTINUOUS
 62
     7
 10
629.8866235523458
 20
423.0096281176864
 30
0.0
  0
VERTEX
  5
3AD
  8
2
  6
CONTINUOUS
 62
     7
 10
629.8861624180124
 20
423.0349301735145
 30
0.0
  0
VERTEX
  5
3AE
  8
2
  6
CONTINUOUS
 62
     7
 10
629.8844216837389
 20
423.0601764904378
 30
0.0
  0
VERTEX
  5
3AF
  8
2
  6
CONTINUOUS
 62
     7
 10
629.8814058086366
 20
423.0853023968168
 30
0.0
  0
VERTEX
  5
3B0
  8
2
  6
CONTINUOUS
 62
     7
 10
629.8771225182516
 20
423.110243529459
 30
0.0
  0
VERTEX
  5
3B1
  8
2
  6
CONTINUOUS
 62
     7
 10
629.8715827847749
 20
423.1349359984933
 30
0.0
  0
VERTEX
  5
3B2
  8
2
  6
CONTINUOUS
 62
     7
 10
629.8648007989359
 20
423.1593165510318
 30
0.0
  0
VERTEX
  5
3B3
  8
2
  6
CONTINUOUS
 62
     7
 10
629.8567939336504
 20
423.1833227332001
 30
0.0
  0
VERTEX
  5
3B4
  8
2
  6
CONTINUOUS
 62
     7
 10
629.8475826995182
 20
423.2068930501213
 30
0.0
  0
VERTEX
  5
3B5
  8
2
  6
CONTINUOUS
 62
     7
 10
629.8371906922827
 20
423.2299671234421
 30
0.0
  0
VERTEX
  5
3B6
  8
2
  6
CONTINUOUS
 62
     7
 10
629.825644532387
 20
423.2524858460005
 30
0.0
  0
VERTEX
  5
3B7
  8
2
  6
CONTINUOUS
 62
     7
 10
629.8129737967824
 20
423.2743915332356
 30
0.0
  0
VERTEX
  5
3B8
  8
2
  6
CONTINUOUS
 62
     7
 10
629.7992109431638
 20
423.2956280709541
 30
0.0
  0
VERTEX
  5
3B9
  8
2
  6
CONTINUOUS
 62
     7
 10
629.7843912268241
 20
423.3161410590742
 30
0.0
  0
VERTEX
  5
3BA
  8
2
  6
CONTINUOUS
 62
     7
 10
629.7685526103446
 20
423.3358779509778
 30
0.0
  0
VERTEX
  5
3BB
  8
2
  6
CONTINUOUS
 62
     7
 10
629.7517356663479
 20
423.3547881881157
 30
0.0
  0
VERTEX
  5
3BC
  8
2
  6
CONTINUOUS
 62
     7
 10
629.7339834735667
 20
423.3728233295196
 30
0.0
  0
VERTEX
  5
3BD
  8
2
  6
CONTINUOUS
 62
     7
 10
629.715341506492
 20
423.3899371758899
 30
0.0
  0
VERTEX
  5
3BE
  8
2
  6
CONTINUOUS
 62
     7
 10
629.6958575188843
 20
423.4060858879409
 30
0.0
  0
VERTEX
  5
3BF
  8
2
  6
CONTINUOUS
 62
     7
 10
629.6755814214464
 20
423.4212280987005
 30
0.0
  0
VERTEX
  5
3C0
  8
2
  6
CONTINUOUS
 62
     7
 10
629.6545651539708
 20
423.4353250194775
 30
0.0
  0
VERTEX
  5
3C1
  8
2
  6
CONTINUOUS
 62
     7
 10
629.6328625522893
 20
423.4483405392234
 30
0.0
  0
VERTEX
  5
3C2
  8
2
  6
CONTINUOUS
 62
     7
 10
629.6105292103657
 20
423.4602413170353
 30
0.0
  0
VERTEX
  5
3C3
  8
2
  6
CONTINUOUS
 62
     7
 10
629.5876223378851
 20
423.470996867563
 30
0.0
  0
VERTEX
  5
3C4
  8
2
  6
CONTINUOUS
 62
     7
 10
629.5642006137032
 20
423.4805796391011
 30
0.0
  0
VERTEX
  5
3C5
  8
2
  6
CONTINUOUS
 62
     7
 10
629.5403240355342
 20
423.4889650841664
 30
0.0
  0
VERTEX
  5
3C6
  8
2
  6
CONTINUOUS
 62
     7
 10
629.5160537662582
 20
423.4961317223787
 30
0.0
  0
VERTEX
  5
3C7
  8
2
  6
CONTINUOUS
 62
     7
 10
629.4914519772447
 20
423.5020611954864
 30
0.0
  0
VERTEX
  5
3C8
  8
2
  6
CONTINUOUS
 62
     7
 10
629.4665816890933
 20
423.5067383143929
 30
0.0
  0
VERTEX
  5
3C9
  8
2
  6
CONTINUOUS
 62
     7
 10
629.4415066101981
 20
423.5101510980655
 30
0.0
  0
VERTEX
  5
3CA
  8
2
  6
CONTINUOUS
 62
     7
 10
629.4162909735503
 20
423.5122908042264
 30
0.0
  0
VERTEX
  5
3CB
  8
2
  6
CONTINUOUS
 62
     7
 10
629.3909993721983
 20
423.5131519517473
 30
0.0
  0
SEQEND
  5
51B
  8
2
  6
CONTINUOUS
 62
     7
  0
ARC
  5
EE
  8
2
  6
CONTINUOUS
 62
     7
 10
638.844010247513
 20
405.731733714395
 30
0.0
 40
19.2
 50
118.6899578206684
 51
130.4459148207455
  0
LINE
  5
EF
  8
2
  6
CONTINUOUS
 62
     7
 10
626.3883949601633
 20
420.3432924202122
 30
0.0
 11
626.3883728060305
 21
420.3430406918981
 31
0.0
  0
LINE
  5
F0
  8
2
  6
CONTINUOUS
 62
     7
 10
626.3883727914432
 20
420.3430407313877
 30
0.0
 11
626.5714743989339
 21
419.84491696719
 31
0.0
  0
ARC
  5
F1
  8
2
  6
CONTINUOUS
 62
     7
 10
638.844010247513
 20
443.731733714395
 30
0.0
 40
19.2
 50
229.5540851792546
 51
241.3100421793317
  0
LINE
  5
F2
  8
2
  6
CONTINUOUS
 62
     7
 10
626.3883949601633
 20
429.1201750085778
 30
0.0
 11
626.571474398934
 21
429.6185504615999
 31
0.0
  0
LINE
  5
F3
  8
2
  6
CONTINUOUS
 62
     7
 10
626.3884042030801
 20
429.1201671294635
 30
0.0
 11
614.8294346216203
 21
429.2210407287983
 31
0.0
  0
LINE
  5
F4
  8
2
  6
CONTINUOUS
 62
     7
 10
614.8294346216203
 20
420.2424266999917
 30
0.0
 11
626.3884042030801
 21
420.3433002993265
 31
0.0
  0
LINE
  5
F5
  8
2
  6
CONTINUOUS
 62
     7
 10
604.8396469797638
 20
425.7360590706296
 30
0.0
 11
629.3909993721983
 21
425.9503154770427
 31
0.0
  0
LINE
  5
F6
  8
2
  6
CONTINUOUS
 62
     7
 10
629.3909993721983
 20
423.5131519517473
 30
0.0
 11
604.8396469797638
 21
423.7274083581604
 31
0.0
  0
LINE
  5
F7
  8
2
  6
CONTINUOUS
 62
     7
 10
621.6104990884019
 20
434.6951699534507
 30
0.0
 11
618.1216908942279
 21
434.7256163213085
 31
0.0
  0
POLYLINE
  5
F8
  8
2
  6
CONTINUOUS
 62
     7
 66
     1
 10
0.0
 20
0.0
 30
0.0
  0
VERTEX
  5
3CC
  8
2
  6
CONTINUOUS
 62
     7
 10
622.043629841057
 20
434.4372612603837
 30
0.0
  0
VERTEX
  5
3CD
  8
2
  6
CONTINUOUS
 62
     7
 10
621.9831239057348
 20
434.523649094897
 30
0.0
  0
VERTEX
  5
3CE
  8
2
  6
CONTINUOUS
 62
     7
 10
621.9058418134916
 20
434.5954221854676
 30
0.0
  0
VERTEX
  5
3CF
  8
2
  6
CONTINUOUS
 62
     7
 10
621.81522251088
 20
434.6493867285222
 30
0.0
  0
VERTEX
  5
3D0
  8
2
  6
CONTINUOUS
 62
     7
 10
621.7152984319248
 20
434.6831413762982
 30
0.0
  0
VERTEX
  5
3D1
  8
2
  6
CONTINUOUS
 62
     7
 10
621.61051606037
 20
434.6951840935086
 30
0.0
  0
SEQEND
  5
51C
  8
2
  6
CONTINUOUS
 62
     7
  0
LINE
  5
F9
  8
2
  6
CONTINUOUS
 62
     7
 10
618.1216908942279
 20
414.7378511074814
 30
0.0
 11
621.6104990884019
 21
414.7682974753393
 31
0.0
  0
POLYLINE
  5
FA
  8
2
  6
CONTINUOUS
 62
     7
 66
     1
 10
0.0
 20
0.0
 30
0.0
  0
VERTEX
  5
3D2
  8
2
  6
CONTINUOUS
 62
     7
 10
621.6105160603702
 20
414.7682833352814
 30
0.0
  0
VERTEX
  5
3D3
  8
2
  6
CONTINUOUS
 62
     7
 10
621.7152984319252
 20
414.7803260524919
 30
0.0
  0
VERTEX
  5
3D4
  8
2
  6
CONTINUOUS
 62
     7
 10
621.8152225108805
 20
414.8140807002681
 30
0.0
  0
VERTEX
  5
3D5
  8
2
  6
CONTINUOUS
 62
     7
 10
621.9058418134924
 20
414.868045243323
 30
0.0
  0
VERTEX
  5
3D6
  8
2
  6
CONTINUOUS
 62
     7
 10
621.9831239057356
 20
414.939818333894
 30
0.0
  0
VERTEX
  5
3D7
  8
2
  6
CONTINUOUS
 62
     7
 10
622.0436298410579
 20
415.0262061684077
 30
0.0
  0
SEQEND
  5
51D
  8
2
  6
CONTINUOUS
 62
     7
  0
ARC
  5
FB
  8
2
  6
CONTINUOUS
 62
     7
 10
604.344010247513
 20
409.731733714395
 30
0.0
 40
13.99999999999998
 50
271.9761082857153
 51
18.10552161677913
  0
ARC
  5
FC
  8
2
  6
CONTINUOUS
 62
     7
 10
604.344010247513
 20
439.731733714395
 30
0.0
 40
13.99999999999999
 50
341.8944783832206
 51
88.02389171428422
  0
ARC
  5
FD
  8
2
  6
CONTINUOUS
 62
     7
 10
618.1260541619771
 20
414.2378701459494
 30
0.0
 40
0.500000000000056
 50
90.49999999999966
 51
180.0
  0
ARC
  5
FE
  8
2
  6
CONTINUOUS
 62
     7
 10
618.1260541619771
 20
414.2378701459494
 30
0.0
 40
0.5000000000000221
 50
180.0
 51
198.105521616779
  0
ARC
  5
FF
  8
2
  6
CONTINUOUS
 62
     7
 10
618.1260541619771
 20
435.2255972828406
 30
0.0
 40
0.500000000000056
 50
161.8944783832209
 51
180.0
  0
ARC
  5
100
  8
2
  6
CONTINUOUS
 62
     7
 10
618.1260541619771
 20
435.2255972828406
 30
0.0
 40
0.5000000000000018
 50
180.0
 51
269.5000000000003
  0
ARC
  5
101
  8
2
  6
CONTINUOUS
 62
     7
 10
615.7145127649366
 20
418.7296041569641
 30
0.0
 40
0.5000000000000018
 50
218.3557826548905
 51
269.5000000000002
  0
ARC
  5
102
  8
2
  6
CONTINUOUS
 62
     7
 10
615.7145127649366
 20
430.7338632718258
 30
0.0
 40
0.4999999999999781
 50
90.49999999999966
 51
141.6442173451095
  0
ARC
  5
103
  8
2
  6
CONTINUOUS
 62
     7
 10
604.3440102475129
 20
409.731733714395
 30
0.0
 40
13.99999999999997
 50
38.35578265489011
 51
43.66130014708509
  0
ARC
  5
104
  8
2
  6
CONTINUOUS
 62
     7
 10
604.3440102475129
 20
439.731733714395
 30
0.0
 40
13.99999999999997
 50
316.3386998529147
 51
321.6442173451097
  0
ARC
  5
105
  8
2
  6
CONTINUOUS
 62
     7
 10
614.8337978893694
 20
419.7424457384596
 30
0.0
 40
0.4999999999999449
 50
90.49999999999966
 51
180.0
  0
ARC
  5
106
  8
2
  6
CONTINUOUS
 62
     7
 10
614.8337978893694
 20
419.7424457384596
 30
0.0
 40
0.4999999999999231
 50
180.0
 51
223.6613001470853
  0
ARC
  5
107
  8
2
  6
CONTINUOUS
 62
     7
 10
614.8337978893694
 20
429.7210216903304
 30
0.0
 40
0.4999999999999449
 50
136.3386998529148
 51
180.0
  0
ARC
  5
108
  8
2
  6
CONTINUOUS
 62
     7
 10
614.8337978893694
 20
429.7210216903304
 30
0.0
 40
0.5000000000000008
 50
180.0
 51
269.5000000000003
  0
LINE
  5
109
  8
2
  6
CONTINUOUS
 62
     7
 10
604.344010247513
 20
424.2273893196925
 30
0.0
 11
604.344010247513
 21
425.2360781090975
 31
0.0
  0
ARC
  5
10A
  8
2
  6
CONTINUOUS
 62
     7
 10
604.8440102475129
 20
458.2572514310376
 30
0.0
 40
0.4999999999999543
 50
93.00000000000013
 51
180.0
  0
ARC
  5
10B
  8
2
  6
CONTINUOUS
 62
     7
 10
604.8440102475129
 20
395.2403569682056
 30
0.0
 40
0.499999999999972
 50
91.97610828571601
 51
180.0
  0
ARC
  5
10C
  8
2
  6
CONTINUOUS
 62
     7
 10
604.8440102475129
 20
454.2231104605845
 30
0.0
 40
0.499999999999972
 50
180.0
 51
268.023891714284
  0
ARC
  5
10D
  8
2
  6
CONTINUOUS
 62
     7
 10
604.8440102475129
 20
425.2360781090974
 30
0.0
 40
0.4999999999999449
 50
90.49999999999966
 51
179.999999999999
  0
ARC
  5
10E
  8
2
  6
CONTINUOUS
 62
     7
 10
604.8440102475129
 20
391.2062159977524
 30
0.0
 40
0.49999999999996
 50
180.0
 51
266.9999999999998
  0
LINE
  5
10F
  8
2
  6
CONTINUOUS
 62
     7
 10
604.344010247513
 20
454.2231104605845
 30
0.0
 11
604.344010247513
 21
458.2572514310376
 31
0.0
  0
LINE
  5
110
  8
2
  6
CONTINUOUS
 62
     7
 10
604.344010247513
 20
391.2062159977524
 30
0.0
 11
604.344010247513
 21
395.2403569682056
 31
0.0
  0
ARC
  5
111
  8
2
  6
CONTINUOUS
 62
     7
 10
604.8440102475129
 20
424.2273893196925
 30
0.0
 40
0.5000000000000008
 50
180.0
 51
269.5000000000002
  0
ARC
  5
112
  8
2
  6
CONTINUOUS
 62
     7
 10
621.6061358206526
 20
434.1951889919185
 30
0.0
 40
0.5000000000000413
 50
28.95277488650967
 51
89.5000000000003
  0
ARC
  5
113
  8
2
  6
CONTINUOUS
 62
     7
 10
621.6061358206526
 20
415.2682784368714
 30
0.0
 40
0.5000000000000018
 50
270.4999999999997
 51
331.0472251134897
  0
LINE
  5
114
  8
2
  6
CONTINUOUS
 62
     7
 10
638.844010247513
 20
388.531733714395
 30
0.0
 11
639.2602626356371
 21
388.531733714395
 31
0.0
  0
LINE
  5
115
  8
2
  6
CONTINUOUS
 62
     7
 10
638.844010247513
 20
460.931733714395
 30
0.0
 11
639.2602626356371
 21
460.931733714395
 31
0.0
  0
LINE
  5
116
  8
2
  6
CONTINUOUS
 62
     7
 10
622.3867929857763
 20
400.731733714395
 30
0.0
 11
623.8560150513567
 21
400.731733714395
 31
0.0
  0
LINE
  5
117
  8
2
  6
CONTINUOUS
 62
     7
 10
622.5470780208638
 20
411.231733714395
 30
0.0
 11
624.0321906428863
 21
411.231733714395
 31
0.0
  0
ARC
  5
118
  8
2
  6
CONTINUOUS
 62
     7
 10
638.844010247513
 20
405.731733714395
 30
0.0
 40
15.80000000000009
 50
159.6287760519815
 51
198.4487152303212
  0
ARC
  5
119
  8
2
  6
CONTINUOUS
 62
     7
 10
638.844010247513
 20
443.731733714395
 30
0.0
 40
15.80000000000008
 50
161.5512847696787
 51
200.3712239480184
  0
LINE
  5
11A
  8
2
  6
CONTINUOUS
 62
     7
 10
622.5470780208638
 20
438.231733714395
 30
0.0
 11
624.0321906428863
 21
438.231733714395
 31
0.0
  0
LINE
  5
11B
  8
2
  6
CONTINUOUS
 62
     7
 10
622.3867929857763
 20
448.731733714395
 30
0.0
 11
623.8560150513567
 21
448.731733714395
 31
0.0
  0
LINE
  5
11C
  8
2
  6
CONTINUOUS
 62
     7
 10
603.936470473039
 20
425.731733714395
 30
0.0
 11
604.3440102475134
 21
425.731733714395
 31
0.0
  0
LINE
  5
11D
  8
2
  6
CONTINUOUS
 62
     7
 10
604.344010247513
 20
425.2360780668466
 30
0.0
 11
604.3440102475134
 21
425.731733714395
 31
0.0
  0
LINE
  5
11E
  8
2
  6
CONTINUOUS
 62
     7
 10
604.3440102475134
 20
425.731733714395
 30
0.0
 11
604.8396469797638
 21
425.7360590706296
 31
0.0
  0
LINE
  5
11F
  8
2
  6
CONTINUOUS
 62
     7
 10
604.3440102475126
 20
423.731733714395
 30
0.0
 11
603.9364704730384
 21
423.731733714395
 31
0.0
  0
LINE
  5
120
  8
2
  6
CONTINUOUS
 62
     7
 10
604.3440102475126
 20
423.731733714395
 30
0.0
 11
604.344010247513
 21
424.2273893619433
 31
0.0
  0
LINE
  5
121
  8
2
  6
CONTINUOUS
 62
     7
 10
604.8396469797638
 20
423.7274083581604
 30
0.0
 11
604.3440102475126
 21
423.731733714395
 31
0.0
  0
LINE
  5
122
  8
2
  6
CONTINUOUS
 62
     7
 10
602.2916742912698
 20
392.131733714395
 30
0.0
 11
604.344010247513
 21
392.1317337143951
 31
0.0
  0
LINE
  5
123
  8
2
  6
CONTINUOUS
 62
     7
 10
602.2916742912698
 20
457.331733714395
 30
0.0
 11
604.344010247513
 21
457.331733714395
 31
0.0
  0
ARC
  5
124
  8
2
  6
CONTINUOUS
 62
     7
 10
602.3440102475129
 20
455.8379216189589
 30
0.0
 40
1.000000000000001
 50
180.0
 51
202.0932855454841
  0
LINE
  5
125
  8
2
  6
CONTINUOUS
 62
     7
 10
601.3440102475128
 20
392.131733714395
 30
0.0
 11
601.3440102475128
 21
393.625545809831
 31
0.0
  0
LINE
  5
126
  8
2
  6
CONTINUOUS
 62
     7
 10
602.2916742912698
 20
392.131733714395
 30
0.0
 11
601.3440102475128
 21
392.131733714395
 31
0.0
  0
LINE
  5
127
  8
2
  6
CONTINUOUS
 62
     7
 10
601.3440102475129
 20
455.8379216189589
 30
0.0
 11
601.3440102475129
 21
457.331733714395
 31
0.0
  0
LINE
  5
128
  8
2
  6
CONTINUOUS
 62
     7
 10
601.3440102475129
 20
457.331733714395
 30
0.0
 11
602.2916742912698
 21
457.331733714395
 31
0.0
  0
ARC
  5
129
  8
2
  6
CONTINUOUS
 62
     7
 10
602.3440102475128
 20
393.625545809831
 30
0.0
 40
0.9999999999999623
 50
157.906714454492
 51
180.0
  0
ARC
  5
12A
  8
2
  6
CONTINUOUS
 62
     7
 10
638.844010247513
 20
405.731733714395
 30
0.0
 40
17.19999999999999
 50
88.38655061871677
 51
90.0
  0
LINE
  5
12B
  8
2
  6
CONTINUOUS
 62
     7
 10
638.844010247513
 20
382.9134341915301
 30
0.0
 11
638.8440102475129
 21
383.2116056444197
 31
0.0
  0
LINE
  5
12C
  8
2
  6
CONTINUOUS
 62
     7
 10
638.844010247513
 20
423.4246701580722
 30
0.0
 11
638.844010247513
 21
422.931733714395
 31
0.0
  0
LINE
  5
12D
  8
2
  6
CONTINUOUS
 62
     7
 10
638.844010247513
 20
466.5500332372599
 30
0.0
 11
638.844010247513
 21
466.2518617843703
 31
0.0
  0
ARC
  5
12E
  8
2
  6
CONTINUOUS
 62
     7
 10
638.844010247513
 20
443.7317337143949
 30
0.0
 40
17.19999999999999
 50
270.0
 51
271.6134493812832
  0
LINE
  5
12F
  8
2
  6
CONTINUOUS
 62
     7
 10
638.844010247513
 20
426.5317337143949
 30
0.0
 11
638.844010247513
 21
426.0387972707178
 31
0.0
  0
ARC
  5
130
  8
2
  6
CONTINUOUS
 62
     7
 10
607.6524762401423
 20
403.1643976409313
 30
0.0
 40
21.99999999999948
 50
229.0194779330659
 51
269.5300000000004
  0
LINE
  5
131
  8
2
  6
CONTINUOUS
 62
     7
 10
660.344010247513
 20
466.7264027141583
 30
0.0
 11
607.4118501220815
 21
466.2921879517199
 31
0.0
  0
ARC
  5
132
  8
2
  6
CONTINUOUS
 62
     7
 10
607.5759092318323
 20
446.2928608478266
 30
0.0
 40
20.00000000000036
 50
90.47000000000078
 51
130.9267342736348
  0
LINE
  5
133
  8
2
  6
CONTINUOUS
 62
     7
 10
586.2144428210617
 20
454.2423819081499
 30
0.0
 11
594.4740407420468
 21
461.4038185301305
 31
0.0
  0
ARC
  5
134
  8
2
  6
CONTINUOUS
 62
     7
 10
835.3440102475129
 20
432.231733714395
 30
0.0
 40
250.1
 50
174.9510159873161
 51
180.0
  0
LINE
  5
135
  8
2
  6
CONTINUOUS
 62
     7
 10
585.244010247513
 20
432.231733714395
 30
0.0
 11
585.244010247513
 21
417.231733714395
 31
0.0
  0
ARC
  5
136
  8
2
  6
CONTINUOUS
 62
     7
 10
835.3440102475129
 20
417.2317337143949
 30
0.0
 40
250.1
 50
180.0
 51
185.0489840126838
  0
LINE
  5
137
  8
2
  6
CONTINUOUS
 62
     7
 10
586.2144428210617
 20
395.2210855206401
 30
0.0
 11
594.4740407420468
 21
388.0596488986594
 31
0.0
  0
ARC
  5
138
  8
2
  6
CONTINUOUS
 62
     7
 10
607.5759092318319
 20
403.1706065809626
 30
0.0
 40
19.99999999999949
 50
229.0732657263643
 51
269.5300000000002
  0
LINE
  5
139
  8
2
  6
CONTINUOUS
 62
     7
 10
660.344010247513
 20
382.7370647146316
 30
0.0
 11
607.4118501220815
 21
383.1712794770701
 31
0.0
  0
LINE
  5
13A
  8
2
  6
CONTINUOUS
 62
     7
 10
660.344010247513
 20
382.2313596698388
 30
0.0
 11
660.344010247513
 21
382.7370647146316
 31
0.0
  0
LINE
  5
13B
  8
2
  6
CONTINUOUS
 62
     7
 10
660.344010247513
 20
467.2321077589513
 30
0.0
 11
660.344010247513
 21
466.7264027141583
 31
0.0
  0
ARC
  5
13C
  8
2
  6
CONTINUOUS
 62
     7
 10
607.6524762401424
 20
446.2990697878585
 30
0.0
 40
21.99999999999969
 50
90.46999999999984
 51
130.9805220669339
  0
LINE
  5
13D
  8
2
  6
CONTINUOUS
 62
     7
 10
607.4720112194169
 20
468.2983296021404
 30
0.0
 11
660.344010247513
 21
468.7320508491712
 31
0.0
  0
LINE
  5
13E
  8
2
  6
CONTINUOUS
 62
     7
 10
660.344010247513
 20
468.7320508491712
 30
0.0
 11
660.344010247513
 21
467.2321077589513
 31
0.0
  0
LINE
  5
13F
  8
2
  6
CONTINUOUS
 62
     7
 10
660.344010247513
 20
380.7314165796188
 30
0.0
 11
607.4720112194169
 21
381.1651378266495
 31
0.0
  0
LINE
  5
140
  8
2
  6
CONTINUOUS
 62
     7
 10
660.344010247513
 20
382.2313596698388
 30
0.0
 11
660.344010247513
 21
380.7314165796188
 31
0.0
  0
POLYLINE
  5
141
  8
2
  6
CONTINUOUS
 62
     7
 66
     1
 10
0.0
 20
0.0
 30
0.0
  0
VERTEX
  5
3D8
  8
2
  6
CONTINUOUS
 62
     7
 10
584.2691195422357
 20
394.5202992085647
 30
0.0
  0
VERTEX
  5
3D9
  8
2
  6
CONTINUOUS
 62
     7
 10
584.2867730746833
 20
394.4264274253036
 30
0.0
  0
VERTEX
  5
3DA
  8
2
  6
CONTINUOUS
 62
     7
 10
584.3219555727965
 20
394.3376256087735
 30
0.0
  0
VERTEX
  5
3DB
  8
2
  6
CONTINUOUS
 62
     7
 10
584.3733830548448
 20
394.2571345723373
 30
0.0
  0
VERTEX
  5
3DC
  8
2
  6
CONTINUOUS
 62
     7
 10
584.4391786800434
 20
394.1878918282742
 30
0.0
  0
SEQEND
  5
51E
  8
2
  6
CONTINUOUS
 62
     7
  0
LINE
  5
142
  8
2
  6
CONTINUOUS
 62
     7
 10
593.22482290121
 20
386.5558811770331
 30
0.0
 11
584.439185189736
 21
394.1878774205341
 31
0.0
  0
POLYLINE
  5
143
  8
2
  6
CONTINUOUS
 62
     7
 66
     1
 10
0.0
 20
0.0
 30
0.0
  0
VERTEX
  5
3DD
  8
2
  6
CONTINUOUS
 62
     7
 10
584.4391786800358
 20
455.2755756004316
 30
0.0
  0
VERTEX
  5
3DE
  8
2
  6
CONTINUOUS
 62
     7
 10
584.3733830548405
 20
455.2063328563606
 30
0.0
  0
VERTEX
  5
3DF
  8
2
  6
CONTINUOUS
 62
     7
 10
584.3219555727934
 20
455.1258418199215
 30
0.0
  0
VERTEX
  5
3E0
  8
2
  6
CONTINUOUS
 62
     7
 10
584.2867730746792
 20
455.0370400033932
 30
0.0
  0
VERTEX
  5
3E1
  8
2
  6
CONTINUOUS
 62
     7
 10
584.2691195422277
 20
454.9431682201381
 30
0.0
  0
SEQEND
  5
51F
  8
2
  6
CONTINUOUS
 62
     7
  0
LINE
  5
144
  8
2
  6
CONTINUOUS
 62
     7
 10
584.439185189736
 20
455.2755900082558
 30
0.0
 11
593.22482290121
 21
462.9075862517568
 31
0.0
  0
ARC
  5
145
  8
2
  6
CONTINUOUS
 62
     7
 10
835.3440102475129
 20
432.231733714395
 30
0.0
 40
252.1000000000001
 50
174.8312733318688
 51
180.0
  0
ARC
  5
146
  8
2
  6
CONTINUOUS
 62
     7
 10
835.3440102475129
 20
417.231733714395
 30
0.0
 40
252.1000000000001
 50
180.0
 51
185.1687266681302
  0
LINE
  5
147
  8
2
  6
CONTINUOUS
 62
     7
 10
583.244010247513
 20
417.231733714395
 30
0.0
 11
583.244010247513
 21
432.231733714395
 31
0.0
  0
LINE
  5
148
  8
2
  6
CONTINUOUS
 62
     7
 10
660.344010247513
 20
365.0213083966735
 30
0.0
 11
660.344010247513
 21
380.7314165796188
 31
0.0
  0
LINE
  5
149
  8
2
  6
CONTINUOUS
 62
     7
 10
660.344010247513
 20
484.4421590321164
 30
0.0
 11
660.344010247513
 21
468.7320508491711
 31
0.0
  0
ARC
  5
14A
  8
2
  6
CONTINUOUS
 62
     7
 10
835.3440102475129
 20
450.9317337143949
 30
0.0
 40
252.1000000000001
 50
177.8415829214159
 51
180.0
  0
LINE
  5
14B
  8
2
  6
CONTINUOUS
 62
     7
 10
583.244010247513
 20
450.9317337143949
 30
0.0
 11
583.244010247513
 21
432.2317337143949
 31
0.0
  0
ARC
  5
14C
  8
2
  6
CONTINUOUS
 62
     7
 10
835.3440102475129
 20
398.5317337143951
 30
0.0
 40
252.1000000000001
 50
180.0
 51
182.1584170785841
  0
LINE
  5
14D
  8
2
  6
CONTINUOUS
 62
     7
 10
583.244010247513
 20
398.5317337143951
 30
0.0
 11
583.244010247513
 21
417.231733714395
 31
0.0
  0
LINE
  5
14E
  8
2
  6
CONTINUOUS
 62
     7
 10
584.2827398401823
 20
463.8329744203219
 30
0.0
 11
589.6294997063967
 21
484.6955544120475
 31
0.0
  0
LINE
  5
14F
  8
2
  6
CONTINUOUS
 62
     7
 10
589.6294997063966
 20
364.7679130167425
 30
0.0
 11
584.2827398401823
 21
385.6304930084681
 31
0.0
  0
LINE
  5
150
  8
2
  6
CONTINUOUS
 62
     7
 10
583.4228717858218
 20
460.4264688958245
 30
0.0
 11
583.4231274464018
 21
460.4332498412475
 31
0.0
  0
LINE
  5
151
  8
2
  6
CONTINUOUS
 62
     7
 10
583.4384256343045
 20
460.5385357136985
 30
0.0
 11
583.4231274464018
 21
460.4332498412475
 31
0.0
  0
LINE
  5
152
  8
2
  6
CONTINUOUS
 62
     7
 10
583.4384256343042
 20
460.5385357136976
 30
0.0
 11
584.282739840182
 21
463.8329744203212
 31
0.0
  0
LINE
  5
153
  8
2
  6
CONTINUOUS
 62
     7
 10
583.4231274464018
 20
389.0302175875425
 30
0.0
 11
583.4228717858218
 21
389.0369985329653
 31
0.0
  0
LINE
  5
154
  8
2
  6
CONTINUOUS
 62
     7
 10
584.282739840182
 20
385.6304930084689
 30
0.0
 11
583.4384256343042
 21
388.9249317150923
 31
0.0
  0
LINE
  5
155
  8
2
  6
CONTINUOUS
 62
     7
 10
583.4231274464018
 20
389.0302175875425
 30
0.0
 11
583.4384256343045
 21
388.9249317150915
 31
0.0
  0
LINE
  5
156
  8
2
  6
CONTINUOUS
 62
     7
 10
597.9674707320061
 20
486.9954307609874
 30
0.0
 11
660.344010247513
 21
487.507119953782
 31
0.0
  0
LINE
  5
157
  8
2
  6
CONTINUOUS
 62
     7
 10
660.344010247513
 20
487.507119953782
 30
0.0
 11
660.344010247513
 21
484.4421590321165
 31
0.0
  0
LINE
  5
158
  8
2
  6
CONTINUOUS
 62
     7
 10
597.9674707320061
 20
362.4680366678026
 30
0.0
 11
660.344010247513
 21
361.9563474750079
 31
0.0
  0
LINE
  5
159
  8
2
  6
CONTINUOUS
 62
     7
 10
660.344010247513
 20
361.9563474750079
 30
0.0
 11
660.344010247513
 21
365.0213083966735
 31
0.0
  0
LINE
  5
15A
  8
2
  6
CONTINUOUS
 62
     7
 10
592.5109702107468
 20
486.950669824121
 30
0.0
 11
592.3947323894256
 21
486.9472772567579
 31
0.0
  0
LINE
  5
15B
  8
2
  6
CONTINUOUS
 62
     7
 10
592.3947323894256
 20
486.9472772567579
 30
0.0
 11
592.2412051993557
 21
486.9352903539756
 31
0.0
  0
ARC
  5
15C
  8
2
  6
CONTINUOUS
 62
     7
 10
592.5644463456883
 20
484.0781773399811
 30
0.0
 40
2.875339912674525
 50
96.45474527336872
 51
149.965430050192
  0
LINE
  5
15D
  8
2
  6
CONTINUOUS
 62
     7
 10
592.5109702107468
 20
486.950669824121
 30
0.0
 11
597.9674707320058
 21
486.9954307609875
 31
0.0
  0
LINE
  5
15E
  8
2
  6
CONTINUOUS
 62
     7
 10
592.5109702107467
 20
362.512797604669
 30
0.0
 11
597.9674707320058
 21
362.4680366678025
 31
0.0
  0
ARC
  5
15F
  8
2
  6
CONTINUOUS
 62
     7
 10
592.5566965125154
 20
365.3751757544611
 30
0.0
 40
2.86357240170351
 50
209.9369834162305
 51
266.7489434541409
  0
LINE
  5
160
  8
2
  6
CONTINUOUS
 62
     7
 10
592.3942998907694
 20
362.5162119147031
 30
0.0
 11
592.5109702107467
 21
362.5127976046689
 31
0.0
  0
LINE
  5
161
  8
2
  6
CONTINUOUS
 62
     7
 10
589.9766018253536
 20
363.9469267559666
 30
0.0
 11
589.6294997063966
 21
364.7679130167425
 31
0.0
  0
LINE
  5
162
  8
2
  6
CONTINUOUS
 62
     7
 10
589.6294997063967
 20
484.6955544120475
 30
0.0
 11
589.9766018253536
 21
485.5165406728233
 31
0.0
  0
LINE
  5
163
  8
2
  6
CONTINUOUS
 62
     7
 10
589.9883706028093
 20
485.5254799273386
 30
0.0
 11
589.9766018253537
 21
485.5165406728232
 31
0.0
  0
LINE
  5
164
  8
2
  6
CONTINUOUS
 62
     7
 10
592.392291675458
 20
486.9473469248474
 30
0.0
 11
592.5109702107468
 21
486.9506698241209
 31
0.0
  0
LINE
  5
165
  8
2
  6
CONTINUOUS
 62
     7
 10
592.5109702107468
 20
362.5127976046691
 30
0.0
 11
592.394291710792
 21
362.5160255371304
 31
0.0
  0
ARC
  5
166
  8
2
  6
CONTINUOUS
 62
     7
 10
592.5355790772093
 20
365.512696670253
 30
0.0
 40
2.999999999999933
 50
211.4613516221709
 51
267.3006115608493
  0
ARC
  5
167
  8
2
  6
CONTINUOUS
 62
     7
 10
614.344010247513
 20
461.0765348659583
 30
0.0
 40
10.0
 50
149.1225840103782
 51
180.0
  0
LINE
  5
168
  8
2
  6
CONTINUOUS
 62
     7
 10
604.344010247513
 20
458.2572514310376
 30
0.0
 11
604.344010247513
 21
461.0765348659583
 31
0.0
  0
ARC
  5
169
  8
2
  6
CONTINUOUS
 62
     7
 10
604.344010247513
 20
439.731733714395
 30
0.0
 40
14.0
 50
268.0238917142838
 51
270.0
  0
ARC
  5
16A
  8
2
  6
CONTINUOUS
 62
     7
 10
604.344010247513
 20
409.731733714395
 30
0.0
 40
14.0
 50
90.0
 51
91.97610828571625
  0
LINE
  5
16B
  8
2
  6
CONTINUOUS
 62
     7
 10
604.344010247513
 20
391.2062159977524
 30
0.0
 11
604.344010247513
 21
388.3869325628317
 31
0.0
  0
ARC
  5
16C
  8
2
  6
CONTINUOUS
 62
     7
 10
614.344010247513
 20
388.3869325628318
 30
0.0
 40
10.0
 50
180.0000000000003
 51
210.867535904365
  0
LINE
  5
16D
  8
2
  6
CONTINUOUS
 62
     7
 10
660.344010247513
 20
415.231733714395
 30
0.0
 11
658.8396469797638
 21
415.2448620937419
 31
0.0
  0
LINE
  5
16E
  8
2
  6
CONTINUOUS
 62
     7
 10
660.344010247513
 20
415.731714675927
 30
0.0
 11
660.344010247513
 21
415.231733714395
 31
0.0
  0
LINE
  5
16F
  8
2
  6
CONTINUOUS
 62
     7
 10
660.344010247513
 20
429.2317146759271
 30
0.0
 11
660.344010247513
 21
433.7317527528629
 31
0.0
  0
LINE
  5
170
  8
2
  6
CONTINUOUS
 62
     7
 10
660.344010247513
 20
420.2317527528629
 30
0.0
 11
660.344010247513
 21
415.731714675927
 31
0.0
  0
LINE
  5
171
  8
2
  6
CONTINUOUS
 62
     7
 10
658.8396469797638
 20
420.718605335048
 30
0.0
 11
660.344010247513
 21
420.731733714395
 31
0.0
  0
LINE
  5
172
  8
2
  6
CONTINUOUS
 62
     7
 10
660.344010247513
 20
420.731733714395
 30
0.0
 11
660.344010247513
 21
420.2317527528629
 31
0.0
  0
LINE
  5
173
  8
2
  6
CONTINUOUS
 62
     7
 10
660.344010247513
 20
428.731733714395
 30
0.0
 11
658.8396469797638
 21
428.7448620937419
 31
0.0
  0
LINE
  5
174
  8
2
  6
CONTINUOUS
 62
     7
 10
660.344010247513
 20
429.2317146759271
 30
0.0
 11
660.344010247513
 21
428.731733714395
 31
0.0
  0
LINE
  5
175
  8
2
  6
CONTINUOUS
 62
     7
 10
658.8396469797638
 20
434.2186053350481
 30
0.0
 11
660.344010247513
 21
434.231733714395
 31
0.0
  0
LINE
  5
176
  8
2
  6
CONTINUOUS
 62
     7
 10
660.344010247513
 20
434.231733714395
 30
0.0
 11
660.344010247513
 21
433.7317527528629
 31
0.0
  0
ARC
  5
177
  8
2
  6
CONTINUOUS
 62
     7
 10
658.844010247513
 20
420.218624373516
 30
0.0
 40
0.5000000000000018
 50
90.5
 51
180.0
  0
ARC
  5
178
  8
2
  6
CONTINUOUS
 62
     7
 10
658.844010247513
 20
415.744843055274
 30
0.0
 40
0.5000000000000018
 50
180.0
 51
269.5000000000001
  0
LINE
  5
179
  8
2
  6
CONTINUOUS
 62
     7
 10
658.344010247513
 20
415.744843055274
 30
0.0
 11
658.344010247513
 21
420.218624373516
 31
0.0
  0
LINE
  5
17A
  8
2
  6
CONTINUOUS
 62
     7
 10
658.344010247513
 20
429.244843055274
 30
0.0
 11
658.344010247513
 21
433.718624373516
 31
0.0
  0
ARC
  5
17B
  8
2
  6
CONTINUOUS
 62
     7
 10
658.844010247513
 20
433.718624373516
 30
0.0
 40
0.5000000000000018
 50
90.5
 51
180.0000000000012
  0
ARC
  5
17C
  8
2
  6
CONTINUOUS
 62
     7
 10
658.844010247513
 20
429.244843055274
 30
0.0
 40
0.5000000000000018
 50
180.0
 51
269.5000000000001
  0
ARC
  5
17D
  8
2
  6
CONTINUOUS
 62
     7
 10
658.344010247513
 20
431.481733714395
 30
0.0
 40
1.499999999999946
 50
90.0
 51
180.0
  0
ARC
  5
17E
  8
2
  6
CONTINUOUS
 62
     7
 10
658.344010247513
 20
431.481733714395
 30
0.0
 40
1.500000000000001
 50
180.0
 51
270.0
  0
ARC
  5
17F
  8
2
  6
CONTINUOUS
 62
     7
 10
658.344010247513
 20
417.9817337143949
 30
0.0
 40
1.499999999999946
 50
180.0
 51
270.0
  0
ARC
  5
180
  8
2
  6
CONTINUOUS
 62
     7
 10
658.344010247513
 20
417.9817337143949
 30
0.0
 40
1.500000000000001
 50
89.99999999999996
 51
180.0
  0
LINE
  5
181
  8
2
  6
CONTINUOUS
 62
     7
 10
660.344010247513
 20
384.1888326095899
 30
0.0
 11
660.344010247513
 21
383.8352926812264
 31
0.0
  0
LINE
  5
182
  8
2
  6
CONTINUOUS
 62
     7
 10
660.344010247513
 20
465.481733714395
 30
0.0
 11
648.8396469797638
 21
465.4401478916578
 31
0.0
  0
LINE
  5
183
  8
2
  6
CONTINUOUS
 62
     7
 10
660.344010247513
 20
466.7264027141583
 30
0.0
 11
660.344010247513
 21
465.481733714395
 31
0.0
  0
LINE
  5
184
  8
2
  6
CONTINUOUS
 62
     7
 10
648.8396469797638
 20
385.648790392722
 30
0.0
 11
658.8396469797638
 21
385.7360590706296
 31
0.0
  0
LINE
  5
185
  8
2
  6
CONTINUOUS
 62
     7
 10
660.344010247513
 20
415.231733714395
 30
0.0
 11
660.344010247513
 21
384.1888326095899
 31
0.0
  0
LINE
  5
186
  8
2
  6
CONTINUOUS
 62
     7
 10
648.8396469797638
 20
463.731733714395
 30
0.0
 11
658.8396469797638
 21
463.731733714395
 31
0.0
  0
LINE
  5
187
  8
2
  6
CONTINUOUS
 62
     7
 10
660.344010247513
 20
434.231733714395
 30
0.0
 11
660.344010247513
 21
465.481733714395
 31
0.0
  0
POLYLINE
  5
188
  8
2
  6
CONTINUOUS
 62
     7
 66
     1
 10
0.0
 20
0.0
 30
0.0
  0
VERTEX
  5
3E2
  8
2
  6
CONTINUOUS
 62
     7
 10
657.344010247513
 20
424.231733714395
 30
0.0
  0
VERTEX
  5
3E3
  8
2
  6
CONTINUOUS
 62
     7
 10
657.3446125194105
 20
424.2071998772312
 30
0.0
  0
VERTEX
  5
3E4
  8
2
  6
CONTINUOUS
 62
     7
 10
657.3464178841768
 20
424.1827251442302
 30
0.0
  0
VERTEX
  5
3E5
  8
2
  6
CONTINUOUS
 62
     7
 10
657.3494219925306
 20
424.1583684771673
 30
0.0
  0
VERTEX
  5
3E6
  8
2
  6
CONTINUOUS
 62
     7
 10
657.3536176073113
 20
424.1341885533869
 30
0.0
  0
VERTEX
  5
3E7
  8
2
  6
CONTINUOUS
 62
     7
 10
657.3589946209157
 20
424.1102436244433
 30
0.0
  0
VERTEX
  5
3E8
  8
2
  6
CONTINUOUS
 62
     7
 10
657.3655400796468
 20
424.0865913757677
 30
0.0
  0
VERTEX
  5
3E9
  8
2
  6
CONTINUOUS
 62
     7
 10
657.3732382149215
 20
424.0632887876989
 30
0.0
  0
VERTEX
  5
3EA
  8
2
  6
CONTINUOUS
 62
     7
 10
657.3820704812573
 20
424.0403919982124
 30
0.0
  0
VERTEX
  5
3EB
  8
2
  6
CONTINUOUS
 62
     7
 10
657.3920156009513
 20
424.0179561676798
 30
0.0
  0
VERTEX
  5
3EC
  8
2
  6
CONTINUOUS
 62
     7
 10
657.4030496153388
 20
423.996035345982
 30
0.0
  0
VERTEX
  5
3ED
  8
2
  6
CONTINUOUS
 62
     7
 10
657.4151459425128
 20
423.9746823422984
 30
0.0
  0
VERTEX
  5
3EE
  8
2
  6
CONTINUOUS
 62
     7
 10
657.4282754413617
 20
423.9539485978852
 30
0.0
  0
VERTEX
  5
3EF
  8
2
  6
CONTINUOUS
 62
     7
 10
657.4424064817727
 20
423.9338840621488
 30
0.0
  0
VERTEX
  5
3F0
  8
2
  6
CONTINUOUS
 62
     7
 10
657.4575050208316
 20
423.9145370723132
 30
0.0
  0
VERTEX
  5
3F1
  8
2
  6
CONTINUOUS
 62
     7
 10
657.4735346848355
 20
423.8959542369715
 30
0.0
  0
VERTEX
  5
3F2
  8
2
  6
CONTINUOUS
 62
     7
 10
657.4904568569198
 20
423.8781803238017
 30
0.0
  0
VERTEX
  5
3F3
  8
2
  6
CONTINUOUS
 62
     7
 10
657.5082307700894
 20
423.8612581517175
 30
0.0
  0
VERTEX
  5
3F4
  8
2
  6
CONTINUOUS
 62
     7
 10
657.5268136054311
 20
423.8452284877136
 30
0.0
  0
VERTEX
  5
3F5
  8
2
  6
CONTINUOUS
 62
     7
 10
657.5461605952668
 20
423.8301299486546
 30
0.0
  0
VERTEX
  5
3F6
  8
2
  6
CONTINUOUS
 62
     7
 10
657.5662251310032
 20
423.8159989082437
 30
0.0
  0
VERTEX
  5
3F7
  8
2
  6
CONTINUOUS
 62
     7
 10
657.5869588754164
 20
423.8028694093949
 30
0.0
  0
VERTEX
  5
3F8
  8
2
  6
CONTINUOUS
 62
     7
 10
657.6083118790999
 20
423.7907730822208
 30
0.0
  0
VERTEX
  5
3F9
  8
2
  6
CONTINUOUS
 62
     7
 10
657.6302327007979
 20
423.7797390678332
 30
0.0
  0
VERTEX
  5
3FA
  8
2
  6
CONTINUOUS
 62
     7
 10
657.6526685313304
 20
423.7697939481394
 30
0.0
  0
VERTEX
  5
3FB
  8
2
  6
CONTINUOUS
 62
     7
 10
657.6755653208169
 20
423.7609616818035
 30
0.0
  0
VERTEX
  5
3FC
  8
2
  6
CONTINUOUS
 62
     7
 10
657.6988679088857
 20
423.7532635465288
 30
0.0
  0
VERTEX
  5
3FD
  8
2
  6
CONTINUOUS
 62
     7
 10
657.7225201575613
 20
423.7467180877977
 30
0.0
  0
VERTEX
  5
3FE
  8
2
  6
CONTINUOUS
 62
     7
 10
657.7464650865049
 20
423.7413410741934
 30
0.0
  0
VERTEX
  5
3FF
  8
2
  6
CONTINUOUS
 62
     7
 10
657.7706450102852
 20
423.7371454594126
 30
0.0
  0
VERTEX
  5
400
  8
2
  6
CONTINUOUS
 62
     7
 10
657.7950016773482
 20
423.7341413510589
 30
0.0
  0
VERTEX
  5
401
  8
2
  6
CONTINUOUS
 62
     7
 10
657.8194764103494
 20
423.7323359862924
 30
0.0
  0
VERTEX
  5
402
  8
2
  6
CONTINUOUS
 62
     7
 10
657.844010247513
 20
423.731733714395
 30
0.0
  0
SEQEND
  5
520
  8
2
  6
CONTINUOUS
 62
     7
  0
LINE
  5
189
  8
2
  6
CONTINUOUS
 62
     7
 10
657.344010247513
 20
424.231733714395
 30
0.0
 11
657.344010247513
 21
425.231733714395
 31
0.0
  0
POLYLINE
  5
18A
  8
2
  6
CONTINUOUS
 62
     7
 66
     1
 10
0.0
 20
0.0
 30
0.0
  0
VERTEX
  5
403
  8
2
  6
CONTINUOUS
 62
     7
 10
657.844010247513
 20
425.731733714395
 30
0.0
  0
VERTEX
  5
404
  8
2
  6
CONTINUOUS
 62
     7
 10
657.8194764103494
 20
425.7311314424975
 30
0.0
  0
VERTEX
  5
405
  8
2
  6
CONTINUOUS
 62
     7
 10
657.7950016773482
 20
425.7293260777311
 30
0.0
  0
VERTEX
  5
406
  8
2
  6
CONTINUOUS
 62
     7
 10
657.7706450102852
 20
425.7263219693774
 30
0.0
  0
VERTEX
  5
407
  8
2
  6
CONTINUOUS
 62
     7
 10
657.7464650865049
 20
425.7221263545966
 30
0.0
  0
VERTEX
  5
408
  8
2
  6
CONTINUOUS
 62
     7
 10
657.7225201575613
 20
425.7167493409922
 30
0.0
  0
VERTEX
  5
409
  8
2
  6
CONTINUOUS
 62
     7
 10
657.6988679088857
 20
425.7102038822611
 30
0.0
  0
VERTEX
  5
40A
  8
2
  6
CONTINUOUS
 62
     7
 10
657.6755653208169
 20
425.7025057469864
 30
0.0
  0
VERTEX
  5
40B
  8
2
  6
CONTINUOUS
 62
     7
 10
657.6526685313304
 20
425.6936734806506
 30
0.0
  0
VERTEX
  5
40C
  8
2
  6
CONTINUOUS
 62
     7
 10
657.6302327007979
 20
425.6837283609567
 30
0.0
  0
VERTEX
  5
40D
  8
2
  6
CONTINUOUS
 62
     7
 10
657.6083118790999
 20
425.6726943465692
 30
0.0
  0
VERTEX
  5
40E
  8
2
  6
CONTINUOUS
 62
     7
 10
657.5869588754164
 20
425.6605980193951
 30
0.0
  0
VERTEX
  5
40F
  8
2
  6
CONTINUOUS
 62
     7
 10
657.5662251310032
 20
425.6474685205462
 30
0.0
  0
VERTEX
  5
410
  8
2
  6
CONTINUOUS
 62
     7
 10
657.5461605952668
 20
425.6333374801353
 30
0.0
  0
VERTEX
  5
411
  8
2
  6
CONTINUOUS
 62
     7
 10
657.5268136054311
 20
425.6182389410764
 30
0.0
  0
VERTEX
  5
412
  8
2
  6
CONTINUOUS
 62
     7
 10
657.5082307700894
 20
425.6022092770725
 30
0.0
  0
VERTEX
  5
413
  8
2
  6
CONTINUOUS
 62
     7
 10
657.4904568569198
 20
425.5852871049883
 30
0.0
  0
VERTEX
  5
414
  8
2
  6
CONTINUOUS
 62
     7
 10
657.4735346848355
 20
425.5675131918185
 30
0.0
  0
VERTEX
  5
415
  8
2
  6
CONTINUOUS
 62
     7
 10
657.4575050208316
 20
425.5489303564768
 30
0.0
  0
VERTEX
  5
416
  8
2
  6
CONTINUOUS
 62
     7
 10
657.4424064817727
 20
425.5295833666412
 30
0.0
  0
VERTEX
  5
417
  8
2
  6
CONTINUOUS
 62
     7
 10
657.4282754413617
 20
425.5095188309048
 30
0.0
  0
VERTEX
  5
418
  8
2
  6
CONTINUOUS
 62
     7
 10
657.4151459425128
 20
425.4887850864916
 30
0.0
  0
VERTEX
  5
419
  8
2
  6
CONTINUOUS
 62
     7
 10
657.4030496153388
 20
425.4674320828079
 30
0.0
  0
VERTEX
  5
41A
  8
2
  6
CONTINUOUS
 62
     7
 10
657.3920156009513
 20
425.4455112611101
 30
0.0
  0
VERTEX
  5
41B
  8
2
  6
CONTINUOUS
 62
     7
 10
657.3820704812573
 20
425.4230754305776
 30
0.0
  0
VERTEX
  5
41C
  8
2
  6
CONTINUOUS
 62
     7
 10
657.3732382149215
 20
425.4001786410911
 30
0.0
  0
VERTEX
  5
41D
  8
2
  6
CONTINUOUS
 62
     7
 10
657.3655400796468
 20
425.3768760530222
 30
0.0
  0
VERTEX
  5
41E
  8
2
  6
CONTINUOUS
 62
     7
 10
657.3589946209157
 20
425.3532238043466
 30
0.0
  0
VERTEX
  5
41F
  8
2
  6
CONTINUOUS
 62
     7
 10
657.3536176073113
 20
425.3292788754031
 30
0.0
  0
VERTEX
  5
420
  8
2
  6
CONTINUOUS
 62
     7
 10
657.3494219925306
 20
425.3050989516227
 30
0.0
  0
VERTEX
  5
421
  8
2
  6
CONTINUOUS
 62
     7
 10
657.3464178841768
 20
425.2807422845597
 30
0.0
  0
VERTEX
  5
422
  8
2
  6
CONTINUOUS
 62
     7
 10
657.3446125194105
 20
425.2562675515587
 30
0.0
  0
VERTEX
  5
423
  8
2
  6
CONTINUOUS
 62
     7
 10
657.344010247513
 20
425.231733714395
 30
0.0
  0
SEQEND
  5
521
  8
2
  6
CONTINUOUS
 62
     7
  0
LINE
  5
18B
  8
2
  6
CONTINUOUS
 62
     7
 10
657.844010247513
 20
425.731733714395
 30
0.0
 11
658.8396469797638
 21
425.731733714395
 31
0.0
  0
LINE
  5
18C
  8
2
  6
CONTINUOUS
 62
     7
 10
658.8396469797638
 20
423.731733714395
 30
0.0
 11
657.844010247513
 21
423.731733714395
 31
0.0
  0
LINE
  5
18D
  8
2
  6
CONTINUOUS
 62
     7
 10
660.344010247513
 20
420.731733714395
 30
0.0
 11
660.344010247513
 21
428.731733714395
 31
0.0
  0
LINE
  5
18E
  8
2
  6
CONTINUOUS
 62
     7
 10
658.344010247513
 20
425.731733714395
 30
0.0
 11
658.344010247513
 21
429.244843055274
 31
0.0
  0
LINE
  5
18F
  8
2
  6
CONTINUOUS
 62
     7
 10
658.344010247513
 20
420.218624373516
 30
0.0
 11
658.344010247513
 21
423.731733714395
 31
0.0
  0
LINE
  5
190
  8
2
  6
CONTINUOUS
 62
     7
 10
658.344010247513
 20
385.731733714395
 30
0.0
 11
658.344010247513
 21
415.744843055274
 31
0.0
  0
LINE
  5
191
  8
2
  6
CONTINUOUS
 62
     7
 10
658.344010247513
 20
433.718624373516
 30
0.0
 11
658.344010247513
 21
463.731733714395
 31
0.0
  0
LINE
  5
192
  8
2
  6
CONTINUOUS
 62
     7
 10
648.344010247513
 20
463.731733714395
 30
0.0
 11
648.344010247513
 21
465.2330489964629
 31
0.0
  0
POLYLINE
  5
193
  8
2
  6
CONTINUOUS
 62
     7
 66
     1
 10
0.0
 20
0.0
 30
0.0
  0
VERTEX
  5
424
  8
2
  6
CONTINUOUS
 62
     7
 10
648.8396469797638
 20
465.4401478916578
 30
0.0
  0
VERTEX
  5
425
  8
2
  6
CONTINUOUS
 62
     7
 10
648.8152554596256
 20
465.439813006557
 30
0.0
  0
VERTEX
  5
426
  8
2
  6
CONTINUOUS
 62
     7
 10
648.7909324448827
 20
465.4389855269602
 30
0.0
  0
VERTEX
  5
427
  8
2
  6
CONTINUOUS
 62
     7
 10
648.7667358826759
 20
465.4376674242545
 30
0.0
  0
VERTEX
  5
428
  8
2
  6
CONTINUOUS
 62
     7
 10
648.7427234188854
 20
465.4358618386871
 30
0.0
  0
VERTEX
  5
429
  8
2
  6
CONTINUOUS
 62
     7
 10
648.7189522607953
 20
465.4335730718846
 30
0.0
  0
VERTEX
  5
42A
  8
2
  6
CONTINUOUS
 62
     7
 10
648.6954790408034
 20
465.430806576604
 30
0.0
  0
VERTEX
  5
42B
  8
2
  6
CONTINUOUS
 62
     7
 10
648.6723596814998
 20
465.4275689437425
 30
0.0
  0
VERTEX
  5
42C
  8
2
  6
CONTINUOUS
 62
     7
 10
648.6496492624368
 20
465.4238678866355
 30
0.0
  0
VERTEX
  5
42D
  8
2
  6
CONTINUOUS
 62
     7
 10
648.6274018889079
 20
465.4197122226798
 30
0.0
  0
VERTEX
  5
42E
  8
2
  6
CONTINUOUS
 62
     7
 10
648.605670563047
 20
465.4151118523278
 30
0.0
  0
VERTEX
  5
42F
  8
2
  6
CONTINUOUS
 62
     7
 10
648.5845070575563
 20
465.4100777354997
 30
0.0
  0
VERTEX
  5
430
  8
2
  6
CONTINUOUS
 62
     7
 10
648.5639617923629
 20
465.4046218654738
 30
0.0
  0
VERTEX
  5
431
  8
2
  6
CONTINUOUS
 62
     7
 10
648.5440837144984
 20
465.3987572403124
 30
0.0
  0
VERTEX
  5
432
  8
2
  6
CONTINUOUS
 62
     7
 10
648.5249201814877
 20
465.3924978318964
 30
0.0
  0
VERTEX
  5
433
  8
2
  6
CONTINUOUS
 62
     7
 10
648.5065168485243
 20
465.3858585526378
 30
0.0
  0
VERTEX
  5
434
  8
2
  6
CONTINUOUS
 62
     7
 10
648.4889175597013
 20
465.3788552199529
 30
0.0
  0
VERTEX
  5
435
  8
2
  6
CONTINUOUS
 62
     7
 10
648.4721642435577
 20
465.3715045185787
 30
0.0
  0
VERTEX
  5
436
  8
2
  6
CONTINUOUS
 62
     7
 10
648.4562968131869
 20
465.3638239608233
 30
0.0
  0
VERTEX
  5
437
  8
2
  6
CONTINUOUS
 62
     7
 10
648.441353071149
 20
465.3558318448445
 30
0.0
  0
VERTEX
  5
438
  8
2
  6
CONTINUOUS
 62
     7
 10
648.4273686194091
 20
465.3475472110562
 30
0.0
  0
VERTEX
  5
439
  8
2
  6
CONTINUOUS
 62
     7
 10
648.4143767745194
 20
465.3389897967666
 30
0.0
  0
VERTEX
  5
43A
  8
2
  6
CONTINUOUS
 62
     7
 10
648.4024084882461
 20
465.3301799891562
 30
0.0
  0
VERTEX
  5
43B
  8
2
  6
CONTINUOUS
 62
     7
 10
648.3914922738298
 20
465.3211387767072
 30
0.0
  0
VERTEX
  5
43C
  8
2
  6
CONTINUOUS
 62
     7
 10
648.3816541380553
 20
465.3118876992006
 30
0.0
  0
VERTEX
  5
43D
  8
2
  6
CONTINUOUS
 62
     7
 10
648.3729175192933
 20
465.3024487963996
 30
0.0
  0
VERTEX
  5
43E
  8
2
  6
CONTINUOUS
 62
     7
 10
648.365303231661
 20
465.2928445555427
 30
0.0
  0
VERTEX
  5
43F
  8
2
  6
CONTINUOUS
 62
     7
 10
648.3588294154342
 20
465.2830978577695
 30
0.0
  0
VERTEX
  5
440
  8
2
  6
CONTINUOUS
 62
     7
 10
648.3535114938301
 20
465.2732319236089
 30
0.0
  0
VERTEX
  5
441
  8
2
  6
CONTINUOUS
 62
     7
 10
648.3493621362632
 20
465.2632702576585
 30
0.0
  0
VERTEX
  5
442
  8
2
  6
CONTINUOUS
 62
     7
 10
648.3463912281611
 20
465.2532365925873
 30
0.0
  0
VERTEX
  5
443
  8
2
  6
CONTINUOUS
 62
     7
 10
648.3446058474143
 20
465.2431548325951
 30
0.0
  0
VERTEX
  5
444
  8
2
  6
CONTINUOUS
 62
     7
 10
648.344010247513
 20
465.2330489964629
 30
0.0
  0
SEQEND
  5
522
  8
2
  6
CONTINUOUS
 62
     7
  0
LINE
  5
194
  8
2
  6
CONTINUOUS
 62
     7
 10
648.8396469797638
 20
463.731733714395
 30
0.0
 11
648.344010247513
 21
463.731733714395
 31
0.0
  0
POLYLINE
  5
195
  8
2
  6
CONTINUOUS
 62
     7
 66
     1
 10
0.0
 20
0.0
 30
0.0
  0
VERTEX
  5
445
  8
2
  6
CONTINUOUS
 62
     7
 10
648.8396469797638
 20
385.648790392722
 30
0.0
  0
VERTEX
  5
446
  8
2
  6
CONTINUOUS
 62
     7
 10
648.8152554596256
 20
385.6479819085698
 30
0.0
  0
VERTEX
  5
447
  8
2
  6
CONTINUOUS
 62
     7
 10
648.7909324448827
 20
385.6459841961046
 30
0.0
  0
VERTEX
  5
448
  8
2
  6
CONTINUOUS
 62
     7
 10
648.7667358826759
 20
385.6428020146757
 30
0.0
  0
VERTEX
  5
449
  8
2
  6
CONTINUOUS
 62
     7
 10
648.7427234188854
 20
385.6384429455111
 30
0.0
  0
VERTEX
  5
44A
  8
2
  6
CONTINUOUS
 62
     7
 10
648.7189522607953
 20
385.6329173736553
 30
0.0
  0
VERTEX
  5
44B
  8
2
  6
CONTINUOUS
 62
     7
 10
648.6954790408033
 20
385.6262384632286
 30
0.0
  0
VERTEX
  5
44C
  8
2
  6
CONTINUOUS
 62
     7
 10
648.6723596814998
 20
385.6184221260644
 30
0.0
  0
VERTEX
  5
44D
  8
2
  6
CONTINUOUS
 62
     7
 10
648.6496492624367
 20
385.6094869838015
 30
0.0
  0
VERTEX
  5
44E
  8
2
  6
CONTINUOUS
 62
     7
 10
648.6274018889079
 20
385.5994543235191
 30
0.0
  0
VERTEX
  5
44F
  8
2
  6
CONTINUOUS
 62
     7
 10
648.6056705630469
 20
385.5883480470233
 30
0.0
  0
VERTEX
  5
450
  8
2
  6
CONTINUOUS
 62
     7
 10
648.5845070575563
 20
385.5761946139025
 30
0.0
  0
VERTEX
  5
451
  8
2
  6
CONTINUOUS
 62
     7
 10
648.5639617923629
 20
385.5630229784913
 30
0.0
  0
VERTEX
  5
452
  8
2
  6
CONTINUOUS
 62
     7
 10
648.5440837144984
 20
385.5488645208886
 30
0.0
  0
VERTEX
  5
453
  8
2
  6
CONTINUOUS
 62
     7
 10
648.5249201814877
 20
385.5337529721982
 30
0.0
  0
VERTEX
  5
454
  8
2
  6
CONTINUOUS
 62
     7
 10
648.5065168485243
 20
385.5177243341676
 30
0.0
  0
VERTEX
  5
455
  8
2
  6
CONTINUOUS
 62
     7
 10
648.4889175597013
 20
385.5008167934179
 30
0.0
  0
VERTEX
  5
456
  8
2
  6
CONTINUOUS
 62
     7
 10
648.4721642435577
 20
385.4830706304674
 30
0.0
  0
VERTEX
  5
457
  8
2
  6
CONTINUOUS
 62
     7
 10
648.4562968131869
 20
385.4645281237678
 30
0.0
  0
VERTEX
  5
458
  8
2
  6
CONTINUOUS
 62
     7
 10
648.441353071149
 20
385.4452334489796
 30
0.0
  0
VERTEX
  5
459
  8
2
  6
CONTINUOUS
 62
     7
 10
648.4273686194091
 20
385.4252325737286
 30
0.0
  0
VERTEX
  5
45A
  8
2
  6
CONTINUOUS
 62
     7
 10
648.4143767745194
 20
385.4045731480919
 30
0.0
  0
VERTEX
  5
45B
  8
2
  6
CONTINUOUS
 62
     7
 10
648.4024084882461
 20
385.383304391077
 30
0.0
  0
VERTEX
  5
45C
  8
2
  6
CONTINUOUS
 62
     7
 10
648.3914922738297
 20
385.3614769733624
 30
0.0
  0
VERTEX
  5
45D
  8
2
  6
CONTINUOUS
 62
     7
 10
648.3816541380553
 20
385.3391428965792
 30
0.0
  0
VERTEX
  5
45E
  8
2
  6
CONTINUOUS
 62
     7
 10
648.3729175192933
 20
385.3163553694232
 30
0.0
  0
VERTEX
  5
45F
  8
2
  6
CONTINUOUS
 62
     7
 10
648.365303231661
 20
385.2931686808902
 30
0.0
  0
VERTEX
  5
460
  8
2
  6
CONTINUOUS
 62
     7
 10
648.3588294154342
 20
385.2696380709377
 30
0.0
  0
VERTEX
  5
461
  8
2
  6
CONTINUOUS
 62
     7
 10
648.3535114938301
 20
385.2458195988816
 30
0.0
  0
VERTEX
  5
462
  8
2
  6
CONTINUOUS
 62
     7
 10
648.3493621362632
 20
385.2217700098403
 30
0.0
  0
VERTEX
  5
463
  8
2
  6
CONTINUOUS
 62
     7
 10
648.3463912281611
 20
385.1975465995451
 30
0.0
  0
VERTEX
  5
464
  8
2
  6
CONTINUOUS
 62
     7
 10
648.3446058474143
 20
385.1732070778394
 30
0.0
  0
VERTEX
  5
465
  8
2
  6
CONTINUOUS
 62
     7
 10
648.344010247513
 20
385.1488094311899
 30
0.0
  0
SEQEND
  5
523
  8
2
  6
CONTINUOUS
 62
     7
  0
LINE
  5
196
  8
2
  6
CONTINUOUS
 62
     7
 10
648.344010247513
 20
384.2304184323271
 30
0.0
 11
648.344010247513
 21
385.1488094311899
 31
0.0
  0
LINE
  5
197
  8
2
  6
CONTINUOUS
 62
     7
 10
648.344010247513
 20
465.2330489964629
 30
0.0
 11
648.344010247513
 21
466.6279639363545
 31
0.0
  0
LINE
  5
198
  8
2
  6
CONTINUOUS
 62
     7
 10
660.344010247513
 20
382.7370647146316
 30
0.0
 11
660.344010247513
 21
383.8352926812264
 31
0.0
  0
LINE
  5
199
  8
2
  6
CONTINUOUS
 62
     7
 10
648.344010247513
 20
382.8355034924355
 30
0.0
 11
648.344010247513
 21
384.2304184323271
 31
0.0
  0
LINE
  5
19A
  8
2
  6
CONTINUOUS
 62
     7
 10
657.344010247513
 20
385.7230068466042
 30
0.0
 11
657.344010247513
 21
416.8636997256451
 31
0.0
  0
LINE
  5
19B
  8
2
  6
CONTINUOUS
 62
     7
 10
657.344010247513
 20
419.0997677031449
 30
0.0
 11
657.344010247513
 21
424.231733714395
 31
0.0
  0
LINE
  5
19C
  8
2
  6
CONTINUOUS
 62
     7
 10
657.344010247513
 20
425.231733714395
 30
0.0
 11
657.344010247513
 21
430.3636997256451
 31
0.0
  0
LINE
  5
19D
  8
2
  6
CONTINUOUS
 62
     7
 10
657.344010247513
 20
432.5997677031449
 30
0.0
 11
657.344010247513
 21
463.731733714395
 31
0.0
  0
LINE
  5
19E
  8
2
  6
CONTINUOUS
 62
     7
 10
638.844010247513
 20
426.0317342521946
 30
0.0
 11
638.844010247513
 21
423.4317331765954
 31
0.0
  0
LINE
  5
19F
  8
2
  6
CONTINUOUS
 62
     7
 10
638.844010247513
 20
426.0317342521946
 30
0.0
 11
638.844010247513
 21
426.0387972707178
 31
0.0
  0
POLYLINE
  5
1A0
  8
2
  6
CONTINUOUS
 62
     7
 66
     1
 10
0.0
 20
0.0
 30
0.0
  0
VERTEX
  5
466
  8
2
  6
CONTINUOUS
 62
     7
 10
638.844010247513
 20
426.0387972707178
 30
0.0
  0
VERTEX
  5
467
  8
2
  6
CONTINUOUS
 62
     7
 10
638.8442871300739
 20
426.0554280030604
 30
0.0
  0
VERTEX
  5
468
  8
2
  6
CONTINUOUS
 62
     7
 10
638.845114866142
 20
426.0720147126224
 30
0.0
  0
VERTEX
  5
469
  8
2
  6
CONTINUOUS
 62
     7
 10
638.8465035778543
 20
426.0886660480499
 30
0.0
  0
VERTEX
  5
46A
  8
2
  6
CONTINUOUS
 62
     7
 10
638.8484393161594
 20
426.1052009754135
 30
0.0
  0
VERTEX
  5
46B
  8
2
  6
CONTINUOUS
 62
     7
 10
638.8509370253972
 20
426.1217345703799
 30
0.0
  0
VERTEX
  5
46C
  8
2
  6
CONTINUOUS
 62
     7
 10
638.8539670262822
 20
426.1380829259043
 30
0.0
  0
VERTEX
  5
46D
  8
2
  6
CONTINUOUS
 62
     7
 10
638.857545431386
 20
426.1543472868487
 30
0.0
  0
VERTEX
  5
46E
  8
2
  6
CONTINUOUS
 62
     7
 10
638.8616308349306
 20
426.1703651327382
 30
0.0
  0
VERTEX
  5
46F
  8
2
  6
CONTINUOUS
 62
     7
 10
638.8660676889974
 20
426.1856672251027
 30
0.0
  0
VERTEX
  5
470
  8
2
  6
CONTINUOUS
 62
     7
 10
638.8709460372894
 20
426.2006930798221
 30
0.0
  0
VERTEX
  5
471
  8
2
  6
CONTINUOUS
 62
     7
 10
638.8762829676958
 20
426.2155204718054
 30
0.0
  0
VERTEX
  5
472
  8
2
  6
CONTINUOUS
 62
     7
 10
638.882027527016
 20
426.2300352532482
 30
0.0
  0
VERTEX
  5
473
  8
2
  6
CONTINUOUS
 62
     7
 10
638.8881998493762
 20
426.2443132124711
 30
0.0
  0
VERTEX
  5
474
  8
2
  6
CONTINUOUS
 62
     7
 10
638.894744267812
 20
426.2582513194007
 30
0.0
  0
VERTEX
  5
475
  8
2
  6
CONTINUOUS
 62
     7
 10
638.9016786817851
 20
426.2719125372446
 30
0.0
  0
VERTEX
  5
476
  8
2
  6
CONTINUOUS
 62
     7
 10
638.9089492155429
 20
426.2852154081623
 30
0.0
  0
VERTEX
  5
477
  8
2
  6
CONTINUOUS
 62
     7
 10
638.9178609903266
 20
426.3003249659545
 30
0.0
  0
VERTEX
  5
478
  8
2
  6
CONTINUOUS
 62
     7
 10
638.9271777384128
 20
426.3149324900529
 30
0.0
  0
VERTEX
  5
479
  8
2
  6
CONTINUOUS
 62
     7
 10
638.9369274405834
 20
426.3291135450656
 30
0.0
  0
VERTEX
  5
47A
  8
2
  6
CONTINUOUS
 62
     7
 10
638.9470317579666
 20
426.3427842422107
 30
0.0
  0
VERTEX
  5
47B
  8
2
  6
CONTINUOUS
 62
     7
 10
638.9568499926824
 20
426.3551940361252
 30
0.0
  0
VERTEX
  5
47C
  8
2
  6
CONTINUOUS
 62
     7
 10
638.9669407758486
 20
426.3671547185376
 30
0.0
  0
VERTEX
  5
47D
  8
2
  6
CONTINUOUS
 62
     7
 10
638.9773255419498
 20
426.3787124252383
 30
0.0
  0
VERTEX
  5
47E
  8
2
  6
CONTINUOUS
 62
     7
 10
638.9879488612986
 20
426.3898247472023
 30
0.0
  0
VERTEX
  5
47F
  8
2
  6
CONTINUOUS
 62
     7
 10
638.9983714317578
 20
426.400091899855
 30
0.0
  0
VERTEX
  5
480
  8
2
  6
CONTINUOUS
 62
     7
 10
639.008993548831
 20
426.4099627481053
 30
0.0
  0
VERTEX
  5
481
  8
2
  6
CONTINUOUS
 62
     7
 10
639.0286888247491
 20
426.4268338673762
 30
0.0
  0
VERTEX
  5
482
  8
2
  6
CONTINUOUS
 62
     7
 10
639.0489899259868
 20
426.4424840427163
 30
0.0
  0
VERTEX
  5
483
  8
2
  6
CONTINUOUS
 62
     7
 10
639.0697933735555
 20
426.4568942762525
 30
0.0
  0
VERTEX
  5
484
  8
2
  6
CONTINUOUS
 62
     7
 10
639.0911522299849
 20
426.4701472712647
 30
0.0
  0
VERTEX
  5
485
  8
2
  6
CONTINUOUS
 62
     7
 10
639.1129108438386
 20
426.482185436574
 30
0.0
  0
VERTEX
  5
486
  8
2
  6
CONTINUOUS
 62
     7
 10
639.135135426463
 20
426.4930783611578
 30
0.0
  0
VERTEX
  5
487
  8
2
  6
CONTINUOUS
 62
     7
 10
639.157674880952
 20
426.5027790927417
 30
0.0
  0
VERTEX
  5
488
  8
2
  6
CONTINUOUS
 62
     7
 10
639.1805381107439
 20
426.5113190802676
 30
0.0
  0
VERTEX
  5
489
  8
2
  6
CONTINUOUS
 62
     7
 10
639.1984146120008
 20
426.5171296979269
 30
0.0
  0
VERTEX
  5
48A
  8
2
  6
CONTINUOUS
 62
     7
 10
639.2164324343898
 20
426.5222472697856
 30
0.0
  0
VERTEX
  5
48B
  8
2
  6
CONTINUOUS
 62
     7
 10
639.2345613773489
 20
426.526671173299
 30
0.0
  0
VERTEX
  5
48C
  8
2
  6
CONTINUOUS
 62
     7
 10
639.2528261585528
 20
426.5304124270347
 30
0.0
  0
VERTEX
  5
48D
  8
2
  6
CONTINUOUS
 62
     7
 10
639.2711751904743
 20
426.5334638801288
 30
0.0
  0
VERTEX
  5
48E
  8
2
  6
CONTINUOUS
 62
     7
 10
639.2896344563572
 20
426.5358317497393
 30
0.0
  0
VERTEX
  5
48F
  8
2
  6
CONTINUOUS
 62
     7
 10
639.3081527325269
 20
426.5375098518896
 30
0.0
  0
VERTEX
  5
490
  8
2
  6
CONTINUOUS
 62
     7
 10
639.3267338282421
 20
426.5384987069146
 30
0.0
  0
VERTEX
  5
491
  8
2
  6
CONTINUOUS
 62
     7
 10
639.3298859537276
 20
426.5385977352284
 30
0.0
  0
SEQEND
  5
524
  8
2
  6
CONTINUOUS
 62
     7
  0
ARC
  5
1A1
  8
2
  6
CONTINUOUS
 62
     7
 10
638.844010247513
 20
443.731733714395
 30
0.0
 40
17.19999999999999
 50
271.6187401814742
 51
88.3812598185256
  0
POLYLINE
  5
1A2
  8
2
  6
CONTINUOUS
 62
     7
 66
     1
 10
0.0
 20
0.0
 30
0.0
  0
VERTEX
  5
492
  8
2
  6
CONTINUOUS
 62
     7
 10
639.3298859537276
 20
422.9248696935615
 30
0.0
  0
VERTEX
  5
493
  8
2
  6
CONTINUOUS
 62
     7
 10
639.3267338282421
 20
422.9249687218754
 30
0.0
  0
VERTEX
  5
494
  8
2
  6
CONTINUOUS
 62
     7
 10
639.3041873056353
 20
422.9262585477537
 30
0.0
  0
VERTEX
  5
495
  8
2
  6
CONTINUOUS
 62
     7
 10
639.2822458097629
 20
422.9284996689967
 30
0.0
  0
VERTEX
  5
496
  8
2
  6
CONTINUOUS
 62
     7
 10
639.2603549549224
 20
422.9317180386715
 30
0.0
  0
VERTEX
  5
497
  8
2
  6
CONTINUOUS
 62
     7
 10
639.2397818328733
 20
422.9356543734785
 30
0.0
  0
VERTEX
  5
498
  8
2
  6
CONTINUOUS
 62
     7
 10
639.219292260531
 20
422.9404745119505
 30
0.0
  0
VERTEX
  5
499
  8
2
  6
CONTINUOUS
 62
     7
 10
639.1998591273109
 20
422.9459004278839
 30
0.0
  0
VERTEX
  5
49A
  8
2
  6
CONTINUOUS
 62
     7
 10
639.1805381107439
 20
422.9521483485224
 30
0.0
  0
VERTEX
  5
49B
  8
2
  6
CONTINUOUS
 62
     7
 10
639.1581823524884
 20
422.9604848573239
 30
0.0
  0
VERTEX
  5
49C
  8
2
  6
CONTINUOUS
 62
     7
 10
639.1360329479829
 20
422.9699774674775
 30
0.0
  0
VERTEX
  5
49D
  8
2
  6
CONTINUOUS
 62
     7
 10
639.1140647319341
 20
422.9806824782148
 30
0.0
  0
VERTEX
  5
49E
  8
2
  6
CONTINUOUS
 62
     7
 10
639.0923786561756
 20
422.9926035633891
 30
0.0
  0
VERTEX
  5
49F
  8
2
  6
CONTINUOUS
 62
     7
 10
639.0709351567133
 20
423.0058265180527
 30
0.0
  0
VERTEX
  5
4A0
  8
2
  6
CONTINUOUS
 62
     7
 10
639.0498696095403
 20
423.0203419682399
 30
0.0
  0
VERTEX
  5
4A1
  8
2
  6
CONTINUOUS
 62
     7
 10
639.0291813058742
 20
423.0362338859417
 30
0.0
  0
VERTEX
  5
4A2
  8
2
  6
CONTINUOUS
 62
     7
 10
639.008993548831
 20
423.0535046806847
 30
0.0
  0
VERTEX
  5
4A3
  8
2
  6
CONTINUOUS
 62
     7
 10
638.9906188871191
 20
423.0709548115024
 30
0.0
  0
VERTEX
  5
4A4
  8
2
  6
CONTINUOUS
 62
     7
 10
638.9728178375623
 20
423.0896833004269
 30
0.0
  0
VERTEX
  5
4A5
  8
2
  6
CONTINUOUS
 62
     7
 10
638.9556417295219
 20
423.1097576396905
 30
0.0
  0
VERTEX
  5
4A6
  8
2
  6
CONTINUOUS
 62
     7
 10
638.947319795681
 20
423.1203074307319
 30
0.0
  0
VERTEX
  5
4A7
  8
2
  6
CONTINUOUS
 62
     7
 10
638.939207895518
 20
423.1311824141723
 30
0.0
  0
VERTEX
  5
4A8
  8
2
  6
CONTINUOUS
 62
     7
 10
638.9312841919754
 20
423.142434122506
 30
0.0
  0
VERTEX
  5
4A9
  8
2
  6
CONTINUOUS
 62
     7
 10
638.9235988171359
 20
423.1540149729964
 30
0.0
  0
VERTEX
  5
4AA
  8
2
  6
CONTINUOUS
 62
     7
 10
638.9161392602208
 20
423.1659688158074
 30
0.0
  0
VERTEX
  5
4AB
  8
2
  6
CONTINUOUS
 62
     7
 10
638.9089492155429
 20
423.1782520206276
 30
0.0
  0
VERTEX
  5
4AC
  8
2
  6
CONTINUOUS
 62
     7
 10
638.901803866345
 20
423.1913173855273
 30
0.0
  0
VERTEX
  5
4AD
  8
2
  6
CONTINUOUS
 62
     7
 10
638.8949746790655
 20
423.2047450383857
 30
0.0
  0
VERTEX
  5
4AE
  8
2
  6
CONTINUOUS
 62
     7
 10
638.8884604869742
 20
423.2185771218209
 30
0.0
  0
VERTEX
  5
4AF
  8
2
  6
CONTINUOUS
 62
     7
 10
638.8823126192523
 20
423.2327449120558
 30
0.0
  0
VERTEX
  5
4B0
  8
2
  6
CONTINUOUS
 62
     7
 10
638.876519099133
 20
423.2473232588815
 30
0.0
  0
VERTEX
  5
4B1
  8
2
  6
CONTINUOUS
 62
     7
 10
638.8711367402485
 20
423.2622181770826
 30
0.0
  0
VERTEX
  5
4B2
  8
2
  6
CONTINUOUS
 62
     7
 10
638.8661589441085
 20
423.2775031378714
 30
0.0
  0
VERTEX
  5
4B3
  8
2
  6
CONTINUOUS
 62
     7
 10
638.8616308349306
 20
423.2931022960518
 30
0.0
  0
VERTEX
  5
4B4
  8
2
  6
CONTINUOUS
 62
     7
 10
638.8576447168783
 20
423.3087021857245
 30
0.0
  0
VERTEX
  5
4B5
  8
2
  6
CONTINUOUS
 62
     7
 10
638.8541334527524
 20
423.3245665819368
 30
0.0
  0
VERTEX
  5
4B6
  8
2
  6
CONTINUOUS
 62
     7
 10
638.8511026638821
 20
423.3407540084053
 30
0.0
  0
VERTEX
  5
4B7
  8
2
  6
CONTINUOUS
 62
     7
 10
638.8485935866668
 20
423.3571251200902
 30
0.0
  0
VERTEX
  5
4B8
  8
2
  6
CONTINUOUS
 62
     7
 10
638.8466060518515
 20
423.3737895069353
 30
0.0
  0
VERTEX
  5
4B9
  8
2
  6
CONTINUOUS
 62
     7
 10
638.8451741233124
 20
423.3905743930487
 30
0.0
  0
VERTEX
  5
4BA
  8
2
  6
CONTINUOUS
 62
     7
 10
638.8443024430447
 20
423.4075789277596
 30
0.0
  0
VERTEX
  5
4BB
  8
2
  6
CONTINUOUS
 62
     7
 10
638.844010247513
 20
423.4246701580722
 30
0.0
  0
SEQEND
  5
525
  8
2
  6
CONTINUOUS
 62
     7
  0
LINE
  5
1A3
  8
2
  6
CONTINUOUS
 62
     7
 10
638.844010247513
 20
423.4246701580722
 30
0.0
 11
638.844010247513
 21
423.4317331765954
 31
0.0
  0
ARC
  5
1A4
  8
2
  6
CONTINUOUS
 62
     7
 10
638.844010247513
 20
405.731733714395
 30
0.0
 40
17.19999999999999
 50
271.6187401814742
 51
88.3812598185256
  0
LINE
  5
1A5
  8
2
  6
CONTINUOUS
 62
     7
 10
639.3178422693915
 20
466.5346145023955
 30
0.0
 11
639.7545776187001
 21
466.5575028321872
 31
0.0
  0
LINE
  5
1A6
  8
2
  6
CONTINUOUS
 62
     7
 10
639.7545776187
 20
382.9059645966028
 30
0.0
 11
639.3178422693915
 21
382.9288529263944
 31
0.0
  0
LINE
  5
1A7
  8
2
  6
CONTINUOUS
 62
     7
 10
638.844010247513
 20
383.4281676937717
 30
0.0
 11
638.844010247513
 21
388.0387972707178
 31
0.0
  0
ARC
  5
1A8
  8
2
  6
CONTINUOUS
 62
     7
 10
639.344010247513
 20
388.0387972707178
 30
0.0
 40
0.4999999999999449
 50
91.61874018147432
 51
180.0
  0
ARC
  5
1A9
  8
2
  6
CONTINUOUS
 62
     7
 10
639.344010247513
 20
466.0352997350182
 30
0.0
 40
0.4999999999999449
 50
93.00000000000051
 51
179.9999999999992
  0
LINE
  5
1AA
  8
2
  6
CONTINUOUS
 62
     7
 10
638.844010247513
 20
461.4246701580722
 30
0.0
 11
638.844010247513
 21
466.0352997350182
 31
0.0
  0
ARC
  5
1AB
  8
2
  6
CONTINUOUS
 62
     7
 10
639.344010247513
 20
383.4281676937717
 30
0.0
 40
0.5000000000000155
 50
180.0
 51
266.9999999999994
  0
ARC
  5
1AC
  8
2
  6
CONTINUOUS
 62
     7
 10
639.344010247513
 20
461.4246701580722
 30
0.0
 40
0.4999999999999927
 50
180.0
 51
268.3812598185257
  0
ARC
  5
1AD
  8
2
  6
CONTINUOUS
 62
     7
 10
638.844010247513
 20
443.731733714395
 30
0.0
 40
17.19999999999999
 50
88.38125981852573
 51
90.0
  0
ARC
  5
1AE
  8
2
  6
CONTINUOUS
 62
     7
 10
638.844010247513
 20
405.731733714395
 30
0.0
 40
17.19999999999999
 50
270.0
 51
271.6187401814742
  0
LINE
  5
1AF
  8
2
  6
CONTINUOUS
 62
     7
 10
638.844010247513
 20
466.2518617843703
 30
0.0
 11
638.844010247513
 21
466.0352997350182
 31
0.0
  0
LINE
  5
1B0
  8
2
  6
CONTINUOUS
 62
     7
 10
638.844010247513
 20
383.4281676937717
 30
0.0
 11
638.844010247513
 21
383.2116056444197
 31
0.0
  0
ARC
  5
1B1
  8
2
  6
CONTINUOUS
 62
     7
 10
603.8440102475129
 20
425.2403569682056
 30
0.0
 40
0.499999999999972
 50
0.0
 51
88.02389171428473
  0
ARC
  5
1B2
  8
2
  6
CONTINUOUS
 62
     7
 10
604.344010247513
 20
439.731733714395
 30
0.0
 40
16.00000000000001
 50
90.0
 51
180.0
  0
ARC
  5
1B3
  8
2
  6
CONTINUOUS
 62
     7
 10
604.344010247513
 20
439.731733714395
 30
0.0
 40
16.00000000000002
 50
180.0
 51
245.3800226713429
  0
LINE
  5
1B4
  8
2
  6
CONTINUOUS
 62
     7
 10
604.344010247513
 20
425.2403569682056
 30
0.0
 11
604.344010247513
 21
425.2360781090975
 31
0.0
  0
LINE
  5
1B5
  8
2
  6
CONTINUOUS
 62
     7
 10
604.344010247513
 20
424.2273893196925
 30
0.0
 11
604.344010247513
 21
424.2231104605845
 31
0.0
  0
ARC
  5
1B6
  8
2
  6
CONTINUOUS
 62
     7
 10
604.344010247513
 20
409.731733714395
 30
0.0
 40
16.00000000000001
 50
114.6199773286571
 51
180.0
  0
ARC
  5
1B7
  8
2
  6
CONTINUOUS
 62
     7
 10
604.344010247513
 20
409.731733714395
 30
0.0
 40
15.99999999999996
 50
180.0
 51
270.0
  0
ARC
  5
1B8
  8
2
  6
CONTINUOUS
 62
     7
 10
604.344010247513
 20
439.731733714395
 30
0.0
 40
13.99999999999996
 50
90.0
 51
268.0238917142843
  0
LINE
  5
1B9
  8
2
  6
CONTINUOUS
 62
     7
 10
604.344010247513
 20
454.231733714395
 30
0.0
 11
604.344010247513
 21
453.731733714395
 31
0.0
  0
ARC
  5
1BA
  8
2
  6
CONTINUOUS
 62
     7
 10
603.8440102475129
 20
424.2231104605845
 30
0.0
 40
0.500000000000056
 50
271.976108285716
 51
359.9999999999993
  0
ARC
  5
1BB
  8
2
  6
CONTINUOUS
 62
     7
 10
604.344010247513
 20
409.731733714395
 30
0.0
 40
14.00000000000004
 50
91.97610828571565
 51
270.0
  0
LINE
  5
1BC
  8
2
  6
CONTINUOUS
 62
     7
 10
604.344010247513
 20
395.7317337143951
 30
0.0
 11
604.344010247513
 21
395.2317337143951
 31
0.0
  0
ARC
  5
1BD
  8
2
  6
CONTINUOUS
 62
     7
 10
597.4701467050792
 20
424.731733714395
 30
0.0
 40
0.500000000000056
 50
294.619977328657
 51
0.0
  0
ARC
  5
1BE
  8
2
  6
CONTINUOUS
 62
     7
 10
597.4701467050792
 20
424.731733714395
 30
0.0
 40
0.500000000000006
 50
0.0
 51
65.38002267134306
  0
LINE
  5
1BF
  8
2
  6
CONTINUOUS
 62
     7
 10
604.344010247513
 20
395.731733714395
 30
0.0
 11
604.73496784429
 21
395.7283218791361
 31
0.0
  0
LINE
  5
1C0
  8
2
  6
CONTINUOUS
 62
     7
 10
604.7349678442905
 20
453.7351455496539
 30
0.0
 11
604.344010247513
 21
453.731733714395
 31
0.0
  0
ARC
  5
1C1
  8
2
  6
CONTINUOUS
 62
     7
 10
604.344010247513
 20
439.731733714395
 30
0.0
 40
12.69999999999994
 50
151.8071394382678
 51
198.35843707533
  0
LINE
  5
1C2
  8
2
  6
CONTINUOUS
 62
     7
 10
593.1507086791642
 20
445.731733714395
 30
0.0
 11
591.6948996068394
 21
445.731733714395
 31
0.0
  0
LINE
  5
1C3
  8
2
  6
CONTINUOUS
 62
     7
 10
590.9276023825141
 20
435.731733714395
 30
0.0
 11
592.2903800889259
 21
435.731733714395
 31
0.0
  0
LINE
  5
1C4
  8
2
  6
CONTINUOUS
 62
     7
 10
593.1507086791642
 20
403.731733714395
 30
0.0
 11
591.6948996068394
 21
403.731733714395
 31
0.0
  0
ARC
  5
1C5
  8
2
  6
CONTINUOUS
 62
     7
 10
604.344010247513
 20
409.731733714395
 30
0.0
 40
12.69999999999992
 50
161.64156292467
 51
208.1928605617321
  0
LINE
  5
1C6
  8
2
  6
CONTINUOUS
 62
     7
 10
590.9276023825141
 20
413.731733714395
 30
0.0
 11
592.2903800889259
 21
413.731733714395
 31
0.0
  0
LINE
  5
1C7
  8
2
  6
CONTINUOUS
 62
     7
 10
592.4132616440289
 20
486.9481451846286
 30
0.0
 11
592.3951194137065
 21
486.9473019479518
 31
0.0
  0
LINE
  5
1C8
  8
2
  6
CONTINUOUS
 62
     7
 10
592.3951194137065
 20
486.9473019479518
 30
0.0
 11
592.241895065936
 21
486.9356002283453
 31
0.0
  0
ARC
  5
1C9
  8
2
  6
CONTINUOUS
 62
     7
 10
592.5467374330254
 20
483.9426812873909
 30
0.0
 40
3.008403672364447
 50
95.81577868534166
 51
148.2559414167374
  0
ENDBLK
  8
0
  0
BLOCK
  8
0
  2
D_FRAME_VIEW_2513
 70
     0
 10
0.0
 20
0.0
 30
0.0
  0
LINE
  5
1CF
  8
2
  6
CONTINUOUS
 62
     7
 10
545.0760299569994
 20
461.7751874019456
 30
0.0
 11
545.0020137552546
 21
454.4074649775787
 31
0.0
  0
LINE
  5
1D0
  8
2
  6
CONTINUOUS
 62
     7
 10
545.0020137552546
 20
395.0560024512112
 30
0.0
 11
545.0760299569994
 21
387.6882800268444
 31
0.0
  0
LINE
  5
1D1
  8
2
  6
CONTINUOUS
 62
     7
 10
545.653299812593
 20
466.7264027141583
 30
0.0
 11
545.1913678492991
 21
466.2921879517199
 31
0.0
  0
LINE
  5
1D2
  8
2
  6
CONTINUOUS
 62
     7
 10
545.0784612973375
 20
461.4038185301305
 30
0.0
 11
545.1913678492991
 21
466.2921879517199
 31
0.0
  0
LINE
  5
1D3
  8
2
  6
CONTINUOUS
 62
     7
 10
545.0063808782762
 20
454.2423819081499
 30
0.0
 11
545.0784612973375
 21
461.4038185301305
 31
0.0
  0
LINE
  5
1D4
  8
2
  6
CONTINUOUS
 62
     7
 10
545.0063808782764
 20
454.2423819081499
 30
0.0
 11
544.9979120415072
 21
432.2317337143951
 31
0.0
  0
LINE
  5
1D5
  8
2
  6
CONTINUOUS
 62
     7
 10
544.997912041507
 20
432.231733714395
 30
0.0
 11
544.997912041507
 21
417.231733714395
 31
0.0
  0
LINE
  5
1D6
  8
2
  6
CONTINUOUS
 62
     7
 10
544.9979120415072
 20
417.231733714395
 30
0.0
 11
545.0063808782764
 21
395.2210855206403
 31
0.0
  0
LINE
  5
1D7
  8
2
  6
CONTINUOUS
 62
     7
 10
545.0063808782762
 20
395.2210855206401
 30
0.0
 11
545.0784612973375
 21
388.0596488986594
 31
0.0
  0
LINE
  5
1D8
  8
2
  6
CONTINUOUS
 62
     7
 10
545.1913678492991
 20
383.1712794770701
 30
0.0
 11
545.0784612973375
 21
388.0596488986594
 31
0.0
  0
LINE
  5
1D9
  8
2
  6
CONTINUOUS
 62
     7
 10
545.653299812593
 20
382.7370647146316
 30
0.0
 11
545.1913678492991
 21
383.1712794770701
 31
0.0
  0
LINE
  5
1DA
  8
2
  6
CONTINUOUS
 62
     7
 10
545.653299812593
 20
382.2313596698388
 30
0.0
 11
545.653299812593
 21
382.7370647146316
 31
0.0
  0
LINE
  5
1DB
  8
2
  6
CONTINUOUS
 62
     7
 10
545.653299812593
 20
467.2321077589513
 30
0.0
 11
545.653299812593
 21
466.7264027141583
 31
0.0
  0
LINE
  5
1DC
  8
2
  6
CONTINUOUS
 62
     7
 10
375.6532998125937
 20
486.0071768635621
 30
0.0
 11
375.6532998125937
 21
485.4936397614047
 31
0.0
  0
LINE
  5
1DD
  8
2
  6
CONTINUOUS
 62
     7
 10
375.6532998125936
 20
363.4562905652278
 30
0.0
 11
375.6532998125936
 21
363.9698276673853
 31
0.0
  0
POLYLINE
  5
1DE
  8
2
  6
CONTINUOUS
 62
     7
 66
     1
 10
0.0
 20
0.0
 30
0.0
  0
VERTEX
  5
4BC
  8
2
  6
CONTINUOUS
 62
     7
 10
375.6532998125936
 20
363.4562905652278
 30
0.0
  0
VERTEX
  5
4BD
  8
2
  6
CONTINUOUS
 62
     7
 10
375.6821203709664
 20
363.1636604644633
 30
0.0
  0
VERTEX
  5
4BE
  8
2
  6
CONTINUOUS
 62
     7
 10
375.7674745888087
 20
362.8822790788517
 30
0.0
  0
VERTEX
  5
4BF
  8
2
  6
CONTINUOUS
 62
     7
 10
375.9060826493869
 20
362.6229587548751
 30
0.0
  0
VERTEX
  5
4C0
  8
2
  6
CONTINUOUS
 62
     7
 10
376.0926184065777
 20
362.3956641218093
 30
0.0
  0
VERTEX
  5
4C1
  8
2
  6
CONTINUOUS
 62
     7
 10
376.3199140470814
 20
362.2091291913972
 30
0.0
  0
VERTEX
  5
4C2
  8
2
  6
CONTINUOUS
 62
     7
 10
376.5792355204432
 20
362.0705217451686
 30
0.0
  0
VERTEX
  5
4C3
  8
2
  6
CONTINUOUS
 62
     7
 10
376.8606181532213
 20
361.98516790564
 30
0.0
  0
VERTEX
  5
4C4
  8
2
  6
CONTINUOUS
 62
     7
 10
377.15324955101
 20
361.9563474750079
 30
0.0
  0
SEQEND
  5
526
  8
2
  6
CONTINUOUS
 62
     7
  0
POLYLINE
  5
1DF
  8
2
  6
CONTINUOUS
 62
     7
 66
     1
 10
0.0
 20
0.0
 30
0.0
  0
VERTEX
  5
4C5
  8
2
  6
CONTINUOUS
 62
     7
 10
377.1532495510103
 20
487.507119953782
 30
0.0
  0
VERTEX
  5
4C6
  8
2
  6
CONTINUOUS
 62
     7
 10
376.8606181532215
 20
487.4782995231499
 30
0.0
  0
VERTEX
  5
4C7
  8
2
  6
CONTINUOUS
 62
     7
 10
376.5792355204434
 20
487.3929456836213
 30
0.0
  0
VERTEX
  5
4C8
  8
2
  6
CONTINUOUS
 62
     7
 10
376.3199140470816
 20
487.2543382373928
 30
0.0
  0
VERTEX
  5
4C9
  8
2
  6
CONTINUOUS
 62
     7
 10
376.0926184065779
 20
487.0678033069807
 30
0.0
  0
VERTEX
  5
4CA
  8
2
  6
CONTINUOUS
 62
     7
 10
375.9060826493871
 20
486.8405086739148
 30
0.0
  0
VERTEX
  5
4CB
  8
2
  6
CONTINUOUS
 62
     7
 10
375.7674745888089
 20
486.5811883499383
 30
0.0
  0
VERTEX
  5
4CC
  8
2
  6
CONTINUOUS
 62
     7
 10
375.6821203709666
 20
486.2998069643267
 30
0.0
  0
VERTEX
  5
4CD
  8
2
  6
CONTINUOUS
 62
     7
 10
375.6532998125937
 20
486.0071768635621
 30
0.0
  0
SEQEND
  5
527
  8
2
  6
CONTINUOUS
 62
     7
  0
LINE
  5
1E0
  8
2
  6
CONTINUOUS
 62
     7
 10
486.353299812593
 20
361.9563474750079
 30
0.0
 11
502.7397348979135
 21
361.9563474750079
 31
0.0
  0
LINE
  5
1E1
  8
2
  6
CONTINUOUS
 62
     7
 10
486.3532998125931
 20
362.1317337143949
 30
0.0
 11
486.353299812593
 21
361.9563474750079
 31
0.0
  0
LINE
  5
1E2
  8
2
  6
CONTINUOUS
 62
     7
 10
486.3532998125931
 20
362.1317337143949
 30
0.0
 11
486.1234735690817
 21
362.4075252066086
 31
0.0
  0
LINE
  5
1E3
  8
2
  6
CONTINUOUS
 62
     7
 10
486.1234735690817
 20
362.4075252066086
 30
0.0
 11
475.3532998125931
 21
362.4952755712572
 31
0.0
  0
LINE
  5
1E4
  8
2
  6
CONTINUOUS
 62
     7
 10
475.3532998125931
 20
362.4952755712572
 30
0.0
 11
420.3532998125931
 21
362.4952755712572
 31
0.0
  0
LINE
  5
1E5
  8
2
  6
CONTINUOUS
 62
     7
 10
420.3532998125931
 20
362.4952755712572
 30
0.0
 11
409.5831260561044
 21
362.4075252066086
 31
0.0
  0
LINE
  5
1E6
  8
2
  6
CONTINUOUS
 62
     7
 10
409.5831260561044
 20
362.4075252066086
 30
0.0
 11
409.3532998125932
 21
362.1317337143951
 31
0.0
  0
LINE
  5
1E7
  8
2
  6
CONTINUOUS
 62
     7
 10
409.3532998125931
 20
361.9563474750079
 30
0.0
 11
409.3532998125932
 21
362.1317337143951
 31
0.0
  0
LINE
  5
1E8
  8
2
  6
CONTINUOUS
 62
     7
 10
377.15324955101
 20
361.9563474750079
 30
0.0
 11
409.3532998125931
 21
361.9563474750079
 31
0.0
  0
LINE
  5
1E9
  8
2
  6
CONTINUOUS
 62
     7
 10
409.3532998125931
 20
487.507119953782
 30
0.0
 11
409.3532998125932
 21
487.3317337143949
 31
0.0
  0
LINE
  5
1EA
  8
2
  6
CONTINUOUS
 62
     7
 10
409.5831260561044
 20
487.0559422221814
 30
0.0
 11
409.3532998125932
 21
487.3317337143949
 31
0.0
  0
LINE
  5
1EB
  8
2
  6
CONTINUOUS
 62
     7
 10
420.3532998125931
 20
486.9681918575328
 30
0.0
 11
409.5831260561044
 21
487.0559422221814
 31
0.0
  0
LINE
  5
1EC
  8
2
  6
CONTINUOUS
 62
     7
 10
475.3532998125931
 20
486.9681918575328
 30
0.0
 11
420.3532998125931
 21
486.9681918575328
 31
0.0
  0
LINE
  5
1ED
  8
2
  6
CONTINUOUS
 62
     7
 10
486.1234735690817
 20
487.0559422221814
 30
0.0
 11
475.3532998125931
 21
486.9681918575328
 31
0.0
  0
LINE
  5
1EE
  8
2
  6
CONTINUOUS
 62
     7
 10
486.3532998125931
 20
487.3317337143951
 30
0.0
 11
486.1234735690817
 21
487.0559422221814
 31
0.0
  0
LINE
  5
1EF
  8
2
  6
CONTINUOUS
 62
     7
 10
486.3532998125931
 20
487.3317337143951
 30
0.0
 11
486.353299812593
 21
487.507119953782
 31
0.0
  0
LINE
  5
1F0
  8
2
  6
CONTINUOUS
 62
     7
 10
486.353299812593
 20
487.507119953782
 30
0.0
 11
502.7397348979135
 21
487.507119953782
 31
0.0
  0
LINE
  5
1F1
  8
2
  6
CONTINUOUS
 62
     7
 10
377.1532495510103
 20
487.507119953782
 30
0.0
 11
409.3532998125931
 21
487.507119953782
 31
0.0
  0
LINE
  5
1F2
  8
2
  6
CONTINUOUS
 62
     7
 10
420.3532998125931
 20
362.4837607560542
 30
0.0
 11
475.3532998125931
 21
362.4837607560542
 31
0.0
  0
LINE
  5
1F3
  8
2
  6
CONTINUOUS
 62
     7
 10
484.6201456266059
 20
362.4519486912104
 30
0.0
 11
484.5831260561044
 21
362.4075252066086
 31
0.0
  0
LINE
  5
1F4
  8
2
  6
CONTINUOUS
 62
     7
 10
475.3532998125931
 20
362.4837607560542
 30
0.0
 11
484.5831260561044
 21
362.4075252066086
 31
0.0
  0
LINE
  5
1F5
  8
2
  6
CONTINUOUS
 62
     7
 10
411.1234735690818
 20
362.4075252066086
 30
0.0
 11
420.3532998125931
 21
362.4837607560542
 31
0.0
  0
LINE
  5
1F6
  8
2
  6
CONTINUOUS
 62
     7
 10
411.0864539985802
 20
362.4519486912104
 30
0.0
 11
411.1234735690818
 21
362.4075252066086
 31
0.0
  0
LINE
  5
1F7
  8
2
  6
CONTINUOUS
 62
     7
 10
475.3532998125931
 20
486.9797066727359
 30
0.0
 11
484.5831260561044
 21
487.0559422221814
 31
0.0
  0
LINE
  5
1F8
  8
2
  6
CONTINUOUS
 62
     7
 10
484.6201456266059
 20
487.0115187375795
 30
0.0
 11
484.5831260561044
 21
487.0559422221814
 31
0.0
  0
LINE
  5
1F9
  8
2
  6
CONTINUOUS
 62
     7
 10
420.3532998125931
 20
486.9797066727358
 30
0.0
 11
475.3532998125931
 21
486.9797066727359
 31
0.0
  0
LINE
  5
1FA
  8
2
  6
CONTINUOUS
 62
     7
 10
411.1234735690818
 20
487.0559422221814
 30
0.0
 11
420.3532998125931
 21
486.9797066727359
 31
0.0
  0
LINE
  5
1FB
  8
2
  6
CONTINUOUS
 62
     7
 10
411.0864539985802
 20
487.0115187375795
 30
0.0
 11
411.1234735690818
 21
487.0559422221814
 31
0.0
  0
LINE
  5
1FC
  8
2
  6
CONTINUOUS
 62
     7
 10
484.353299812593
 20
362.131733714395
 30
0.0
 11
484.353299812593
 21
361.9563474750079
 31
0.0
  0
LINE
  5
1FD
  8
2
  6
CONTINUOUS
 62
     7
 10
411.3532998125931
 20
361.9563474750079
 30
0.0
 11
484.353299812593
 21
361.9563474750079
 31
0.0
  0
LINE
  5
1FE
  8
2
  6
CONTINUOUS
 62
     7
 10
411.3532998125931
 20
361.9563474750079
 30
0.0
 11
411.3532998125931
 21
362.1317337143951
 31
0.0
  0
LINE
  5
1FF
  8
2
  6
CONTINUOUS
 62
     7
 10
411.3532998125931
 20
362.1317337143951
 30
0.0
 11
411.1234735690818
 21
362.4075252066086
 31
0.0
  0
LINE
  5
200
  8
2
  6
CONTINUOUS
 62
     7
 10
484.5831260561044
 20
362.4075252066086
 30
0.0
 11
484.353299812593
 21
362.131733714395
 31
0.0
  0
LINE
  5
201
  8
2
  6
CONTINUOUS
 62
     7
 10
411.3532998125931
 20
487.3317337143949
 30
0.0
 11
411.1234735690818
 21
487.0559422221814
 31
0.0
  0
LINE
  5
202
  8
2
  6
CONTINUOUS
 62
     7
 10
411.3532998125931
 20
487.507119953782
 30
0.0
 11
411.3532998125931
 21
487.3317337143949
 31
0.0
  0
LINE
  5
203
  8
2
  6
CONTINUOUS
 62
     7
 10
411.3532998125931
 20
487.507119953782
 30
0.0
 11
484.353299812593
 21
487.507119953782
 31
0.0
  0
LINE
  5
204
  8
2
  6
CONTINUOUS
 62
     7
 10
484.353299812593
 20
487.3317337143949
 30
0.0
 11
484.353299812593
 21
487.507119953782
 31
0.0
  0
LINE
  5
205
  8
2
  6
CONTINUOUS
 62
     7
 10
484.5831260561044
 20
487.0559422221814
 30
0.0
 11
484.353299812593
 21
487.3317337143949
 31
0.0
  0
POLYLINE
  5
206
  8
2
  6
CONTINUOUS
 62
     7
 66
     1
 10
0.0
 20
0.0
 30
0.0
  0
VERTEX
  5
4CE
  8
2
  6
CONTINUOUS
 62
     7
 10
502.7397348979136
 20
361.956347475008
 30
0.0
  0
VERTEX
  5
4CF
  8
2
  6
CONTINUOUS
 62
     7
 10
504.737314056436
 20
362.1579001408652
 30
0.0
  0
VERTEX
  5
4D0
  8
2
  6
CONTINUOUS
 62
     7
 10
506.6543609037161
 20
362.7544337163679
 30
0.0
  0
VERTEX
  5
4D1
  8
2
  6
CONTINUOUS
 62
     7
 10
508.4136008592012
 20
363.7219024240755
 30
0.0
  0
VERTEX
  5
4D2
  8
2
  6
CONTINUOUS
 62
     7
 10
509.9441204082609
 20
365.0213083966735
 30
0.0
  0
SEQEND
  5
528
  8
2
  6
CONTINUOUS
 62
     7
  0
POLYLINE
  5
207
  8
2
  6
CONTINUOUS
 62
     7
 66
     1
 10
0.0
 20
0.0
 30
0.0
  0
VERTEX
  5
4D3
  8
2
  6
CONTINUOUS
 62
     7
 10
509.9441204082609
 20
484.4421590321165
 30
0.0
  0
VERTEX
  5
4D4
  8
2
  6
CONTINUOUS
 62
     7
 10
508.4136008592012
 20
485.7415650047145
 30
0.0
  0
VERTEX
  5
4D5
  8
2
  6
CONTINUOUS
 62
     7
 10
506.6543609037161
 20
486.7090337124221
 30
0.0
  0
VERTEX
  5
4D6
  8
2
  6
CONTINUOUS
 62
     7
 10
504.737314056436
 20
487.3055672879248
 30
0.0
  0
VERTEX
  5
4D7
  8
2
  6
CONTINUOUS
 62
     7
 10
502.7397348979136
 20
487.507119953782
 30
0.0
  0
SEQEND
  5
529
  8
2
  6
CONTINUOUS
 62
     7
  0
LINE
  5
208
  8
2
  6
CONTINUOUS
 62
     7
 10
509.9441204082607
 20
365.0213083966735
 30
0.0
 11
525.066149675267
 21
380.7314165796188
 31
0.0
  0
LINE
  5
209
  8
2
  6
CONTINUOUS
 62
     7
 10
509.9441204082607
 20
484.4421590321164
 30
0.0
 11
525.066149675267
 21
468.7320508491711
 31
0.0
  0
POLYLINE
  5
20A
  8
2
  6
CONTINUOUS
 62
     7
 66
     1
 10
0.0
 20
0.0
 30
0.0
  0
VERTEX
  5
4D8
  8
2
  6
CONTINUOUS
 62
     7
 10
544.1533500741766
 20
380.7314165796188
 30
0.0
  0
VERTEX
  5
4D9
  8
2
  6
CONTINUOUS
 62
     7
 10
544.4459814719653
 20
380.760237010251
 30
0.0
  0
VERTEX
  5
4DA
  8
2
  6
CONTINUOUS
 62
     7
 10
544.7273641047434
 20
380.8455908497795
 30
0.0
  0
VERTEX
  5
4DB
  8
2
  6
CONTINUOUS
 62
     7
 10
544.9866855781052
 20
380.9841982960081
 30
0.0
  0
VERTEX
  5
4DC
  8
2
  6
CONTINUOUS
 62
     7
 10
545.2139812186089
 20
381.1707332264202
 30
0.0
  0
VERTEX
  5
4DD
  8
2
  6
CONTINUOUS
 62
     7
 10
545.4005169757996
 20
381.398027859486
 30
0.0
  0
VERTEX
  5
4DE
  8
2
  6
CONTINUOUS
 62
     7
 10
545.5391250363778
 20
381.6573481834625
 30
0.0
  0
VERTEX
  5
4DF
  8
2
  6
CONTINUOUS
 62
     7
 10
545.6244792542201
 20
381.9387295690742
 30
0.0
  0
VERTEX
  5
4E0
  8
2
  6
CONTINUOUS
 62
     7
 10
545.653299812593
 20
382.2313596698388
 30
0.0
  0
SEQEND
  5
52A
  8
2
  6
CONTINUOUS
 62
     7
  0
POLYLINE
  5
20B
  8
2
  6
CONTINUOUS
 62
     7
 66
     1
 10
0.0
 20
0.0
 30
0.0
  0
VERTEX
  5
4E1
  8
2
  6
CONTINUOUS
 62
     7
 10
545.6532998125932
 20
467.2321077589512
 30
0.0
  0
VERTEX
  5
4E2
  8
2
  6
CONTINUOUS
 62
     7
 10
545.6244792542204
 20
467.5247378597159
 30
0.0
  0
VERTEX
  5
4E3
  8
2
  6
CONTINUOUS
 62
     7
 10
545.5391250363781
 20
467.8061192453274
 30
0.0
  0
VERTEX
  5
4E4
  8
2
  6
CONTINUOUS
 62
     7
 10
545.4005169757999
 20
468.065439569304
 30
0.0
  0
VERTEX
  5
4E5
  8
2
  6
CONTINUOUS
 62
     7
 10
545.2139812186091
 20
468.2927342023698
 30
0.0
  0
VERTEX
  5
4E6
  8
2
  6
CONTINUOUS
 62
     7
 10
544.9866855781053
 20
468.479269132782
 30
0.0
  0
VERTEX
  5
4E7
  8
2
  6
CONTINUOUS
 62
     7
 10
544.7273641047435
 20
468.6178765790105
 30
0.0
  0
VERTEX
  5
4E8
  8
2
  6
CONTINUOUS
 62
     7
 10
544.4459814719654
 20
468.703230418539
 30
0.0
  0
VERTEX
  5
4E9
  8
2
  6
CONTINUOUS
 62
     7
 10
544.1533500741766
 20
468.7320508491711
 30
0.0
  0
SEQEND
  5
52B
  8
2
  6
CONTINUOUS
 62
     7
  0
LINE
  5
20C
  8
2
  6
CONTINUOUS
 62
     7
 10
525.066149675267
 20
380.7314165796188
 30
0.0
 11
544.1533500741765
 21
380.7314165796188
 31
0.0
  0
LINE
  5
20D
  8
2
  6
CONTINUOUS
 62
     7
 10
525.066149675267
 20
468.7320508491711
 30
0.0
 11
544.1533500741765
 21
468.7320508491712
 31
0.0
  0
LINE
  5
20E
  8
2
  6
CONTINUOUS
 62
     7
 10
375.6532998125931
 20
485.4817337143949
 30
0.0
 11
375.6532998125931
 21
363.981733714395
 31
0.0
  0
LINE
  5
20F
  8
2
  6
CONTINUOUS
 62
     7
 10
375.6659658574774
 20
363.981733714395
 30
0.0
 11
375.6532998125931
 21
363.981733714395
 31
0.0
  0
LINE
  5
210
  8
2
  6
CONTINUOUS
 62
     7
 10
375.6659658574775
 20
485.4817337143949
 30
0.0
 11
375.6532998125931
 21
485.4817337143949
 31
0.0
  0
ENDBLK
  8
0
  0
BLOCK
  8
0
  2
D_FRAME_VIEW_5041
 70
     0
 10
0.0
 20
0.0
 30
0.0
  0
LINE
  5
215
  8
2
  6
CONTINUOUS
 62
     7
 10
502.7397348979135
 20
265.974346054041
 30
0.0
 11
509.9441204082607
 21
265.974346054041
 31
0.0
  0
LINE
  5
216
  8
2
  6
CONTINUOUS
 62
     7
 10
486.353299812593
 20
265.974346054041
 30
0.0
 11
502.7397348979135
 21
265.974346054041
 31
0.0
  0
LINE
  5
217
  8
2
  6
CONTINUOUS
 62
     7
 10
486.3532998125931
 20
287.3544862751777
 30
0.0
 11
486.353299812593
 21
265.974346054041
 31
0.0
  0
LINE
  5
218
  8
2
  6
CONTINUOUS
 62
     7
 10
486.3532998125931
 20
287.3544862751777
 30
0.0
 11
486.1234735690817
 21
320.974346054041
 31
0.0
  0
POLYLINE
  5
219
  8
2
  6
CONTINUOUS
 62
     7
 66
     1
 10
0.0
 20
0.0
 30
0.0
  0
VERTEX
  5
4EC
  8
2
  6
CONTINUOUS
 62
     7
 10
486.1234735690817
 20
320.9743460540408
 30
0.0
  0
VERTEX
  5
4ED
  8
2
  6
CONTINUOUS
 62
     7
 10
485.904017116351
 20
323.0651219513119
 30
0.0
  0
VERTEX
  5
4EE
  8
2
  6
CONTINUOUS
 62
     7
 10
485.2826127069574
 20
325.0734410873472
 30
0.0
  0
VERTEX
  5
4EF
  8
2
  6
CONTINUOUS
 62
     7
 10
484.2829338244591
 20
326.922793045858
 30
0.0
  0
VERTEX
  5
4F0
  8
2
  6
CONTINUOUS
 62
     7
 10
482.9430649774795
 20
328.5427235421285
 30
0.0
  0
VERTEX
  5
4F1
  8
2
  6
CONTINUOUS
 62
     7
 10
481.3140508040024
 20
329.8715185017346
 30
0.0
  0
VERTEX
  5
4F2
  8
2
  6
CONTINUOUS
 62
     7
 10
479.4579514369604
 20
330.8585551657243
 30
0.0
  0
VERTEX
  5
4F3
  8
2
  6
CONTINUOUS
 62
     7
 10
477.4454782153521
 20
331.4662306528131
 30
0.0
  0
VERTEX
  5
4F4
  8
2
  6
CONTINUOUS
 62
     7
 10
475.3532998125934
 20
331.6713945066558
 30
0.0
  0
SEQEND
  5
52C
  8
2
  6
CONTINUOUS
 62
     7
  0
LINE
  5
21A
  8
2
  6
CONTINUOUS
 62
     7
 10
475.3532998125931
 20
331.6713945066558
 30
0.0
 11
420.3532998125931
 21
331.6713945066558
 31
0.0
  0
POLYLINE
  5
21B
  8
2
  6
CONTINUOUS
 62
     7
 66
     1
 10
0.0
 20
0.0
 30
0.0
  0
VERTEX
  5
4F5
  8
2
  6
CONTINUOUS
 62
     7
 10
420.3532998125934
 20
331.6713945066558
 30
0.0
  0
VERTEX
  5
4F6
  8
2
  6
CONTINUOUS
 62
     7
 10
418.2611214098346
 20
331.4662306528132
 30
0.0
  0
VERTEX
  5
4F7
  8
2
  6
CONTINUOUS
 62
     7
 10
416.2486481882264
 20
330.8585551657246
 30
0.0
  0
VERTEX
  5
4F8
  8
2
  6
CONTINUOUS
 62
     7
 10
414.3925488211843
 20
329.8715185017348
 30
0.0
  0
VERTEX
  5
4F9
  8
2
  6
CONTINUOUS
 62
     7
 10
412.7635346477072
 20
328.5427235421289
 30
0.0
  0
VERTEX
  5
4FA
  8
2
  6
CONTINUOUS
 62
     7
 10
411.4236658007275
 20
326.9227930458584
 30
0.0
  0
VERTEX
  5
4FB
  8
2
  6
CONTINUOUS
 62
     7
 10
410.423986918229
 20
325.0734410873477
 30
0.0
  0
VERTEX
  5
4FC
  8
2
  6
CONTINUOUS
 62
     7
 10
409.8025825088353
 20
323.0651219513124
 30
0.0
  0
VERTEX
  5
4FD
  8
2
  6
CONTINUOUS
 62
     7
 10
409.5831260561045
 20
320.9743460540413
 30
0.0
  0
SEQEND
  5
52D
  8
2
  6
CONTINUOUS
 62
     7
  0
LINE
  5
21C
  8
2
  6
CONTINUOUS
 62
     7
 10
409.5831260561044
 20
320.974346054041
 30
0.0
 11
409.3532998125932
 21
287.3544862752179
 31
0.0
  0
LINE
  5
21D
  8
2
  6
CONTINUOUS
 62
     7
 10
409.3532998125931
 20
265.974346054041
 30
0.0
 11
409.3532998125932
 21
287.3544862752179
 31
0.0
  0
LINE
  5
21E
  8
2
  6
CONTINUOUS
 62
     7
 10
377.15324955101
 20
265.974346054041
 30
0.0
 11
409.3532998125931
 21
265.974346054041
 31
0.0
  0
LINE
  5
21F
  8
2
  6
CONTINUOUS
 62
     7
 10
375.6532998125936
 20
265.974346054041
 30
0.0
 11
376.2452766386599
 21
333.8081714608235
 31
0.0
  0
LINE
  5
220
  8
2
  6
CONTINUOUS
 62
     7
 10
377.15324955101
 20
265.974346054041
 30
0.0
 11
375.6532998125936
 21
265.974346054041
 31
0.0
  0
LINE
  5
221
  8
2
  6
CONTINUOUS
 62
     7
 10
411.3532998125931
 20
287.3544862752179
 30
0.0
 11
411.1234735690818
 21
320.974346054041
 31
0.0
  0
POLYLINE
  5
222
  8
2
  6
CONTINUOUS
 62
     7
 66
     1
 10
0.0
 20
0.0
 30
0.0
  0
VERTEX
  5
4FE
  8
2
  6
CONTINUOUS
 62
     7
 10
420.3532998125931
 20
330.2677019220903
 30
0.0
  0
VERTEX
  5
4FF
  8
2
  6
CONTINUOUS
 62
     7
 10
418.5448730092717
 20
330.0888030607903
 30
0.0
  0
VERTEX
  5
500
  8
2
  6
CONTINUOUS
 62
     7
 10
416.8065472823022
 20
329.5590412351634
 30
0.0
  0
VERTEX
  5
501
  8
2
  6
CONTINUOUS
 62
     7
 10
415.2057063401585
 20
328.6989519040504
 30
0.0
  0
VERTEX
  5
502
  8
2
  6
CONTINUOUS
 62
     7
 10
413.8044044904335
 20
327.5418751991944
 30
0.0
  0
VERTEX
  5
503
  8
2
  6
CONTINUOUS
 62
     7
 10
412.6569611934333
 20
326.1326635427574
 30
0.0
  0
VERTEX
  5
504
  8
2
  6
CONTINUOUS
 62
     7
 10
411.8078554460548
 20
324.5259430073806
 30
0.0
  0
VERTEX
  5
505
  8
2
  6
CONTINUOUS
 62
     7
 10
411.2900016171395
 20
322.7839958146722
 30
0.0
  0
VERTEX
  5
506
  8
2
  6
CONTINUOUS
 62
     7
 10
411.1234735690818
 20
320.9743460540413
 30
0.0
  0
SEQEND
  5
52E
  8
2
  6
CONTINUOUS
 62
     7
  0
LINE
  5
223
  8
2
  6
CONTINUOUS
 62
     7
 10
420.3532998125931
 20
330.2677019220903
 30
0.0
 11
475.3532998125931
 21
330.2677019220903
 31
0.0
  0
POLYLINE
  5
224
  8
2
  6
CONTINUOUS
 62
     7
 66
     1
 10
0.0
 20
0.0
 30
0.0
  0
VERTEX
  5
507
  8
2
  6
CONTINUOUS
 62
     7
 10
484.5831260561044
 20
320.9743460540408
 30
0.0
  0
VERTEX
  5
508
  8
2
  6
CONTINUOUS
 62
     7
 10
484.4165980080468
 20
322.7839958146718
 30
0.0
  0
VERTEX
  5
509
  8
2
  6
CONTINUOUS
 62
     7
 10
483.8987441791316
 20
324.5259430073803
 30
0.0
  0
VERTEX
  5
50A
  8
2
  6
CONTINUOUS
 62
     7
 10
483.049638431753
 20
326.1326635427572
 30
0.0
  0
VERTEX
  5
50B
  8
2
  6
CONTINUOUS
 62
     7
 10
481.9021951347529
 20
327.5418751991942
 30
0.0
  0
VERTEX
  5
50C
  8
2
  6
CONTINUOUS
 62
     7
 10
480.5008932850278
 20
328.6989519040504
 30
0.0
  0
VERTEX
  5
50D
  8
2
  6
CONTINUOUS
 62
     7
 10
478.9000523428841
 20
329.5590412351633
 30
0.0
  0
VERTEX
  5
50E
  8
2
  6
CONTINUOUS
 62
     7
 10
477.1617266159146
 20
330.0888030607903
 30
0.0
  0
VERTEX
  5
50F
  8
2
  6
CONTINUOUS
 62
     7
 10
475.3532998125931
 20
330.2677019220903
 30
0.0
  0
SEQEND
  5
52F
  8
2
  6
CONTINUOUS
 62
     7
  0
LINE
  5
225
  8
2
  6
CONTINUOUS
 62
     7
 10
484.5831260561044
 20
320.974346054041
 30
0.0
 11
484.353299812593
 21
287.3544862752023
 31
0.0
  0
LINE
  5
226
  8
2
  6
CONTINUOUS
 62
     7
 10
411.3532998125931
 20
265.974346054041
 30
0.0
 11
411.3532998125931
 21
287.3544862752179
 31
0.0
  0
LINE
  5
227
  8
2
  6
CONTINUOUS
 62
     7
 10
484.353299812593
 20
287.3544862752023
 30
0.0
 11
484.353299812593
 21
265.974346054041
 31
0.0
  0
LINE
  5
228
  8
2
  6
CONTINUOUS
 62
     7
 10
411.3532998125931
 20
265.974346054041
 30
0.0
 11
484.353299812593
 21
265.974346054041
 31
0.0
  0
LINE
  5
229
  8
2
  6
CONTINUOUS
 62
     7
 10
485.353299812593
 20
265.974346054041
 30
0.0
 11
485.353299812593
 21
320.974346054041
 31
0.0
  0
LINE
  5
22A
  8
2
  6
CONTINUOUS
 62
     7
 10
486.353299812593
 20
265.974346054041
 30
0.0
 11
485.353299812593
 21
265.974346054041
 31
0.0
  0
LINE
  5
22B
  8
2
  6
CONTINUOUS
 62
     7
 10
410.3532998125931
 20
320.974346054041
 30
0.0
 11
410.3532998125931
 21
265.974346054041
 31
0.0
  0
LINE
  5
22C
  8
2
  6
CONTINUOUS
 62
     7
 10
409.3532998125931
 20
265.974346054041
 30
0.0
 11
410.3532998125931
 21
265.974346054041
 31
0.0
  0
LINE
  5
22D
  8
2
  6
CONTINUOUS
 62
     7
 10
410.3532998125931
 20
265.974346054041
 30
0.0
 11
411.3532998125931
 21
265.974346054041
 31
0.0
  0
LINE
  5
22E
  8
2
  6
CONTINUOUS
 62
     7
 10
485.353299812593
 20
265.974346054041
 30
0.0
 11
484.353299812593
 21
265.974346054041
 31
0.0
  0
LINE
  5
22F
  8
2
  6
CONTINUOUS
 62
     7
 10
376.2452766386599
 20
333.8081714608235
 30
0.0
 11
376.2578497447271
 21
335.2489067129986
 31
0.0
  0
ARC
  5
230
  8
2
  6
CONTINUOUS
 62
     7
 10
475.3532998125931
 20
320.974346054041
 30
0.0
 40
9.999999999999954
 50
0.0000000000000398
 51
89.9999999999999
  0
ARC
  5
231
  8
2
  6
CONTINUOUS
 62
     7
 10
420.3532998125931
 20
320.974346054041
 30
0.0
 40
9.999999999999954
 50
89.99999999999991
 51
180.0
  0
LINE
  5
232
  8
2
  6
CONTINUOUS
 62
     7
 10
475.3532998125931
 20
330.974346054041
 30
0.0
 11
420.3532998125931
 21
330.974346054041
 31
0.0
  0
LINE
  5
233
  8
2
  6
CONTINUOUS
 62
     7
 10
522.5882483532098
 20
333.0935334003442
 30
0.0
 11
519.3413690451783
 21
341.879171111818
 31
0.0
  0
LINE
  5
234
  8
2
  6
CONTINUOUS
 62
     7
 10
376.2578497447271
 20
335.2489067129986
 30
0.0
 11
376.3116463787424
 21
341.4133903863026
 31
0.0
  0
LINE
  5
235
  8
2
  6
CONTINUOUS
 62
     7
 10
524.8816316936661
 20
318.846345082137
 30
0.0
 11
525.066149675267
 21
265.974346054041
 31
0.0
  0
LINE
  5
236
  8
2
  6
CONTINUOUS
 62
     7
 10
509.9441204082607
 20
265.974346054041
 30
0.0
 11
525.066149675267
 21
265.974346054041
 31
0.0
  0
ARC
  5
237
  8
2
  6
CONTINUOUS
 62
     7
 10
482.384565836578
 20
319.3137320424007
 30
0.0
 40
42.49963544976013
 50
359.3699285260783
 51
18.91913731813088
  0
LINE
  5
238
  8
2
  6
CONTINUOUS
 62
     7
 10
545.0760299569994
 20
332.1229195668462
 30
0.0
 11
545.1918860134214
 21
318.8471304521534
 31
0.0
  0
LINE
  5
239
  8
2
  6
CONTINUOUS
 62
     7
 10
525.066149675267
 20
265.974346054041
 30
0.0
 11
544.1533500741765
 21
265.974346054041
 31
0.0
  0
LINE
  5
23A
  8
2
  6
CONTINUOUS
 62
     7
 10
545.1918860134214
 20
318.8471304521534
 30
0.0
 11
545.653299812593
 21
265.974346054041
 31
0.0
  0
LINE
  5
23B
  8
2
  6
CONTINUOUS
 62
     7
 10
545.653299812593
 20
265.974346054041
 30
0.0
 11
544.1533500741765
 21
265.974346054041
 31
0.0
  0
LINE
  5
23C
  8
2
  6
CONTINUOUS
 62
     7
 10
519.3413690451787
 20
341.8791711118181
 30
0.0
 11
519.1999468810919
 21
342.049236759358
 31
0.0
  0
LINE
  5
23D
  8
2
  6
CONTINUOUS
 62
     7
 10
495.5784574327421
 20
342.895228855152
 30
0.0
 11
495.5771679661451
 21
342.8954845157321
 31
0.0
  0
LINE
  5
23E
  8
2
  6
CONTINUOUS
 62
     7
 10
495.5784574327421
 20
342.895228855152
 30
0.0
 11
495.5720356688715
 21
342.8799306672495
 31
0.0
  0
LINE
  5
23F
  8
2
  6
CONTINUOUS
 62
     7
 10
495.5771679661451
 20
342.8954845157321
 30
0.0
 11
491.5378238401472
 21
343.074346054041
 31
0.0
  0
LINE
  5
240
  8
2
  6
CONTINUOUS
 62
     7
 10
491.5378238401472
 20
343.074346054041
 30
0.0
 11
509.5378238401471
 21
343.074346054041
 31
0.0
  0
LINE
  5
241
  8
2
  6
CONTINUOUS
 62
     7
 10
519.1999468810917
 20
342.049236759358
 30
0.0
 11
509.5378238401471
 21
343.074346054041
 31
0.0
  0
LINE
  5
242
  8
2
  6
CONTINUOUS
 62
     7
 10
545.0020137552546
 20
340.604336212499
 30
0.0
 11
545.0760299569994
 21
332.1229195668462
 31
0.0
  0
ARC
  5
243
  8
2
  6
CONTINUOUS
 62
     7
 10
377.8131081351536
 20
341.574346054041
 30
0.0
 40
1.50000000000006
 50
90.0
 51
179.499999999998
  0
LINE
  5
244
  8
2
  6
CONTINUOUS
 62
     7
 10
376.3116463787424
 20
341.4133903863026
 30
0.0
 11
376.3131652505572
 21
341.5874358572885
 31
0.0
  0
LINE
  5
245
  8
2
  6
CONTINUOUS
 62
     7
 10
377.8131081351536
 20
343.074346054041
 30
0.0
 11
491.5378238401472
 21
343.074346054041
 31
0.0
  0
ARC
  5
246
  8
2
  6
CONTINUOUS
 62
     7
 10
543.493491490033
 20
341.574346054041
 30
0.0
 40
1.50000000000006
 50
0.4999999999999498
 51
89.99999999999339
  0
LINE
  5
247
  8
2
  6
CONTINUOUS
 62
     7
 10
544.9934343746293
 20
341.5874358572885
 30
0.0
 11
545.0020137552546
 21
340.604336212499
 31
0.0
  0
LINE
  5
248
  8
2
  6
CONTINUOUS
 62
     7
 10
509.5378238401471
 20
343.074346054041
 30
0.0
 11
543.4934914900332
 21
343.074346054041
 31
0.0
  0
LINE
  5
249
  8
2
  6
CONTINUOUS
 62
     7
 10
467.1032998125931
 20
265.974346054041
 30
0.0
 11
466.9532998125931
 21
265.824346054041
 31
0.0
  0
LINE
  5
24A
  8
2
  6
CONTINUOUS
 62
     7
 10
422.6032998125931
 20
265.974346054041
 30
0.0
 11
422.7532998125931
 21
265.824346054041
 31
0.0
  0
LINE
  5
24B
  8
2
  6
CONTINUOUS
 62
     7
 10
422.7532998125931
 20
265.824346054041
 30
0.0
 11
466.9532998125931
 21
265.824346054041
 31
0.0
  0
ENDBLK
  8
0
  0
ENDSEC
  0
SECTION
  2
ENTITIES
  0
INSERT
  5
D5
  8
2
  6
CENTER
 62
     7
  2
D_FRAME_VIEW_4485
 10
0.0
 20
0.0
 30
0.0
  0
INSERT
  5
1CA
  8
2
  6
CENTER
 62
     7
  2
D_FRAME_VIEW_4919
 10
0.0
 20
0.0
 30
0.0
  0
TEXT
  5
1CB
  8
2
  6
CONTINUOUS
 62
     7
 10
452.6794409453951
 20
250.8053371655602
 30
0.0
 40
3.0
  1
RMQLS-2028
  0
INSERT
  5
211
  8
2
  6
CONTINUOUS
 62
     7
  2
D_FRAME_VIEW_2513
 10
0.0
 20
0.0
 30
0.0
  0
INSERT
  5
24C
  8
2
  6
CENTER
 62
     7
  2
D_FRAME_VIEW_5041
 10
0.0
 20
0.0
 30
0.0
  0
ENDSEC
  0
EOF
