  0
SECTION
  2
HEADER
  9
$ACADVER
  1
AC1006
  9
$DWGCODEPAGE
  3
ansi_932
  9
$INSBASE
 10
0.0
 20
0.0
 30
0.0
  9
$EXTMIN
 10
29.18100372656347
 20
263.6704545454545
  9
$EXTMAX
 10
215.0
 20
445.0
  9
$LIMMIN
 10
0.0
 20
0.0
  9
$LIMMAX
 10
12.0
 20
9.0
  9
$ORTHOMODE
 70
     0
  9
$REGENMODE
 70
     1
  9
$FILLMODE
 70
     1
  9
$QTEXTMODE
 70
     0
  9
$MIRRTEXT
 70
     1
  9
$DRAGMODE
 70
     2
  9
$LTSCALE
 40
1.0
  9
$OSMODE
 70
    37
  9
$ATTMODE
 70
     1
  9
$TEXTSIZE
 40
0.2
  9
$TRACEWID
 40
0.05
  9
$TEXTSTYLE
  7
STANDARD
  9
$CLAYER
  8
0
  9
$CELTYPE
  6
BYLAYER
  9
$CECOLOR
 62
   256
  9
$DIMSCALE
 40
1.0
  9
$DIMASZ
 40
3.0
  9
$DIMEXO
 40
0.0625
  9
$DIMDLI
 40
0.38
  9
$DIMRND
 40
0.0
  9
$DIMDLE
 40
0.0
  9
$DIMEXE
 40
1.5
  9
$DIMTP
 40
0.0
  9
$DIMTM
 40
0.0
  9
$DIMTXT
 40
3.0
  9
$DIMCEN
 40
0.09
  9
$DIMTSZ
 40
0.0
  9
$DIMTOL
 70
     0
  9
$DIMLIM
 70
     0
  9
$DIMTIH
 70
     1
  9
$DIMTOH
 70
     1
  9
$DIMSE1
 70
     0
  9
$DIMSE2
 70
     0
  9
$DIMTAD
 70
     1
  9
$DIMZIN
 70
     0
  9
$DIMBLK
  1

  9
$DIMASO
 70
     1
  9
$DIMSHO
 70
     1
  9
$DIMPOST
  1

  9
$DIMAPOST
  1

  9
$DIMALT
 70
     0
  9
$DIMALTD
 70
     2
  9
$DIMALTF
 40
25.4
  9
$DIMLFAC
 40
1.0
  9
$DIMTOFL
 70
     0
  9
$DIMTVP
 40
0.0
  9
$DIMTIX
 70
     0
  9
$DIMSOXD
 70
     0
  9
$DIMSAH
 70
     0
  9
$DIMBLK1
  1

  9
$DIMBLK2
  1

  9
$LUNITS
 70
     2
  9
$LUPREC
 70
     4
  9
$SKETCHINC
 40
0.1
  9
$FILLETRAD
 40
0.5
  9
$AUNITS
 70
     0
  9
$AUPREC
 70
     0
  9
$MENU
  1
.
  9
$ELEVATION
 40
0.0
  9
$THICKNESS
 40
0.0
  9
$LIMCHECK
 70
     0
  9
$CHAMFERA
 40
0.0
  9
$CHAMFERB
 40
0.0
  9
$SKPOLY
 70
     0
  9
$TDCREATE
 40
2459331.419430891
  9
$TDUPDATE
 40
2459331.419431065
  9
$TDINDWG
 40
0.0000000116
  9
$TDUSRTIMER
 40
0.0000000116
  9
$USRTIMER
 70
     1
  9
$ANGBASE
 50
0.0
  9
$ANGDIR
 70
     0
  9
$PDMODE
 70
     0
  9
$PDSIZE
 40
0.0
  9
$PLINEWID
 40
0.0
  9
$COORDS
 70
     1
  9
$SPLFRAME
 70
     0
  9
$SPLINETYPE
 70
     6
  9
$SPLINESEGS
 70
     8
  9
$ATTDIA
 70
     0
  9
$ATTREQ
 70
     1
  9
$HANDLING
 70
     1
  9
$HANDSEED
  5
1F7
  9
$SURFTAB1
 70
     6
  9
$SURFTAB2
 70
     6
  9
$SURFTYPE
 70
     6
  9
$SURFU
 70
     6
  9
$SURFV
 70
     6
  9
$UCSNAME
  2

  9
$UCSORG
 10
0.0
 20
0.0
 30
0.0
  9
$UCSXDIR
 10
1.0
 20
0.0
 30
0.0
  9
$UCSYDIR
 10
0.0
 20
1.0
 30
0.0
  9
$USERI1
 70
     0
  9
$USERI2
 70
     0
  9
$USERI3
 70
     0
  9
$USERI4
 70
     0
  9
$USERI5
 70
     0
  9
$USERR1
 40
0.0
  9
$USERR2
 40
0.0
  9
$USERR3
 40
0.0
  9
$USERR4
 40
0.0
  9
$USERR5
 40
0.0
  9
$WORLDVIEW
 70
     1
  0
ENDSEC
  0
SECTION
  2
TABLES
  0
TABLE
  2
VPORT
 70
     1
  0
VPORT
  2
*ACTIVE
 70
     0
 10
0.0
 20
0.0
 11
1.0
 21
1.0
 12
122.0905018632817
 22
354.3352272727273
 13
0.0
 23
0.0
 14
0.5
 24
0.5
 15
0.5
 25
0.5
 16
0.0
 26
0.0
 36
1.0
 17
0.0
 27
0.0
 37
0.0
 40
181.3295454545455
 41
1.6
 42
50.0
 43
0.0
 44
0.0
 50
0.0
 51
0.0
 71
     0
 72
   100
 73
     1
 74
     3
 75
     0
 76
     0
 77
     0
 78
     0
  0
ENDTAB
  0
TABLE
  2
LTYPE
 70
     1
  0
LTYPE
  2
CONTINUOUS
 70
     0
  3
Solid line
 72
    65
 73
     0
 40
0.0
  0
ENDTAB
  0
TABLE
  2
LAYER
 70
     2
  0
LAYER
  2
0
 70
     0
 62
     7
  6
CONTINUOUS
  0
LAYER
  2
1
 70
     0
 62
     7
  6
CONTINUOUS
  0
ENDTAB
  0
TABLE
  2
STYLE
 70
     2
  0
STYLE
  2
STANDARD
 70
     0
 40
0.0
 41
1.0
 50
0.0
 71
     0
 42
0.2
  3
txt
  4

  0
STYLE
  2
ＭＳ_ゴシック
 70
     0
 40
0.0
 41
1.0
 50
0.0
 71
     0
 42
0.2
  3
ＭＳ ゴシック.shx
  4

  0
ENDTAB
  0
TABLE
  2
VIEW
 70
     0
  0
ENDTAB
  0
TABLE
  2
UCS
 70
     0
  0
ENDTAB
  0
ENDSEC
  0
SECTION
  2
BLOCKS
  0
BLOCK
  8
0
  2
D_FRAME_VIEW_1638
 70
     0
 10
0.0
 20
0.0
 30
0.0
  0
LINE
  5
71
  8
1
  6
CONTINUOUS
 62
     7
 10
185.0
 20
319.6830496376991
 30
0.0
 11
185.0
 21
276.1999999999999
 31
0.0
  0
LINE
  5
72
  8
1
  6
CONTINUOUS
 62
     7
 10
213.4986274885226
 20
276.1999999999999
 30
0.0
 11
185.0
 21
276.1999999999999
 31
0.0
  0
LINE
  5
73
  8
1
  6
CONTINUOUS
 62
     7
 10
182.0
 20
319.3515501217382
 30
0.0
 11
182.0
 21
276.1999999999999
 31
0.0
  0
LINE
  5
74
  8
1
  6
CONTINUOUS
 62
     7
 10
185.0
 20
276.1999999999999
 30
0.0
 11
182.0
 21
276.1999999999999
 31
0.0
  0
LINE
  5
75
  8
1
  6
CONTINUOUS
 62
     7
 10
155.0
 20
319.683049637699
 30
0.0
 11
155.0
 21
276.1999999999999
 31
0.0
  0
LINE
  5
76
  8
1
  6
CONTINUOUS
 62
     7
 10
158.0
 20
319.3515501217381
 30
0.0
 11
158.0
 21
276.1999999999999
 31
0.0
  0
LINE
  5
77
  8
1
  6
CONTINUOUS
 62
     7
 10
155.0
 20
276.1999999999999
 30
0.0
 11
158.0
 21
276.1999999999999
 31
0.0
  0
LINE
  5
78
  8
1
  6
CONTINUOUS
 62
     7
 10
126.5013725114774
 20
276.1999999999999
 30
0.0
 11
155.0
 21
276.1999999999999
 31
0.0
  0
LINE
  5
79
  8
1
  6
CONTINUOUS
 62
     7
 10
212.7177217226884
 20
319.7484637688159
 30
0.0
 11
215.0
 21
276.1999999999999
 31
0.0
  0
LINE
  5
7A
  8
1
  6
CONTINUOUS
 62
     7
 10
215.0
 20
276.1999999999999
 30
0.0
 11
213.4986274885226
 21
276.1999999999999
 31
0.0
  0
LINE
  5
7B
  8
1
  6
CONTINUOUS
 62
     7
 10
125.0
 20
276.1999999999999
 30
0.0
 11
127.2822782773116
 21
319.7484637688159
 31
0.0
  0
LINE
  5
7C
  8
1
  6
CONTINUOUS
 62
     7
 10
126.5013725114774
 20
276.1999999999999
 30
0.0
 11
125.0
 21
276.1999999999999
 31
0.0
  0
LINE
  5
7D
  8
1
  6
CONTINUOUS
 62
     7
 10
185.0
 20
329.4198045474707
 30
0.0
 11
185.0
 21
319.6830496376991
 31
0.0
  0
LINE
  5
7E
  8
1
  6
CONTINUOUS
 62
     7
 10
182.0
 20
330.4500889349744
 30
0.0
 11
182.0
 21
319.3515501217382
 31
0.0
  0
LINE
  5
7F
  8
1
  6
CONTINUOUS
 62
     7
 10
155.0
 20
329.4198045474707
 30
0.0
 11
155.0
 21
319.683049637699
 31
0.0
  0
LINE
  5
80
  8
1
  6
CONTINUOUS
 62
     7
 10
158.0
 20
330.4500889349744
 30
0.0
 11
158.0
 21
319.3515501217382
 31
0.0
  0
LINE
  5
81
  8
1
  6
CONTINUOUS
 62
     7
 10
212.260966073127
 20
328.4638807509892
 30
0.0
 11
212.7177217226884
 21
319.7484637688159
 31
0.0
  0
LINE
  5
82
  8
1
  6
CONTINUOUS
 62
     7
 10
127.2822782773116
 20
319.7484637688159
 30
0.0
 11
127.739033926873
 21
328.4638807509891
 31
0.0
  0
LINE
  5
83
  8
1
  6
CONTINUOUS
 62
     7
 10
182.0
 20
276.1999999999999
 30
0.0
 11
158.0
 21
276.1999999999999
 31
0.0
  0
LINE
  5
84
  8
1
  6
CONTINUOUS
 62
     7
 10
185.0
 20
343.2930271168968
 30
0.0
 11
185.0
 21
329.4198045474707
 31
0.0
  0
LINE
  5
85
  8
1
  6
CONTINUOUS
 62
     7
 10
182.0
 20
340.502382906193
 30
0.0
 11
182.0
 21
330.4500889349744
 31
0.0
  0
LINE
  5
86
  8
1
  6
CONTINUOUS
 62
     7
 10
155.0
 20
343.2930271168968
 30
0.0
 11
155.0
 21
329.4198045474707
 31
0.0
  0
LINE
  5
87
  8
1
  6
CONTINUOUS
 62
     7
 10
158.0
 20
340.502382906193
 30
0.0
 11
158.0
 21
330.4500889349744
 31
0.0
  0
LINE
  5
88
  8
1
  6
CONTINUOUS
 62
     7
 10
210.0359569846322
 20
343.2930271168968
 30
0.0
 11
210.0601207266542
 21
343.2930495728202
 31
0.0
  0
LINE
  5
89
  8
1
  6
CONTINUOUS
 62
     7
 10
211.555777686538
 20
341.919676746092
 30
0.0
 11
212.260966073127
 21
328.4638807509891
 31
0.0
  0
LINE
  5
8A
  8
1
  6
CONTINUOUS
 62
     7
 10
127.739033926873
 20
328.4638807509891
 30
0.0
 11
128.444222313462
 21
341.919676746092
 31
0.0
  0
LINE
  5
8B
  8
1
  6
CONTINUOUS
 62
     7
 10
211.5212500166693
 20
342.5785039343647
 30
0.0
 11
211.555777686538
 21
341.9196767460924
 31
0.0
  0
LINE
  5
8C
  8
1
  6
CONTINUOUS
 62
     7
 10
128.444222313462
 20
341.9196767460923
 30
0.0
 11
128.4787499833307
 21
342.5785039343646
 31
0.0
  0
LINE
  5
8D
  8
1
  6
CONTINUOUS
 62
     7
 10
185.0
 20
343.9999999999999
 30
0.0
 11
185.0
 21
343.2930271168968
 31
0.0
  0
LINE
  5
8E
  8
1
  6
CONTINUOUS
 62
     7
 10
155.0
 20
343.9999999999999
 30
0.0
 11
155.0
 21
343.2930271168968
 31
0.0
  0
LINE
  5
8F
  8
1
  6
CONTINUOUS
 62
     7
 10
182.0
 20
341.1999999999999
 30
0.0
 11
182.0
 21
340.502382906193
 31
0.0
  0
LINE
  5
90
  8
1
  6
CONTINUOUS
 62
     7
 10
182.0
 20
341.1999999999999
 30
0.0
 11
185.0
 21
343.9999999999999
 31
0.0
  0
LINE
  5
91
  8
1
  6
CONTINUOUS
 62
     7
 10
158.0
 20
341.1999999999999
 30
0.0
 11
155.0
 21
343.9999999999999
 31
0.0
  0
LINE
  5
92
  8
1
  6
CONTINUOUS
 62
     7
 10
158.0
 20
341.1999999999999
 30
0.0
 11
158.0
 21
340.502382906193
 31
0.0
  0
ARC
  5
93
  8
1
  6
CONTINUOUS
 62
     7
 10
210.0233057145375
 20
342.5000000000001
 30
0.0
 40
1.500000000000016
 50
2.999999999999923
 51
90.00000000000006
  0
ARC
  5
94
  8
1
  6
CONTINUOUS
 62
     7
 10
129.9766942854625
 20
342.5
 30
0.0
 40
1.500000000000057
 50
90.00000000000001
 51
177.0000000000002
  0
LINE
  5
95
  8
1
  6
CONTINUOUS
 62
     7
 10
210.0233057145375
 20
344.0
 30
0.0
 11
185.0
 21
344.0
 31
0.0
  0
LINE
  5
96
  8
1
  6
CONTINUOUS
 62
     7
 10
155.0
 20
343.9999999999999
 30
0.0
 11
129.9766942854625
 21
343.9999999999999
 31
0.0
  0
LINE
  5
97
  8
1
  6
CONTINUOUS
 62
     7
 10
182.0
 20
341.1999999999999
 30
0.0
 11
158.0
 21
341.1999999999999
 31
0.0
  0
ENDBLK
  8
0
  0
BLOCK
  8
0
  2
D_FRAME_VIEW_1730
 70
     0
 10
0.0
 20
0.0
 30
0.0
  0
LINE
  5
9C
  8
1
  6
CONTINUOUS
 62
     7
 10
65.00000000000003
 20
414.9999999999999
 30
0.0
 11
83.28448924034218
 21
414.9999999999999
 31
0.0
  0
LINE
  5
9D
  8
1
  6
CONTINUOUS
 62
     7
 10
65.00000000000003
 20
414.9999999999999
 30
0.0
 11
46.71551075965788
 21
415.0
 31
0.0
  0
LINE
  5
9E
  8
1
  6
CONTINUOUS
 62
     7
 10
46.71551075965774
 20
440.0359569846321
 30
0.0
 11
46.7155107596578
 21
415.0
 31
0.0
  0
LINE
  5
9F
  8
1
  6
CONTINUOUS
 62
     7
 10
46.71580071739943
 20
440.0601207266542
 30
0.0
 11
46.71551075965774
 21
440.0359569846321
 31
0.0
  0
LINE
  5
A0
  8
1
  6
CONTINUOUS
 62
     7
 10
83.2844892403423
 20
440.0359569846321
 30
0.0
 11
83.28419928260077
 21
440.0601207266542
 31
0.0
  0
LINE
  5
A1
  8
1
  6
CONTINUOUS
 62
     7
 10
83.2844892403423
 20
440.0359569846321
 30
0.0
 11
83.28448924034223
 21
414.9999999999999
 31
0.0
  0
POLYLINE
  5
A2
  8
1
  6
CONTINUOUS
 62
     7
 66
     1
 10
0.0
 20
0.0
 30
0.0
  0
VERTEX
  5
155
  8
1
  6
CONTINUOUS
 62
     7
 10
82.59573873234596
 20
441.555777686538
 30
0.0
  0
VERTEX
  5
156
  8
1
  6
CONTINUOUS
 62
     7
 10
82.71361073404631
 20
441.5206724579093
 30
0.0
  0
VERTEX
  5
157
  8
1
  6
CONTINUOUS
 62
     7
 10
82.8056302865469
 20
441.4614004956466
 30
0.0
  0
VERTEX
  5
158
  8
1
  6
CONTINUOUS
 62
     7
 10
82.88554859800438
 20
441.3848435406537
 30
0.0
  0
VERTEX
  5
159
  8
1
  6
CONTINUOUS
 62
     7
 10
82.9626406710824
 20
441.2853042359396
 30
0.0
  0
SEQEND
  5
1E7
  8
1
  6
CONTINUOUS
 62
     7
  0
ARC
  5
A3
  8
1
  6
CONTINUOUS
 62
     7
 10
80.85978029233631
 20
440.0786032491608
 30
0.0
 40
2.4244894398601
 50
359.5632149292537
 51
29.84883756151317
  0
POLYLINE
  5
A4
  8
1
  6
CONTINUOUS
 62
     7
 66
     1
 10
0.0
 20
0.0
 30
0.0
  0
VERTEX
  5
15A
  8
1
  6
CONTINUOUS
 62
     7
 10
47.40426126765407
 20
441.555777686538
 30
0.0
  0
VERTEX
  5
15B
  8
1
  6
CONTINUOUS
 62
     7
 10
47.28638926595376
 20
441.5206724579093
 30
0.0
  0
VERTEX
  5
15C
  8
1
  6
CONTINUOUS
 62
     7
 10
47.19436971345316
 20
441.4614004956465
 30
0.0
  0
VERTEX
  5
15D
  8
1
  6
CONTINUOUS
 62
     7
 10
47.11445140199566
 20
441.3848435406537
 30
0.0
  0
VERTEX
  5
15E
  8
1
  6
CONTINUOUS
 62
     7
 10
47.03735932891765
 20
441.2853042359396
 30
0.0
  0
SEQEND
  5
1E8
  8
1
  6
CONTINUOUS
 62
     7
  0
ARC
  5
A5
  8
1
  6
CONTINUOUS
 62
     7
 10
49.14021970766137
 20
440.0786032491617
 30
0.0
 40
2.424489439857578
 50
150.1511624384784
 51
180.4367850707691
  0
LINE
  5
A6
  8
1
  6
CONTINUOUS
 62
     7
 10
64.99999999999996
 20
412.0
 30
0.0
 11
46.94458169157899
 21
412.0
 31
0.0
  0
LINE
  5
A7
  8
1
  6
CONTINUOUS
 62
     7
 10
46.94458169157899
 20
412.0
 30
0.0
 11
46.7155107596578
 21
415.0
 31
0.0
  0
LINE
  5
A8
  8
1
  6
CONTINUOUS
 62
     7
 10
83.05541830842103
 20
411.9999999999999
 30
0.0
 11
83.28448924034224
 21
414.9999999999999
 31
0.0
  0
LINE
  5
A9
  8
1
  6
CONTINUOUS
 62
     7
 10
65.00000000000007
 20
412.0
 30
0.0
 11
83.05541830842103
 21
411.9999999999999
 31
0.0
  0
LINE
  5
AA
  8
1
  6
CONTINUOUS
 62
     7
 10
46.71551075965773
 20
359.9640430153678
 30
0.0
 11
46.71580071739925
 21
359.9398792733459
 31
0.0
  0
LINE
  5
AB
  8
1
  6
CONTINUOUS
 62
     7
 10
46.71551075965773
 20
359.9640430153678
 30
0.0
 11
46.7155107596578
 21
385.0
 31
0.0
  0
LINE
  5
AC
  8
1
  6
CONTINUOUS
 62
     7
 10
65.00000000000003
 20
385.0
 30
0.0
 11
46.71551075965822
 21
385.0
 31
0.0
  0
LINE
  5
AD
  8
1
  6
CONTINUOUS
 62
     7
 10
65.00000000000003
 20
385.0
 30
0.0
 11
83.28448924034181
 21
385.0
 31
0.0
  0
LINE
  5
AE
  8
1
  6
CONTINUOUS
 62
     7
 10
83.28448924034227
 20
359.9640430153678
 30
0.0
 11
83.28448924034221
 21
385.0
 31
0.0
  0
LINE
  5
AF
  8
1
  6
CONTINUOUS
 62
     7
 10
83.28419928260067
 20
359.9398792733459
 30
0.0
 11
83.28448924034227
 21
359.9640430153678
 31
0.0
  0
LINE
  5
B0
  8
1
  6
CONTINUOUS
 62
     7
 10
46.94458169157899
 20
388.0
 30
0.0
 11
46.71551075965779
 21
385.0
 31
0.0
  0
LINE
  5
B1
  8
1
  6
CONTINUOUS
 62
     7
 10
64.99999999999996
 20
388.0
 30
0.0
 11
46.94458169157899
 21
388.0
 31
0.0
  0
LINE
  5
B2
  8
1
  6
CONTINUOUS
 62
     7
 10
65.00000000000006
 20
388.0
 30
0.0
 11
83.05541830842103
 21
388.0
 31
0.0
  0
LINE
  5
B3
  8
1
  6
CONTINUOUS
 62
     7
 10
83.05541830842103
 20
388.0
 30
0.0
 11
83.28448924034223
 21
385.0
 31
0.0
  0
ARC
  5
B4
  8
1
  6
CONTINUOUS
 62
     7
 10
80.78595669020739
 20
359.9343646830666
 30
0.0
 40
2.498248678805589
 50
331.7089492278968
 51
0.1264738006333346
  0
POLYLINE
  5
B5
  8
1
  6
CONTINUOUS
 62
     7
 66
     1
 10
0.0
 20
0.0
 30
0.0
  0
VERTEX
  5
15F
  8
1
  6
CONTINUOUS
 62
     7
 10
82.98579304254548
 20
358.7503180268551
 30
0.0
  0
VERTEX
  5
160
  8
1
  6
CONTINUOUS
 62
     7
 10
82.91308936364064
 20
358.6475770570053
 30
0.0
  0
VERTEX
  5
161
  8
1
  6
CONTINUOUS
 62
     7
 10
82.83445882535175
 20
358.5633621835582
 30
0.0
  0
VERTEX
  5
162
  8
1
  6
CONTINUOUS
 62
     7
 10
82.75123189655469
 20
358.5000430774014
 30
0.0
  0
VERTEX
  5
163
  8
1
  6
CONTINUOUS
 62
     7
 10
82.63804217054413
 20
358.4517212272489
 30
0.0
  0
VERTEX
  5
164
  8
1
  6
CONTINUOUS
 62
     7
 10
82.59573873234599
 20
358.444222313462
 30
0.0
  0
SEQEND
  5
1E9
  8
1
  6
CONTINUOUS
 62
     7
  0
ARC
  5
B6
  8
1
  6
CONTINUOUS
 62
     7
 10
49.21404330979395
 20
359.934364683067
 30
0.0
 40
2.498248678807003
 50
179.8735261993756
 51
208.2910507720959
  0
POLYLINE
  5
B7
  8
1
  6
CONTINUOUS
 62
     7
 66
     1
 10
0.0
 20
0.0
 30
0.0
  0
VERTEX
  5
165
  8
1
  6
CONTINUOUS
 62
     7
 10
47.01420695745445
 20
358.7503180268551
 30
0.0
  0
VERTEX
  5
166
  8
1
  6
CONTINUOUS
 62
     7
 10
47.08691063635933
 20
358.6475770570053
 30
0.0
  0
VERTEX
  5
167
  8
1
  6
CONTINUOUS
 62
     7
 10
47.16554117464825
 20
358.5633621835582
 30
0.0
  0
VERTEX
  5
168
  8
1
  6
CONTINUOUS
 62
     7
 10
47.24876810344529
 20
358.5000430774015
 30
0.0
  0
VERTEX
  5
169
  8
1
  6
CONTINUOUS
 62
     7
 10
47.36195782945528
 20
358.4517212272489
 30
0.0
  0
VERTEX
  5
16A
  8
1
  6
CONTINUOUS
 62
     7
 10
47.40426126765399
 20
358.444222313462
 30
0.0
  0
SEQEND
  5
1EA
  8
1
  6
CONTINUOUS
 62
     7
  0
LINE
  5
B8
  8
1
  6
CONTINUOUS
 62
     7
 10
83.05541830842097
 20
411.9999999999999
 30
0.0
 11
92.62806052194895
 21
411.9999999999999
 31
0.0
  0
LINE
  5
B9
  8
1
  6
CONTINUOUS
 62
     7
 10
83.2844892403423
 20
414.9999999999999
 30
0.0
 11
96.49574195400103
 21
414.9999999999999
 31
0.0
  0
LINE
  5
BA
  8
1
  6
CONTINUOUS
 62
     7
 10
46.71551075965773
 20
385.0
 30
0.0
 11
33.50425804599897
 21
385.0
 31
0.0
  0
LINE
  5
BB
  8
1
  6
CONTINUOUS
 62
     7
 10
46.71551075965774
 20
415.0
 30
0.0
 11
33.50425804599897
 21
415.0
 31
0.0
  0
LINE
  5
BC
  8
1
  6
CONTINUOUS
 62
     7
 10
46.94458169157904
 20
412.0
 30
0.0
 11
37.37193947805106
 21
412.0
 31
0.0
  0
LINE
  5
BD
  8
1
  6
CONTINUOUS
 62
     7
 10
83.28448924034228
 20
385.0
 30
0.0
 11
96.49574195400103
 21
385.0
 31
0.0
  0
LINE
  5
BE
  8
1
  6
CONTINUOUS
 62
     7
 10
83.05541830842097
 20
388.0
 30
0.0
 11
92.62806052194894
 21
388.0
 31
0.0
  0
LINE
  5
BF
  8
1
  6
CONTINUOUS
 62
     7
 10
46.94458169157904
 20
388.0
 30
0.0
 11
37.37193947805106
 21
388.0
 31
0.0
  0
LINE
  5
C0
  8
1
  6
CONTINUOUS
 62
     7
 10
30.68037575068585
 20
445.0
 30
0.0
 11
31.98111034604355
 21
445.0
 31
0.0
  0
LINE
  5
C1
  8
1
  6
CONTINUOUS
 62
     7
 10
31.98111034604355
 20
445.0
 30
0.0
 11
32.35864480327346
 21
442.7327784744031
 31
0.0
  0
POLYLINE
  5
C2
  8
1
  6
CONTINUOUS
 62
     7
 66
     1
 10
0.0
 20
0.0
 30
0.0
  0
VERTEX
  5
16B
  8
1
  6
CONTINUOUS
 62
     7
 10
32.35864480327345
 20
442.7327784744031
 30
0.0
  0
VERTEX
  5
16C
  8
1
  6
CONTINUOUS
 62
     7
 10
32.58978627034373
 20
442.6153066309104
 30
0.0
  0
VERTEX
  5
16D
  8
1
  6
CONTINUOUS
 62
     7
 10
33.23590544617138
 20
442.5021706030005
 30
0.0
  0
VERTEX
  5
16E
  8
1
  6
CONTINUOUS
 62
     7
 10
34.27421885819474
 20
442.3973597964737
 30
0.0
  0
VERTEX
  5
16F
  8
1
  6
CONTINUOUS
 62
     7
 10
35.66811346965797
 20
442.3045700529393
 30
0.0
  0
SEQEND
  5
1EB
  8
1
  6
CONTINUOUS
 62
     7
  0
LINE
  5
C3
  8
1
  6
CONTINUOUS
 62
     7
 10
35.668113469658
 20
442.3045700529393
 30
0.0
 11
47.99999999999999
 21
441.6259000857555
 31
0.0
  0
LINE
  5
C4
  8
1
  6
CONTINUOUS
 62
     7
 10
47.99999999999994
 20
441.6259000857555
 30
0.0
 11
82.00000000000009
 21
441.6259000857555
 31
0.0
  0
LINE
  5
C5
  8
1
  6
CONTINUOUS
 62
     7
 10
94.33188653034203
 20
442.3045700529393
 30
0.0
 11
82.00000000000004
 21
441.6259000857555
 31
0.0
  0
POLYLINE
  5
C6
  8
1
  6
CONTINUOUS
 62
     7
 66
     1
 10
0.0
 20
0.0
 30
0.0
  0
VERTEX
  5
170
  8
1
  6
CONTINUOUS
 62
     7
 10
94.33188653034199
 20
442.3045700529393
 30
0.0
  0
VERTEX
  5
171
  8
1
  6
CONTINUOUS
 62
     7
 10
95.72578114180521
 20
442.3973597964737
 30
0.0
  0
VERTEX
  5
172
  8
1
  6
CONTINUOUS
 62
     7
 10
96.7640945538286
 20
442.5021706030005
 30
0.0
  0
VERTEX
  5
173
  8
1
  6
CONTINUOUS
 62
     7
 10
97.41021372965628
 20
442.6153066309104
 30
0.0
  0
VERTEX
  5
174
  8
1
  6
CONTINUOUS
 62
     7
 10
97.64135519672658
 20
442.7327784744031
 30
0.0
  0
SEQEND
  5
1EC
  8
1
  6
CONTINUOUS
 62
     7
  0
LINE
  5
C7
  8
1
  6
CONTINUOUS
 62
     7
 10
98.01888965395644
 20
445.0
 30
0.0
 11
97.64135519672658
 21
442.7327784744031
 31
0.0
  0
LINE
  5
C8
  8
1
  6
CONTINUOUS
 62
     7
 10
99.31962424931415
 20
445.0
 30
0.0
 11
98.01888965395644
 21
445.0
 31
0.0
  0
LINE
  5
C9
  8
1
  6
CONTINUOUS
 62
     7
 10
98.0188896539564
 20
355.0000000000001
 30
0.0
 11
97.64135519672655
 21
357.2672215255969
 31
0.0
  0
POLYLINE
  5
CA
  8
1
  6
CONTINUOUS
 62
     7
 66
     1
 10
0.0
 20
0.0
 30
0.0
  0
VERTEX
  5
175
  8
1
  6
CONTINUOUS
 62
     7
 10
97.64135519672655
 20
357.2672215255968
 30
0.0
  0
VERTEX
  5
176
  8
1
  6
CONTINUOUS
 62
     7
 10
97.41021372965626
 20
357.3846933690896
 30
0.0
  0
VERTEX
  5
177
  8
1
  6
CONTINUOUS
 62
     7
 10
96.76409455382861
 20
357.4978293969994
 30
0.0
  0
VERTEX
  5
178
  8
1
  6
CONTINUOUS
 62
     7
 10
95.72578114180524
 20
357.6026402035263
 30
0.0
  0
VERTEX
  5
179
  8
1
  6
CONTINUOUS
 62
     7
 10
94.33188653034202
 20
357.6954299470606
 30
0.0
  0
SEQEND
  5
1ED
  8
1
  6
CONTINUOUS
 62
     7
  0
LINE
  5
CB
  8
1
  6
CONTINUOUS
 62
     7
 10
94.331886530342
 20
357.6954299470606
 30
0.0
 11
82.00000000000001
 21
358.3740999142445
 31
0.0
  0
LINE
  5
CC
  8
1
  6
CONTINUOUS
 62
     7
 10
82.00000000000003
 20
358.3740999142445
 30
0.0
 11
47.99999999999989
 21
358.3740999142445
 31
0.0
  0
LINE
  5
CD
  8
1
  6
CONTINUOUS
 62
     7
 10
35.668113469658
 20
357.6954299470607
 30
0.0
 11
47.99999999999997
 21
358.3740999142445
 31
0.0
  0
POLYLINE
  5
CE
  8
1
  6
CONTINUOUS
 62
     7
 66
     1
 10
0.0
 20
0.0
 30
0.0
  0
VERTEX
  5
17A
  8
1
  6
CONTINUOUS
 62
     7
 10
35.66811346965799
 20
357.6954299470606
 30
0.0
  0
VERTEX
  5
17B
  8
1
  6
CONTINUOUS
 62
     7
 10
34.27421885819476
 20
357.6026402035263
 30
0.0
  0
VERTEX
  5
17C
  8
1
  6
CONTINUOUS
 62
     7
 10
33.23590544617139
 20
357.4978293969994
 30
0.0
  0
VERTEX
  5
17D
  8
1
  6
CONTINUOUS
 62
     7
 10
32.58978627034374
 20
357.3846933690896
 30
0.0
  0
VERTEX
  5
17E
  8
1
  6
CONTINUOUS
 62
     7
 10
32.35864480327344
 20
357.2672215255968
 30
0.0
  0
SEQEND
  5
1EE
  8
1
  6
CONTINUOUS
 62
     7
  0
LINE
  5
CF
  8
1
  6
CONTINUOUS
 62
     7
 10
31.98111034604354
 20
355.0000000000001
 30
0.0
 11
32.35864480327345
 21
357.2672215255969
 31
0.0
  0
LINE
  5
D0
  8
1
  6
CONTINUOUS
 62
     7
 10
30.68037575068584
 20
355.0000000000001
 30
0.0
 11
31.98111034604354
 21
355.0000000000001
 31
0.0
  0
LINE
  5
D1
  8
1
  6
CONTINUOUS
 62
     7
 10
99.31962424931409
 20
355.0000000000001
 30
0.0
 11
98.0188896539564
 21
355.0000000000001
 31
0.0
  0
LINE
  5
D2
  8
1
  6
CONTINUOUS
 62
     7
 10
46.94458169157903
 20
412.0
 30
0.0
 11
46.94458169157903
 21
388.0
 31
0.0
  0
LINE
  5
D3
  8
1
  6
CONTINUOUS
 62
     7
 10
83.05541830842098
 20
411.9999999999999
 30
0.0
 11
83.05541830842097
 21
388.0
 31
0.0
  0
LINE
  5
D4
  8
1
  6
CONTINUOUS
 62
     7
 10
37.37193947805105
 20
412.0
 30
0.0
 11
32.87657787287871
 21
412.0
 31
0.0
  0
LINE
  5
D5
  8
1
  6
CONTINUOUS
 62
     7
 10
37.37193947805105
 20
388.0
 30
0.0
 11
32.87657787287871
 21
388.0
 31
0.0
  0
LINE
  5
D6
  8
1
  6
CONTINUOUS
 62
     7
 10
33.50425804599897
 20
415.0
 30
0.0
 11
29.56047455189071
 21
415.0
 31
0.0
  0
LINE
  5
D7
  8
1
  6
CONTINUOUS
 62
     7
 10
33.50425804599897
 20
385.0
 30
0.0
 11
29.56047455189071
 21
385.0
 31
0.0
  0
LINE
  5
D8
  8
1
  6
CONTINUOUS
 62
     7
 10
92.62806052194897
 20
411.9999999999999
 30
0.0
 11
97.12342212712133
 21
411.9999999999999
 31
0.0
  0
LINE
  5
D9
  8
1
  6
CONTINUOUS
 62
     7
 10
96.49574195400105
 20
414.9999999999999
 30
0.0
 11
100.4395254481093
 21
414.9999999999999
 31
0.0
  0
LINE
  5
DA
  8
1
  6
CONTINUOUS
 62
     7
 10
92.62806052194895
 20
388.0
 30
0.0
 11
97.1234221271213
 21
388.0
 31
0.0
  0
LINE
  5
DB
  8
1
  6
CONTINUOUS
 62
     7
 10
96.49574195400103
 20
385.0
 30
0.0
 11
100.4395254481093
 21
385.0
 31
0.0
  0
POLYLINE
  5
DC
  8
1
  6
CONTINUOUS
 62
     7
 66
     1
 10
0.0
 20
0.0
 30
0.0
  0
VERTEX
  5
17F
  8
1
  6
CONTINUOUS
 62
     7
 10
30.68037575068585
 20
445.0000000000001
 30
0.0
  0
VERTEX
  5
180
  8
1
  6
CONTINUOUS
 62
     7
 10
30.3878263030135
 20
444.971155093518
 30
0.0
  0
VERTEX
  5
181
  8
1
  6
CONTINUOUS
 62
     7
 10
30.10653916344592
 20
444.8857282252232
 30
0.0
  0
VERTEX
  5
182
  8
1
  6
CONTINUOUS
 62
     7
 10
29.84731777423631
 20
444.7470003991457
 30
0.0
  0
VERTEX
  5
183
  8
1
  6
CONTINUOUS
 62
     7
 10
29.62011809467031
 20
444.5602997581229
 30
0.0
  0
VERTEX
  5
184
  8
1
  6
CONTINUOUS
 62
     7
 10
29.43366622087131
 20
444.3327969449258
 30
0.0
  0
VERTEX
  5
185
  8
1
  6
CONTINUOUS
 62
     7
 10
29.2951232411659
 20
444.0732296981819
 30
0.0
  0
VERTEX
  5
186
  8
1
  6
CONTINUOUS
 62
     7
 10
29.20981019896594
 20
443.791567260585
 30
0.0
  0
VERTEX
  5
187
  8
1
  6
CONTINUOUS
 62
     7
 10
29.18100372656349
 20
443.4986274885226
 30
0.0
  0
SEQEND
  5
1EF
  8
1
  6
CONTINUOUS
 62
     7
  0
POLYLINE
  5
DD
  8
1
  6
CONTINUOUS
 62
     7
 66
     1
 10
0.0
 20
0.0
 30
0.0
  0
VERTEX
  5
188
  8
1
  6
CONTINUOUS
 62
     7
 10
29.18100372656347
 20
356.5013725114775
 30
0.0
  0
VERTEX
  5
189
  8
1
  6
CONTINUOUS
 62
     7
 10
29.20981019896592
 20
356.2084327394151
 30
0.0
  0
VERTEX
  5
18A
  8
1
  6
CONTINUOUS
 62
     7
 10
29.29512324116589
 20
355.9267703018182
 30
0.0
  0
VERTEX
  5
18B
  8
1
  6
CONTINUOUS
 62
     7
 10
29.43366622087129
 20
355.6672030550743
 30
0.0
  0
VERTEX
  5
18C
  8
1
  6
CONTINUOUS
 62
     7
 10
29.6201180946703
 20
355.4397002418771
 30
0.0
  0
VERTEX
  5
18D
  8
1
  6
CONTINUOUS
 62
     7
 10
29.84731777423629
 20
355.2529996008544
 30
0.0
  0
VERTEX
  5
18E
  8
1
  6
CONTINUOUS
 62
     7
 10
30.10653916344591
 20
355.1142717747769
 30
0.0
  0
VERTEX
  5
18F
  8
1
  6
CONTINUOUS
 62
     7
 10
30.38782630301349
 20
355.0288449064821
 30
0.0
  0
VERTEX
  5
190
  8
1
  6
CONTINUOUS
 62
     7
 10
30.68037575068584
 20
355.0
 30
0.0
  0
SEQEND
  5
1F0
  8
1
  6
CONTINUOUS
 62
     7
  0
POLYLINE
  5
DE
  8
1
  6
CONTINUOUS
 62
     7
 66
     1
 10
0.0
 20
0.0
 30
0.0
  0
VERTEX
  5
191
  8
1
  6
CONTINUOUS
 62
     7
 10
100.8189962734365
 20
443.4986274885226
 30
0.0
  0
VERTEX
  5
192
  8
1
  6
CONTINUOUS
 62
     7
 10
100.7901898010341
 20
443.791567260585
 30
0.0
  0
VERTEX
  5
193
  8
1
  6
CONTINUOUS
 62
     7
 10
100.7048767588341
 20
444.0732296981819
 30
0.0
  0
VERTEX
  5
194
  8
1
  6
CONTINUOUS
 62
     7
 10
100.5663337791287
 20
444.3327969449258
 30
0.0
  0
VERTEX
  5
195
  8
1
  6
CONTINUOUS
 62
     7
 10
100.3798819053297
 20
444.5602997581229
 30
0.0
  0
VERTEX
  5
196
  8
1
  6
CONTINUOUS
 62
     7
 10
100.1526822257637
 20
444.7470003991457
 30
0.0
  0
VERTEX
  5
197
  8
1
  6
CONTINUOUS
 62
     7
 10
99.89346083655407
 20
444.8857282252232
 30
0.0
  0
VERTEX
  5
198
  8
1
  6
CONTINUOUS
 62
     7
 10
99.61217369698649
 20
444.971155093518
 30
0.0
  0
VERTEX
  5
199
  8
1
  6
CONTINUOUS
 62
     7
 10
99.31962424931415
 20
445.0000000000001
 30
0.0
  0
SEQEND
  5
1F1
  8
1
  6
CONTINUOUS
 62
     7
  0
POLYLINE
  5
DF
  8
1
  6
CONTINUOUS
 62
     7
 66
     1
 10
0.0
 20
0.0
 30
0.0
  0
VERTEX
  5
19A
  8
1
  6
CONTINUOUS
 62
     7
 10
99.3196242493141
 20
355.0000000000001
 30
0.0
  0
VERTEX
  5
19B
  8
1
  6
CONTINUOUS
 62
     7
 10
99.61217369698643
 20
355.0288449064822
 30
0.0
  0
VERTEX
  5
19C
  8
1
  6
CONTINUOUS
 62
     7
 10
99.89346083655401
 20
355.1142717747769
 30
0.0
  0
VERTEX
  5
19D
  8
1
  6
CONTINUOUS
 62
     7
 10
100.1526822257636
 20
355.2529996008544
 30
0.0
  0
VERTEX
  5
19E
  8
1
  6
CONTINUOUS
 62
     7
 10
100.3798819053296
 20
355.4397002418772
 30
0.0
  0
VERTEX
  5
19F
  8
1
  6
CONTINUOUS
 62
     7
 10
100.5663337791286
 20
355.6672030550743
 30
0.0
  0
VERTEX
  5
1A0
  8
1
  6
CONTINUOUS
 62
     7
 10
100.704876758834
 20
355.9267703018182
 30
0.0
  0
VERTEX
  5
1A1
  8
1
  6
CONTINUOUS
 62
     7
 10
100.790189801034
 20
356.2084327394151
 30
0.0
  0
VERTEX
  5
1A2
  8
1
  6
CONTINUOUS
 62
     7
 10
100.8189962734364
 20
356.5013725114775
 30
0.0
  0
SEQEND
  5
1F2
  8
1
  6
CONTINUOUS
 62
     7
  0
LINE
  5
E0
  8
1
  6
CONTINUOUS
 62
     7
 10
29.56047455189071
 20
415.0
 30
0.0
 11
29.18100372656349
 21
415.0
 31
0.0
  0
LINE
  5
E1
  8
1
  6
CONTINUOUS
 62
     7
 10
29.1810037265635
 20
443.4986274885226
 30
0.0
 11
29.18100372656349
 21
415.0
 31
0.0
  0
LINE
  5
E2
  8
1
  6
CONTINUOUS
 62
     7
 10
32.87657787287871
 20
412.0
 30
0.0
 11
32.49999999999998
 21
412.0
 31
0.0
  0
LINE
  5
E3
  8
1
  6
CONTINUOUS
 62
     7
 10
29.18100372656349
 20
415.0
 30
0.0
 11
32.50000000000004
 21
412.0
 31
0.0
  0
LINE
  5
E4
  8
1
  6
CONTINUOUS
 62
     7
 10
32.87657787287871
 20
388.0
 30
0.0
 11
32.49999999999998
 21
388.0
 31
0.0
  0
LINE
  5
E5
  8
1
  6
CONTINUOUS
 62
     7
 10
29.56047455189071
 20
385.0
 30
0.0
 11
29.18100372656349
 21
385.0
 31
0.0
  0
LINE
  5
E6
  8
1
  6
CONTINUOUS
 62
     7
 10
29.18100372656349
 20
385.0
 30
0.0
 11
32.50000000000004
 21
388.0
 31
0.0
  0
LINE
  5
E7
  8
1
  6
CONTINUOUS
 62
     7
 10
29.18100372656349
 20
356.5013725114774
 30
0.0
 11
29.18100372656349
 21
385.0
 31
0.0
  0
LINE
  5
E8
  8
1
  6
CONTINUOUS
 62
     7
 10
97.12342212712133
 20
411.9999999999999
 30
0.0
 11
97.5
 21
411.9999999999999
 31
0.0
  0
LINE
  5
E9
  8
1
  6
CONTINUOUS
 62
     7
 10
100.4395254481093
 20
414.9999999999999
 30
0.0
 11
100.8189962734365
 21
414.9999999999999
 31
0.0
  0
LINE
  5
EA
  8
1
  6
CONTINUOUS
 62
     7
 10
100.8189962734365
 20
414.9999999999999
 30
0.0
 11
97.49999999999994
 21
411.9999999999999
 31
0.0
  0
LINE
  5
EB
  8
1
  6
CONTINUOUS
 62
     7
 10
100.8189962734365
 20
443.4986274885226
 30
0.0
 11
100.8189962734365
 21
414.9999999999999
 31
0.0
  0
LINE
  5
EC
  8
1
  6
CONTINUOUS
 62
     7
 10
100.4395254481093
 20
385.0
 30
0.0
 11
100.8189962734365
 21
385.0
 31
0.0
  0
LINE
  5
ED
  8
1
  6
CONTINUOUS
 62
     7
 10
100.8189962734365
 20
356.5013725114774
 30
0.0
 11
100.8189962734365
 21
385.0
 31
0.0
  0
LINE
  5
EE
  8
1
  6
CONTINUOUS
 62
     7
 10
97.1234221271213
 20
388.0
 30
0.0
 11
97.5
 21
388.0
 31
0.0
  0
LINE
  5
EF
  8
1
  6
CONTINUOUS
 62
     7
 10
100.8189962734365
 20
385.0
 30
0.0
 11
97.49999999999993
 21
388.0
 31
0.0
  0
LINE
  5
F0
  8
1
  6
CONTINUOUS
 62
     7
 10
32.49999999999998
 20
412.0
 30
0.0
 11
32.49999999999998
 21
388.0
 31
0.0
  0
LINE
  5
F1
  8
1
  6
CONTINUOUS
 62
     7
 10
97.5
 20
411.9999999999999
 30
0.0
 11
97.5
 21
388.0
 31
0.0
  0
ENDBLK
  8
0
  0
BLOCK
  8
0
  2
D_FRAME_VIEW_1473
 70
     0
 10
0.0
 20
0.0
 30
0.0
  0
LINE
  5
F7
  8
1
  6
CONTINUOUS
 62
     7
 10
100.4395254481093
 20
319.6830496376991
 30
0.0
 11
100.8189962734365
 21
276.1999999999999
 31
0.0
  0
LINE
  5
F8
  8
1
  6
CONTINUOUS
 62
     7
 10
100.8189962734365
 20
276.1999999999999
 30
0.0
 11
99.3196242493141
 21
276.1999999999999
 31
0.0
  0
ARC
  5
F9
  8
1
  6
CONTINUOUS
 62
     7
 10
85.6418121199565
 20
319.356445405293
 30
0.0
 40
12.0
 50
0.4999999999999168
 51
43.59991641039987
  0
LINE
  5
FA
  8
1
  6
CONTINUOUS
 62
     7
 10
94.33188653034202
 20
327.6318672520608
 30
0.0
 11
82.00000000000003
 21
340.581661661751
 31
0.0
  0
ARC
  5
FB
  8
1
  6
CONTINUOUS
 62
     7
 10
64.99999999999994
 20
107.2
 30
0.0
 40
234.0000000000001
 50
85.83381578248009
 51
94.16618421751981
  0
LINE
  5
FC
  8
1
  6
CONTINUOUS
 62
     7
 10
35.668113469658
 20
327.6318672520608
 30
0.0
 11
47.99999999999998
 21
340.581661661751
 31
0.0
  0
ARC
  5
FD
  8
1
  6
CONTINUOUS
 62
     7
 10
44.3581878800435
 20
319.356445405293
 30
0.0
 40
12.0
 50
136.4000835896001
 51
179.4999999999999
  0
LINE
  5
FE
  8
1
  6
CONTINUOUS
 62
     7
 10
31.98111034604354
 20
276.1999999999999
 30
0.0
 11
32.35864480327345
 21
319.4611638312734
 31
0.0
  0
LINE
  5
FF
  8
1
  6
CONTINUOUS
 62
     7
 10
30.68037575068584
 20
276.2
 30
0.0
 11
31.98111034604354
 21
276.2
 31
0.0
  0
LINE
  5
100
  8
1
  6
CONTINUOUS
 62
     7
 10
99.31962424931409
 20
276.1999999999999
 30
0.0
 11
98.0188896539564
 21
276.1999999999999
 31
0.0
  0
LINE
  5
101
  8
1
  6
CONTINUOUS
 62
     7
 10
98.0188896539564
 20
276.1999999999999
 30
0.0
 11
97.64135519672654
 21
319.4611638312734
 31
0.0
  0
LINE
  5
102
  8
1
  6
CONTINUOUS
 62
     7
 10
29.18100372656349
 20
276.1999999999999
 30
0.0
 11
29.5604745518907
 21
319.6830496376991
 31
0.0
  0
LINE
  5
103
  8
1
  6
CONTINUOUS
 62
     7
 10
30.68037575068584
 20
276.2
 30
0.0
 11
29.18100372656349
 21
276.2
 31
0.0
  0
ARC
  5
104
  8
1
  6
CONTINUOUS
 62
     7
 10
86.14006994829165
 20
319.5582601800724
 30
0.0
 40
14.3
 50
0.4999999999997726
 51
43.5999164104
  0
ARC
  5
105
  8
1
  6
CONTINUOUS
 62
     7
 10
43.85993005170836
 20
319.5582601800724
 30
0.0
 40
14.3
 50
136.4000835896
 51
179.5000000000001
  0
LINE
  5
106
  8
1
  6
CONTINUOUS
 62
     7
 10
83.28419928260067
 20
343.2930495728202
 30
0.0
 11
83.28448924034228
 21
343.2930271168968
 31
0.0
  0
LINE
  5
107
  8
1
  6
CONTINUOUS
 62
     7
 10
83.28448924034228
 20
343.2930271168968
 30
0.0
 11
96.49574195400102
 21
329.4198045474707
 31
0.0
  0
LINE
  5
108
  8
1
  6
CONTINUOUS
 62
     7
 10
33.50425804599897
 20
329.4198045474708
 30
0.0
 11
46.71551075965774
 21
343.2930271168968
 31
0.0
  0
LINE
  5
109
  8
1
  6
CONTINUOUS
 62
     7
 10
46.71551075965774
 20
343.2930271168968
 30
0.0
 11
46.71580071739925
 21
343.2930495728202
 31
0.0
  0
ARC
  5
10A
  8
1
  6
CONTINUOUS
 62
     7
 10
64.99999999999994
 20
107.2
 30
0.0
 40
236.8
 50
85.5715742496878
 51
94.42842575031216
  0
ARC
  5
10B
  8
1
  6
CONTINUOUS
 62
     7
 10
80.82404278117524
 20
319.2093075931147
 30
0.0
 40
14.00000000000008
 50
0.5000000000000796
 51
43.59991641039987
  0
LINE
  5
10C
  8
1
  6
CONTINUOUS
 62
     7
 10
90.96246292662507
 20
328.8639664143439
 30
0.0
 11
81.99999999999997
 21
338.2755071399823
 31
0.0
  0
LINE
  5
10D
  8
1
  6
CONTINUOUS
 62
     7
 10
98.01888965395642
 20
276.1999999999999
 30
0.0
 11
95.1999124197128
 21
276.1999999999999
 31
0.0
  0
LINE
  5
10E
  8
1
  6
CONTINUOUS
 62
     7
 10
95.1999124197128
 20
276.1999999999999
 30
0.0
 11
94.82350970407371
 21
319.3314790900919
 31
0.0
  0
ARC
  5
10F
  8
1
  6
CONTINUOUS
 62
     7
 10
49.17595721882462
 20
319.2093075931147
 30
0.0
 40
13.99999999999992
 50
136.4000835895999
 51
179.5
  0
LINE
  5
110
  8
1
  6
CONTINUOUS
 62
     7
 10
39.03753707337496
 20
328.8639664143439
 30
0.0
 11
48.00000000000004
 21
338.2755071399823
 31
0.0
  0
LINE
  5
111
  8
1
  6
CONTINUOUS
 62
     7
 10
34.80008758028718
 20
276.2
 30
0.0
 11
35.17649029592631
 21
319.331479090092
 31
0.0
  0
LINE
  5
112
  8
1
  6
CONTINUOUS
 62
     7
 10
31.98111034604355
 20
276.2
 30
0.0
 11
34.80008758028718
 21
276.2
 31
0.0
  0
ARC
  5
113
  8
1
  6
CONTINUOUS
 62
     7
 10
64.99999999999677
 20
107.1999999999083
 30
0.0
 40
231.7000000000916
 50
85.79238548001969
 51
89.99999999999922
  0
ARC
  5
114
  8
1
  6
CONTINUOUS
 62
     7
 10
65.00000000000324
 20
107.1999999999086
 30
0.0
 40
231.7000000000914
 50
90.00000000000068
 51
94.20761451998032
  0
LINE
  5
115
  8
1
  6
CONTINUOUS
 62
     7
 10
48.00000000000006
 20
338.2755071399823
 30
0.0
 11
48.01467414760472
 21
338.0760461929473
 31
0.0
  0
LINE
  5
116
  8
1
  6
CONTINUOUS
 62
     7
 10
64.0
 20
338.7021364749468
 30
0.0
 11
64.0
 21
338.6978462858266
 31
0.0
  0
LINE
  5
117
  8
1
  6
CONTINUOUS
 62
     7
 10
80.99999999999999
 20
276.1999999999999
 30
0.0
 11
80.00003807693581
 21
276.1999999999999
 31
0.0
  0
LINE
  5
118
  8
1
  6
CONTINUOUS
 62
     7
 10
80.97713487741362
 20
278.8200835322132
 30
0.0
 11
80.99999999999999
 21
276.1999999999999
 31
0.0
  0
LINE
  5
119
  8
1
  6
CONTINUOUS
 62
     7
 10
80.00003807693581
 20
276.1999999999999
 30
0.0
 11
76.99996192306416
 21
276.1999999999999
 31
0.0
  0
LINE
  5
11A
  8
1
  6
CONTINUOUS
 62
     7
 10
49.99996192306416
 20
276.1999999999999
 30
0.0
 11
53.00003807693582
 21
276.1999999999999
 31
0.0
  0
LINE
  5
11B
  8
1
  6
CONTINUOUS
 62
     7
 10
75.99999999999999
 20
276.1999999999999
 30
0.0
 11
76.01759081516032
 21
278.2157077638971
 31
0.0
  0
LINE
  5
11C
  8
1
  6
CONTINUOUS
 62
     7
 10
76.06897180745348
 20
278.627283578648
 30
0.0
 11
76.01759081516032
 21
278.2157077638971
 31
0.0
  0
LINE
  5
11D
  8
1
  6
CONTINUOUS
 62
     7
 10
76.07721276386012
 20
278.6551585878926
 30
0.0
 11
76.07411324811345
 21
278.6458584799726
 31
0.0
  0
LINE
  5
11E
  8
1
  6
CONTINUOUS
 62
     7
 10
76.07411324811345
 20
278.6458584799726
 30
0.0
 11
76.0689718074535
 21
278.627283578648
 31
0.0
  0
LINE
  5
11F
  8
1
  6
CONTINUOUS
 62
     7
 10
76.99996192306416
 20
276.1999999999999
 30
0.0
 11
75.99999999999999
 21
276.1999999999999
 31
0.0
  0
LINE
  5
120
  8
1
  6
CONTINUOUS
 62
     7
 10
53.98240918483965
 20
278.2157077638971
 30
0.0
 11
53.99999999999999
 21
276.1999999999999
 31
0.0
  0
LINE
  5
121
  8
1
  6
CONTINUOUS
 62
     7
 10
53.93102819254649
 20
278.627283578648
 30
0.0
 11
53.92278723614007
 21
278.6551585878933
 31
0.0
  0
LINE
  5
122
  8
1
  6
CONTINUOUS
 62
     7
 10
53.98240918483965
 20
278.2157077638971
 30
0.0
 11
53.93102819254649
 21
278.627283578648
 31
0.0
  0
LINE
  5
123
  8
1
  6
CONTINUOUS
 62
     7
 10
53.99999999999999
 20
276.1999999999999
 30
0.0
 11
53.00003807693582
 21
276.1999999999999
 31
0.0
  0
LINE
  5
124
  8
1
  6
CONTINUOUS
 62
     7
 10
48.99999999999999
 20
276.1999999999999
 30
0.0
 11
49.02286512258636
 21
278.8200835322131
 31
0.0
  0
LINE
  5
125
  8
1
  6
CONTINUOUS
 62
     7
 10
49.99996192306416
 20
276.1999999999999
 30
0.0
 11
48.99999999999999
 21
276.1999999999999
 31
0.0
  0
POLYLINE
  5
126
  8
1
  6
CONTINUOUS
 62
     7
 66
     1
 10
0.0
 20
0.0
 30
0.0
  0
VERTEX
  5
1A5
  8
1
  6
CONTINUOUS
 62
     7
 10
76.57597978657948
 20
278.9390040946856
 30
0.0
  0
VERTEX
  5
1A6
  8
1
  6
CONTINUOUS
 62
     7
 10
76.56983507024972
 20
278.9387116537742
 30
0.0
  0
VERTEX
  5
1A7
  8
1
  6
CONTINUOUS
 62
     7
 10
76.54239558266345
 20
278.9368235520452
 30
0.0
  0
VERTEX
  5
1A8
  8
1
  6
CONTINUOUS
 62
     7
 10
76.5149669368653
 20
278.9339823820856
 30
0.0
  0
VERTEX
  5
1A9
  8
1
  6
CONTINUOUS
 62
     7
 10
76.48765975883065
 20
278.9301962004541
 30
0.0
  0
VERTEX
  5
1AA
  8
1
  6
CONTINUOUS
 62
     7
 10
76.46058467453484
 20
278.9254730637095
 30
0.0
  0
VERTEX
  5
1AB
  8
1
  6
CONTINUOUS
 62
     7
 10
76.43385230995324
 20
278.9198210284105
 30
0.0
  0
VERTEX
  5
1AC
  8
1
  6
CONTINUOUS
 62
     7
 10
76.4075732910612
 20
278.9132481511157
 30
0.0
  0
VERTEX
  5
1AD
  8
1
  6
CONTINUOUS
 62
     7
 10
76.3849048814188
 20
278.9067111946938
 30
0.0
  0
VERTEX
  5
1AE
  8
1
  6
CONTINUOUS
 62
     7
 10
76.36257996808456
 20
278.8994477693638
 30
0.0
  0
VERTEX
  5
1AF
  8
1
  6
CONTINUOUS
 62
     7
 10
76.3406710311356
 20
278.8914811502468
 30
0.0
  0
VERTEX
  5
1B0
  8
1
  6
CONTINUOUS
 62
     7
 10
76.31925055064909
 20
278.8828346124639
 30
0.0
  0
VERTEX
  5
1B1
  8
1
  6
CONTINUOUS
 62
     7
 10
76.29839100670213
 20
278.8735314311362
 30
0.0
  0
VERTEX
  5
1B2
  8
1
  6
CONTINUOUS
 62
     7
 10
76.27816487937189
 20
278.8635948813848
 30
0.0
  0
VERTEX
  5
1B3
  8
1
  6
CONTINUOUS
 62
     7
 10
76.2586446487355
 20
278.8530482383306
 30
0.0
  0
VERTEX
  5
1B4
  8
1
  6
CONTINUOUS
 62
     7
 10
76.24005918021882
 20
278.8420192219569
 30
0.0
  0
VERTEX
  5
1B5
  8
1
  6
CONTINUOUS
 62
     7
 10
76.22214969274805
 20
278.830375864615
 30
0.0
  0
VERTEX
  5
1B6
  8
1
  6
CONTINUOUS
 62
     7
 10
76.20497386132025
 20
278.8181578762754
 30
0.0
  0
VERTEX
  5
1B7
  8
1
  6
CONTINUOUS
 62
     7
 10
76.18858936093255
 20
278.8054049669088
 30
0.0
  0
VERTEX
  5
1B8
  8
1
  6
CONTINUOUS
 62
     7
 10
76.17305386658197
 20
278.7921568464857
 30
0.0
  0
VERTEX
  5
1B9
  8
1
  6
CONTINUOUS
 62
     7
 10
76.1584250532656
 20
278.7784532249766
 30
0.0
  0
VERTEX
  5
1BA
  8
1
  6
CONTINUOUS
 62
     7
 10
76.14476059598053
 20
278.7643338123522
 30
0.0
  0
VERTEX
  5
1BB
  8
1
  6
CONTINUOUS
 62
     7
 10
76.13205843967569
 20
278.7497775519691
 30
0.0
  0
VERTEX
  5
1BC
  8
1
  6
CONTINUOUS
 62
     7
 10
76.12031419967647
 20
278.7347857881194
 30
0.0
  0
VERTEX
  5
1BD
  8
1
  6
CONTINUOUS
 62
     7
 10
76.10956361939988
 20
278.7194117828323
 30
0.0
  0
VERTEX
  5
1BE
  8
1
  6
CONTINUOUS
 62
     7
 10
76.09984244226287
 20
278.7037087981371
 30
0.0
  0
VERTEX
  5
1BF
  8
1
  6
CONTINUOUS
 62
     7
 10
76.09118641168236
 20
278.687730096063
 30
0.0
  0
VERTEX
  5
1C0
  8
1
  6
CONTINUOUS
 62
     7
 10
76.08363127107536
 20
278.6715289386395
 30
0.0
  0
VERTEX
  5
1C1
  8
1
  6
CONTINUOUS
 62
     7
 10
76.0772127638599
 20
278.6551585878933
 30
0.0
  0
SEQEND
  5
1F3
  8
1
  6
CONTINUOUS
 62
     7
  0
POLYLINE
  5
127
  8
1
  6
CONTINUOUS
 62
     7
 66
     1
 10
0.0
 20
0.0
 30
0.0
  0
VERTEX
  5
1C2
  8
1
  6
CONTINUOUS
 62
     7
 10
53.42402021342049
 20
278.9390040946856
 30
0.0
  0
VERTEX
  5
1C3
  8
1
  6
CONTINUOUS
 62
     7
 10
53.43016492975025
 20
278.9387116537742
 30
0.0
  0
VERTEX
  5
1C4
  8
1
  6
CONTINUOUS
 62
     7
 10
53.45760441733655
 20
278.9368235520453
 30
0.0
  0
VERTEX
  5
1C5
  8
1
  6
CONTINUOUS
 62
     7
 10
53.48503306313469
 20
278.9339823820858
 30
0.0
  0
VERTEX
  5
1C6
  8
1
  6
CONTINUOUS
 62
     7
 10
53.51234024116934
 20
278.9301962004543
 30
0.0
  0
VERTEX
  5
1C7
  8
1
  6
CONTINUOUS
 62
     7
 10
53.53941532546514
 20
278.9254730637096
 30
0.0
  0
VERTEX
  5
1C8
  8
1
  6
CONTINUOUS
 62
     7
 10
53.56614769004673
 20
278.9198210284105
 30
0.0
  0
VERTEX
  5
1C9
  8
1
  6
CONTINUOUS
 62
     7
 10
53.59242670893878
 20
278.9132481511157
 30
0.0
  0
VERTEX
  5
1CA
  8
1
  6
CONTINUOUS
 62
     7
 10
53.61509511858117
 20
278.9067111946938
 30
0.0
  0
VERTEX
  5
1CB
  8
1
  6
CONTINUOUS
 62
     7
 10
53.63742003191541
 20
278.8994477693638
 30
0.0
  0
VERTEX
  5
1CC
  8
1
  6
CONTINUOUS
 62
     7
 10
53.65932896886437
 20
278.8914811502468
 30
0.0
  0
VERTEX
  5
1CD
  8
1
  6
CONTINUOUS
 62
     7
 10
53.68074944935089
 20
278.8828346124639
 30
0.0
  0
VERTEX
  5
1CE
  8
1
  6
CONTINUOUS
 62
     7
 10
53.70160899329785
 20
278.8735314311362
 30
0.0
  0
VERTEX
  5
1CF
  8
1
  6
CONTINUOUS
 62
     7
 10
53.72183512062809
 20
278.8635948813848
 30
0.0
  0
VERTEX
  5
1D0
  8
1
  6
CONTINUOUS
 62
     7
 10
53.74135535126447
 20
278.8530482383306
 30
0.0
  0
VERTEX
  5
1D1
  8
1
  6
CONTINUOUS
 62
     7
 10
53.75994081978115
 20
278.8420192219569
 30
0.0
  0
VERTEX
  5
1D2
  8
1
  6
CONTINUOUS
 62
     7
 10
53.77785030725193
 20
278.830375864615
 30
0.0
  0
VERTEX
  5
1D3
  8
1
  6
CONTINUOUS
 62
     7
 10
53.79502613867972
 20
278.8181578762754
 30
0.0
  0
VERTEX
  5
1D4
  8
1
  6
CONTINUOUS
 62
     7
 10
53.81141063906743
 20
278.8054049669088
 30
0.0
  0
VERTEX
  5
1D5
  8
1
  6
CONTINUOUS
 62
     7
 10
53.82694613341801
 20
278.7921568464857
 30
0.0
  0
VERTEX
  5
1D6
  8
1
  6
CONTINUOUS
 62
     7
 10
53.84157494673438
 20
278.7784532249766
 30
0.0
  0
VERTEX
  5
1D7
  8
1
  6
CONTINUOUS
 62
     7
 10
53.85523940401944
 20
278.7643338123522
 30
0.0
  0
VERTEX
  5
1D8
  8
1
  6
CONTINUOUS
 62
     7
 10
53.86794156032428
 20
278.7497775519691
 30
0.0
  0
VERTEX
  5
1D9
  8
1
  6
CONTINUOUS
 62
     7
 10
53.87968580032349
 20
278.7347857881194
 30
0.0
  0
VERTEX
  5
1DA
  8
1
  6
CONTINUOUS
 62
     7
 10
53.89043638060009
 20
278.7194117828323
 30
0.0
  0
VERTEX
  5
1DB
  8
1
  6
CONTINUOUS
 62
     7
 10
53.90015755773711
 20
278.7037087981371
 30
0.0
  0
VERTEX
  5
1DC
  8
1
  6
CONTINUOUS
 62
     7
 10
53.90881358831761
 20
278.687730096063
 30
0.0
  0
VERTEX
  5
1DD
  8
1
  6
CONTINUOUS
 62
     7
 10
53.9163687289246
 20
278.6715289386395
 30
0.0
  0
VERTEX
  5
1DE
  8
1
  6
CONTINUOUS
 62
     7
 10
53.92278723614007
 20
278.6551585878933
 30
0.0
  0
SEQEND
  5
1F4
  8
1
  6
CONTINUOUS
 62
     7
  0
ARC
  5
128
  8
1
  6
CONTINUOUS
 62
     7
 10
52.18247772332414
 20
278.1999999999999
 30
0.0
 40
1.8
 50
13.73194346163984
 51
90.0
  0
ARC
  5
129
  8
1
  6
CONTINUOUS
 62
     7
 10
77.81752227667583
 20
278.1999999999999
 30
0.0
 40
1.8
 50
161.3474426531667
 51
166.2680565383599
  0
ARC
  5
12A
  8
1
  6
CONTINUOUS
 62
     7
 10
77.81752227667583
 20
278.1999999999999
 30
0.0
 40
1.8
 50
159.216641204378
 51
161.3474426531666
  0
ARC
  5
12B
  8
1
  6
CONTINUOUS
 62
     7
 10
77.81752227667583
 20
278.1999999999999
 30
0.0
 40
1.8
 50
90.00000000000006
 51
159.216641204378
  0
LINE
  5
12C
  8
1
  6
CONTINUOUS
 62
     7
 10
80.9711632586297
 20
279.5043632677491
 30
0.0
 11
80.97713487741362
 21
278.8200835322131
 31
0.0
  0
LINE
  5
12D
  8
1
  6
CONTINUOUS
 62
     7
 10
49.02286512258636
 20
278.8200835322132
 30
0.0
 11
49.02883674137028
 21
279.5043632677492
 31
0.0
  0
LINE
  5
12E
  8
1
  6
CONTINUOUS
 62
     7
 10
77.81752227667583
 20
279.9999999999999
 30
0.0
 11
80.47118229709763
 21
279.9999999999999
 31
0.0
  0
ARC
  5
12F
  8
1
  6
CONTINUOUS
 62
     7
 10
80.47118229709761
 20
279.4999999999999
 30
0.0
 40
0.4999999999999969
 50
0.5
 51
90.0
  0
LINE
  5
130
  8
1
  6
CONTINUOUS
 62
     7
 10
49.52881770290237
 20
279.9999999999999
 30
0.0
 11
52.18247772332414
 21
279.9999999999999
 31
0.0
  0
ARC
  5
131
  8
1
  6
CONTINUOUS
 62
     7
 10
49.52881770290237
 20
279.4999999999999
 30
0.0
 40
0.5000000000000004
 50
90.0
 51
179.5
  0
LINE
  5
132
  8
1
  6
CONTINUOUS
 62
     7
 10
53.98240918483965
 20
278.2157077638971
 30
0.0
 11
53.97389555194928
 21
279.1912734645015
 31
0.0
  0
LINE
  5
133
  8
1
  6
CONTINUOUS
 62
     7
 10
64.99563673225079
 20
281.7043632677492
 30
0.0
 11
64.99999999999996
 21
281.7
 31
0.0
  0
LINE
  5
134
  8
1
  6
CONTINUOUS
 62
     7
 10
64.99999999999996
 20
281.6999999999999
 30
0.0
 11
65.00436326774916
 21
281.7043632677492
 31
0.0
  0
LINE
  5
135
  8
1
  6
CONTINUOUS
 62
     7
 10
75.99999999999999
 20
276.1999999999999
 30
0.0
 11
53.99999999999998
 21
276.1999999999999
 31
0.0
  0
LINE
  5
136
  8
1
  6
CONTINUOUS
 62
     7
 10
94.50001903846791
 20
276.1999999999999
 30
0.0
 11
81.0
 21
276.1999999999999
 31
0.0
  0
LINE
  5
137
  8
1
  6
CONTINUOUS
 62
     7
 10
49.0
 20
276.1999999999999
 30
0.0
 11
35.49998096153209
 21
276.1999999999999
 31
0.0
  0
LINE
  5
138
  8
1
  6
CONTINUOUS
 62
     7
 10
94.94586311066767
 20
282.4034730707905
 30
0.0
 11
95.0
 21
276.1999999999999
 31
0.0
  0
LINE
  5
139
  8
1
  6
CONTINUOUS
 62
     7
 10
95.0
 20
276.1999999999999
 30
0.0
 11
94.50001903846791
 21
276.1999999999999
 31
0.0
  0
LINE
  5
13A
  8
1
  6
CONTINUOUS
 62
     7
 10
35.0
 20
276.1999999999999
 30
0.0
 11
35.05413688933233
 21
282.4034730707905
 31
0.0
  0
LINE
  5
13B
  8
1
  6
CONTINUOUS
 62
     7
 10
35.49998096153209
 20
276.1999999999999
 30
0.0
 11
35.0
 21
276.1999999999999
 31
0.0
  0
LINE
  5
13C
  8
1
  6
CONTINUOUS
 62
     7
 10
90.56216333880957
 20
282.1999999999999
 30
0.0
 11
91.76654018566843
 21
290.76958655048
 31
0.0
  0
LINE
  5
13D
  8
1
  6
CONTINUOUS
 62
     7
 10
65.49999999999999
 20
282.1999999999999
 30
0.0
 11
90.56217758547879
 21
282.1999999999999
 31
0.0
  0
LINE
  5
13E
  8
1
  6
CONTINUOUS
 62
     7
 10
65.00436326774916
 20
281.7043632677492
 30
0.0
 11
65.49999999999999
 21
282.2
 31
0.0
  0
LINE
  5
13F
  8
1
  6
CONTINUOUS
 62
     7
 10
39.43782241452121
 20
282.1999999999999
 30
0.0
 11
64.49999999999997
 21
282.1999999999999
 31
0.0
  0
LINE
  5
140
  8
1
  6
CONTINUOUS
 62
     7
 10
64.5
 20
282.1999999999999
 30
0.0
 11
64.9956367322508
 21
281.7043632677491
 31
0.0
  0
LINE
  5
141
  8
1
  6
CONTINUOUS
 62
     7
 10
38.23345981433157
 20
290.76958655048
 30
0.0
 11
39.43783666119042
 21
282.2
 31
0.0
  0
LINE
  5
142
  8
1
  6
CONTINUOUS
 62
     7
 10
94.09603111762182
 20
290.306910606117
 30
0.0
 11
94.94586311066767
 21
282.4034730707905
 31
0.0
  0
LINE
  5
143
  8
1
  6
CONTINUOUS
 62
     7
 10
35.05413688933232
 20
282.4034730707905
 30
0.0
 11
35.90396888237818
 21
290.306910606117
 31
0.0
  0
ARC
  5
144
  8
1
  6
CONTINUOUS
 62
     7
 10
93.10176248073354
 20
290.1999999999999
 30
0.0
 40
1.000000000000001
 50
6.137255949262169
 51
89.99999999999982
  0
ARC
  5
145
  8
1
  6
CONTINUOUS
 62
     7
 10
36.89823751926647
 20
290.1999999999999
 30
0.0
 40
1.000000000000001
 50
89.99999999999982
 51
173.862744050738
  0
ARC
  5
146
  8
1
  6
CONTINUOUS
 62
     7
 10
92.26167422003921
 20
290.6999999999999
 30
0.0
 40
0.5000000000000004
 50
90.0
 51
172.0
  0
LINE
  5
147
  8
1
  6
CONTINUOUS
 62
     7
 10
92.26167422003921
 20
291.1999999999999
 30
0.0
 11
93.10176248073354
 21
291.1999999999999
 31
0.0
  0
ARC
  5
148
  8
1
  6
CONTINUOUS
 62
     7
 10
37.7383257799608
 20
290.6999999999999
 30
0.0
 40
0.5000000000000001
 50
8.000000000000028
 51
89.99999999999962
  0
LINE
  5
149
  8
1
  6
CONTINUOUS
 62
     7
 10
36.89823751926647
 20
291.1999999999999
 30
0.0
 11
37.7383257799608
 21
291.1999999999999
 31
0.0
  0
POLYLINE
  5
14A
  8
1
  6
CONTINUOUS
 62
     7
 66
     1
 10
0.0
 20
0.0
 30
0.0
  0
VERTEX
  5
1DF
  8
1
  6
CONTINUOUS
 62
     7
 10
78.49999999999996
 20
275.9999999999999
 30
0.0
  0
VERTEX
  5
1E0
  8
1
  6
CONTINUOUS
 62
     7
 10
78.60282054883862
 20
276.0284542779999
 30
0.0
  0
VERTEX
  5
1E1
  8
1
  6
CONTINUOUS
 62
     7
 10
78.67638425286965
 20
276.1057206526347
 30
0.0
  0
VERTEX
  5
1E2
  8
1
  6
CONTINUOUS
 62
     7
 10
78.69999999999999
 20
276.1999999999999
 30
0.0
  0
SEQEND
  5
1F5
  8
1
  6
CONTINUOUS
 62
     7
  0
POLYLINE
  5
14B
  8
1
  6
CONTINUOUS
 62
     7
 66
     1
 10
0.0
 20
0.0
 30
0.0
  0
VERTEX
  5
1E3
  8
1
  6
CONTINUOUS
 62
     7
 10
51.49999999999992
 20
275.9999999999999
 30
0.0
  0
VERTEX
  5
1E4
  8
1
  6
CONTINUOUS
 62
     7
 10
51.39717945116128
 20
276.0284542779999
 30
0.0
  0
VERTEX
  5
1E5
  8
1
  6
CONTINUOUS
 62
     7
 10
51.32361574713025
 20
276.1057206526348
 30
0.0
  0
VERTEX
  5
1E6
  8
1
  6
CONTINUOUS
 62
     7
 10
51.29999999999992
 20
276.1999999999999
 30
0.0
  0
SEQEND
  5
1F6
  8
1
  6
CONTINUOUS
 62
     7
  0
LINE
  5
14C
  8
1
  6
CONTINUOUS
 62
     7
 10
51.49999999999992
 20
275.9999999999999
 30
0.0
 11
78.49999999999999
 21
275.9999999999999
 31
0.0
  0
ENDBLK
  8
0
  0
ENDSEC
  0
SECTION
  2
ENTITIES
  0
INSERT
  5
98
  8
1
  6
CONTINUOUS
 62
     7
  2
D_FRAME_VIEW_1638
 10
0.0
 20
0.0
 30
0.0
  0
INSERT
  5
F2
  8
1
  6
CONTINUOUS
 62
     7
  2
D_FRAME_VIEW_1730
 10
0.0
 20
0.0
 30
0.0
  0
TEXT
  5
F3
  8
1
  6
CONTINUOUS
 62
     7
 10
164.7718050518945
 20
263.3284200325122
 30
0.0
 40
3.0
  1
RMS-40
  0
INSERT
  5
14D
  8
1
  6
CONTINUOUS
 62
     7
  2
D_FRAME_VIEW_1473
 10
0.0
 20
0.0
 30
0.0
  0
ENDSEC
  0
EOF
