  0
SECTION
  2
HEADER
  9
$ACADVER
  1
AC1006
  9
$DWGCODEPAGE
  3
ansi_932
  9
$INSBASE
 10
0.0
 20
0.0
 30
0.0
  9
$EXTMIN
 10
88.06973149299682
 20
347.4343565300633
  9
$EXTMAX
 10
377.0065500910792
 20
657.987480950036
  9
$LIMMIN
 10
0.0
 20
0.0
  9
$LIMMAX
 10
12.0
 20
9.0
  9
$ORTHOMODE
 70
     0
  9
$REGENMODE
 70
     1
  9
$FILLMODE
 70
     1
  9
$QTEXTMODE
 70
     0
  9
$MIRRTEXT
 70
     1
  9
$DRAGMODE
 70
     2
  9
$LTSCALE
 40
1.0
  9
$OSMODE
 70
    37
  9
$ATTMODE
 70
     1
  9
$TEXTSIZE
 40
0.2
  9
$TRACEWID
 40
0.05
  9
$TEXTSTYLE
  7
STANDARD
  9
$CLAYER
  8
0
  9
$CELTYPE
  6
BYLAYER
  9
$CECOLOR
 62
   256
  9
$DIMSCALE
 40
1.0
  9
$DIMASZ
 40
3.0
  9
$DIMEXO
 40
0.0625
  9
$DIMDLI
 40
0.38
  9
$DIMRND
 40
0.0
  9
$DIMDLE
 40
0.0
  9
$DIMEXE
 40
1.5
  9
$DIMTP
 40
0.0
  9
$DIMTM
 40
0.0
  9
$DIMTXT
 40
3.0
  9
$DIMCEN
 40
0.09
  9
$DIMTSZ
 40
0.0
  9
$DIMTOL
 70
     0
  9
$DIMLIM
 70
     0
  9
$DIMTIH
 70
     1
  9
$DIMTOH
 70
     1
  9
$DIMSE1
 70
     0
  9
$DIMSE2
 70
     0
  9
$DIMTAD
 70
     1
  9
$DIMZIN
 70
     0
  9
$DIMBLK
  1

  9
$DIMASO
 70
     1
  9
$DIMSHO
 70
     1
  9
$DIMPOST
  1

  9
$DIMAPOST
  1

  9
$DIMALT
 70
     0
  9
$DIMALTD
 70
     2
  9
$DIMALTF
 40
25.4
  9
$DIMLFAC
 40
1.0
  9
$DIMTOFL
 70
     0
  9
$DIMTVP
 40
0.0
  9
$DIMTIX
 70
     0
  9
$DIMSOXD
 70
     0
  9
$DIMSAH
 70
     0
  9
$DIMBLK1
  1

  9
$DIMBLK2
  1

  9
$LUNITS
 70
     2
  9
$LUPREC
 70
     4
  9
$SKETCHINC
 40
0.1
  9
$FILLETRAD
 40
0.5
  9
$AUNITS
 70
     0
  9
$AUPREC
 70
     0
  9
$MENU
  1
.
  9
$ELEVATION
 40
0.0
  9
$THICKNESS
 40
0.0
  9
$LIMCHECK
 70
     0
  9
$CHAMFERA
 40
0.0
  9
$CHAMFERB
 40
0.0
  9
$SKPOLY
 70
     0
  9
$TDCREATE
 40
2459110.495981586
  9
$TDUPDATE
 40
2459110.495981805
  9
$TDINDWG
 40
0.0000000116
  9
$TDUSRTIMER
 40
0.0000000116
  9
$USRTIMER
 70
     1
  9
$ANGBASE
 50
0.0
  9
$ANGDIR
 70
     0
  9
$PDMODE
 70
     0
  9
$PDSIZE
 40
0.0
  9
$PLINEWID
 40
0.0
  9
$COORDS
 70
     1
  9
$SPLFRAME
 70
     0
  9
$SPLINETYPE
 70
     6
  9
$SPLINESEGS
 70
     8
  9
$ATTDIA
 70
     0
  9
$ATTREQ
 70
     1
  9
$HANDLING
 70
     1
  9
$HANDSEED
  5
42C
  9
$SURFTAB1
 70
     6
  9
$SURFTAB2
 70
     6
  9
$SURFTYPE
 70
     6
  9
$SURFU
 70
     6
  9
$SURFV
 70
     6
  9
$UCSNAME
  2

  9
$UCSORG
 10
0.0
 20
0.0
 30
0.0
  9
$UCSXDIR
 10
1.0
 20
0.0
 30
0.0
  9
$UCSYDIR
 10
0.0
 20
1.0
 30
0.0
  9
$USERI1
 70
     0
  9
$USERI2
 70
     0
  9
$USERI3
 70
     0
  9
$USERI4
 70
     0
  9
$USERI5
 70
     0
  9
$USERR1
 40
0.0
  9
$USERR2
 40
0.0
  9
$USERR3
 40
0.0
  9
$USERR4
 40
0.0
  9
$USERR5
 40
0.0
  9
$WORLDVIEW
 70
     1
  0
ENDSEC
  0
SECTION
  2
TABLES
  0
TABLE
  2
VPORT
 70
     1
  0
VPORT
  2
*ACTIVE
 70
     0
 10
0.0
 20
0.0
 11
1.0
 21
1.0
 12
232.538140792038
 22
502.7109187400496
 13
0.0
 23
0.0
 14
0.5
 24
0.5
 15
0.5
 25
0.5
 16
0.0
 26
0.0
 36
1.0
 17
0.0
 27
0.0
 37
0.0
 40
310.5531244199727
 41
1.6
 42
50.0
 43
0.0
 44
0.0
 50
0.0
 51
0.0
 71
     0
 72
   100
 73
     1
 74
     3
 75
     0
 76
     0
 77
     0
 78
     0
  0
ENDTAB
  0
TABLE
  2
LTYPE
 70
     2
  0
LTYPE
  2
CONTINUOUS
 70
     0
  3
Solid line
 72
    65
 73
     0
 40
0.0
  0
LTYPE
  2
CENTER
 70
     0
  3

 72
    65
 73
     0
 40
0.0
  0
ENDTAB
  0
TABLE
  2
LAYER
 70
     1
  0
LAYER
  2
0
 70
     0
 62
     7
  6
CONTINUOUS
  0
ENDTAB
  0
TABLE
  2
STYLE
 70
     2
  0
STYLE
  2
STANDARD
 70
     0
 40
0.0
 41
1.0
 50
0.0
 71
     0
 42
0.2
  3
txt
  4

  0
STYLE
  2
ＭＳ_ゴシック
 70
     0
 40
0.0
 41
1.0
 50
0.0
 71
     0
 42
0.2
  3
ＭＳ ゴシック.shx
  4

  0
ENDTAB
  0
TABLE
  2
VIEW
 70
     0
  0
ENDTAB
  0
TABLE
  2
UCS
 70
     0
  0
ENDTAB
  0
ENDSEC
  0
SECTION
  2
BLOCKS
  0
BLOCK
  8
0
  2
D_FRAME_VIEW_1713
 70
     0
 10
0.0
 20
0.0
 30
0.0
  0
LINE
  5
70
  8
0
  6
CONTINUOUS
 62
     7
 10
141.4844664987794
 20
432.0757623501122
 30
0.0
 11
141.4844664987794
 21
433.1486041868704
 31
0.0
  0
LINE
  5
71
  8
0
  6
CONTINUOUS
 62
     7
 10
106.2929890340873
 20
432.0757623501122
 30
0.0
 11
106.2929890340873
 21
433.1486041868705
 31
0.0
  0
LINE
  5
72
  8
0
  6
CONTINUOUS
 62
     7
 10
140.7971734866111
 20
430.5757623501122
 30
0.0
 11
106.9802820462554
 21
430.5757623501122
 31
0.0
  0
POLYLINE
  5
73
  8
0
  6
CONTINUOUS
 62
     7
 66
     1
 10
0.0
 20
0.0
 30
0.0
  0
VERTEX
  5
286
  8
0
  6
CONTINUOUS
 62
     7
 10
106.9802820462556
 20
430.5757623501122
 30
0.0
  0
VERTEX
  5
287
  8
0
  6
CONTINUOUS
 62
     7
 10
106.8806377210539
 20
430.5916397800611
 30
0.0
  0
VERTEX
  5
288
  8
0
  6
CONTINUOUS
 62
     7
 10
106.7858790773287
 20
430.6371133184519
 30
0.0
  0
VERTEX
  5
289
  8
0
  6
CONTINUOUS
 62
     7
 10
106.7068549190305
 20
430.6997411906023
 30
0.0
  0
VERTEX
  5
28A
  8
0
  6
CONTINUOUS
 62
     7
 10
106.6307149000019
 20
430.7845069278534
 30
0.0
  0
SEQEND
  5
401
  8
0
  6
CONTINUOUS
 62
     7
  0
ARC
  5
74
  8
0
  6
CONTINUOUS
 62
     7
 10
108.5073067080629
 20
431.9651201745253
 30
0.0
 40
2.217080163706066
 50
177.139497228623
 51
212.1750772825349
  0
POLYLINE
  5
75
  8
0
  6
CONTINUOUS
 62
     7
 66
     1
 10
0.0
 20
0.0
 30
0.0
  0
VERTEX
  5
28B
  8
0
  6
CONTINUOUS
 62
     7
 10
140.7971734866111
 20
430.5757623501122
 30
0.0
  0
VERTEX
  5
28C
  8
0
  6
CONTINUOUS
 62
     7
 10
140.8968178118129
 20
430.5916397800611
 30
0.0
  0
VERTEX
  5
28D
  8
0
  6
CONTINUOUS
 62
     7
 10
140.9915764555381
 20
430.6371133184519
 30
0.0
  0
VERTEX
  5
28E
  8
0
  6
CONTINUOUS
 62
     7
 10
141.0706006138362
 20
430.6997411906023
 30
0.0
  0
VERTEX
  5
28F
  8
0
  6
CONTINUOUS
 62
     7
 10
141.1467007633253
 20
430.784455494628
 30
0.0
  0
SEQEND
  5
402
  8
0
  6
CONTINUOUS
 62
     7
  0
ARC
  5
76
  8
0
  6
CONTINUOUS
 62
     7
 10
139.2697310358067
 20
431.9652403696548
 30
0.0
 40
2.217491438340431
 50
327.8263689972044
 51
2.856862314029001
  0
LINE
  5
77
  8
0
  6
CONTINUOUS
 62
     7
 10
106.9802820462556
 20
430.5757623501122
 30
0.0
 11
94.70167580959779
 21
430.5757623501122
 31
0.0
  0
LINE
  5
78
  8
0
  6
CONTINUOUS
 62
     7
 10
153.0757797232689
 20
430.5757623501122
 30
0.0
 11
140.7971734866111
 21
430.5757623501122
 31
0.0
  0
LINE
  5
79
  8
0
  6
CONTINUOUS
 62
     7
 10
141.4844664987794
 20
433.1486041868704
 30
0.0
 11
154.1620390245671
 21
433.0324251280261
 31
0.0
  0
LINE
  5
7A
  8
0
  6
CONTINUOUS
 62
     7
 10
106.2929890340873
 20
433.1486041868705
 30
0.0
 11
93.6154165082996
 21
433.0324251280261
 31
0.0
  0
LINE
  5
7B
  8
0
  6
CONTINUOUS
 62
     7
 10
94.70167580959779
 20
430.5757623501122
 30
0.0
 11
91.44736495431962
 21
430.5757623501122
 31
0.0
  0
POLYLINE
  5
7C
  8
0
  6
CONTINUOUS
 62
     7
 66
     1
 10
0.0
 20
0.0
 30
0.0
  0
VERTEX
  5
290
  8
0
  6
CONTINUOUS
 62
     7
 10
93.61541650829938
 20
433.0324251280261
 30
0.0
  0
VERTEX
  5
291
  8
0
  6
CONTINUOUS
 62
     7
 10
92.07051664726102
 20
433.0153000322726
 30
0.0
  0
VERTEX
  5
292
  8
0
  6
CONTINUOUS
 62
     7
 10
90.9197192822685
 20
432.9959563523637
 30
0.0
  0
VERTEX
  5
293
  8
0
  6
CONTINUOUS
 62
     7
 10
90.2036038623929
 20
432.9750761856844
 30
0.0
  0
VERTEX
  5
294
  8
0
  6
CONTINUOUS
 62
     7
 10
89.94742206972339
 20
432.9533958092601
 30
0.0
  0
SEQEND
  5
403
  8
0
  6
CONTINUOUS
 62
     7
  0
POLYLINE
  5
7D
  8
0
  6
CONTINUOUS
 62
     7
 66
     1
 10
0.0
 20
0.0
 30
0.0
  0
VERTEX
  5
295
  8
0
  6
CONTINUOUS
 62
     7
 10
157.8300334631434
 20
432.9533958092601
 30
0.0
  0
VERTEX
  5
296
  8
0
  6
CONTINUOUS
 62
     7
 10
157.5738516704738
 20
432.9750761856844
 30
0.0
  0
VERTEX
  5
297
  8
0
  6
CONTINUOUS
 62
     7
 10
156.8577362505981
 20
432.9959563523637
 30
0.0
  0
VERTEX
  5
298
  8
0
  6
CONTINUOUS
 62
     7
 10
155.7069388856056
 20
433.0153000322726
 30
0.0
  0
VERTEX
  5
299
  8
0
  6
CONTINUOUS
 62
     7
 10
154.1620390245671
 20
433.0324251280261
 30
0.0
  0
SEQEND
  5
404
  8
0
  6
CONTINUOUS
 62
     7
  0
LINE
  5
7E
  8
0
  6
CONTINUOUS
 62
     7
 10
156.3300905785471
 20
430.5757623501122
 30
0.0
 11
153.0757797232689
 21
430.5757623501122
 31
0.0
  0
POLYLINE
  5
7F
  8
0
  6
CONTINUOUS
 62
     7
 66
     1
 10
0.0
 20
0.0
 30
0.0
  0
VERTEX
  5
29A
  8
0
  6
CONTINUOUS
 62
     7
 10
89.56982668968618
 20
432.0757623501122
 30
0.0
  0
VERTEX
  5
29B
  8
0
  6
CONTINUOUS
 62
     7
 10
89.59867215317752
 20
431.783126867088
 30
0.0
  0
VERTEX
  5
29C
  8
0
  6
CONTINUOUS
 62
     7
 10
89.6840554554704
 20
431.5017372015646
 30
0.0
  0
VERTEX
  5
29D
  8
0
  6
CONTINUOUS
 62
     7
 10
89.82269536414128
 20
431.2424070005828
 30
0.0
  0
VERTEX
  5
29E
  8
0
  6
CONTINUOUS
 62
     7
 10
90.00926402525003
 20
431.0151021783324
 30
0.0
  0
VERTEX
  5
29F
  8
0
  6
CONTINUOUS
 62
     7
 10
90.2365917097792
 20
430.8285579316584
 30
0.0
  0
VERTEX
  5
2A0
  8
0
  6
CONTINUOUS
 62
     7
 10
90.49594234229914
 20
430.6899430513453
 30
0.0
  0
VERTEX
  5
2A1
  8
0
  6
CONTINUOUS
 62
     7
 10
90.77734922344764
 20
430.6045844295073
 30
0.0
  0
VERTEX
  5
2A2
  8
0
  6
CONTINUOUS
 62
     7
 10
91.06999804459694
 20
430.5757623501122
 30
0.0
  0
SEQEND
  5
405
  8
0
  6
CONTINUOUS
 62
     7
  0
LINE
  5
80
  8
0
  6
CONTINUOUS
 62
     7
 10
91.44736495431965
 20
430.5757623501122
 30
0.0
 11
91.06999804459694
 21
430.5757623501122
 31
0.0
  0
LINE
  5
81
  8
0
  6
CONTINUOUS
 62
     7
 10
89.56982668968618
 20
432.0757623501122
 30
0.0
 11
89.56978861057546
 21
432.5757623501122
 31
0.0
  0
LINE
  5
82
  8
0
  6
CONTINUOUS
 62
     7
 10
89.94742206972339
 20
432.9533958092601
 30
0.0
 11
89.56978861057546
 21
432.5757623501122
 31
0.0
  0
POLYLINE
  5
83
  8
0
  6
CONTINUOUS
 62
     7
 66
     1
 10
0.0
 20
0.0
 30
0.0
  0
VERTEX
  5
2A3
  8
0
  6
CONTINUOUS
 62
     7
 10
156.7074574882697
 20
430.5757623501122
 30
0.0
  0
VERTEX
  5
2A4
  8
0
  6
CONTINUOUS
 62
     7
 10
157.000106309419
 20
430.6045844295074
 30
0.0
  0
VERTEX
  5
2A5
  8
0
  6
CONTINUOUS
 62
     7
 10
157.2815131905675
 20
430.6899430513453
 30
0.0
  0
VERTEX
  5
2A6
  8
0
  6
CONTINUOUS
 62
     7
 10
157.5408638230875
 20
430.8285579316583
 30
0.0
  0
VERTEX
  5
2A7
  8
0
  6
CONTINUOUS
 62
     7
 10
157.7681915076166
 20
431.0151021783324
 30
0.0
  0
VERTEX
  5
2A8
  8
0
  6
CONTINUOUS
 62
     7
 10
157.9547601687254
 20
431.2424070005828
 30
0.0
  0
VERTEX
  5
2A9
  8
0
  6
CONTINUOUS
 62
     7
 10
158.0934000773963
 20
431.5017372015645
 30
0.0
  0
VERTEX
  5
2AA
  8
0
  6
CONTINUOUS
 62
     7
 10
158.1787833796892
 20
431.783126867088
 30
0.0
  0
VERTEX
  5
2AB
  8
0
  6
CONTINUOUS
 62
     7
 10
158.2076288431805
 20
432.0757623501122
 30
0.0
  0
SEQEND
  5
406
  8
0
  6
CONTINUOUS
 62
     7
  0
LINE
  5
84
  8
0
  6
CONTINUOUS
 62
     7
 10
156.7074574882697
 20
430.5757623501122
 30
0.0
 11
156.3300905785471
 21
430.5757623501122
 31
0.0
  0
LINE
  5
85
  8
0
  6
CONTINUOUS
 62
     7
 10
158.2076288431805
 20
432.0757623501122
 30
0.0
 11
158.2076669222912
 21
432.5757623501122
 31
0.0
  0
LINE
  5
86
  8
0
  6
CONTINUOUS
 62
     7
 10
157.8300334631433
 20
432.9533958092601
 30
0.0
 11
158.2076669222912
 21
432.5757623501122
 31
0.0
  0
CIRCLE
  5
87
  8
0
  6
CONTINUOUS
 62
     7
 10
99.38872776643336
 20
462.5757623501122
 30
0.0
 40
1.549282040812547
  0
CIRCLE
  5
88
  8
0
  6
CONTINUOUS
 62
     7
 10
148.3887277664334
 20
462.5757623501121
 30
0.0
 40
1.549282040812561
  0
LINE
  5
89
  8
0
  6
CONTINUOUS
 62
     7
 10
142.1732170067755
 20
434.6523041309756
 30
0.0
 11
142.1732170067755
 21
434.6482802247897
 31
0.0
  0
LINE
  5
8A
  8
0
  6
CONTINUOUS
 62
     7
 10
105.6042385260912
 20
434.6523041309756
 30
0.0
 11
105.6042385260912
 21
434.6482802247897
 31
0.0
  0
LINE
  5
8B
  8
0
  6
CONTINUOUS
 62
     7
 10
105.6042385260912
 20
562.6117193347443
 30
0.0
 11
105.6042385260912
 21
434.6523041309756
 31
0.0
  0
LINE
  5
8C
  8
0
  6
CONTINUOUS
 62
     7
 10
105.6045284838328
 20
562.6358830767664
 30
0.0
 11
105.6042385260912
 21
562.6117193347443
 31
0.0
  0
LINE
  5
8D
  8
0
  6
CONTINUOUS
 62
     7
 10
142.1732170067755
 20
562.6117193347443
 30
0.0
 11
142.1729270490341
 21
562.6358830767664
 31
0.0
  0
LINE
  5
8E
  8
0
  6
CONTINUOUS
 62
     7
 10
142.1732170067755
 20
562.6117193347443
 30
0.0
 11
142.1732170067755
 21
434.6523041309756
 31
0.0
  0
POLYLINE
  5
8F
  8
0
  6
CONTINUOUS
 62
     7
 66
     1
 10
0.0
 20
0.0
 30
0.0
  0
VERTEX
  5
2AC
  8
0
  6
CONTINUOUS
 62
     7
 10
106.2929890340874
 20
433.1487184198529
 30
0.0
  0
VERTEX
  5
2AD
  8
0
  6
CONTINUOUS
 62
     7
 10
106.1810991187086
 20
433.1707410003614
 30
0.0
  0
VERTEX
  5
2AE
  8
0
  6
CONTINUOUS
 62
     7
 10
106.0781470644709
 20
433.2276215403586
 30
0.0
  0
VERTEX
  5
2AF
  8
0
  6
CONTINUOUS
 62
     7
 10
105.99935725988
 20
433.2974388998395
 30
0.0
  0
VERTEX
  5
2B0
  8
0
  6
CONTINUOUS
 62
     7
 10
105.9238048186206
 20
433.3894336898471
 30
0.0
  0
SEQEND
  5
407
  8
0
  6
CONTINUOUS
 62
     7
  0
ARC
  5
90
  8
0
  6
CONTINUOUS
 62
     7
 10
107.9630301602151
 20
434.5770894107587
 30
0.0
 40
2.359865696435989
 50
178.271277841167
 51
210.216750026787
  0
POLYLINE
  5
91
  8
0
  6
CONTINUOUS
 62
     7
 66
     1
 10
0.0
 20
0.0
 30
0.0
  0
VERTEX
  5
2B1
  8
0
  6
CONTINUOUS
 62
     7
 10
141.4844664987793
 20
433.1487184198528
 30
0.0
  0
VERTEX
  5
2B2
  8
0
  6
CONTINUOUS
 62
     7
 10
141.6116888386764
 20
433.1769182437272
 30
0.0
  0
VERTEX
  5
2B3
  8
0
  6
CONTINUOUS
 62
     7
 10
141.6993534478285
 20
433.2276549933114
 30
0.0
  0
VERTEX
  5
2B4
  8
0
  6
CONTINUOUS
 62
     7
 10
141.7780781272193
 20
433.2974173391204
 30
0.0
  0
VERTEX
  5
2B5
  8
0
  6
CONTINUOUS
 62
     7
 10
141.8536942158582
 20
433.3894952828506
 30
0.0
  0
SEQEND
  5
408
  8
0
  6
CONTINUOUS
 62
     7
  0
ARC
  5
92
  8
0
  6
CONTINUOUS
 62
     7
 10
139.8143139266973
 20
434.5771053375242
 30
0.0
 40
2.359976611278062
 50
329.786101251276
 51
1.72825403937145
  0
POLYLINE
  5
93
  8
0
  6
CONTINUOUS
 62
     7
 66
     1
 10
0.0
 20
0.0
 30
0.0
  0
VERTEX
  5
2B6
  8
0
  6
CONTINUOUS
 62
     7
 10
106.2929890340875
 20
564.1315400366502
 30
0.0
  0
VERTEX
  5
2B7
  8
0
  6
CONTINUOUS
 62
     7
 10
106.1750979804862
 20
564.0964255132097
 30
0.0
  0
VERTEX
  5
2B8
  8
0
  6
CONTINUOUS
 62
     7
 10
106.0829887083647
 20
564.0370756319907
 30
0.0
  0
VERTEX
  5
2B9
  8
0
  6
CONTINUOUS
 62
     7
 10
106.0029056997604
 20
563.9602995216816
 30
0.0
  0
SEQEND
  5
409
  8
0
  6
CONTINUOUS
 62
     7
  0
ARC
  5
94
  8
0
  6
CONTINUOUS
 62
     7
 10
107.8152928822587
 20
562.6930203141056
 30
0.0
 40
2.211502631524202
 50
145.0375208008378
 51
181.4804806592983
  0
ARC
  5
95
  8
0
  6
CONTINUOUS
 62
     7
 10
139.7031748251059
 20
562.6424675517054
 30
0.0
 40
2.469761001171676
 50
359.8472471340119
 51
29.56480535674751
  0
POLYLINE
  5
96
  8
0
  6
CONTINUOUS
 62
     7
 66
     1
 10
0.0
 20
0.0
 30
0.0
  0
VERTEX
  5
2BA
  8
0
  6
CONTINUOUS
 62
     7
 10
141.8513684375159
 20
563.8610665860517
 30
0.0
  0
VERTEX
  5
2BB
  8
0
  6
CONTINUOUS
 62
     7
 10
141.775953590753
 20
563.958724590797
 30
0.0
  0
VERTEX
  5
2BC
  8
0
  6
CONTINUOUS
 62
     7
 10
141.6956924103915
 20
564.0360850462996
 30
0.0
  0
VERTEX
  5
2BD
  8
0
  6
CONTINUOUS
 62
     7
 10
141.6025729533494
 20
564.0963203424034
 30
0.0
  0
VERTEX
  5
2BE
  8
0
  6
CONTINUOUS
 62
     7
 10
141.4885176441856
 20
564.1310669421975
 30
0.0
  0
VERTEX
  5
2BF
  8
0
  6
CONTINUOUS
 62
     7
 10
141.4844664987793
 20
564.1315400366502
 30
0.0
  0
SEQEND
  5
40A
  8
0
  6
CONTINUOUS
 62
     7
  0
LINE
  5
97
  8
0
  6
CONTINUOUS
 62
     7
 10
154.1620390245671
 20
433.0325393610085
 30
0.0
 11
141.4844664987793
 21
433.1487184198528
 31
0.0
  0
LINE
  5
98
  8
0
  6
CONTINUOUS
 62
     7
 10
106.2929890340874
 20
433.1487184198529
 30
0.0
 11
93.61541650829962
 21
433.0325393610085
 31
0.0
  0
POLYLINE
  5
99
  8
0
  6
CONTINUOUS
 62
     7
 66
     1
 10
0.0
 20
0.0
 30
0.0
 70
     1
  0
VERTEX
  5
2C0
  8
0
  6
CONTINUOUS
 62
     7
 10
144.1996597711326
 20
462.575762350109
 30
0.0
  0
VERTEX
  5
2C1
  8
0
  6
CONTINUOUS
 62
     7
 10
144.2794205985866
 20
461.7659710845932
 30
0.0
  0
VERTEX
  5
2C2
  8
0
  6
CONTINUOUS
 62
     7
 10
144.5156379170785
 20
460.9872996432752
 30
0.0
  0
VERTEX
  5
2C3
  8
0
  6
CONTINUOUS
 62
     7
 10
144.899234027531
 20
460.2696719329608
 30
0.0
  0
VERTEX
  5
2C4
  8
0
  6
CONTINUOUS
 62
     7
 10
145.4154675465425
 20
459.6406659841071
 30
0.0
  0
VERTEX
  5
2C5
  8
0
  6
CONTINUOUS
 62
     7
 10
146.0444999094846
 20
459.124454142578
 30
0.0
  0
VERTEX
  5
2C6
  8
0
  6
CONTINUOUS
 62
     7
 10
146.7621577554147
 20
458.7408741399485
 30
0.0
  0
VERTEX
  5
2C7
  8
0
  6
CONTINUOUS
 62
     7
 10
147.540861895781
 20
458.5046667406054
 30
0.0
  0
VERTEX
  5
2C8
  8
0
  6
CONTINUOUS
 62
     7
 10
148.3506871671714
 20
458.424909262439
 30
0.0
  0
VERTEX
  5
2C9
  8
0
  6
CONTINUOUS
 62
     7
 10
149.1605124385617
 20
458.5046667406067
 30
0.0
  0
VERTEX
  5
2CA
  8
0
  6
CONTINUOUS
 62
     7
 10
149.9392165789275
 20
458.7408741399508
 30
0.0
  0
VERTEX
  5
2CB
  8
0
  6
CONTINUOUS
 62
     7
 10
150.6568744248571
 20
459.1244541425815
 30
0.0
  0
VERTEX
  5
2CC
  8
0
  6
CONTINUOUS
 62
     7
 10
151.2859067877983
 20
459.6406659841116
 30
0.0
  0
VERTEX
  5
2CD
  8
0
  6
CONTINUOUS
 62
     7
 10
151.8021403068089
 20
460.269671932966
 30
0.0
  0
VERTEX
  5
2CE
  8
0
  6
CONTINUOUS
 62
     7
 10
152.1857364172603
 20
460.9872996432811
 30
0.0
  0
VERTEX
  5
2CF
  8
0
  6
CONTINUOUS
 62
     7
 10
152.4219537357511
 20
461.7659710845995
 30
0.0
  0
VERTEX
  5
2D0
  8
0
  6
CONTINUOUS
 62
     7
 10
152.5017145632038
 20
462.5757623501153
 30
0.0
  0
VERTEX
  5
2D1
  8
0
  6
CONTINUOUS
 62
     7
 10
152.4219537357498
 20
463.3855536156311
 30
0.0
  0
VERTEX
  5
2D2
  8
0
  6
CONTINUOUS
 62
     7
 10
152.1857364172579
 20
464.1642250569491
 30
0.0
  0
VERTEX
  5
2D3
  8
0
  6
CONTINUOUS
 62
     7
 10
151.8021403068054
 20
464.8818527672635
 30
0.0
  0
VERTEX
  5
2D4
  8
0
  6
CONTINUOUS
 62
     7
 10
151.2859067877938
 20
465.5108587161172
 30
0.0
  0
VERTEX
  5
2D5
  8
0
  6
CONTINUOUS
 62
     7
 10
150.6568744248518
 20
466.0270705576463
 30
0.0
  0
VERTEX
  5
2D6
  8
0
  6
CONTINUOUS
 62
     7
 10
149.9392165789217
 20
466.4106505602758
 30
0.0
  0
VERTEX
  5
2D7
  8
0
  6
CONTINUOUS
 62
     7
 10
149.1605124385554
 20
466.6468579596188
 30
0.0
  0
VERTEX
  5
2D8
  8
0
  6
CONTINUOUS
 62
     7
 10
148.350687167165
 20
466.7266154377853
 30
0.0
  0
VERTEX
  5
2D9
  8
0
  6
CONTINUOUS
 62
     7
 10
147.5408618957747
 20
466.6468579596176
 30
0.0
  0
VERTEX
  5
2DA
  8
0
  6
CONTINUOUS
 62
     7
 10
146.7621577554089
 20
466.4106505602734
 30
0.0
  0
VERTEX
  5
2DB
  8
0
  6
CONTINUOUS
 62
     7
 10
146.0444999094793
 20
466.0270705576428
 30
0.0
  0
VERTEX
  5
2DC
  8
0
  6
CONTINUOUS
 62
     7
 10
145.4154675465381
 20
465.5108587161126
 30
0.0
  0
VERTEX
  5
2DD
  8
0
  6
CONTINUOUS
 62
     7
 10
144.8992340275275
 20
464.8818527672582
 30
0.0
  0
VERTEX
  5
2DE
  8
0
  6
CONTINUOUS
 62
     7
 10
144.5156379170761
 20
464.1642250569432
 30
0.0
  0
VERTEX
  5
2DF
  8
0
  6
CONTINUOUS
 62
     7
 10
144.2794205985853
 20
463.3855536156248
 30
0.0
  0
SEQEND
  5
40B
  8
0
  6
CONTINUOUS
 62
     7
  0
POLYLINE
  5
9A
  8
0
  6
CONTINUOUS
 62
     7
 66
     1
 10
0.0
 20
0.0
 30
0.0
 70
     1
  0
VERTEX
  5
2E0
  8
0
  6
CONTINUOUS
 62
     7
 10
103.5777957617341
 20
462.575762350109
 30
0.0
  0
VERTEX
  5
2E1
  8
0
  6
CONTINUOUS
 62
     7
 10
103.4980349342814
 20
463.3855536156249
 30
0.0
  0
VERTEX
  5
2E2
  8
0
  6
CONTINUOUS
 62
     7
 10
103.2618176157906
 20
464.1642250569432
 30
0.0
  0
VERTEX
  5
2E3
  8
0
  6
CONTINUOUS
 62
     7
 10
102.8782215053392
 20
464.8818527672583
 30
0.0
  0
VERTEX
  5
2E4
  8
0
  6
CONTINUOUS
 62
     7
 10
102.3619879863286
 20
465.5108587161127
 30
0.0
  0
VERTEX
  5
2E5
  8
0
  6
CONTINUOUS
 62
     7
 10
101.7329556233874
 20
466.0270705576428
 30
0.0
  0
VERTEX
  5
2E6
  8
0
  6
CONTINUOUS
 62
     7
 10
101.0152977774579
 20
466.4106505602735
 30
0.0
  0
VERTEX
  5
2E7
  8
0
  6
CONTINUOUS
 62
     7
 10
100.236593637092
 20
466.6468579596176
 30
0.0
  0
VERTEX
  5
2E8
  8
0
  6
CONTINUOUS
 62
     7
 10
99.42676836570169
 20
466.7266154377853
 30
0.0
  0
VERTEX
  5
2E9
  8
0
  6
CONTINUOUS
 62
     7
 10
98.61694309431127
 20
466.6468579596189
 30
0.0
  0
VERTEX
  5
2EA
  8
0
  6
CONTINUOUS
 62
     7
 10
97.83823895394504
 20
466.4106505602759
 30
0.0
  0
VERTEX
  5
2EB
  8
0
  6
CONTINUOUS
 62
     7
 10
97.12058110801492
 20
466.0270705576464
 30
0.0
  0
VERTEX
  5
2EC
  8
0
  6
CONTINUOUS
 62
     7
 10
96.49154874507286
 20
465.5108587161172
 30
0.0
  0
VERTEX
  5
2ED
  8
0
  6
CONTINUOUS
 62
     7
 10
95.97531522606133
 20
464.8818527672635
 30
0.0
  0
VERTEX
  5
2EE
  8
0
  6
CONTINUOUS
 62
     7
 10
95.59171911560884
 20
464.1642250569491
 30
0.0
  0
VERTEX
  5
2EF
  8
0
  6
CONTINUOUS
 62
     7
 10
95.35550179711689
 20
463.3855536156311
 30
0.0
  0
VERTEX
  5
2F0
  8
0
  6
CONTINUOUS
 62
     7
 10
95.27574096966293
 20
462.5757623501154
 30
0.0
  0
VERTEX
  5
2F1
  8
0
  6
CONTINUOUS
 62
     7
 10
95.35550179711564
 20
461.7659710845995
 30
0.0
  0
VERTEX
  5
2F2
  8
0
  6
CONTINUOUS
 62
     7
 10
95.5917191156064
 20
460.9872996432812
 30
0.0
  0
VERTEX
  5
2F3
  8
0
  6
CONTINUOUS
 62
     7
 10
95.9753152260578
 20
460.2696719329661
 30
0.0
  0
VERTEX
  5
2F4
  8
0
  6
CONTINUOUS
 62
     7
 10
96.49154874506837
 20
459.6406659841117
 30
0.0
  0
VERTEX
  5
2F5
  8
0
  6
CONTINUOUS
 62
     7
 10
97.12058110800963
 20
459.1244541425816
 30
0.0
  0
VERTEX
  5
2F6
  8
0
  6
CONTINUOUS
 62
     7
 10
97.83823895393915
 20
458.7408741399509
 30
0.0
  0
VERTEX
  5
2F7
  8
0
  6
CONTINUOUS
 62
     7
 10
98.61694309430506
 20
458.5046667406068
 30
0.0
  0
VERTEX
  5
2F8
  8
0
  6
CONTINUOUS
 62
     7
 10
99.42676836569534
 20
458.4249092624391
 30
0.0
  0
VERTEX
  5
2F9
  8
0
  6
CONTINUOUS
 62
     7
 10
100.2365936370858
 20
458.5046667406055
 30
0.0
  0
VERTEX
  5
2FA
  8
0
  6
CONTINUOUS
 62
     7
 10
101.015297777452
 20
458.7408741399485
 30
0.0
  0
VERTEX
  5
2FB
  8
0
  6
CONTINUOUS
 62
     7
 10
101.7329556233821
 20
459.124454142578
 30
0.0
  0
VERTEX
  5
2FC
  8
0
  6
CONTINUOUS
 62
     7
 10
102.3619879863242
 20
459.6406659841072
 30
0.0
  0
VERTEX
  5
2FD
  8
0
  6
CONTINUOUS
 62
     7
 10
102.8782215053357
 20
460.2696719329609
 30
0.0
  0
VERTEX
  5
2FE
  8
0
  6
CONTINUOUS
 62
     7
 10
103.2618176157882
 20
460.9872996432753
 30
0.0
  0
VERTEX
  5
2FF
  8
0
  6
CONTINUOUS
 62
     7
 10
103.4980349342801
 20
461.7659710845933
 30
0.0
  0
SEQEND
  5
40C
  8
0
  6
CONTINUOUS
 62
     7
  0
LINE
  5
9B
  8
0
  6
CONTINUOUS
 62
     7
 10
89.56910351711923
 20
567.5757623501122
 30
0.0
 11
90.86983811247693
 21
567.5757623501122
 31
0.0
  0
LINE
  5
9C
  8
0
  6
CONTINUOUS
 62
     7
 10
90.86983811247693
 20
567.5757623501122
 30
0.0
 11
91.24737256970683
 21
565.3085408245153
 31
0.0
  0
POLYLINE
  5
9D
  8
0
  6
CONTINUOUS
 62
     7
 66
     1
 10
0.0
 20
0.0
 30
0.0
  0
VERTEX
  5
300
  8
0
  6
CONTINUOUS
 62
     7
 10
91.24737256970684
 20
565.3085408245153
 30
0.0
  0
VERTEX
  5
301
  8
0
  6
CONTINUOUS
 62
     7
 10
91.47851403677713
 20
565.1910689810226
 30
0.0
  0
VERTEX
  5
302
  8
0
  6
CONTINUOUS
 62
     7
 10
92.12463321260479
 20
565.0779329531127
 30
0.0
  0
VERTEX
  5
303
  8
0
  6
CONTINUOUS
 62
     7
 10
93.16294662462816
 20
564.9731221465859
 30
0.0
  0
VERTEX
  5
304
  8
0
  6
CONTINUOUS
 62
     7
 10
94.5568412360914
 20
564.8803324030515
 30
0.0
  0
SEQEND
  5
40D
  8
0
  6
CONTINUOUS
 62
     7
  0
LINE
  5
9E
  8
0
  6
CONTINUOUS
 62
     7
 10
94.5568412360914
 20
564.8803324030515
 30
0.0
 11
106.8887277664334
 21
564.2016624358677
 31
0.0
  0
LINE
  5
9F
  8
0
  6
CONTINUOUS
 62
     7
 10
106.8887277664333
 20
564.2016624358677
 30
0.0
 11
140.8887277664335
 21
564.2016624358677
 31
0.0
  0
LINE
  5
A0
  8
0
  6
CONTINUOUS
 62
     7
 10
153.2206142967754
 20
564.8803324030515
 30
0.0
 11
140.8887277664334
 21
564.2016624358677
 31
0.0
  0
POLYLINE
  5
A1
  8
0
  6
CONTINUOUS
 62
     7
 66
     1
 10
0.0
 20
0.0
 30
0.0
  0
VERTEX
  5
305
  8
0
  6
CONTINUOUS
 62
     7
 10
153.2206142967753
 20
564.8803324030515
 30
0.0
  0
VERTEX
  5
306
  8
0
  6
CONTINUOUS
 62
     7
 10
154.6145089082386
 20
564.9731221465859
 30
0.0
  0
VERTEX
  5
307
  8
0
  6
CONTINUOUS
 62
     7
 10
155.652822320262
 20
565.0779329531127
 30
0.0
  0
VERTEX
  5
308
  8
0
  6
CONTINUOUS
 62
     7
 10
156.2989414960896
 20
565.1910689810226
 30
0.0
  0
VERTEX
  5
309
  8
0
  6
CONTINUOUS
 62
     7
 10
156.5300829631599
 20
565.3085408245153
 30
0.0
  0
SEQEND
  5
40E
  8
0
  6
CONTINUOUS
 62
     7
  0
LINE
  5
A2
  8
0
  6
CONTINUOUS
 62
     7
 10
156.9076174203898
 20
567.5757623501122
 30
0.0
 11
156.5300829631599
 21
565.3085408245153
 31
0.0
  0
LINE
  5
A3
  8
0
  6
CONTINUOUS
 62
     7
 10
158.2083520157475
 20
567.5757623501122
 30
0.0
 11
156.9076174203898
 21
567.5757623501122
 31
0.0
  0
LINE
  5
A4
  8
0
  6
CONTINUOUS
 62
     7
 10
158.2077811552736
 20
432.5757623501122
 30
0.0
 11
158.2076669222912
 21
432.5757623501122
 31
0.0
  0
LINE
  5
A5
  8
0
  6
CONTINUOUS
 62
     7
 10
89.5696743775931
 20
432.5757623501122
 30
0.0
 11
89.56978861057546
 21
432.5757623501122
 31
0.0
  0
CIRCLE
  5
A6
  8
0
  6
CONTINUOUS
 62
     7
 10
99.38872776643336
 20
462.5757623501122
 30
0.0
 40
4.000000000000004
  0
CIRCLE
  5
A7
  8
0
  6
CONTINUOUS
 62
     7
 10
148.3887277664334
 20
462.5757623501121
 30
0.0
 40
4.000000000000004
  0
POLYLINE
  5
A8
  8
0
  6
CONTINUOUS
 62
     7
 66
     1
 10
0.0
 20
0.0
 30
0.0
  0
VERTEX
  5
30A
  8
0
  6
CONTINUOUS
 62
     7
 10
89.56910351711925
 20
567.5757623501121
 30
0.0
  0
VERTEX
  5
30B
  8
0
  6
CONTINUOUS
 62
     7
 10
89.27655406944689
 20
567.54691744363
 30
0.0
  0
VERTEX
  5
30C
  8
0
  6
CONTINUOUS
 62
     7
 10
88.99526692987929
 20
567.4614905753352
 30
0.0
  0
VERTEX
  5
30D
  8
0
  6
CONTINUOUS
 62
     7
 10
88.73604554066966
 20
567.3227627492579
 30
0.0
  0
VERTEX
  5
30E
  8
0
  6
CONTINUOUS
 62
     7
 10
88.50884586110367
 20
567.136062108235
 30
0.0
  0
VERTEX
  5
30F
  8
0
  6
CONTINUOUS
 62
     7
 10
88.32239398730465
 20
566.9085592950379
 30
0.0
  0
VERTEX
  5
310
  8
0
  6
CONTINUOUS
 62
     7
 10
88.18385100759923
 20
566.648992048294
 30
0.0
  0
VERTEX
  5
311
  8
0
  6
CONTINUOUS
 62
     7
 10
88.09853796539927
 20
566.3673296106971
 30
0.0
  0
VERTEX
  5
312
  8
0
  6
CONTINUOUS
 62
     7
 10
88.06973149299682
 20
566.0743898386347
 30
0.0
  0
SEQEND
  5
40F
  8
0
  6
CONTINUOUS
 62
     7
  0
POLYLINE
  5
A9
  8
0
  6
CONTINUOUS
 62
     7
 66
     1
 10
0.0
 20
0.0
 30
0.0
  0
VERTEX
  5
313
  8
0
  6
CONTINUOUS
 62
     7
 10
159.7077240398699
 20
566.0743898386347
 30
0.0
  0
VERTEX
  5
314
  8
0
  6
CONTINUOUS
 62
     7
 10
159.6789175674674
 20
566.3673296106971
 30
0.0
  0
VERTEX
  5
315
  8
0
  6
CONTINUOUS
 62
     7
 10
159.5936045252675
 20
566.648992048294
 30
0.0
  0
VERTEX
  5
316
  8
0
  6
CONTINUOUS
 62
     7
 10
159.455061545562
 20
566.9085592950379
 30
0.0
  0
VERTEX
  5
317
  8
0
  6
CONTINUOUS
 62
     7
 10
159.268609671763
 20
567.136062108235
 30
0.0
  0
VERTEX
  5
318
  8
0
  6
CONTINUOUS
 62
     7
 10
159.041409992197
 20
567.3227627492579
 30
0.0
  0
VERTEX
  5
319
  8
0
  6
CONTINUOUS
 62
     7
 10
158.7821886029874
 20
567.4614905753352
 30
0.0
  0
VERTEX
  5
31A
  8
0
  6
CONTINUOUS
 62
     7
 10
158.5009014634198
 20
567.54691744363
 30
0.0
  0
VERTEX
  5
31B
  8
0
  6
CONTINUOUS
 62
     7
 10
158.2083520157475
 20
567.5757623501121
 30
0.0
  0
SEQEND
  5
410
  8
0
  6
CONTINUOUS
 62
     7
  0
CIRCLE
  5
AA
  8
0
  6
CONTINUOUS
 62
     7
 10
99.38872776643336
 20
462.5757623501122
 30
0.0
 40
1.750000000000002
  0
CIRCLE
  5
AB
  8
0
  6
CONTINUOUS
 62
     7
 10
99.38872776643336
 20
462.5757623501122
 30
0.0
 40
1.661887161924461
  0
CIRCLE
  5
AC
  8
0
  6
CONTINUOUS
 62
     7
 10
148.3887277664334
 20
462.5757623501121
 30
0.0
 40
1.750000000000029
  0
CIRCLE
  5
AD
  8
0
  6
CONTINUOUS
 62
     7
 10
148.3887277664334
 20
462.5757623501122
 30
0.0
 40
1.661887161924475
  0
POLYLINE
  5
AE
  8
0
  6
CONTINUOUS
 62
     7
 66
     1
 10
0.0
 20
0.0
 30
0.0
  0
VERTEX
  5
31C
  8
0
  6
CONTINUOUS
 62
     7
 10
88.06973149299685
 20
434.0757052347084
 30
0.0
  0
VERTEX
  5
31D
  8
0
  6
CONTINUOUS
 62
     7
 10
88.09855188423826
 20
433.7830748089553
 30
0.0
  0
VERTEX
  5
31E
  8
0
  6
CONTINUOUS
 62
     7
 10
88.18390561353041
 20
433.5016933089926
 30
0.0
  0
VERTEX
  5
31F
  8
0
  6
CONTINUOUS
 62
     7
 10
88.32251290193251
 20
433.2423730229954
 30
0.0
  0
VERTEX
  5
320
  8
0
  6
CONTINUOUS
 62
     7
 10
88.50904766387912
 20
433.0150785209945
 30
0.0
  0
VERTEX
  5
321
  8
0
  6
CONTINUOUS
 62
     7
 10
88.73634216588003
 20
432.8285437590479
 30
0.0
  0
VERTEX
  5
322
  8
0
  6
CONTINUOUS
 62
     7
 10
88.9956624518773
 20
432.6899364706457
 30
0.0
  0
VERTEX
  5
323
  8
0
  6
CONTINUOUS
 62
     7
 10
89.27704395183994
 20
432.6045827413536
 30
0.0
  0
VERTEX
  5
324
  8
0
  6
CONTINUOUS
 62
     7
 10
89.56967437759309
 20
432.5757623501121
 30
0.0
  0
SEQEND
  5
411
  8
0
  6
CONTINUOUS
 62
     7
  0
POLYLINE
  5
AF
  8
0
  6
CONTINUOUS
 62
     7
 66
     1
 10
0.0
 20
0.0
 30
0.0
  0
VERTEX
  5
325
  8
0
  6
CONTINUOUS
 62
     7
 10
158.2077811552736
 20
432.5757623501121
 30
0.0
  0
VERTEX
  5
326
  8
0
  6
CONTINUOUS
 62
     7
 10
158.5004115810268
 20
432.6045827413536
 30
0.0
  0
VERTEX
  5
327
  8
0
  6
CONTINUOUS
 62
     7
 10
158.7817930809894
 20
432.6899364706457
 30
0.0
  0
VERTEX
  5
328
  8
0
  6
CONTINUOUS
 62
     7
 10
159.0411133669867
 20
432.8285437590479
 30
0.0
  0
VERTEX
  5
329
  8
0
  6
CONTINUOUS
 62
     7
 10
159.2684078689876
 20
433.0150785209945
 30
0.0
  0
VERTEX
  5
32A
  8
0
  6
CONTINUOUS
 62
     7
 10
159.4549426309341
 20
433.2423730229954
 30
0.0
  0
VERTEX
  5
32B
  8
0
  6
CONTINUOUS
 62
     7
 10
159.5935499193363
 20
433.5016933089926
 30
0.0
  0
VERTEX
  5
32C
  8
0
  6
CONTINUOUS
 62
     7
 10
159.6789036486284
 20
433.7830748089553
 30
0.0
  0
VERTEX
  5
32D
  8
0
  6
CONTINUOUS
 62
     7
 10
159.7077240398698
 20
434.0757052347084
 30
0.0
  0
SEQEND
  5
412
  8
0
  6
CONTINUOUS
 62
     7
  0
LINE
  5
B0
  8
0
  6
CONTINUOUS
 62
     7
 10
88.06973149299687
 20
566.0743898386347
 30
0.0
 11
88.06973149299685
 21
434.0757052347084
 31
0.0
  0
LINE
  5
B1
  8
0
  6
CONTINUOUS
 62
     7
 10
159.7077240398699
 20
566.0743898386347
 30
0.0
 11
159.7077240398698
 21
434.0757052347084
 31
0.0
  0
ENDBLK
  8
0
  0
BLOCK
  8
0
  2
D_FRAME_VIEW_2454
 70
     0
 10
0.0
 20
0.0
 30
0.0
  0
LINE
  5
B7
  8
0
  6
CONTINUOUS
 62
     7
 10
93.6154165082996
 20
399.7627278155239
 30
0.0
 11
106.2929890340873
 21
413.0755293417909
 31
0.0
  0
LINE
  5
B8
  8
0
  6
CONTINUOUS
 62
     7
 10
106.9802820462556
 20
411.6221445107545
 30
0.0
 11
106.2929890340873
 21
413.0755293417909
 31
0.0
  0
ARC
  5
B9
  8
0
  6
CONTINUOUS
 62
     7
 10
123.8887277664333
 20
178.4343565300633
 30
0.0
 40
235.3
 50
85.71141710851519
 51
94.28858289148485
  0
LINE
  5
BA
  8
0
  6
CONTINUOUS
 62
     7
 10
140.7971734866111
 20
411.6221445107545
 30
0.0
 11
141.4844664987794
 21
413.0755293417909
 31
0.0
  0
LINE
  5
BB
  8
0
  6
CONTINUOUS
 62
     7
 10
141.4844664987794
 20
413.0755293417909
 30
0.0
 11
154.1620390245671
 21
399.7627278155239
 31
0.0
  0
LINE
  5
BC
  8
0
  6
CONTINUOUS
 62
     7
 10
91.06999804459694
 20
347.4518102656448
 30
0.0
 11
156.7074574882697
 21
347.4518102656448
 31
0.0
  0
CIRCLE
  5
BD
  8
0
  6
CONTINUOUS
 62
     7
 10
123.8887277664333
 20
382.4343565300633
 30
0.0
 40
14.0
  0
ARC
  5
BE
  8
0
  6
CONTINUOUS
 62
     7
 10
103.2469156464769
 20
390.5908019353562
 30
0.0
 40
13.3
 50
136.4000835895999
 51
179.5
  0
ARC
  5
BF
  8
0
  6
CONTINUOUS
 62
     7
 10
144.5305398863899
 20
390.5908019353562
 30
0.0
 40
13.29999999999995
 50
0.4999999999999432
 51
43.5999164104
  0
LINE
  5
C0
  8
0
  6
CONTINUOUS
 62
     7
 10
89.56982668968618
 20
347.4387199639586
 30
0.0
 11
89.94742206972339
 21
390.7068648574846
 31
0.0
  0
POLYLINE
  5
C1
  8
0
  6
CONTINUOUS
 62
     7
 66
     1
 10
0.0
 20
0.0
 30
0.0
  0
VERTEX
  5
32E
  8
0
  6
CONTINUOUS
 62
     7
 10
91.06999804459694
 20
347.4518102656448
 30
0.0
  0
VERTEX
  5
32F
  8
0
  6
CONTINUOUS
 62
     7
 10
90.77734922344766
 20
347.4515587391684
 30
0.0
  0
VERTEX
  5
330
  8
0
  6
CONTINUOUS
 62
     7
 10
90.49594234229914
 20
347.4508138257609
 30
0.0
  0
VERTEX
  5
331
  8
0
  6
CONTINUOUS
 62
     7
 10
90.2365917097792
 20
347.4496041520266
 30
0.0
  0
VERTEX
  5
332
  8
0
  6
CONTINUOUS
 62
     7
 10
90.00926402525005
 20
347.4479762050487
 30
0.0
  0
VERTEX
  5
333
  8
0
  6
CONTINUOUS
 62
     7
 10
89.82269536414128
 20
347.4459925459167
 30
0.0
  0
VERTEX
  5
334
  8
0
  6
CONTINUOUS
 62
     7
 10
89.68405545547041
 20
347.4437294055386
 30
0.0
  0
VERTEX
  5
335
  8
0
  6
CONTINUOUS
 62
     7
 10
89.59867215317752
 20
347.4412737551299
 30
0.0
  0
VERTEX
  5
336
  8
0
  6
CONTINUOUS
 62
     7
 10
89.56982668968618
 20
347.4387199639586
 30
0.0
  0
SEQEND
  5
413
  8
0
  6
CONTINUOUS
 62
     7
  0
POLYLINE
  5
C2
  8
0
  6
CONTINUOUS
 62
     7
 66
     1
 10
0.0
 20
0.0
 30
0.0
  0
VERTEX
  5
337
  8
0
  6
CONTINUOUS
 62
     7
 10
158.2076288431805
 20
347.4387199639586
 30
0.0
  0
VERTEX
  5
338
  8
0
  6
CONTINUOUS
 62
     7
 10
158.1787833796892
 20
347.4412737551299
 30
0.0
  0
VERTEX
  5
339
  8
0
  6
CONTINUOUS
 62
     7
 10
158.0934000773963
 20
347.4437294055386
 30
0.0
  0
VERTEX
  5
33A
  8
0
  6
CONTINUOUS
 62
     7
 10
157.9547601687254
 20
347.4459925459167
 30
0.0
  0
VERTEX
  5
33B
  8
0
  6
CONTINUOUS
 62
     7
 10
157.7681915076167
 20
347.4479762050487
 30
0.0
  0
VERTEX
  5
33C
  8
0
  6
CONTINUOUS
 62
     7
 10
157.5408638230875
 20
347.4496041520266
 30
0.0
  0
VERTEX
  5
33D
  8
0
  6
CONTINUOUS
 62
     7
 10
157.2815131905676
 20
347.4508138257609
 30
0.0
  0
VERTEX
  5
33E
  8
0
  6
CONTINUOUS
 62
     7
 10
157.000106309419
 20
347.4515587391684
 30
0.0
  0
VERTEX
  5
33F
  8
0
  6
CONTINUOUS
 62
     7
 10
156.7074574882697
 20
347.4518102656448
 30
0.0
  0
SEQEND
  5
414
  8
0
  6
CONTINUOUS
 62
     7
  0
LINE
  5
C3
  8
0
  6
CONTINUOUS
 62
     7
 10
158.2076288431805
 20
347.4387199639586
 30
0.0
 11
158.2076669222912
 21
347.4343565300633
 31
0.0
  0
LINE
  5
C4
  8
0
  6
CONTINUOUS
 62
     7
 10
89.56978861057546
 20
347.4343565300633
 30
0.0
 11
90.86983811247693
 21
347.4343565300633
 31
0.0
  0
LINE
  5
C5
  8
0
  6
CONTINUOUS
 62
     7
 10
90.86983811247693
 20
347.4343565300633
 30
0.0
 11
156.9076174203898
 21
347.4343565300633
 31
0.0
  0
LINE
  5
C6
  8
0
  6
CONTINUOUS
 62
     7
 10
156.9076174203898
 20
347.4343565300633
 30
0.0
 11
158.2076669222912
 21
347.4343565300633
 31
0.0
  0
LINE
  5
C7
  8
0
  6
CONTINUOUS
 62
     7
 10
89.56982668968618
 20
347.4387199639586
 30
0.0
 11
89.56978861057546
 21
347.4343565300633
 31
0.0
  0
LINE
  5
C8
  8
0
  6
CONTINUOUS
 62
     7
 10
157.8300334631433
 20
390.7068648574846
 30
0.0
 11
158.2076288431805
 21
347.4387199639586
 31
0.0
  0
LINE
  5
C9
  8
0
  6
CONTINUOUS
 62
     7
 10
155.9887468049013
 20
347.4343565300633
 30
0.0
 11
91.78870872796543
 21
347.4343565300633
 31
0.0
  0
LINE
  5
CA
  8
0
  6
CONTINUOUS
 62
     7
 10
88.06973149299685
 20
347.4343565300633
 30
0.0
 11
88.44747918512714
 21
390.7199546607322
 31
0.0
  0
LINE
  5
CB
  8
0
  6
CONTINUOUS
 62
     7
 10
89.5696743775931
 20
347.4343565300633
 30
0.0
 11
88.06973149299687
 21
347.4343565300633
 31
0.0
  0
LINE
  5
CC
  8
0
  6
CONTINUOUS
 62
     7
 10
159.3299763477396
 20
390.7199546607321
 30
0.0
 11
159.7077240398698
 21
347.4343565300633
 31
0.0
  0
LINE
  5
CD
  8
0
  6
CONTINUOUS
 62
     7
 10
159.7077240398698
 20
347.4343565300633
 30
0.0
 11
158.2077811552736
 21
347.4343565300633
 31
0.0
  0
LINE
  5
CE
  8
0
  6
CONTINUOUS
 62
     7
 10
158.2077811552736
 20
347.4343565300633
 30
0.0
 11
158.2076669222912
 21
347.4343565300633
 31
0.0
  0
LINE
  5
CF
  8
0
  6
CONTINUOUS
 62
     7
 10
158.2076669222912
 20
347.4343565300633
 30
0.0
 11
156.9076174203898
 21
347.4343565300633
 31
0.0
  0
LINE
  5
D0
  8
0
  6
CONTINUOUS
 62
     7
 10
89.5696743775931
 20
347.4343565300633
 30
0.0
 11
89.56978861057546
 21
347.4343565300633
 31
0.0
  0
LINE
  5
D1
  8
0
  6
CONTINUOUS
 62
     7
 10
89.56978861057546
 20
347.4343565300633
 30
0.0
 11
90.86983811247693
 21
347.4343565300633
 31
0.0
  0
ARC
  5
D2
  8
0
  6
CONTINUOUS
 62
     7
 10
144.5305398863899
 20
390.5908019353562
 30
0.0
 40
14.80000000000001
 50
0.4999999999998295
 51
43.59991641039989
  0
ARC
  5
D3
  8
0
  6
CONTINUOUS
 62
     7
 10
103.2469156464769
 20
390.5908019353562
 30
0.0
 40
14.80000000000001
 50
136.4000835895999
 51
179.5
  0
LINE
  5
D4
  8
0
  6
CONTINUOUS
 62
     7
 10
141.4844664987793
 20
413.0886191450385
 30
0.0
 11
142.1732170067755
 21
414.5273836469602
 31
0.0
  0
LINE
  5
D5
  8
0
  6
CONTINUOUS
 62
     7
 10
142.1732170067755
 20
414.5273836469602
 30
0.0
 11
155.2482983258653
 21
400.7971555463699
 31
0.0
  0
LINE
  5
D6
  8
0
  6
CONTINUOUS
 62
     7
 10
106.2929890340874
 20
413.0886191450385
 30
0.0
 11
105.6042385260912
 21
414.5273836469602
 31
0.0
  0
LINE
  5
D7
  8
0
  6
CONTINUOUS
 62
     7
 10
92.52915720700143
 20
400.7971555463699
 30
0.0
 11
105.6042385260912
 21
414.5273836469602
 31
0.0
  0
ARC
  5
D8
  8
0
  6
CONTINUOUS
 62
     7
 10
123.8887277664333
 20
178.4343565300633
 30
0.0
 40
236.8000000000001
 50
85.57150388185772
 51
94.42849611814232
  0
ENDBLK
  8
0
  0
BLOCK
  8
0
  2
D_FRAME_VIEW_2490
 70
     0
 10
0.0
 20
0.0
 30
0.0
  0
LINE
  5
DD
  8
0
  6
CONTINUOUS
 62
     7
 10
271.4609928920077
 20
432.0757623501122
 30
0.0
 11
271.465356325903
 21
432.5757623501122
 31
0.0
  0
LINE
  5
DE
  8
0
  6
CONTINUOUS
 62
     7
 10
271.4479025903215
 20
430.5757623501122
 30
0.0
 11
228.2059378017293
 21
430.5757623501122
 31
0.0
  0
LINE
  5
DF
  8
0
  6
CONTINUOUS
 62
     7
 10
271.4609928920077
 20
432.0757623501122
 30
0.0
 11
271.4479025903215
 21
430.5757623501122
 31
0.0
  0
LINE
  5
E0
  8
0
  6
CONTINUOUS
 62
     7
 10
228.2059378017293
 20
430.5757623501122
 30
0.0
 11
220.1714127712883
 21
430.5757623501122
 31
0.0
  0
LINE
  5
E1
  8
0
  6
CONTINUOUS
 62
     7
 10
219.1369850404424
 20
433.0324251280261
 30
0.0
 11
228.1928479984817
 21
432.9533958092601
 31
0.0
  0
ARC
  5
E2
  8
0
  6
CONTINUOUS
 62
     7
 10
207.2983995838029
 20
432.0500553765944
 30
0.0
 40
1.4744401881512
 50
179.0009932371687
 51
269.1904847866813
  0
LINE
  5
E3
  8
0
  6
CONTINUOUS
 62
     7
 10
220.1714127712883
 20
430.5757623501122
 30
0.0
 11
207.2775683452118
 21
430.5757623501122
 31
0.0
  0
LINE
  5
E4
  8
0
  6
CONTINUOUS
 62
     7
 10
205.8241835141754
 20
432.0757623501122
 30
0.0
 11
205.8241835141754
 21
433.1486041868704
 31
0.0
  0
LINE
  5
E5
  8
0
  6
CONTINUOUS
 62
     7
 10
207.277568345212
 20
430.5757623501122
 30
0.0
 11
206.6653563259033
 21
430.5757623501122
 31
0.0
  0
LINE
  5
E6
  8
0
  6
CONTINUOUS
 62
     7
 10
228.1143440641173
 20
565.3038320678
 30
0.0
 11
271.465356325903
 21
567.5757623501122
 31
0.0
  0
LINE
  5
E7
  8
0
  6
CONTINUOUS
 62
     7
 10
271.465356325903
 20
567.5757623501122
 30
0.0
 11
271.465356325903
 21
566.0743898386347
 31
0.0
  0
LINE
  5
E8
  8
0
  6
CONTINUOUS
 62
     7
 10
271.465356325903
 20
566.0743898386347
 30
0.0
 11
271.465356325903
 21
434.0757052347084
 31
0.0
  0
LINE
  5
E9
  8
0
  6
CONTINUOUS
 62
     7
 10
271.465356325903
 20
432.5757623501122
 30
0.0
 11
228.1928479984817
 21
432.9533958092601
 31
0.0
  0
LINE
  5
EA
  8
0
  6
CONTINUOUS
 62
     7
 10
228.1928479984817
 20
432.9533958092601
 30
0.0
 11
228.1797581952341
 21
432.9535100422424
 31
0.0
  0
LINE
  5
EB
  8
0
  6
CONTINUOUS
 62
     7
 10
271.465356325903
 20
434.0757052347084
 30
0.0
 11
271.465356325903
 21
432.5757623501122
 31
0.0
  0
LINE
  5
EC
  8
0
  6
CONTINUOUS
 62
     7
 10
219.0584811060779
 20
564.8292344006778
 30
0.0
 11
228.1143440641173
 21
565.3038320678
 31
0.0
  0
LINE
  5
ED
  8
0
  6
CONTINUOUS
 62
     7
 10
228.1797581952341
 20
432.9535100422424
 30
0.0
 11
219.1238952371948
 21
433.0325393610085
 31
0.0
  0
LINE
  5
EE
  8
0
  6
CONTINUOUS
 62
     7
 10
204.3723292090061
 20
562.6117193347443
 30
0.0
 11
204.3723067530828
 21
562.6358830767664
 31
0.0
  0
ARC
  5
EF
  8
0
  6
CONTINUOUS
 62
     7
 10
205.8571608583171
 20
562.6553920157614
 30
0.0
 40
1.484982260005862
 50
103.9942581697027
 51
180.7527443616076
  0
POLYLINE
  5
F0
  8
0
  6
CONTINUOUS
 62
     7
 66
     1
 10
0.0
 20
0.0
 30
0.0
  0
VERTEX
  5
340
  8
0
  6
CONTINUOUS
 62
     7
 10
205.4980555321639
 20
564.0962999508012
 30
0.0
  0
VERTEX
  5
341
  8
0
  6
CONTINUOUS
 62
     7
 10
205.6566806156372
 20
564.124036137106
 30
0.0
  0
VERTEX
  5
342
  8
0
  6
CONTINUOUS
 62
     7
 10
205.7456795798109
 20
564.1315400366502
 30
0.0
  0
SEQEND
  5
415
  8
0
  6
CONTINUOUS
 62
     7
  0
LINE
  5
F1
  8
0
  6
CONTINUOUS
 62
     7
 10
205.7456795798109
 20
564.1315400366502
 30
0.0
 11
219.0584811060779
 21
564.8292344006778
 31
0.0
  0
LINE
  5
F2
  8
0
  6
CONTINUOUS
 62
     7
 10
204.3723292090061
 20
562.6117193347443
 30
0.0
 11
204.3723292090061
 21
434.6523041309756
 31
0.0
  0
POLYLINE
  5
F3
  8
0
  6
CONTINUOUS
 62
     7
 66
     1
 10
0.0
 20
0.0
 30
0.0
  0
VERTEX
  5
343
  8
0
  6
CONTINUOUS
 62
     7
 10
210.8992775628321
 20
466.7264411367423
 30
0.0
  0
VERTEX
  5
344
  8
0
  6
CONTINUOUS
 62
     7
 10
210.0432372668201
 20
466.6532205066447
 30
0.0
  0
VERTEX
  5
345
  8
0
  6
CONTINUOUS
 62
     7
 10
209.2189248063363
 20
466.4214777175517
 30
0.0
  0
VERTEX
  5
346
  8
0
  6
CONTINUOUS
 62
     7
 10
208.4583875466526
 20
466.0402223940501
 30
0.0
  0
VERTEX
  5
347
  8
0
  6
CONTINUOUS
 62
     7
 10
207.7911934204791
 20
465.5242768628665
 30
0.0
  0
VERTEX
  5
348
  8
0
  6
CONTINUOUS
 62
     7
 10
207.2432813950083
 20
464.8936998950261
 30
0.0
  0
VERTEX
  5
349
  8
0
  6
CONTINUOUS
 62
     7
 10
206.8359530247583
 20
464.1730068671478
 30
0.0
  0
VERTEX
  5
34A
  8
0
  6
CONTINUOUS
 62
     7
 10
206.5850442963152
 20
463.3902166602026
 30
0.0
  0
VERTEX
  5
34B
  8
0
  6
CONTINUOUS
 62
     7
 10
206.5003099617369
 20
462.5757623501121
 30
0.0
  0
SEQEND
  5
416
  8
0
  6
CONTINUOUS
 62
     7
  0
POLYLINE
  5
F4
  8
0
  6
CONTINUOUS
 62
     7
 66
     1
 10
0.0
 20
0.0
 30
0.0
  0
VERTEX
  5
34C
  8
0
  6
CONTINUOUS
 62
     7
 10
205.8110937109278
 20
433.1487184198528
 30
0.0
  0
VERTEX
  5
34D
  8
0
  6
CONTINUOUS
 62
     7
 10
205.7050487682202
 20
433.1536496707921
 30
0.0
  0
VERTEX
  5
34E
  8
0
  6
CONTINUOUS
 62
     7
 10
205.5590583645015
 20
433.173711549697
 30
0.0
  0
SEQEND
  5
417
  8
0
  6
CONTINUOUS
 62
     7
  0
ARC
  5
F5
  8
0
  6
CONTINUOUS
 62
     7
 10
205.8590736304632
 20
434.6299857351697
 30
0.0
 40
1.486856974656378
 50
179.2950071786991
 51
258.3590396617067
  0
LINE
  5
F6
  8
0
  6
CONTINUOUS
 62
     7
 10
204.3723292090061
 20
434.6523041309756
 30
0.0
 11
204.3723292090061
 21
434.6482802247897
 31
0.0
  0
LINE
  5
F7
  8
0
  6
CONTINUOUS
 62
     7
 10
219.1238952371948
 20
433.0325393610085
 30
0.0
 11
205.8110937109278
 21
433.1487184198528
 31
0.0
  0
POLYLINE
  5
F8
  8
0
  6
CONTINUOUS
 62
     7
 66
     1
 10
0.0
 20
0.0
 30
0.0
  0
VERTEX
  5
34F
  8
0
  6
CONTINUOUS
 62
     7
 10
206.5003099617369
 20
462.5757623501121
 30
0.0
  0
VERTEX
  5
350
  8
0
  6
CONTINUOUS
 62
     7
 10
206.5850442963152
 20
461.7613080400217
 30
0.0
  0
VERTEX
  5
351
  8
0
  6
CONTINUOUS
 62
     7
 10
206.8359530247583
 20
460.9785178330765
 30
0.0
  0
VERTEX
  5
352
  8
0
  6
CONTINUOUS
 62
     7
 10
207.2432813950083
 20
460.2578248051982
 30
0.0
  0
VERTEX
  5
353
  8
0
  6
CONTINUOUS
 62
     7
 10
207.7911934204792
 20
459.6272478373578
 30
0.0
  0
VERTEX
  5
354
  8
0
  6
CONTINUOUS
 62
     7
 10
208.4583875466526
 20
459.1113023061741
 30
0.0
  0
VERTEX
  5
355
  8
0
  6
CONTINUOUS
 62
     7
 10
209.2189248063363
 20
458.7300469826725
 30
0.0
  0
VERTEX
  5
356
  8
0
  6
CONTINUOUS
 62
     7
 10
210.0432372668201
 20
458.4983041935796
 30
0.0
  0
VERTEX
  5
357
  8
0
  6
CONTINUOUS
 62
     7
 10
210.8992775628321
 20
458.425083563482
 30
0.0
  0
SEQEND
  5
418
  8
0
  6
CONTINUOUS
 62
     7
  0
POLYLINE
  5
F9
  8
0
  6
CONTINUOUS
 62
     7
 66
     1
 10
0.0
 20
0.0
 30
0.0
  0
VERTEX
  5
358
  8
0
  6
CONTINUOUS
 62
     7
 10
210.8992775628321
 20
458.425083563482
 30
0.0
  0
VERTEX
  5
359
  8
0
  6
CONTINUOUS
 62
     7
 10
211.7439881759922
 20
458.5112910581547
 30
0.0
  0
VERTEX
  5
35A
  8
0
  6
CONTINUOUS
 62
     7
 10
212.5550961776728
 20
458.7518824600934
 30
0.0
  0
VERTEX
  5
35B
  8
0
  6
CONTINUOUS
 62
     7
 10
213.3017926351692
 20
459.1377192029219
 30
0.0
  0
VERTEX
  5
35C
  8
0
  6
CONTINUOUS
 62
     7
 10
213.9557152084943
 20
459.6541457559092
 30
0.0
  0
VERTEX
  5
35D
  8
0
  6
CONTINUOUS
 62
     7
 10
214.4920254587301
 20
460.28154629615
 30
0.0
  0
VERTEX
  5
35E
  8
0
  6
CONTINUOUS
 62
     7
 10
214.8903523053619
 20
460.9960897912997
 30
0.0
  0
VERTEX
  5
35F
  8
0
  6
CONTINUOUS
 62
     7
 10
215.1355657965374
 20
461.7706351918172
 30
0.0
  0
VERTEX
  5
360
  8
0
  6
CONTINUOUS
 62
     7
 10
215.2183518015464
 20
462.5757623501121
 30
0.0
  0
VERTEX
  5
361
  8
0
  6
CONTINUOUS
 62
     7
 10
215.1355657965374
 20
463.3808895084071
 30
0.0
  0
VERTEX
  5
362
  8
0
  6
CONTINUOUS
 62
     7
 10
214.8903523053619
 20
464.1554349089246
 30
0.0
  0
VERTEX
  5
363
  8
0
  6
CONTINUOUS
 62
     7
 10
214.4920254587301
 20
464.8699784040743
 30
0.0
  0
VERTEX
  5
364
  8
0
  6
CONTINUOUS
 62
     7
 10
213.9557152084943
 20
465.4973789443152
 30
0.0
  0
VERTEX
  5
365
  8
0
  6
CONTINUOUS
 62
     7
 10
213.3017926351692
 20
466.0138054973024
 30
0.0
  0
VERTEX
  5
366
  8
0
  6
CONTINUOUS
 62
     7
 10
212.5550961776728
 20
466.399642240131
 30
0.0
  0
VERTEX
  5
367
  8
0
  6
CONTINUOUS
 62
     7
 10
211.7439881759922
 20
466.6402336420696
 30
0.0
  0
VERTEX
  5
368
  8
0
  6
CONTINUOUS
 62
     7
 10
210.8992775628321
 20
466.7264411367423
 30
0.0
  0
SEQEND
  5
419
  8
0
  6
CONTINUOUS
 62
     7
  0
LINE
  5
FA
  8
0
  6
CONTINUOUS
 62
     7
 10
205.0868523915385
 20
564.0970123667815
 30
0.0
 11
205.7456795798108
 21
564.1315400366502
 31
0.0
  0
LINE
  5
FB
  8
0
  6
CONTINUOUS
 62
     7
 10
205.8110937109278
 20
433.1487184198529
 30
0.0
 11
205.1522665226554
 21
433.1544679176218
 31
0.0
  0
ARC
  5
FC
  8
0
  6
CONTINUOUS
 62
     7
 10
206.665356325903
 20
432.0757623501122
 30
0.0
 40
1.500000000000001
 50
180.0
 51
270.0
  0
LINE
  5
FD
  8
0
  6
CONTINUOUS
 62
     7
 10
205.165356325903
 20
433.1543536846395
 30
0.0
 11
205.165356325903
 21
432.0757623501122
 31
0.0
  0
ARC
  5
FE
  8
0
  6
CONTINUOUS
 62
     7
 10
205.1653563259029
 20
562.5990680646496
 30
0.0
 40
1.500000000000044
 50
92.99999999999991
 51
180.0
  0
ARC
  5
FF
  8
0
  6
CONTINUOUS
 62
     7
 10
205.165356325903
 20
434.6544108022181
 30
0.0
 40
1.500000000000001
 50
180.0
 51
269.5000000000001
  0
LINE
  5
100
  8
0
  6
CONTINUOUS
 62
     7
 10
203.6653563259029
 20
562.5990680646496
 30
0.0
 11
203.665356325903
 21
434.6544108022181
 31
0.0
  0
ENDBLK
  8
0
  0
BLOCK
  8
0
  2
D_FRAME_VIEW_2663
 70
     0
 10
0.0
 20
0.0
 30
0.0
  0
POLYLINE
  5
105
  8
0
  6
CONTINUOUS
 62
     7
 66
     1
 10
0.0
 20
0.0
 30
0.0
  0
VERTEX
  5
369
  8
0
  6
CONTINUOUS
 62
     7
 10
306.8686527408955
 20
432.0757623501122
 30
0.0
  0
VERTEX
  5
36A
  8
0
  6
CONTINUOUS
 62
     7
 10
306.8974982043867
 20
431.783126867088
 30
0.0
  0
VERTEX
  5
36B
  8
0
  6
CONTINUOUS
 62
     7
 10
306.9828815066797
 20
431.5017372015645
 30
0.0
  0
VERTEX
  5
36C
  8
0
  6
CONTINUOUS
 62
     7
 10
307.1215214153506
 20
431.2424070005828
 30
0.0
  0
VERTEX
  5
36D
  8
0
  6
CONTINUOUS
 62
     7
 10
307.3080900764593
 20
431.0151021783324
 30
0.0
  0
VERTEX
  5
36E
  8
0
  6
CONTINUOUS
 62
     7
 10
307.5354177609885
 20
430.8285579316583
 30
0.0
  0
VERTEX
  5
36F
  8
0
  6
CONTINUOUS
 62
     7
 10
307.7947683935084
 20
430.6899430513453
 30
0.0
  0
VERTEX
  5
370
  8
0
  6
CONTINUOUS
 62
     7
 10
308.0761752746569
 20
430.6045844295074
 30
0.0
  0
VERTEX
  5
371
  8
0
  6
CONTINUOUS
 62
     7
 10
308.3688240958062
 20
430.5757623501122
 30
0.0
  0
SEQEND
  5
41A
  8
0
  6
CONTINUOUS
 62
     7
  0
LINE
  5
106
  8
0
  6
CONTINUOUS
 62
     7
 10
306.8686527408955
 20
432.0757623501122
 30
0.0
 11
306.8686146617848
 21
432.5757623501122
 31
0.0
  0
LINE
  5
107
  8
0
  6
CONTINUOUS
 62
     7
 10
375.5064929735005
 20
432.5757623501122
 30
0.0
 11
374.2064434715991
 21
432.5757623501122
 31
0.0
  0
LINE
  5
108
  8
0
  6
CONTINUOUS
 62
     7
 10
374.2064434715991
 20
432.5757623501122
 30
0.0
 11
373.2875728561106
 21
432.5757623501122
 31
0.0
  0
LINE
  5
109
  8
0
  6
CONTINUOUS
 62
     7
 10
373.2875728561106
 20
432.5757623501122
 30
0.0
 11
309.0875347791747
 21
432.5757623501122
 31
0.0
  0
LINE
  5
10A
  8
0
  6
CONTINUOUS
 62
     7
 10
309.0875347791747
 20
432.5757623501122
 30
0.0
 11
308.1686641636862
 21
432.5757623501122
 31
0.0
  0
LINE
  5
10B
  8
0
  6
CONTINUOUS
 62
     7
 10
308.1686641636862
 20
432.5757623501122
 30
0.0
 11
306.8686146617848
 21
432.5757623501122
 31
0.0
  0
LINE
  5
10C
  8
0
  6
CONTINUOUS
 62
     7
 10
375.5064548943898
 20
432.0757623501122
 30
0.0
 11
375.5064929735005
 21
432.5757623501122
 31
0.0
  0
POLYLINE
  5
10D
  8
0
  6
CONTINUOUS
 62
     7
 66
     1
 10
0.0
 20
0.0
 30
0.0
  0
VERTEX
  5
372
  8
0
  6
CONTINUOUS
 62
     7
 10
374.0062835394791
 20
430.5757623501122
 30
0.0
  0
VERTEX
  5
373
  8
0
  6
CONTINUOUS
 62
     7
 10
374.2989323606283
 20
430.6045844295073
 30
0.0
  0
VERTEX
  5
374
  8
0
  6
CONTINUOUS
 62
     7
 10
374.5803392417769
 20
430.6899430513453
 30
0.0
  0
VERTEX
  5
375
  8
0
  6
CONTINUOUS
 62
     7
 10
374.8396898742968
 20
430.8285579316584
 30
0.0
  0
VERTEX
  5
376
  8
0
  6
CONTINUOUS
 62
     7
 10
375.067017558826
 20
431.0151021783324
 30
0.0
  0
VERTEX
  5
377
  8
0
  6
CONTINUOUS
 62
     7
 10
375.2535862199347
 20
431.2424070005828
 30
0.0
  0
VERTEX
  5
378
  8
0
  6
CONTINUOUS
 62
     7
 10
375.3922261286056
 20
431.5017372015646
 30
0.0
  0
VERTEX
  5
379
  8
0
  6
CONTINUOUS
 62
     7
 10
375.4776094308984
 20
431.783126867088
 30
0.0
  0
VERTEX
  5
37A
  8
0
  6
CONTINUOUS
 62
     7
 10
375.5064548943898
 20
432.0757623501122
 30
0.0
  0
SEQEND
  5
41B
  8
0
  6
CONTINUOUS
 62
     7
  0
LINE
  5
10E
  8
0
  6
CONTINUOUS
 62
     7
 10
374.0062835394791
 20
430.5757623501122
 30
0.0
 11
308.3688240958062
 21
430.5757623501122
 31
0.0
  0
LINE
  5
10F
  8
0
  6
CONTINUOUS
 62
     7
 10
319.1526463464796
 20
471.0757623501121
 30
0.0
 11
319.1526463464796
 21
542.5757623501122
 31
0.0
  0
LINE
  5
110
  8
0
  6
CONTINUOUS
 62
     7
 10
319.1526463464796
 20
542.5757623501122
 30
0.0
 11
319.1788276143734
 21
542.5495810822184
 31
0.0
  0
LINE
  5
111
  8
0
  6
CONTINUOUS
 62
     7
 10
319.178827614424
 20
471.0757623501121
 30
0.0
 11
319.178827614424
 21
542.5495817467398
 31
0.0
  0
LINE
  5
112
  8
0
  6
CONTINUOUS
 62
     7
 10
319.1526463464796
 20
471.0757623501121
 30
0.0
 11
319.178827614424
 21
471.0757623501121
 31
0.0
  0
LINE
  5
113
  8
0
  6
CONTINUOUS
 62
     7
 10
323.187553816924
 20
471.0757623501871
 30
0.0
 11
323.187553816924
 21
542.5495817469022
 31
0.0
  0
LINE
  5
114
  8
0
  6
CONTINUOUS
 62
     7
 10
323.1962800209119
 20
542.5495810822184
 30
0.0
 11
323.2224612888057
 21
542.5757623501122
 31
0.0
  0
LINE
  5
115
  8
0
  6
CONTINUOUS
 62
     7
 10
323.2224612888057
 20
471.0757623501121
 30
0.0
 11
323.2224612888057
 21
542.5757623501122
 31
0.0
  0
LINE
  5
116
  8
0
  6
CONTINUOUS
 62
     7
 10
323.1962800208613
 20
471.0757623501121
 30
0.0
 11
323.2224612888057
 21
471.0757623501121
 31
0.0
  0
LINE
  5
117
  8
0
  6
CONTINUOUS
 62
     7
 10
359.1526463464796
 20
471.0757623501121
 30
0.0
 11
359.1526463464796
 21
542.5757623501122
 31
0.0
  0
LINE
  5
118
  8
0
  6
CONTINUOUS
 62
     7
 10
359.1788276143734
 20
542.5495810822184
 30
0.0
 11
359.1526463464796
 21
542.5757623501122
 31
0.0
  0
LINE
  5
119
  8
0
  6
CONTINUOUS
 62
     7
 10
359.178827614424
 20
471.0757623501121
 30
0.0
 11
359.178827614424
 21
542.5495817467398
 31
0.0
  0
LINE
  5
11A
  8
0
  6
CONTINUOUS
 62
     7
 10
359.178827614424
 20
471.0757623501121
 30
0.0
 11
359.1526463464796
 21
471.0757623501121
 31
0.0
  0
LINE
  5
11B
  8
0
  6
CONTINUOUS
 62
     7
 10
363.187553816924
 20
471.0757623501871
 30
0.0
 11
363.187553816924
 21
542.5495817469022
 31
0.0
  0
LINE
  5
11C
  8
0
  6
CONTINUOUS
 62
     7
 10
363.2224612888056
 20
542.5757623501122
 30
0.0
 11
363.1962800209118
 21
542.5495810822184
 31
0.0
  0
LINE
  5
11D
  8
0
  6
CONTINUOUS
 62
     7
 10
363.2224612888057
 20
471.0757623501121
 30
0.0
 11
363.2224612888057
 21
542.5757623501122
 31
0.0
  0
LINE
  5
11E
  8
0
  6
CONTINUOUS
 62
     7
 10
363.2224612888057
 20
471.0757623501121
 30
0.0
 11
363.1962800208613
 21
471.0757623501121
 31
0.0
  0
CIRCLE
  5
11F
  8
0
  6
CONTINUOUS
 62
     7
 10
341.1875538176427
 20
452.5757623501122
 30
0.0
 40
2.25000000000003
  0
CIRCLE
  5
120
  8
0
  6
CONTINUOUS
 62
     7
 10
341.1875538176427
 20
527.5757623501122
 30
0.0
 40
2.25000000000003
  0
POLYLINE
  5
121
  8
0
  6
CONTINUOUS
 62
     7
 66
     1
 10
0.0
 20
0.0
 30
0.0
  0
VERTEX
  5
37B
  8
0
  6
CONTINUOUS
 62
     7
 10
373.2875728561106
 20
432.5757623501122
 30
0.0
  0
VERTEX
  5
37C
  8
0
  6
CONTINUOUS
 62
     7
 10
373.3851163313616
 20
432.5853691471927
 30
0.0
  0
VERTEX
  5
37D
  8
0
  6
CONTINUOUS
 62
     7
 10
373.4789101646825
 20
432.6138203902901
 30
0.0
  0
VERTEX
  5
37E
  8
0
  6
CONTINUOUS
 62
     7
 10
373.5653502600148
 20
432.6600228197574
 30
0.0
  0
VERTEX
  5
37F
  8
0
  6
CONTINUOUS
 62
     7
 10
373.6411150940152
 20
432.7222010737397
 30
0.0
  0
VERTEX
  5
380
  8
0
  6
CONTINUOUS
 62
     7
 10
373.7032933479974
 20
432.79796590774
 30
0.0
  0
VERTEX
  5
381
  8
0
  6
CONTINUOUS
 62
     7
 10
373.7494957774647
 20
432.8844060030723
 30
0.0
  0
VERTEX
  5
382
  8
0
  6
CONTINUOUS
 62
     7
 10
373.7779470205621
 20
432.9781998363932
 30
0.0
  0
VERTEX
  5
383
  8
0
  6
CONTINUOUS
 62
     7
 10
373.7875538176426
 20
433.0757433116443
 30
0.0
  0
SEQEND
  5
41C
  8
0
  6
CONTINUOUS
 62
     7
  0
LINE
  5
122
  8
0
  6
CONTINUOUS
 62
     7
 10
309.0875347791747
 20
432.5757623501122
 30
0.0
 11
373.2875728561106
 21
432.5757623501122
 31
0.0
  0
POLYLINE
  5
123
  8
0
  6
CONTINUOUS
 62
     7
 66
     1
 10
0.0
 20
0.0
 30
0.0
  0
VERTEX
  5
384
  8
0
  6
CONTINUOUS
 62
     7
 10
308.5875538176426
 20
433.0757433116443
 30
0.0
  0
VERTEX
  5
385
  8
0
  6
CONTINUOUS
 62
     7
 10
308.5971606147231
 20
432.9781998363932
 30
0.0
  0
VERTEX
  5
386
  8
0
  6
CONTINUOUS
 62
     7
 10
308.6256118578205
 20
432.8844060030723
 30
0.0
  0
VERTEX
  5
387
  8
0
  6
CONTINUOUS
 62
     7
 10
308.6718142872879
 20
432.79796590774
 30
0.0
  0
VERTEX
  5
388
  8
0
  6
CONTINUOUS
 62
     7
 10
308.7339925412701
 20
432.7222010737397
 30
0.0
  0
VERTEX
  5
389
  8
0
  6
CONTINUOUS
 62
     7
 10
308.8097573752704
 20
432.6600228197574
 30
0.0
  0
VERTEX
  5
38A
  8
0
  6
CONTINUOUS
 62
     7
 10
308.8961974706028
 20
432.6138203902901
 30
0.0
  0
VERTEX
  5
38B
  8
0
  6
CONTINUOUS
 62
     7
 10
308.9899913039237
 20
432.5853691471927
 30
0.0
  0
VERTEX
  5
38C
  8
0
  6
CONTINUOUS
 62
     7
 10
309.0875347791747
 20
432.5757623501122
 30
0.0
  0
SEQEND
  5
41D
  8
0
  6
CONTINUOUS
 62
     7
  0
LINE
  5
124
  8
0
  6
CONTINUOUS
 62
     7
 10
308.5875538176426
 20
542.0757813885801
 30
0.0
 11
308.5875538176426
 21
433.0757433116443
 31
0.0
  0
POLYLINE
  5
125
  8
0
  6
CONTINUOUS
 62
     7
 66
     1
 10
0.0
 20
0.0
 30
0.0
  0
VERTEX
  5
38D
  8
0
  6
CONTINUOUS
 62
     7
 10
309.0875347791747
 20
542.5757623501122
 30
0.0
  0
VERTEX
  5
38E
  8
0
  6
CONTINUOUS
 62
     7
 10
308.9899913039237
 20
542.5661555530316
 30
0.0
  0
VERTEX
  5
38F
  8
0
  6
CONTINUOUS
 62
     7
 10
308.8961974706028
 20
542.5377043099343
 30
0.0
  0
VERTEX
  5
390
  8
0
  6
CONTINUOUS
 62
     7
 10
308.8097573752704
 20
542.4915018804669
 30
0.0
  0
VERTEX
  5
391
  8
0
  6
CONTINUOUS
 62
     7
 10
308.73399254127
 20
542.4293236264847
 30
0.0
  0
VERTEX
  5
392
  8
0
  6
CONTINUOUS
 62
     7
 10
308.6718142872878
 20
542.3535587924845
 30
0.0
  0
VERTEX
  5
393
  8
0
  6
CONTINUOUS
 62
     7
 10
308.6256118578205
 20
542.267118697152
 30
0.0
  0
VERTEX
  5
394
  8
0
  6
CONTINUOUS
 62
     7
 10
308.5971606147231
 20
542.1733248638311
 30
0.0
  0
VERTEX
  5
395
  8
0
  6
CONTINUOUS
 62
     7
 10
308.5875538176426
 20
542.07578138858
 30
0.0
  0
SEQEND
  5
41E
  8
0
  6
CONTINUOUS
 62
     7
  0
LINE
  5
126
  8
0
  6
CONTINUOUS
 62
     7
 10
310.8876413979298
 20
471.0757623501121
 30
0.0
 11
310.8876413979298
 21
434.8758499303994
 31
0.0
  0
LINE
  5
127
  8
0
  6
CONTINUOUS
 62
     7
 10
340.0375538176427
 20
434.8758499303994
 30
0.0
 11
310.8876413979298
 21
434.8758499303994
 31
0.0
  0
LINE
  5
128
  8
0
  6
CONTINUOUS
 62
     7
 10
340.0375538176427
 20
434.8758499303994
 30
0.0
 11
340.0375538176427
 21
445.6708727782218
 31
0.0
  0
ARC
  5
129
  8
0
  6
CONTINUOUS
 62
     7
 10
341.1875538176427
 20
452.5757623501122
 30
0.0
 40
6.999999999999993
 50
99.4557426826359
 51
260.5442573173642
  0
LINE
  5
12A
  8
0
  6
CONTINUOUS
 62
     7
 10
340.0375538176427
 20
459.4806519220026
 30
0.0
 11
340.0375538176427
 21
471.0757623501121
 31
0.0
  0
POLYLINE
  5
12B
  8
0
  6
CONTINUOUS
 62
     7
 66
     1
 10
0.0
 20
0.0
 30
0.0
  0
VERTEX
  5
396
  8
0
  6
CONTINUOUS
 62
     7
 10
324.6875538176427
 20
542.5757623501121
 30
0.0
  0
VERTEX
  5
397
  8
0
  6
CONTINUOUS
 62
     7
 10
324.7850989786508
 20
542.5853700757432
 30
0.0
  0
VERTEX
  5
398
  8
0
  6
CONTINUOUS
 62
     7
 10
324.8788955338252
 20
542.6138240331287
 30
0.0
  0
VERTEX
  5
399
  8
0
  6
CONTINUOUS
 62
     7
 10
324.9653389341525
 20
542.6600307526434
 30
0.0
  0
VERTEX
  5
39A
  8
0
  6
CONTINUOUS
 62
     7
 10
325.041107208236
 20
542.7222145359693
 30
0.0
  0
VERTEX
  5
39B
  8
0
  6
CONTINUOUS
 62
     7
 10
325.103288623794
 20
542.7979856951863
 30
0.0
  0
VERTEX
  5
39C
  8
0
  6
CONTINUOUS
 62
     7
 10
325.1494935838983
 20
542.8844323871388
 30
0.0
  0
VERTEX
  5
39D
  8
0
  6
CONTINUOUS
 62
     7
 10
325.1779464578443
 20
542.9782325139347
 30
0.0
  0
VERTEX
  5
39E
  8
0
  6
CONTINUOUS
 62
     7
 10
325.1875538176427
 20
543.075781389305
 30
0.0
  0
SEQEND
  5
41F
  8
0
  6
CONTINUOUS
 62
     7
  0
LINE
  5
12C
  8
0
  6
CONTINUOUS
 62
     7
 10
325.1875538176427
 20
543.075781389305
 30
0.0
 11
325.1875538176427
 21
557.0757623501121
 31
0.0
  0
ARC
  5
12D
  8
0
  6
CONTINUOUS
 62
     7
 10
325.6875538176427
 20
557.0757623501121
 30
0.0
 40
0.500000000000056
 50
90.00000000000001
 51
180.0
  0
LINE
  5
12E
  8
0
  6
CONTINUOUS
 62
     7
 10
329.6875538176427
 20
557.5757623501122
 30
0.0
 11
325.6875538176427
 21
557.5757623501122
 31
0.0
  0
ARC
  5
12F
  8
0
  6
CONTINUOUS
 62
     7
 10
329.6875538176427
 20
557.0757623501121
 30
0.0
 40
0.5000000000000004
 50
0.000000000000007
 51
90.0
  0
LINE
  5
130
  8
0
  6
CONTINUOUS
 62
     7
 10
330.1875538176427
 20
543.0757813893051
 30
0.0
 11
330.1875538176427
 21
557.0757623501121
 31
0.0
  0
POLYLINE
  5
131
  8
0
  6
CONTINUOUS
 62
     7
 66
     1
 10
0.0
 20
0.0
 30
0.0
  0
VERTEX
  5
39F
  8
0
  6
CONTINUOUS
 62
     7
 10
330.1875538176427
 20
543.0757813893051
 30
0.0
  0
VERTEX
  5
3A0
  8
0
  6
CONTINUOUS
 62
     7
 10
330.1971611774411
 20
542.9782325139348
 30
0.0
  0
VERTEX
  5
3A1
  8
0
  6
CONTINUOUS
 62
     7
 10
330.2256140513871
 20
542.8844323871389
 30
0.0
  0
VERTEX
  5
3A2
  8
0
  6
CONTINUOUS
 62
     7
 10
330.2718190114914
 20
542.7979856951865
 30
0.0
  0
VERTEX
  5
3A3
  8
0
  6
CONTINUOUS
 62
     7
 10
330.3340004270494
 20
542.7222145359694
 30
0.0
  0
VERTEX
  5
3A4
  8
0
  6
CONTINUOUS
 62
     7
 10
330.4097687011329
 20
542.6600307526436
 30
0.0
  0
VERTEX
  5
3A5
  8
0
  6
CONTINUOUS
 62
     7
 10
330.4962121014601
 20
542.6138240331289
 30
0.0
  0
VERTEX
  5
3A6
  8
0
  6
CONTINUOUS
 62
     7
 10
330.5900086566346
 20
542.5853700757434
 30
0.0
  0
VERTEX
  5
3A7
  8
0
  6
CONTINUOUS
 62
     7
 10
330.6875538176427
 20
542.5757623501123
 30
0.0
  0
SEQEND
  5
420
  8
0
  6
CONTINUOUS
 62
     7
  0
LINE
  5
132
  8
0
  6
CONTINUOUS
 62
     7
 10
351.6875538176427
 20
542.5757623501122
 30
0.0
 11
330.6875538176427
 21
542.5757623501122
 31
0.0
  0
POLYLINE
  5
133
  8
0
  6
CONTINUOUS
 62
     7
 66
     1
 10
0.0
 20
0.0
 30
0.0
  0
VERTEX
  5
3A8
  8
0
  6
CONTINUOUS
 62
     7
 10
351.6875538176427
 20
542.5757623501121
 30
0.0
  0
VERTEX
  5
3A9
  8
0
  6
CONTINUOUS
 62
     7
 10
351.7850989786508
 20
542.5853700757432
 30
0.0
  0
VERTEX
  5
3AA
  8
0
  6
CONTINUOUS
 62
     7
 10
351.8788955338252
 20
542.6138240331287
 30
0.0
  0
VERTEX
  5
3AB
  8
0
  6
CONTINUOUS
 62
     7
 10
351.9653389341525
 20
542.6600307526434
 30
0.0
  0
VERTEX
  5
3AC
  8
0
  6
CONTINUOUS
 62
     7
 10
352.041107208236
 20
542.7222145359693
 30
0.0
  0
VERTEX
  5
3AD
  8
0
  6
CONTINUOUS
 62
     7
 10
352.103288623794
 20
542.7979856951863
 30
0.0
  0
VERTEX
  5
3AE
  8
0
  6
CONTINUOUS
 62
     7
 10
352.1494935838983
 20
542.8844323871388
 30
0.0
  0
VERTEX
  5
3AF
  8
0
  6
CONTINUOUS
 62
     7
 10
352.1779464578443
 20
542.9782325139347
 30
0.0
  0
VERTEX
  5
3B0
  8
0
  6
CONTINUOUS
 62
     7
 10
352.1875538176427
 20
543.075781389305
 30
0.0
  0
SEQEND
  5
421
  8
0
  6
CONTINUOUS
 62
     7
  0
LINE
  5
134
  8
0
  6
CONTINUOUS
 62
     7
 10
352.1875538176427
 20
543.075781389305
 30
0.0
 11
352.1875538176427
 21
557.0757623501121
 31
0.0
  0
ARC
  5
135
  8
0
  6
CONTINUOUS
 62
     7
 10
352.6875538176427
 20
557.0757623501121
 30
0.0
 40
0.500000000000056
 50
90.00000000000001
 51
180.0
  0
LINE
  5
136
  8
0
  6
CONTINUOUS
 62
     7
 10
352.6875538176427
 20
557.5757623501122
 30
0.0
 11
356.6875538176426
 21
557.5757623501122
 31
0.0
  0
ARC
  5
137
  8
0
  6
CONTINUOUS
 62
     7
 10
356.6875538176426
 20
557.0757623501121
 30
0.0
 40
0.500000000000056
 50
0.000000000000007
 51
90.0
  0
LINE
  5
138
  8
0
  6
CONTINUOUS
 62
     7
 10
357.1875538176427
 20
543.075781389305
 30
0.0
 11
357.1875538176427
 21
557.0757623501121
 31
0.0
  0
POLYLINE
  5
139
  8
0
  6
CONTINUOUS
 62
     7
 66
     1
 10
0.0
 20
0.0
 30
0.0
  0
VERTEX
  5
3B1
  8
0
  6
CONTINUOUS
 62
     7
 10
357.1875538176425
 20
543.075781389305
 30
0.0
  0
VERTEX
  5
3B2
  8
0
  6
CONTINUOUS
 62
     7
 10
357.1971611774409
 20
542.9782325139347
 30
0.0
  0
VERTEX
  5
3B3
  8
0
  6
CONTINUOUS
 62
     7
 10
357.2256140513869
 20
542.8844323871388
 30
0.0
  0
VERTEX
  5
3B4
  8
0
  6
CONTINUOUS
 62
     7
 10
357.2718190114913
 20
542.7979856951863
 30
0.0
  0
VERTEX
  5
3B5
  8
0
  6
CONTINUOUS
 62
     7
 10
357.3340004270493
 20
542.7222145359693
 30
0.0
  0
VERTEX
  5
3B6
  8
0
  6
CONTINUOUS
 62
     7
 10
357.4097687011327
 20
542.6600307526434
 30
0.0
  0
VERTEX
  5
3B7
  8
0
  6
CONTINUOUS
 62
     7
 10
357.49621210146
 20
542.6138240331287
 30
0.0
  0
VERTEX
  5
3B8
  8
0
  6
CONTINUOUS
 62
     7
 10
357.5900086566345
 20
542.5853700757432
 30
0.0
  0
VERTEX
  5
3B9
  8
0
  6
CONTINUOUS
 62
     7
 10
357.6875538176426
 20
542.5757623501121
 30
0.0
  0
SEQEND
  5
422
  8
0
  6
CONTINUOUS
 62
     7
  0
LINE
  5
13A
  8
0
  6
CONTINUOUS
 62
     7
 10
342.3375538176426
 20
459.4806519220026
 30
0.0
 11
342.3375538176426
 21
471.0757623501121
 31
0.0
  0
ARC
  5
13B
  8
0
  6
CONTINUOUS
 62
     7
 10
341.1875538176427
 20
452.5757623501122
 30
0.0
 40
6.999999999999993
 50
279.4557426826358
 51
80.5442573173641
  0
LINE
  5
13C
  8
0
  6
CONTINUOUS
 62
     7
 10
342.3375538176426
 20
434.8758499303994
 30
0.0
 11
342.3375538176426
 21
445.6708727782218
 31
0.0
  0
LINE
  5
13D
  8
0
  6
CONTINUOUS
 62
     7
 10
342.3375538176426
 20
434.8758499303994
 30
0.0
 11
371.4874662373555
 21
434.8758499303994
 31
0.0
  0
LINE
  5
13E
  8
0
  6
CONTINUOUS
 62
     7
 10
371.4874662373555
 20
471.0757623501122
 30
0.0
 11
371.4874662373555
 21
434.8758499303994
 31
0.0
  0
POLYLINE
  5
13F
  8
0
  6
CONTINUOUS
 62
     7
 66
     1
 10
0.0
 20
0.0
 30
0.0
  0
VERTEX
  5
3BA
  8
0
  6
CONTINUOUS
 62
     7
 10
373.7875538176426
 20
542.07578138858
 30
0.0
  0
VERTEX
  5
3BB
  8
0
  6
CONTINUOUS
 62
     7
 10
373.7779470205621
 20
542.1733248638311
 30
0.0
  0
VERTEX
  5
3BC
  8
0
  6
CONTINUOUS
 62
     7
 10
373.7494957774647
 20
542.267118697152
 30
0.0
  0
VERTEX
  5
3BD
  8
0
  6
CONTINUOUS
 62
     7
 10
373.7032933479974
 20
542.3535587924845
 30
0.0
  0
VERTEX
  5
3BE
  8
0
  6
CONTINUOUS
 62
     7
 10
373.6411150940152
 20
542.4293236264847
 30
0.0
  0
VERTEX
  5
3BF
  8
0
  6
CONTINUOUS
 62
     7
 10
373.5653502600148
 20
542.4915018804669
 30
0.0
  0
VERTEX
  5
3C0
  8
0
  6
CONTINUOUS
 62
     7
 10
373.4789101646825
 20
542.5377043099343
 30
0.0
  0
VERTEX
  5
3C1
  8
0
  6
CONTINUOUS
 62
     7
 10
373.3851163313616
 20
542.5661555530316
 30
0.0
  0
VERTEX
  5
3C2
  8
0
  6
CONTINUOUS
 62
     7
 10
373.2875728561106
 20
542.5757623501122
 30
0.0
  0
SEQEND
  5
423
  8
0
  6
CONTINUOUS
 62
     7
  0
LINE
  5
140
  8
0
  6
CONTINUOUS
 62
     7
 10
373.7875538176426
 20
542.0757813885801
 30
0.0
 11
373.7875538176427
 21
433.0757433116443
 31
0.0
  0
LINE
  5
141
  8
0
  6
CONTINUOUS
 62
     7
 10
373.2875728561106
 20
542.5757623501122
 30
0.0
 11
363.2224612888057
 21
542.5757623501122
 31
0.0
  0
LINE
  5
142
  8
0
  6
CONTINUOUS
 62
     7
 10
359.1526463464796
 20
542.5757623501122
 30
0.0
 11
357.6875538176426
 21
542.5757623501122
 31
0.0
  0
LINE
  5
143
  8
0
  6
CONTINUOUS
 62
     7
 10
363.2224612888057
 20
471.0757623501121
 30
0.0
 11
371.4874662373555
 21
471.0757623501122
 31
0.0
  0
LINE
  5
144
  8
0
  6
CONTINUOUS
 62
     7
 10
342.3375538176426
 20
471.0757623501121
 30
0.0
 11
359.1526463464796
 21
471.0757623501121
 31
0.0
  0
LINE
  5
145
  8
0
  6
CONTINUOUS
 62
     7
 10
323.2224612888057
 20
542.5757623501122
 30
0.0
 11
324.6875538176427
 21
542.5757623501122
 31
0.0
  0
LINE
  5
146
  8
0
  6
CONTINUOUS
 62
     7
 10
309.0875347791747
 20
542.5757623501122
 30
0.0
 11
319.1526463464796
 21
542.5757623501122
 31
0.0
  0
LINE
  5
147
  8
0
  6
CONTINUOUS
 62
     7
 10
340.0375538176427
 20
471.0757623501121
 30
0.0
 11
323.2224612888057
 21
471.0757623501121
 31
0.0
  0
LINE
  5
148
  8
0
  6
CONTINUOUS
 62
     7
 10
319.1526463464796
 20
471.0757623501121
 30
0.0
 11
310.8876413979298
 21
471.0757623501121
 31
0.0
  0
POLYLINE
  5
149
  8
0
  6
CONTINUOUS
 62
     7
 66
     1
 10
0.0
 20
0.0
 30
0.0
  0
VERTEX
  5
3C3
  8
0
  6
CONTINUOUS
 62
     7
 10
321.8898855647163
 20
435.1263110359942
 30
0.0
  0
VERTEX
  5
3C4
  8
0
  6
CONTINUOUS
 62
     7
 10
323.5131947646731
 20
435.0941495535554
 30
0.0
  0
VERTEX
  5
3C5
  8
0
  6
CONTINUOUS
 62
     7
 10
325.8320383944184
 20
435.0654172982444
 30
0.0
  0
VERTEX
  5
3C6
  8
0
  6
CONTINUOUS
 62
     7
 10
328.7551636069918
 20
435.0412449629905
 30
0.0
  0
VERTEX
  5
3C7
  8
0
  6
CONTINUOUS
 62
     7
 10
332.1675374203297
 20
435.0225837953817
 30
0.0
  0
VERTEX
  5
3C8
  8
0
  6
CONTINUOUS
 62
     7
 10
335.9348735801258
 20
435.0101681634669
 30
0.0
  0
VERTEX
  5
3C9
  8
0
  6
CONTINUOUS
 62
     7
 10
339.9089170916801
 20
435.004486656362
 30
0.0
  0
SEQEND
  5
424
  8
0
  6
CONTINUOUS
 62
     7
  0
LINE
  5
14A
  8
0
  6
CONTINUOUS
 62
     7
 10
340.0375538176427
 20
434.8758499303994
 30
0.0
 11
339.9089170916801
 21
435.0044866563619
 31
0.0
  0
LINE
  5
14B
  8
0
  6
CONTINUOUS
 62
     7
 10
310.8876413979298
 20
434.8758499303994
 30
0.0
 11
311.1381025035246
 21
435.1263110359941
 31
0.0
  0
LINE
  5
14C
  8
0
  6
CONTINUOUS
 62
     7
 10
311.1381025035246
 20
435.1263110359941
 30
0.0
 11
321.8898855647163
 21
435.1263110359941
 31
0.0
  0
LINE
  5
14D
  8
0
  6
CONTINUOUS
 62
     7
 10
311.1730099746877
 20
471.0757623501121
 30
0.0
 11
311.1730099746877
 21
463.7257623501122
 31
0.0
  0
LINE
  5
14E
  8
0
  6
CONTINUOUS
 62
     7
 10
310.9749100758374
 20
463.7257623501122
 30
0.0
 11
310.9749100758374
 21
461.4257623501122
 31
0.0
  0
LINE
  5
14F
  8
0
  6
CONTINUOUS
 62
     7
 10
311.1730099746877
 20
461.4257623501122
 30
0.0
 11
311.1730099746877
 21
438.8757623501122
 31
0.0
  0
LINE
  5
150
  8
0
  6
CONTINUOUS
 62
     7
 10
311.1381025035246
 20
435.1263110359941
 30
0.0
 11
311.1381025035246
 21
438.8757623501122
 31
0.0
  0
LINE
  5
151
  8
0
  6
CONTINUOUS
 62
     7
 10
339.9089170916801
 20
435.0044866563619
 30
0.0
 11
339.9089170916801
 21
436.8757623501122
 31
0.0
  0
LINE
  5
152
  8
0
  6
CONTINUOUS
 62
     7
 10
339.9001668707599
 20
445.695163913276
 30
0.0
 11
339.9001668707599
 21
436.8757623501122
 31
0.0
  0
LINE
  5
153
  8
0
  6
CONTINUOUS
 62
     7
 10
342.4749407645254
 20
445.6951639132757
 30
0.0
 11
342.4749407645254
 21
436.8757623501122
 31
0.0
  0
LINE
  5
154
  8
0
  6
CONTINUOUS
 62
     7
 10
342.4661905436052
 20
435.0044866563619
 30
0.0
 11
342.4661905436052
 21
436.8757623501122
 31
0.0
  0
LINE
  5
155
  8
0
  6
CONTINUOUS
 62
     7
 10
342.3375538176426
 20
434.8758499303994
 30
0.0
 11
342.4661905436052
 21
435.0044866563619
 31
0.0
  0
POLYLINE
  5
156
  8
0
  6
CONTINUOUS
 62
     7
 66
     1
 10
0.0
 20
0.0
 30
0.0
  0
VERTEX
  5
3CA
  8
0
  6
CONTINUOUS
 62
     7
 10
342.4661905436052
 20
435.004486656362
 30
0.0
  0
VERTEX
  5
3CB
  8
0
  6
CONTINUOUS
 62
     7
 10
346.4402340551595
 20
435.0101681634669
 30
0.0
  0
VERTEX
  5
3CC
  8
0
  6
CONTINUOUS
 62
     7
 10
350.2075702149556
 20
435.0225837953817
 30
0.0
  0
VERTEX
  5
3CD
  8
0
  6
CONTINUOUS
 62
     7
 10
353.6199440282934
 20
435.0412449629905
 30
0.0
  0
VERTEX
  5
3CE
  8
0
  6
CONTINUOUS
 62
     7
 10
356.5430692408668
 20
435.0654172982444
 30
0.0
  0
VERTEX
  5
3CF
  8
0
  6
CONTINUOUS
 62
     7
 10
358.8619128706121
 20
435.0941495535554
 30
0.0
  0
VERTEX
  5
3D0
  8
0
  6
CONTINUOUS
 62
     7
 10
360.4852220705689
 20
435.1263110359942
 30
0.0
  0
SEQEND
  5
425
  8
0
  6
CONTINUOUS
 62
     7
  0
LINE
  5
157
  8
0
  6
CONTINUOUS
 62
     7
 10
371.2370051317607
 20
435.1263110359941
 30
0.0
 11
360.4852220705689
 21
435.1263110359941
 31
0.0
  0
LINE
  5
158
  8
0
  6
CONTINUOUS
 62
     7
 10
371.4874662373555
 20
434.8758499303994
 30
0.0
 11
371.2370051317607
 21
435.1263110359941
 31
0.0
  0
LINE
  5
159
  8
0
  6
CONTINUOUS
 62
     7
 10
339.9089170916801
 20
468.7757623501122
 30
0.0
 11
339.9089170916801
 21
459.457992230247
 31
0.0
  0
LINE
  5
15A
  8
0
  6
CONTINUOUS
 62
     7
 10
339.9176650803955
 20
468.7757623501122
 30
0.0
 11
339.9176650803955
 21
471.0757623501121
 31
0.0
  0
LINE
  5
15B
  8
0
  6
CONTINUOUS
 62
     7
 10
342.4574425548898
 20
468.7757623501122
 30
0.0
 11
342.4574425548898
 21
471.0757623501121
 31
0.0
  0
LINE
  5
15C
  8
0
  6
CONTINUOUS
 62
     7
 10
342.4661905436051
 20
468.7757623501122
 30
0.0
 11
342.4661905436051
 21
459.457992230247
 31
0.0
  0
LINE
  5
15D
  8
0
  6
CONTINUOUS
 62
     7
 10
371.2020976605976
 20
461.4257623501122
 30
0.0
 11
371.2020976605976
 21
438.8757623501122
 31
0.0
  0
LINE
  5
15E
  8
0
  6
CONTINUOUS
 62
     7
 10
371.4001975594479
 20
463.7257623501122
 30
0.0
 11
371.4001975594479
 21
461.4257623501122
 31
0.0
  0
LINE
  5
15F
  8
0
  6
CONTINUOUS
 62
     7
 10
371.2020976605976
 20
471.0757623501121
 30
0.0
 11
371.2020976605976
 21
463.7257623501122
 31
0.0
  0
LINE
  5
160
  8
0
  6
CONTINUOUS
 62
     7
 10
371.2370051317607
 20
438.8757623501122
 30
0.0
 11
371.2370051317607
 21
435.1263110359941
 31
0.0
  0
LINE
  5
161
  8
0
  6
CONTINUOUS
 62
     7
 10
322.1875538176427
 20
542.5408548789491
 30
0.0
 11
323.1875538176427
 21
542.5495817467398
 31
0.0
  0
LINE
  5
162
  8
0
  6
CONTINUOUS
 62
     7
 10
322.1875538176427
 20
471.0757623501121
 30
0.0
 11
323.1875538176427
 21
471.0757623501121
 31
0.0
  0
LINE
  5
163
  8
0
  6
CONTINUOUS
 62
     7
 10
319.1875538176427
 20
542.5495817467398
 30
0.0
 11
320.1875538176427
 21
542.5408548789491
 31
0.0
  0
LINE
  5
164
  8
0
  6
CONTINUOUS
 62
     7
 10
319.1875538176427
 20
471.0757623501121
 30
0.0
 11
320.1875538176427
 21
471.0757623501121
 31
0.0
  0
LINE
  5
165
  8
0
  6
CONTINUOUS
 62
     7
 10
360.1875538176427
 20
542.5408548789491
 30
0.0
 11
359.1875538176427
 21
542.5495817467398
 31
0.0
  0
LINE
  5
166
  8
0
  6
CONTINUOUS
 62
     7
 10
359.1875538176427
 20
471.0757623501121
 30
0.0
 11
360.1875538176427
 21
471.0757623501121
 31
0.0
  0
LINE
  5
167
  8
0
  6
CONTINUOUS
 62
     7
 10
363.1875538176426
 20
542.5495817467398
 30
0.0
 11
362.1875538176426
 21
542.5408548789491
 31
0.0
  0
LINE
  5
168
  8
0
  6
CONTINUOUS
 62
     7
 10
362.1875538176427
 20
471.0757623501121
 30
0.0
 11
363.1875538176427
 21
471.0757623501121
 31
0.0
  0
LINE
  5
169
  8
0
  6
CONTINUOUS
 62
     7
 10
320.1875538176427
 20
542.5408548789492
 30
0.0
 11
322.1875538176427
 21
542.5408548789492
 31
0.0
  0
LINE
  5
16A
  8
0
  6
CONTINUOUS
 62
     7
 10
322.1875538176427
 20
471.0757623501121
 30
0.0
 11
320.1875538176427
 21
471.0757623501121
 31
0.0
  0
LINE
  5
16B
  8
0
  6
CONTINUOUS
 62
     7
 10
362.1875538176426
 20
542.5408548789492
 30
0.0
 11
360.1875538176427
 21
542.5408548789492
 31
0.0
  0
LINE
  5
16C
  8
0
  6
CONTINUOUS
 62
     7
 10
362.1875538176427
 20
471.0757623501121
 30
0.0
 11
360.1875538176427
 21
471.0757623501121
 31
0.0
  0
CIRCLE
  5
16D
  8
0
  6
CONTINUOUS
 62
     7
 10
316.6875538176427
 20
462.5757623501121
 30
0.0
 40
1.549282040812561
  0
LINE
  5
16E
  8
0
  6
CONTINUOUS
 62
     7
 10
310.9749100758374
 20
461.4257623501122
 30
0.0
 11
312.8042562498532
 21
461.4257623501122
 31
0.0
  0
LINE
  5
16F
  8
0
  6
CONTINUOUS
 62
     7
 10
312.8042562498532
 20
463.7257623501122
 30
0.0
 11
310.9749100758374
 21
463.7257623501122
 31
0.0
  0
ARC
  5
170
  8
0
  6
CONTINUOUS
 62
     7
 10
316.6875538176427
 20
462.5757623501121
 30
0.0
 40
4.049999999999982
 50
196.4961321500047
 51
163.5038678499952
  0
CIRCLE
  5
171
  8
0
  6
CONTINUOUS
 62
     7
 10
365.6875538176426
 20
462.5757623501122
 30
0.0
 40
1.549282040812505
  0
LINE
  5
172
  8
0
  6
CONTINUOUS
 62
     7
 10
369.5708513854321
 20
463.7257623501122
 30
0.0
 11
371.4001975594479
 21
463.7257623501122
 31
0.0
  0
LINE
  5
173
  8
0
  6
CONTINUOUS
 62
     7
 10
371.4001975594479
 20
461.4257623501122
 30
0.0
 11
369.5708513854321
 21
461.4257623501122
 31
0.0
  0
ARC
  5
174
  8
0
  6
CONTINUOUS
 62
     7
 10
365.6875538176426
 20
462.5757623501122
 30
0.0
 40
4.05000000000002
 50
16.49613215000472
 51
343.5038678499953
  0
LINE
  5
175
  8
0
  6
CONTINUOUS
 62
     7
 10
320.0120963255363
 20
468.7757623501122
 30
0.0
 11
339.9176650803955
 21
468.7757623501122
 31
0.0
  0
LINE
  5
176
  8
0
  6
CONTINUOUS
 62
     7
 10
320.0120963255363
 20
468.7757623501122
 30
0.0
 11
320.0120963255363
 21
471.0757623501121
 31
0.0
  0
LINE
  5
177
  8
0
  6
CONTINUOUS
 62
     7
 10
362.3630113097489
 20
468.7757623501122
 30
0.0
 11
362.3630113097489
 21
471.0757623501121
 31
0.0
  0
LINE
  5
178
  8
0
  6
CONTINUOUS
 62
     7
 10
362.3630113097489
 20
468.7757623501122
 30
0.0
 11
342.4574425548898
 21
468.7757623501122
 31
0.0
  0
LINE
  5
179
  8
0
  6
CONTINUOUS
 62
     7
 10
321.0182702408767
 20
457.7757623501122
 30
0.0
 11
336.5014040120986
 21
457.7757623501122
 31
0.0
  0
LINE
  5
17A
  8
0
  6
CONTINUOUS
 62
     7
 10
321.0182702408767
 20
457.7757623501122
 30
0.0
 11
321.0182702408767
 21
459.9781874692799
 31
0.0
  0
LINE
  5
17B
  8
0
  6
CONTINUOUS
 62
     7
 10
321.3481989894231
 20
464.5202125507498
 30
0.0
 11
321.348198989423
 21
460.6313121494745
 31
0.0
  0
LINE
  5
17C
  8
0
  6
CONTINUOUS
 62
     7
 10
321.0182702408767
 20
465.1733372309445
 30
0.0
 11
321.0182702408767
 21
468.7757623501121
 31
0.0
  0
LINE
  5
17D
  8
0
  6
CONTINUOUS
 62
     7
 10
361.3568373944086
 20
465.1733372309445
 30
0.0
 11
361.3568373944086
 21
468.7757623501122
 31
0.0
  0
LINE
  5
17E
  8
0
  6
CONTINUOUS
 62
     7
 10
361.0269086458622
 20
464.5202125507498
 30
0.0
 11
361.0269086458622
 21
460.6313121494745
 31
0.0
  0
LINE
  5
17F
  8
0
  6
CONTINUOUS
 62
     7
 10
361.3568373944086
 20
457.7757623501122
 30
0.0
 11
361.3568373944086
 21
459.9781874692799
 31
0.0
  0
LINE
  5
180
  8
0
  6
CONTINUOUS
 62
     7
 10
361.3568373944086
 20
457.7757623501122
 30
0.0
 11
345.8737036231867
 21
457.7757623501122
 31
0.0
  0
LINE
  5
181
  8
0
  6
CONTINUOUS
 62
     7
 10
321.8898855647163
 20
435.1263110359941
 30
0.0
 11
321.8898855647163
 21
436.8757623501122
 31
0.0
  0
LINE
  5
182
  8
0
  6
CONTINUOUS
 62
     7
 10
321.8898855647163
 20
436.8757623501122
 30
0.0
 11
339.9089170916801
 21
436.8757623501122
 31
0.0
  0
LINE
  5
183
  8
0
  6
CONTINUOUS
 62
     7
 10
360.4852220705689
 20
435.1263110359941
 30
0.0
 11
360.4852220705689
 21
436.8757623501122
 31
0.0
  0
LINE
  5
184
  8
0
  6
CONTINUOUS
 62
     7
 10
360.485222070569
 20
436.8757623501122
 30
0.0
 11
342.4661905436052
 21
436.8757623501122
 31
0.0
  0
LINE
  5
185
  8
0
  6
CONTINUOUS
 62
     7
 10
322.9447470160565
 20
436.8757623501122
 30
0.0
 11
322.9447470160564
 21
438.8757623501122
 31
0.0
  0
LINE
  5
186
  8
0
  6
CONTINUOUS
 62
     7
 10
322.0250905104371
 20
438.8757623501122
 30
0.0
 11
322.0250905104371
 21
457.7757623501122
 31
0.0
  0
LINE
  5
187
  8
0
  6
CONTINUOUS
 62
     7
 10
360.3500171248482
 20
438.8757623501122
 30
0.0
 11
360.3500171248482
 21
457.7757623501122
 31
0.0
  0
LINE
  5
188
  8
0
  6
CONTINUOUS
 62
     7
 10
359.4303606192288
 20
436.8757623501122
 30
0.0
 11
359.4303606192288
 21
438.8757623501122
 31
0.0
  0
LINE
  5
189
  8
0
  6
CONTINUOUS
 62
     7
 10
322.9447470160564
 20
438.8757623501122
 30
0.0
 11
311.1381025035246
 21
438.8757623501122
 31
0.0
  0
LINE
  5
18A
  8
0
  6
CONTINUOUS
 62
     7
 10
359.4303606192288
 20
438.8757623501122
 30
0.0
 11
371.2370051317607
 21
438.8757623501122
 31
0.0
  0
ARC
  5
18B
  8
0
  6
CONTINUOUS
 62
     7
 10
316.6875538176427
 20
462.5757623501121
 30
0.0
 40
5.050000000000004
 50
22.64620141330249
 51
166.836961190335
  0
ARC
  5
18C
  8
0
  6
CONTINUOUS
 62
     7
 10
316.6875538176427
 20
462.5757623501121
 30
0.0
 40
5.049999999999967
 50
193.1630388096648
 51
337.353798586696
  0
ARC
  5
18D
  8
0
  6
CONTINUOUS
 62
     7
 10
365.6875538176426
 20
462.5757623501122
 30
0.0
 40
5.049999999999988
 50
202.6462014133039
 51
346.8369611903351
  0
ARC
  5
18E
  8
0
  6
CONTINUOUS
 62
     7
 10
365.6875538176426
 20
462.5757623501122
 30
0.0
 40
5.049999999999991
 50
13.16303880966493
 51
157.3537985866975
  0
LINE
  5
18F
  8
0
  6
CONTINUOUS
 62
     7
 10
308.1686641636862
 20
567.5757623501122
 30
0.0
 11
308.1686641636862
 21
432.5757623501122
 31
0.0
  0
LINE
  5
190
  8
0
  6
CONTINUOUS
 62
     7
 10
306.8685004288024
 20
432.5757623501122
 30
0.0
 11
306.8686146617848
 21
432.5757623501122
 31
0.0
  0
LINE
  5
191
  8
0
  6
CONTINUOUS
 62
     7
 10
306.8686146617848
 20
432.5757623501122
 30
0.0
 11
308.1686641636862
 21
432.5757623501122
 31
0.0
  0
LINE
  5
192
  8
0
  6
CONTINUOUS
 62
     7
 10
305.3685575442061
 20
566.0743898386347
 30
0.0
 11
305.3685575442062
 21
434.0757052347084
 31
0.0
  0
POLYLINE
  5
193
  8
0
  6
CONTINUOUS
 62
     7
 66
     1
 10
0.0
 20
0.0
 30
0.0
  0
VERTEX
  5
3D1
  8
0
  6
CONTINUOUS
 62
     7
 10
306.8679295683286
 20
567.5757623501121
 30
0.0
  0
VERTEX
  5
3D2
  8
0
  6
CONTINUOUS
 62
     7
 10
306.5753801206562
 20
567.54691744363
 30
0.0
  0
VERTEX
  5
3D3
  8
0
  6
CONTINUOUS
 62
     7
 10
306.2940929810886
 20
567.4614905753352
 30
0.0
  0
VERTEX
  5
3D4
  8
0
  6
CONTINUOUS
 62
     7
 10
306.034871591879
 20
567.3227627492579
 30
0.0
  0
VERTEX
  5
3D5
  8
0
  6
CONTINUOUS
 62
     7
 10
305.8076719123129
 20
567.136062108235
 30
0.0
  0
VERTEX
  5
3D6
  8
0
  6
CONTINUOUS
 62
     7
 10
305.6212200385139
 20
566.9085592950379
 30
0.0
  0
VERTEX
  5
3D7
  8
0
  6
CONTINUOUS
 62
     7
 10
305.4826770588085
 20
566.648992048294
 30
0.0
  0
VERTEX
  5
3D8
  8
0
  6
CONTINUOUS
 62
     7
 10
305.3973640166085
 20
566.3673296106971
 30
0.0
  0
VERTEX
  5
3D9
  8
0
  6
CONTINUOUS
 62
     7
 10
305.3685575442061
 20
566.0743898386347
 30
0.0
  0
SEQEND
  5
426
  8
0
  6
CONTINUOUS
 62
     7
  0
LINE
  5
194
  8
0
  6
CONTINUOUS
 62
     7
 10
306.8679295683285
 20
567.5757623501122
 30
0.0
 11
308.1686641636862
 21
567.5757623501122
 31
0.0
  0
POLYLINE
  5
195
  8
0
  6
CONTINUOUS
 62
     7
 66
     1
 10
0.0
 20
0.0
 30
0.0
  0
VERTEX
  5
3DA
  8
0
  6
CONTINUOUS
 62
     7
 10
305.3685575442062
 20
434.0757052347084
 30
0.0
  0
VERTEX
  5
3DB
  8
0
  6
CONTINUOUS
 62
     7
 10
305.3973779354475
 20
433.7830748089553
 30
0.0
  0
VERTEX
  5
3DC
  8
0
  6
CONTINUOUS
 62
     7
 10
305.4827316647397
 20
433.5016933089926
 30
0.0
  0
VERTEX
  5
3DD
  8
0
  6
CONTINUOUS
 62
     7
 10
305.6213389531418
 20
433.2423730229954
 30
0.0
  0
VERTEX
  5
3DE
  8
0
  6
CONTINUOUS
 62
     7
 10
305.8078737150884
 20
433.0150785209945
 30
0.0
  0
VERTEX
  5
3DF
  8
0
  6
CONTINUOUS
 62
     7
 10
306.0351682170893
 20
432.8285437590479
 30
0.0
  0
VERTEX
  5
3E0
  8
0
  6
CONTINUOUS
 62
     7
 10
306.2944885030866
 20
432.6899364706457
 30
0.0
  0
VERTEX
  5
3E1
  8
0
  6
CONTINUOUS
 62
     7
 10
306.5758700030493
 20
432.6045827413536
 30
0.0
  0
VERTEX
  5
3E2
  8
0
  6
CONTINUOUS
 62
     7
 10
306.8685004288023
 20
432.5757623501122
 30
0.0
  0
SEQEND
  5
427
  8
0
  6
CONTINUOUS
 62
     7
  0
LINE
  5
196
  8
0
  6
CONTINUOUS
 62
     7
 10
308.1686641636862
 20
567.5757623501122
 30
0.0
 11
308.5461986209161
 21
565.3085408245153
 31
0.0
  0
LINE
  5
197
  8
0
  6
CONTINUOUS
 62
     7
 10
308.4741045363628
 20
542.5757623501122
 30
0.0
 11
308.4741045363627
 21
432.8812027227887
 31
0.0
  0
LINE
  5
198
  8
0
  6
CONTINUOUS
 62
     7
 10
308.1686641636862
 20
432.5757623501122
 30
0.0
 11
308.4741045363627
 21
432.8812027227887
 31
0.0
  0
LINE
  5
199
  8
0
  6
CONTINUOUS
 62
     7
 10
374.2064434715991
 20
567.5757623501122
 30
0.0
 11
374.2064434715991
 21
432.5757623501122
 31
0.0
  0
LINE
  5
19A
  8
0
  6
CONTINUOUS
 62
     7
 10
373.9010030989225
 20
542.5757623501122
 30
0.0
 11
373.9010030989225
 21
432.8812027227887
 31
0.0
  0
LINE
  5
19B
  8
0
  6
CONTINUOUS
 62
     7
 10
374.2064434715991
 20
567.5757623501122
 30
0.0
 11
373.8289090143692
 21
565.3085408245153
 31
0.0
  0
LINE
  5
19C
  8
0
  6
CONTINUOUS
 62
     7
 10
374.2064434715991
 20
432.5757623501122
 30
0.0
 11
373.9010030989225
 21
432.8812027227887
 31
0.0
  0
POLYLINE
  5
19D
  8
0
  6
CONTINUOUS
 62
     7
 66
     1
 10
0.0
 20
0.0
 30
0.0
  0
VERTEX
  5
3E3
  8
0
  6
CONTINUOUS
 62
     7
 10
375.506607206483
 20
432.5757623501121
 30
0.0
  0
VERTEX
  5
3E4
  8
0
  6
CONTINUOUS
 62
     7
 10
375.799237632236
 20
432.6045827413536
 30
0.0
  0
VERTEX
  5
3E5
  8
0
  6
CONTINUOUS
 62
     7
 10
376.0806191321987
 20
432.6899364706457
 30
0.0
  0
VERTEX
  5
3E6
  8
0
  6
CONTINUOUS
 62
     7
 10
376.339939418196
 20
432.8285437590479
 30
0.0
  0
VERTEX
  5
3E7
  8
0
  6
CONTINUOUS
 62
     7
 10
376.5672339201969
 20
433.0150785209945
 30
0.0
  0
VERTEX
  5
3E8
  8
0
  6
CONTINUOUS
 62
     7
 10
376.7537686821435
 20
433.2423730229954
 30
0.0
  0
VERTEX
  5
3E9
  8
0
  6
CONTINUOUS
 62
     7
 10
376.8923759705456
 20
433.5016933089926
 30
0.0
  0
VERTEX
  5
3EA
  8
0
  6
CONTINUOUS
 62
     7
 10
376.9777296998378
 20
433.7830748089553
 30
0.0
  0
VERTEX
  5
3EB
  8
0
  6
CONTINUOUS
 62
     7
 10
377.0065500910791
 20
434.0757052347084
 30
0.0
  0
SEQEND
  5
428
  8
0
  6
CONTINUOUS
 62
     7
  0
POLYLINE
  5
19E
  8
0
  6
CONTINUOUS
 62
     7
 66
     1
 10
0.0
 20
0.0
 30
0.0
  0
VERTEX
  5
3EC
  8
0
  6
CONTINUOUS
 62
     7
 10
377.0065500910792
 20
566.0743898386347
 30
0.0
  0
VERTEX
  5
3ED
  8
0
  6
CONTINUOUS
 62
     7
 10
376.9777436186768
 20
566.3673296106971
 30
0.0
  0
VERTEX
  5
3EE
  8
0
  6
CONTINUOUS
 62
     7
 10
376.8924305764768
 20
566.648992048294
 30
0.0
  0
VERTEX
  5
3EF
  8
0
  6
CONTINUOUS
 62
     7
 10
376.7538875967714
 20
566.9085592950379
 30
0.0
  0
VERTEX
  5
3F0
  8
0
  6
CONTINUOUS
 62
     7
 10
376.5674357229724
 20
567.136062108235
 30
0.0
  0
VERTEX
  5
3F1
  8
0
  6
CONTINUOUS
 62
     7
 10
376.3402360434064
 20
567.3227627492579
 30
0.0
  0
VERTEX
  5
3F2
  8
0
  6
CONTINUOUS
 62
     7
 10
376.0810146541967
 20
567.4614905753352
 30
0.0
  0
VERTEX
  5
3F3
  8
0
  6
CONTINUOUS
 62
     7
 10
375.7997275146291
 20
567.54691744363
 30
0.0
  0
VERTEX
  5
3F4
  8
0
  6
CONTINUOUS
 62
     7
 10
375.5071780669568
 20
567.5757623501121
 30
0.0
  0
SEQEND
  5
429
  8
0
  6
CONTINUOUS
 62
     7
  0
LINE
  5
19F
  8
0
  6
CONTINUOUS
 62
     7
 10
377.0065500910791
 20
566.0743898386347
 30
0.0
 11
377.0065500910791
 21
434.0757052347084
 31
0.0
  0
LINE
  5
1A0
  8
0
  6
CONTINUOUS
 62
     7
 10
375.5071780669568
 20
567.5757623501122
 30
0.0
 11
374.2064434715991
 21
567.5757623501122
 31
0.0
  0
LINE
  5
1A1
  8
0
  6
CONTINUOUS
 62
     7
 10
375.5066072064829
 20
432.5757623501122
 30
0.0
 11
375.5064929735005
 21
432.5757623501122
 31
0.0
  0
LINE
  5
1A2
  8
0
  6
CONTINUOUS
 62
     7
 10
375.5064929735005
 20
432.5757623501122
 30
0.0
 11
374.2064434715991
 21
432.5757623501122
 31
0.0
  0
LINE
  5
1A3
  8
0
  6
CONTINUOUS
 62
     7
 10
308.4741045363628
 20
542.5757623501122
 30
0.0
 11
309.0875347791747
 21
542.5757623501122
 31
0.0
  0
LINE
  5
1A4
  8
0
  6
CONTINUOUS
 62
     7
 10
308.4741045363627
 20
432.8812027227887
 30
0.0
 11
308.6269517204604
 21
432.8812027227887
 31
0.0
  0
LINE
  5
1A5
  8
0
  6
CONTINUOUS
 62
     7
 10
373.2875728561106
 20
542.5757623501122
 30
0.0
 11
373.9010030989225
 21
542.5757623501122
 31
0.0
  0
LINE
  5
1A6
  8
0
  6
CONTINUOUS
 62
     7
 10
373.9010030989225
 20
432.8812027227887
 30
0.0
 11
373.7481559148249
 21
432.8812027227888
 31
0.0
  0
POLYLINE
  5
1A7
  8
0
  6
CONTINUOUS
 62
     7
 66
     1
 10
0.0
 20
0.0
 30
0.0
  0
VERTEX
  5
3F5
  8
0
  6
CONTINUOUS
 62
     7
 10
308.5461986209161
 20
565.3085408245153
 30
0.0
  0
VERTEX
  5
3F6
  8
0
  6
CONTINUOUS
 62
     7
 10
308.7773400879864
 20
565.1910689810226
 30
0.0
  0
VERTEX
  5
3F7
  8
0
  6
CONTINUOUS
 62
     7
 10
309.423459263814
 20
565.0779329531127
 30
0.0
  0
VERTEX
  5
3F8
  8
0
  6
CONTINUOUS
 62
     7
 10
310.4617726758374
 20
564.9731221465859
 30
0.0
  0
VERTEX
  5
3F9
  8
0
  6
CONTINUOUS
 62
     7
 10
311.8556672873007
 20
564.8803324030515
 30
0.0
  0
SEQEND
  5
42A
  8
0
  6
CONTINUOUS
 62
     7
  0
POLYLINE
  5
1A8
  8
0
  6
CONTINUOUS
 62
     7
 66
     1
 10
0.0
 20
0.0
 30
0.0
  0
VERTEX
  5
3FA
  8
0
  6
CONTINUOUS
 62
     7
 10
370.5194403479846
 20
564.8803324030515
 30
0.0
  0
VERTEX
  5
3FB
  8
0
  6
CONTINUOUS
 62
     7
 10
371.9133349594478
 20
564.9731221465859
 30
0.0
  0
VERTEX
  5
3FC
  8
0
  6
CONTINUOUS
 62
     7
 10
372.9516483714712
 20
565.0779329531127
 30
0.0
  0
VERTEX
  5
3FD
  8
0
  6
CONTINUOUS
 62
     7
 10
373.5977675472989
 20
565.1910689810226
 30
0.0
  0
VERTEX
  5
3FE
  8
0
  6
CONTINUOUS
 62
     7
 10
373.8289090143692
 20
565.3085408245153
 30
0.0
  0
SEQEND
  5
42B
  8
0
  6
CONTINUOUS
 62
     7
  0
LINE
  5
1A9
  8
0
  6
CONTINUOUS
 62
     7
 10
319.1526463464796
 20
542.5757623501122
 30
0.0
 11
323.2224612888057
 21
542.5757623501122
 31
0.0
  0
LINE
  5
1AA
  8
0
  6
CONTINUOUS
 62
     7
 10
359.1526463464796
 20
542.5757623501122
 30
0.0
 11
363.2224612888057
 21
542.5757623501122
 31
0.0
  0
LINE
  5
1AB
  8
0
  6
CONTINUOUS
 62
     7
 10
324.1875538176427
 20
564.2016624358677
 30
0.0
 11
324.1875538176427
 21
542.5757623501122
 31
0.0
  0
LINE
  5
1AC
  8
0
  6
CONTINUOUS
 62
     7
 10
311.8556672873006
 20
564.8803324030515
 30
0.0
 11
324.1875538176427
 21
564.2016624358677
 31
0.0
  0
LINE
  5
1AD
  8
0
  6
CONTINUOUS
 62
     7
 10
358.1875538176426
 20
564.2016624358677
 30
0.0
 11
358.1875538176426
 21
542.5757623501122
 31
0.0
  0
LINE
  5
1AE
  8
0
  6
CONTINUOUS
 62
     7
 10
370.5194403479846
 20
564.8803324030515
 30
0.0
 11
358.1875538176426
 21
564.2016624358677
 31
0.0
  0
LINE
  5
1AF
  8
0
  6
CONTINUOUS
 62
     7
 10
324.1875538176425
 20
564.2016624358677
 30
0.0
 11
358.1875538176427
 21
564.2016624358677
 31
0.0
  0
ENDBLK
  8
0
  0
BLOCK
  8
0
  2
D_FRAME_VIEW_2418
 70
     0
 10
0.0
 20
0.0
 30
0.0
  0
LINE
  5
1B4
  8
0
  6
CONTINUOUS
 62
     7
 10
90.86983811247693
 20
657.987480950036
 30
0.0
 11
91.28872776643335
 21
657.987480950036
 31
0.0
  0
LINE
  5
1B5
  8
0
  6
CONTINUOUS
 62
     7
 10
156.4887277664334
 20
657.987480950036
 30
0.0
 11
156.9076174203898
 21
657.987480950036
 31
0.0
  0
CIRCLE
  5
1B6
  8
0
  6
CONTINUOUS
 62
     7
 10
123.8887277664333
 20
622.987480950036
 30
0.0
 40
14.01309030168614
  0
CIRCLE
  5
1B7
  8
0
  6
CONTINUOUS
 62
     7
 10
123.8887277664333
 20
622.987480950036
 30
0.0
 40
14.0
  0
LINE
  5
1B8
  8
0
  6
CONTINUOUS
 62
     7
 10
135.3887277664334
 20
657.987480950036
 30
0.0
 11
139.3887277664334
 21
657.987480950036
 31
0.0
  0
LINE
  5
1B9
  8
0
  6
CONTINUOUS
 62
     7
 10
139.8887277664334
 20
657.987480950036
 30
0.0
 11
139.8887277664334
 21
656.487480950036
 31
0.0
  0
LINE
  5
1BA
  8
0
  6
CONTINUOUS
 62
     7
 10
139.3887277664334
 20
657.987480950036
 30
0.0
 11
139.8887277664334
 21
657.987480950036
 31
0.0
  0
LINE
  5
1BB
  8
0
  6
CONTINUOUS
 62
     7
 10
134.8887277664334
 20
656.487480950036
 30
0.0
 11
134.8887277664334
 21
657.987480950036
 31
0.0
  0
LINE
  5
1BC
  8
0
  6
CONTINUOUS
 62
     7
 10
134.8887277664334
 20
657.987480950036
 30
0.0
 11
135.3887277664334
 21
657.987480950036
 31
0.0
  0
LINE
  5
1BD
  8
0
  6
CONTINUOUS
 62
     7
 10
112.8887277664334
 20
657.987480950036
 30
0.0
 11
112.8887277664334
 21
656.487480950036
 31
0.0
  0
LINE
  5
1BE
  8
0
  6
CONTINUOUS
 62
     7
 10
112.3887277664334
 20
657.987480950036
 30
0.0
 11
112.8887277664334
 21
657.987480950036
 31
0.0
  0
LINE
  5
1BF
  8
0
  6
CONTINUOUS
 62
     7
 10
139.3887277664334
 20
655.987480950036
 30
0.0
 11
135.3887277664334
 21
655.987480950036
 31
0.0
  0
LINE
  5
1C0
  8
0
  6
CONTINUOUS
 62
     7
 10
112.3887277664334
 20
657.987480950036
 30
0.0
 11
108.3887277664334
 21
657.987480950036
 31
0.0
  0
LINE
  5
1C1
  8
0
  6
CONTINUOUS
 62
     7
 10
107.8887277664334
 20
656.4874809500359
 30
0.0
 11
107.8887277664334
 21
657.987480950036
 31
0.0
  0
LINE
  5
1C2
  8
0
  6
CONTINUOUS
 62
     7
 10
107.8887277664334
 20
657.987480950036
 30
0.0
 11
108.3887277664334
 21
657.987480950036
 31
0.0
  0
ARC
  5
1C3
  8
0
  6
CONTINUOUS
 62
     7
 10
108.3887277664334
 20
656.4874809500359
 30
0.0
 40
0.5000000000000004
 50
180.0
 51
270.0
  0
ARC
  5
1C4
  8
0
  6
CONTINUOUS
 62
     7
 10
139.3887277664334
 20
656.487480950036
 30
0.0
 40
0.4999999999999727
 50
270.0
 51
0.0
  0
ARC
  5
1C5
  8
0
  6
CONTINUOUS
 62
     7
 10
112.3887277664334
 20
656.487480950036
 30
0.0
 40
0.5000000000000004
 50
270.0
 51
0.0
  0
LINE
  5
1C6
  8
0
  6
CONTINUOUS
 62
     7
 10
112.3887277664334
 20
655.987480950036
 30
0.0
 11
108.3887277664334
 21
655.987480950036
 31
0.0
  0
ARC
  5
1C7
  8
0
  6
CONTINUOUS
 62
     7
 10
135.3887277664334
 20
656.487480950036
 30
0.0
 40
0.5000000000000004
 50
180.0
 51
270.0
  0
LINE
  5
1C8
  8
0
  6
CONTINUOUS
 62
     7
 10
134.8887277664334
 20
657.987480950036
 30
0.0
 11
134.3887277664334
 21
657.987480950036
 31
0.0
  0
LINE
  5
1C9
  8
0
  6
CONTINUOUS
 62
     7
 10
140.3887277664334
 20
657.987480950036
 30
0.0
 11
139.8887277664334
 21
657.987480950036
 31
0.0
  0
LINE
  5
1CA
  8
0
  6
CONTINUOUS
 62
     7
 10
107.8887277664334
 20
657.987480950036
 30
0.0
 11
107.3887277664334
 21
657.987480950036
 31
0.0
  0
LINE
  5
1CB
  8
0
  6
CONTINUOUS
 62
     7
 10
113.3887277664334
 20
657.987480950036
 30
0.0
 11
112.8887277664334
 21
657.987480950036
 31
0.0
  0
LINE
  5
1CC
  8
0
  6
CONTINUOUS
 62
     7
 10
134.3887277664334
 20
655.987480950036
 30
0.0
 11
135.3887277664334
 21
655.987480950036
 31
0.0
  0
LINE
  5
1CD
  8
0
  6
CONTINUOUS
 62
     7
 10
112.3887277664334
 20
655.987480950036
 30
0.0
 11
113.3887277664334
 21
655.987480950036
 31
0.0
  0
LINE
  5
1CE
  8
0
  6
CONTINUOUS
 62
     7
 10
140.3887277664334
 20
656.4831176822868
 30
0.0
 11
139.9056048106289
 21
655.987480950036
 31
0.0
  0
LINE
  5
1CF
  8
0
  6
CONTINUOUS
 62
     7
 10
139.3887277664334
 20
655.987480950036
 30
0.0
 11
139.905604810629
 21
655.987480950036
 31
0.0
  0
LINE
  5
1D0
  8
0
  6
CONTINUOUS
 62
     7
 10
107.8718507222378
 20
655.987480950036
 30
0.0
 11
107.3887277664334
 21
656.4831176822868
 31
0.0
  0
LINE
  5
1D1
  8
0
  6
CONTINUOUS
 62
     7
 10
107.8718507222378
 20
655.987480950036
 30
0.0
 11
108.3887277664334
 21
655.987480950036
 31
0.0
  0
LINE
  5
1D2
  8
0
  6
CONTINUOUS
 62
     7
 10
139.8887277664334
 20
654.987480950036
 30
0.0
 11
139.8887277664334
 21
655.987480950036
 31
0.0
  0
LINE
  5
1D3
  8
0
  6
CONTINUOUS
 62
     7
 10
107.8887277664334
 20
655.987480950036
 30
0.0
 11
107.8887277664334
 21
654.987480950036
 31
0.0
  0
LINE
  5
1D4
  8
0
  6
CONTINUOUS
 62
     7
 10
144.8887277664334
 20
653.987480950036
 30
0.0
 11
142.8887277664334
 21
653.987480950036
 31
0.0
  0
ARC
  5
1D5
  8
0
  6
CONTINUOUS
 62
     7
 10
144.8887277664334
 20
654.987480950036
 30
0.0
 40
1.000000000000001
 50
270.0
 51
0.0
  0
LINE
  5
1D6
  8
0
  6
CONTINUOUS
 62
     7
 10
145.9236352375964
 20
657.987480950036
 30
0.0
 11
145.8974539697026
 21
654.987404803413
 31
0.0
  0
LINE
  5
1D7
  8
0
  6
CONTINUOUS
 62
     7
 10
141.8800015631641
 20
654.987404803413
 30
0.0
 11
141.8538202952703
 21
657.987480950036
 31
0.0
  0
ARC
  5
1D8
  8
0
  6
CONTINUOUS
 62
     7
 10
142.8887277664334
 20
654.987480950036
 30
0.0
 40
1.0
 50
180.0
 51
270.0000000000015
  0
LINE
  5
1D9
  8
0
  6
CONTINUOUS
 62
     7
 10
155.9887468049013
 20
657.987480950036
 30
0.0
 11
145.9236352375964
 21
657.987480950036
 31
0.0
  0
LINE
  5
1DA
  8
0
  6
CONTINUOUS
 62
     7
 10
141.8538202952703
 20
657.987480950036
 30
0.0
 11
140.3887277664334
 21
657.987480950036
 31
0.0
  0
LINE
  5
1DB
  8
0
  6
CONTINUOUS
 62
     7
 10
102.8887277664334
 20
653.987480950036
 30
0.0
 11
104.8887277664333
 21
653.987480950036
 31
0.0
  0
LINE
  5
1DC
  8
0
  6
CONTINUOUS
 62
     7
 10
105.8974539697026
 20
654.987404803413
 30
0.0
 11
105.9236352375964
 21
657.987480950036
 31
0.0
  0
ARC
  5
1DD
  8
0
  6
CONTINUOUS
 62
     7
 10
104.8887277664333
 20
654.987480950036
 30
0.0
 40
1.0
 50
269.9999999999992
 51
0.0
  0
LINE
  5
1DE
  8
0
  6
CONTINUOUS
 62
     7
 10
101.8538202952703
 20
657.987480950036
 30
0.0
 11
101.8800015631641
 21
654.987404803413
 31
0.0
  0
ARC
  5
1DF
  8
0
  6
CONTINUOUS
 62
     7
 10
102.8887277664334
 20
654.987480950036
 30
0.0
 40
1.000000000000001
 50
180.0
 51
270.0
  0
LINE
  5
1E0
  8
0
  6
CONTINUOUS
 62
     7
 10
105.9236352375964
 20
657.987480950036
 30
0.0
 11
107.3887277664334
 21
657.987480950036
 31
0.0
  0
LINE
  5
1E1
  8
0
  6
CONTINUOUS
 62
     7
 10
91.78870872796544
 20
657.987480950036
 30
0.0
 11
101.8538202952703
 21
657.987480950036
 31
0.0
  0
LINE
  5
1E2
  8
0
  6
CONTINUOUS
 62
     7
 10
113.3887277664334
 20
657.987480950036
 30
0.0
 11
134.3887277664334
 21
657.987480950036
 31
0.0
  0
LINE
  5
1E3
  8
0
  6
CONTINUOUS
 62
     7
 10
91.3629442203156
 20
649.4831176822868
 30
0.0
 11
91.28872776643335
 21
657.987480950036
 31
0.0
  0
LINE
  5
1E4
  8
0
  6
CONTINUOUS
 62
     7
 10
91.28872776643335
 20
657.987480950036
 30
0.0
 11
91.78870872796544
 21
657.987480950036
 31
0.0
  0
LINE
  5
1E5
  8
0
  6
CONTINUOUS
 62
     7
 10
156.4887277664334
 20
657.987480950036
 30
0.0
 11
156.4145113125511
 21
649.4831176822868
 31
0.0
  0
LINE
  5
1E6
  8
0
  6
CONTINUOUS
 62
     7
 10
155.9887468049013
 20
657.987480950036
 30
0.0
 11
156.4887277664334
 21
657.987480950036
 31
0.0
  0
LINE
  5
1E7
  8
0
  6
CONTINUOUS
 62
     7
 10
147.8887277664334
 20
655.987480950036
 30
0.0
 11
147.8887277664334
 21
654.987480950036
 31
0.0
  0
LINE
  5
1E8
  8
0
  6
CONTINUOUS
 62
     7
 10
147.3887277664334
 20
656.4831176822868
 30
0.0
 11
147.8887087279655
 21
655.987480950036
 31
0.0
  0
LINE
  5
1E9
  8
0
  6
CONTINUOUS
 62
     7
 10
124.1887277664334
 20
655.987480950036
 30
0.0
 11
123.8887277664334
 21
656.287480950036
 31
0.0
  0
LINE
  5
1EA
  8
0
  6
CONTINUOUS
 62
     7
 10
134.3887277664334
 20
655.987480950036
 30
0.0
 11
124.1887277664334
 21
655.987480950036
 31
0.0
  0
LINE
  5
1EB
  8
0
  6
CONTINUOUS
 62
     7
 10
99.88874680490129
 20
655.987480950036
 30
0.0
 11
100.3887277664334
 21
656.4831176822868
 31
0.0
  0
LINE
  5
1EC
  8
0
  6
CONTINUOUS
 62
     7
 10
99.88872776643338
 20
654.987480950036
 30
0.0
 11
99.88872776643333
 21
655.987480950036
 31
0.0
  0
LINE
  5
1ED
  8
0
  6
CONTINUOUS
 62
     7
 10
93.09307216113588
 20
656.4831176822868
 30
0.0
 11
93.58870905807676
 21
655.987480950036
 31
0.0
  0
LINE
  5
1EE
  8
0
  6
CONTINUOUS
 62
     7
 10
93.58872776643335
 20
655.987480950036
 30
0.0
 11
93.53196504813265
 21
649.4831176822868
 31
0.0
  0
LINE
  5
1EF
  8
0
  6
CONTINUOUS
 62
     7
 10
123.8887277664334
 20
656.287480950036
 30
0.0
 11
123.5887277664334
 21
655.987480950036
 31
0.0
  0
LINE
  5
1F0
  8
0
  6
CONTINUOUS
 62
     7
 10
123.5887277664334
 20
655.987480950036
 30
0.0
 11
113.3887277664334
 21
655.987480950036
 31
0.0
  0
LINE
  5
1F1
  8
0
  6
CONTINUOUS
 62
     7
 10
154.18874647479
 20
655.987480950036
 30
0.0
 11
154.6843833717309
 21
656.4831176822868
 31
0.0
  0
LINE
  5
1F2
  8
0
  6
CONTINUOUS
 62
     7
 10
154.2454904847341
 20
649.4831176822868
 30
0.0
 11
154.1887277664333
 21
655.987480950036
 31
0.0
  0
LINE
  5
1F3
  8
0
  6
CONTINUOUS
 62
     7
 10
154.18874647479
 20
655.987480950036
 30
0.0
 11
147.8887087279655
 21
655.987480950036
 31
0.0
  0
LINE
  5
1F4
  8
0
  6
CONTINUOUS
 62
     7
 10
99.88874680490129
 20
655.987480950036
 30
0.0
 11
93.58870905807676
 21
655.987480950036
 31
0.0
  0
ARC
  5
1F5
  8
0
  6
CONTINUOUS
 62
     7
 10
104.8887277664334
 20
654.987480950036
 30
0.0
 40
3.0
 50
270.0
 51
0.0
  0
ARC
  5
1F6
  8
0
  6
CONTINUOUS
 62
     7
 10
142.8887277664334
 20
654.987480950036
 30
0.0
 40
3.0
 50
180.0
 51
270.0
  0
ARC
  5
1F7
  8
0
  6
CONTINUOUS
 62
     7
 10
102.8887277664334
 20
654.987480950036
 30
0.0
 40
3.0
 50
180.0
 51
269.9999999999998
  0
ARC
  5
1F8
  8
0
  6
CONTINUOUS
 62
     7
 10
144.8887277664334
 20
654.987480950036
 30
0.0
 40
3.0
 50
270.0
 51
0.0
  0
LINE
  5
1F9
  8
0
  6
CONTINUOUS
 62
     7
 10
144.8887277664334
 20
651.987480950036
 30
0.0
 11
142.8887277664334
 21
651.987480950036
 31
0.0
  0
LINE
  5
1FA
  8
0
  6
CONTINUOUS
 62
     7
 10
104.8887277664334
 20
651.987480950036
 30
0.0
 11
102.8887277664334
 21
651.987480950036
 31
0.0
  0
LINE
  5
1FB
  8
0
  6
CONTINUOUS
 62
     7
 10
155.914530351019
 20
648.987480950036
 30
0.0
 11
154.7454714462662
 21
648.987480950036
 31
0.0
  0
ARC
  5
1FC
  8
0
  6
CONTINUOUS
 62
     7
 10
155.914530351019
 20
649.487480950036
 30
0.0
 40
0.500000000000056
 50
270.0
 51
359.4999999999999
  0
LINE
  5
1FD
  8
0
  6
CONTINUOUS
 62
     7
 10
93.03198408660057
 20
648.987480950036
 30
0.0
 11
91.86292518184769
 21
648.987480950036
 31
0.0
  0
ARC
  5
1FE
  8
0
  6
CONTINUOUS
 62
     7
 10
91.86292518184769
 20
649.487480950036
 30
0.0
 40
0.5000000000000018
 50
180.5000000000001
 51
270.0
  0
ARC
  5
1FF
  8
0
  6
CONTINUOUS
 62
     7
 10
93.03198408660056
 20
649.487480950036
 30
0.0
 40
0.5000000000000018
 50
270.0000000000007
 51
359.5000000000001
  0
ARC
  5
200
  8
0
  6
CONTINUOUS
 62
     7
 10
154.7454714462662
 20
649.487480950036
 30
0.0
 40
0.500000000000056
 50
180.5000000000002
 51
270.0
  0
LINE
  5
201
  8
0
  6
CONTINUOUS
 62
     7
 10
127.2160004937061
 20
655.687480950036
 30
0.0
 11
128.0114550391606
 21
655.687480950036
 31
0.0
  0
LINE
  5
202
  8
0
  6
CONTINUOUS
 62
     7
 10
128.0114550391606
 20
655.687480950036
 30
0.0
 11
133.7387277664334
 21
655.687480950036
 31
0.0
  0
LINE
  5
203
  8
0
  6
CONTINUOUS
 62
     7
 10
127.2160004937061
 20
655.9874809500361
 30
0.0
 11
127.2160004937061
 21
655.687480950036
 31
0.0
  0
LINE
  5
204
  8
0
  6
CONTINUOUS
 62
     7
 10
111.4564582891913
 20
655.987480950036
 30
0.0
 11
111.4564582891912
 21
655.687480950036
 31
0.0
  0
LINE
  5
205
  8
0
  6
CONTINUOUS
 62
     7
 10
111.4564582891913
 20
655.687480950036
 30
0.0
 11
111.1888731664682
 21
655.687480950036
 31
0.0
  0
LINE
  5
206
  8
0
  6
CONTINUOUS
 62
     7
 10
111.1888731664682
 20
655.9874809500361
 30
0.0
 11
111.1888731664682
 21
655.687480950036
 31
0.0
  0
LINE
  5
207
  8
0
  6
CONTINUOUS
 62
     7
 10
111.1888731664682
 20
655.687480950036
 30
0.0
 11
109.3887277664333
 21
655.687480950036
 31
0.0
  0
LINE
  5
208
  8
0
  6
CONTINUOUS
 62
     7
 10
109.3887277664333
 20
655.987480950036
 30
0.0
 11
109.3887277664333
 21
655.687480950036
 31
0.0
  0
LINE
  5
209
  8
0
  6
CONTINUOUS
 62
     7
 10
118.3887277664333
 20
655.987480950036
 30
0.0
 11
118.3887277664333
 21
655.687480950036
 31
0.0
  0
LINE
  5
20A
  8
0
  6
CONTINUOUS
 62
     7
 10
118.3887277664333
 20
655.687480950036
 30
0.0
 11
112.4349157879685
 21
655.687480950036
 31
0.0
  0
LINE
  5
20B
  8
0
  6
CONTINUOUS
 62
     7
 10
111.6546886145996
 20
655.687480950036
 30
0.0
 11
111.8772488940873
 21
655.687480950036
 31
0.0
  0
LINE
  5
20C
  8
0
  6
CONTINUOUS
 62
     7
 10
111.6546886146002
 20
655.987480950036
 30
0.0
 11
111.6546886146002
 21
655.687480950036
 31
0.0
  0
LINE
  5
20D
  8
0
  6
CONTINUOUS
 62
     7
 10
111.8772488940873
 20
655.987480950036
 30
0.0
 11
111.8772488940873
 21
655.687480950036
 31
0.0
  0
LINE
  5
20E
  8
0
  6
CONTINUOUS
 62
     7
 10
111.4564582891912
 20
655.687480950036
 30
0.0
 11
111.6546886146002
 21
655.687480950036
 31
0.0
  0
LINE
  5
20F
  8
0
  6
CONTINUOUS
 62
     7
 10
112.2008843903635
 20
655.987480950036
 30
0.0
 11
112.2008843903635
 21
655.687480950036
 31
0.0
  0
LINE
  5
210
  8
0
  6
CONTINUOUS
 62
     7
 10
111.8772488940873
 20
655.687480950036
 30
0.0
 11
112.2008843903635
 21
655.687480950036
 31
0.0
  0
LINE
  5
211
  8
0
  6
CONTINUOUS
 62
     7
 10
112.2984256671551
 20
655.987480950036
 30
0.0
 11
112.2984256671551
 21
655.687480950036
 31
0.0
  0
LINE
  5
212
  8
0
  6
CONTINUOUS
 62
     7
 10
112.2008843903632
 20
655.687480950036
 30
0.0
 11
112.2984256671551
 21
655.687480950036
 31
0.0
  0
LINE
  5
213
  8
0
  6
CONTINUOUS
 62
     7
 10
112.3000279611594
 20
655.987480950036
 30
0.0
 11
112.3000279611594
 21
655.687480950036
 31
0.0
  0
LINE
  5
214
  8
0
  6
CONTINUOUS
 62
     7
 10
112.3000279611594
 20
655.687480950036
 30
0.0
 11
112.2984256671551
 21
655.687480950036
 31
0.0
  0
LINE
  5
215
  8
0
  6
CONTINUOUS
 62
     7
 10
112.3521600548978
 20
655.987480950036
 30
0.0
 11
112.3521600548978
 21
655.687480950036
 31
0.0
  0
LINE
  5
216
  8
0
  6
CONTINUOUS
 62
     7
 10
112.3521600549019
 20
655.687480950036
 30
0.0
 11
112.3000279611611
 21
655.687480950036
 31
0.0
  0
LINE
  5
217
  8
0
  6
CONTINUOUS
 62
     7
 10
118.3887277664334
 20
655.687480950036
 30
0.0
 11
118.6887277664333
 21
655.687480950036
 31
0.0
  0
LINE
  5
218
  8
0
  6
CONTINUOUS
 62
     7
 10
121.3887277664334
 20
655.987480950036
 30
0.0
 11
121.3887277664334
 21
655.687480950036
 31
0.0
  0
LINE
  5
219
  8
0
  6
CONTINUOUS
 62
     7
 10
121.3887277664334
 20
655.687480950036
 30
0.0
 11
118.6887277664333
 21
655.687480950036
 31
0.0
  0
LINE
  5
21A
  8
0
  6
CONTINUOUS
 62
     7
 10
112.4349157879685
 20
655.687480950036
 30
0.0
 11
112.4180097987361
 21
655.687480950036
 31
0.0
  0
LINE
  5
21B
  8
0
  6
CONTINUOUS
 62
     7
 10
112.3887277664333
 20
655.987480950036
 30
0.0
 11
112.3887277664333
 21
655.687480950036
 31
0.0
  0
LINE
  5
21C
  8
0
  6
CONTINUOUS
 62
     7
 10
112.3887277664333
 20
655.687480950036
 30
0.0
 11
112.3521600548978
 21
655.687480950036
 31
0.0
  0
LINE
  5
21D
  8
0
  6
CONTINUOUS
 62
     7
 10
133.7387277664334
 20
655.9874809500361
 30
0.0
 11
133.7387277664334
 21
655.687480950036
 31
0.0
  0
LINE
  5
21E
  8
0
  6
CONTINUOUS
 62
     7
 10
91.58984278287532
 20
623.4831176822868
 30
0.0
 11
91.36294422031558
 21
649.4831176822868
 31
0.0
  0
LINE
  5
21F
  8
0
  6
CONTINUOUS
 62
     7
 10
156.4145113125511
 20
649.4831176822868
 30
0.0
 11
156.1876127499914
 21
623.4831176822868
 31
0.0
  0
ARC
  5
220
  8
0
  6
CONTINUOUS
 62
     7
 10
123.8887277664334
 20
622.987480950036
 30
0.0
 40
19.0
 50
0.0
 51
180.0
  0
LINE
  5
221
  8
0
  6
CONTINUOUS
 62
     7
 10
97.56381171039547
 20
622.987480950036
 30
0.0
 11
98.02196137228651
 21
623.4831176822868
 31
0.0
  0
LINE
  5
222
  8
0
  6
CONTINUOUS
 62
     7
 10
97.56381171039547
 20
622.987480950036
 30
0.0
 11
92.08982374440741
 21
622.987480950036
 31
0.0
  0
ARC
  5
223
  8
0
  6
CONTINUOUS
 62
     7
 10
92.08982374440741
 20
623.487480950036
 30
0.0
 40
0.500000000000056
 50
180.4999999999997
 51
270.0
  0
LINE
  5
224
  8
0
  6
CONTINUOUS
 62
     7
 10
150.2136438224713
 20
622.987480950036
 30
0.0
 11
149.7554941605802
 21
623.4831176822868
 31
0.0
  0
LINE
  5
225
  8
0
  6
CONTINUOUS
 62
     7
 10
155.6876317884593
 20
622.987480950036
 30
0.0
 11
150.2136438224713
 21
622.987480950036
 31
0.0
  0
POLYLINE
  5
226
  8
0
  6
CONTINUOUS
 62
     7
 10
0.0
 20
0.0
 30
0.0
 66
     1
 70
     8
  0
VERTEX
  5
227
  8
0
  6
CONTINUOUS
 62
     7
 10
98.08874369155102
 20
616.987480950036
 30
0.0
 70
    32
  0
VERTEX
  5
228
  8
0
  6
CONTINUOUS
 62
     7
 10
98.08872776643335
 20
616.987480950036
 30
0.0
 70
    32
  0
SEQEND
  5
229
  8
0
  6
CONTINUOUS
 62
     7
  0
LINE
  5
22A
  8
0
  6
CONTINUOUS
 62
     7
 10
98.08872776643335
 20
616.987480950036
 30
0.0
 11
97.56379578527779
 21
622.987480950036
 31
0.0
  0
LINE
  5
22B
  8
0
  6
CONTINUOUS
 62
     7
 10
98.08874369155102
 20
616.987480950036
 30
0.0
 11
98.54689335344204
 21
617.4831176822868
 31
0.0
  0
LINE
  5
22C
  8
0
  6
CONTINUOUS
 62
     7
 10
150.2136597475889
 20
622.987480950036
 30
0.0
 11
149.6887277664334
 21
616.987480950036
 31
0.0
  0
POLYLINE
  5
22D
  8
0
  6
CONTINUOUS
 62
     7
 10
0.0
 20
0.0
 30
0.0
 66
     1
 70
     8
  0
VERTEX
  5
22E
  8
0
  6
CONTINUOUS
 62
     7
 10
149.6887277664334
 20
616.987480950036
 30
0.0
 70
    32
  0
VERTEX
  5
22F
  8
0
  6
CONTINUOUS
 62
     7
 10
149.6887118413157
 20
616.987480950036
 30
0.0
 70
    32
  0
SEQEND
  5
230
  8
0
  6
CONTINUOUS
 62
     7
  0
LINE
  5
231
  8
0
  6
CONTINUOUS
 62
     7
 10
149.6887118413157
 20
616.987480950036
 30
0.0
 11
149.2305621794247
 21
617.4831176822868
 31
0.0
  0
ARC
  5
232
  8
0
  6
CONTINUOUS
 62
     7
 10
155.6876317884593
 20
623.487480950036
 30
0.0
 40
0.5000000000000018
 50
270.0
 51
359.5000000000003
  0
POLYLINE
  5
233
  8
0
  6
CONTINUOUS
 62
     7
 10
0.0
 20
0.0
 30
0.0
 66
     1
 70
     8
  0
VERTEX
  5
234
  8
0
  6
CONTINUOUS
 62
     7
 10
142.8887468049013
 20
616.987480950036
 30
0.0
 70
    32
  0
VERTEX
  5
235
  8
0
  6
CONTINUOUS
 62
     7
 10
142.8887277664334
 20
616.987480950036
 30
0.0
 70
    32
  0
SEQEND
  5
236
  8
0
  6
CONTINUOUS
 62
     7
  0
LINE
  5
237
  8
0
  6
CONTINUOUS
 62
     7
 10
142.8887277664334
 20
616.987480950036
 30
0.0
 11
142.8887277664334
 21
622.987480950036
 31
0.0
  0
LINE
  5
238
  8
0
  6
CONTINUOUS
 62
     7
 10
142.8887468049013
 20
616.987480950036
 30
0.0
 11
143.3887277664334
 21
617.4831176822868
 31
0.0
  0
LINE
  5
239
  8
0
  6
CONTINUOUS
 62
     7
 10
104.8887277664334
 20
622.987480950036
 30
0.0
 11
104.8887277664333
 21
616.987480950036
 31
0.0
  0
POLYLINE
  5
23A
  8
0
  6
CONTINUOUS
 62
     7
 10
0.0
 20
0.0
 30
0.0
 66
     1
 70
     8
  0
VERTEX
  5
23B
  8
0
  6
CONTINUOUS
 62
     7
 10
104.8887277664334
 20
616.987480950036
 30
0.0
 70
    32
  0
VERTEX
  5
23C
  8
0
  6
CONTINUOUS
 62
     7
 10
104.8887087279655
 20
616.987480950036
 30
0.0
 70
    32
  0
SEQEND
  5
23D
  8
0
  6
CONTINUOUS
 62
     7
  0
LINE
  5
23E
  8
0
  6
CONTINUOUS
 62
     7
 10
104.8887087279655
 20
616.987480950036
 30
0.0
 11
104.3887277664334
 21
617.4831176822868
 31
0.0
  0
LINE
  5
23F
  8
0
  6
CONTINUOUS
 62
     7
 10
104.8887087279655
 20
616.987480950036
 30
0.0
 11
98.08874369155102
 21
616.987480950036
 31
0.0
  0
LINE
  5
240
  8
0
  6
CONTINUOUS
 62
     7
 10
149.6887118413157
 20
616.987480950036
 30
0.0
 11
142.8887468049013
 21
616.987480950036
 31
0.0
  0
ARC
  5
241
  8
0
  6
CONTINUOUS
 62
     7
 10
106.3958720818975
 20
623.487480950036
 30
0.0
 40
0.500000000000056
 50
270.0
 51
358.3627549222219
  0
ARC
  5
242
  8
0
  6
CONTINUOUS
 62
     7
 10
123.8887277664334
 20
622.987480950036
 30
0.0
 40
17.00000000000001
 50
1.637245077777834
 51
178.3627549222223
  0
ARC
  5
243
  8
0
  6
CONTINUOUS
 62
     7
 10
141.3815834509693
 20
623.487480950036
 30
0.0
 40
0.5000000000000174
 50
181.6372450777781
 51
270.0
  0
LINE
  5
244
  8
0
  6
CONTINUOUS
 62
     7
 10
142.8887277664334
 20
622.987480950036
 30
0.0
 11
141.3815834509693
 21
622.987480950036
 31
0.0
  0
LINE
  5
245
  8
0
  6
CONTINUOUS
 62
     7
 10
104.8887277664333
 20
622.987480950036
 30
0.0
 11
106.3958720818975
 21
622.987480950036
 31
0.0
  0
ARC
  5
246
  8
0
  6
CONTINUOUS
 62
     7
 10
123.8887277664334
 20
622.987480950036
 30
0.0
 40
16.74999999999999
 50
0.000000000000007
 51
180.0
  0
LINE
  5
247
  8
0
  6
CONTINUOUS
 62
     7
 10
140.6387277664334
 20
622.987480950036
 30
0.0
 11
141.3815834509693
 21
622.987480950036
 31
0.0
  0
LINE
  5
248
  8
0
  6
CONTINUOUS
 62
     7
 10
107.1387277664334
 20
622.987480950036
 30
0.0
 11
106.3958720818975
 21
622.987480950036
 31
0.0
  0
LINE
  5
249
  8
0
  6
CONTINUOUS
 62
     7
 10
105.9236352375964
 20
657.987480950036
 30
0.0
 11
101.8538202952703
 21
657.987480950036
 31
0.0
  0
LINE
  5
24A
  8
0
  6
CONTINUOUS
 62
     7
 10
141.8538202952703
 20
657.987480950036
 30
0.0
 11
145.9236352375964
 21
657.987480950036
 31
0.0
  0
ARC
  5
24B
  8
0
  6
CONTINUOUS
 62
     7
 10
103.2469156464769
 20
614.831035544743
 30
0.0
 40
12.0
 50
180.5
 51
223.5999164104001
  0
LINE
  5
24C
  8
0
  6
CONTINUOUS
 62
     7
 10
94.5568412360914
 20
606.5556136979751
 30
0.0
 11
106.8887277664334
 21
593.605819288285
 31
0.0
  0
ARC
  5
24D
  8
0
  6
CONTINUOUS
 62
     7
 10
123.8887277664333
 20
826.987480950036
 30
0.0
 40
234.0000000000001
 50
265.8338157824801
 51
274.1661842175198
  0
LINE
  5
24E
  8
0
  6
CONTINUOUS
 62
     7
 10
153.2206142967754
 20
606.5556136979751
 30
0.0
 11
140.8887277664334
 21
593.605819288285
 31
0.0
  0
ARC
  5
24F
  8
0
  6
CONTINUOUS
 62
     7
 10
144.5305398863899
 20
614.831035544743
 30
0.0
 40
12.0
 50
316.4000835896
 51
359.5000000000001
  0
LINE
  5
250
  8
0
  6
CONTINUOUS
 62
     7
 10
156.9076174203898
 20
657.987480950036
 30
0.0
 11
156.5300829631599
 21
614.7263171187626
 31
0.0
  0
LINE
  5
251
  8
0
  6
CONTINUOUS
 62
     7
 10
158.2083520157475
 20
657.987480950036
 30
0.0
 11
156.9076174203898
 21
657.987480950036
 31
0.0
  0
LINE
  5
252
  8
0
  6
CONTINUOUS
 62
     7
 10
90.86983811247693
 20
657.987480950036
 30
0.0
 11
91.24737256970683
 21
614.7263171187626
 31
0.0
  0
LINE
  5
253
  8
0
  6
CONTINUOUS
 62
     7
 10
89.56910351711923
 20
657.987480950036
 30
0.0
 11
90.86983811247693
 21
657.987480950036
 31
0.0
  0
LINE
  5
254
  8
0
  6
CONTINUOUS
 62
     7
 10
159.7077240398699
 20
657.987480950036
 30
0.0
 11
159.3299763477396
 21
614.7018828193671
 31
0.0
  0
LINE
  5
255
  8
0
  6
CONTINUOUS
 62
     7
 10
158.2083520157475
 20
657.987480950036
 30
0.0
 11
159.7077240398698
 21
657.987480950036
 31
0.0
  0
LINE
  5
256
  8
0
  6
CONTINUOUS
 62
     7
 10
88.44747918512715
 20
614.7018828193671
 30
0.0
 11
88.06973149299687
 21
657.987480950036
 31
0.0
  0
LINE
  5
257
  8
0
  6
CONTINUOUS
 62
     7
 10
88.06973149299688
 20
657.987480950036
 30
0.0
 11
89.56910351711923
 21
657.987480950036
 31
0.0
  0
ARC
  5
258
  8
0
  6
CONTINUOUS
 62
     7
 10
103.2469156464769
 20
614.831035544743
 30
0.0
 40
14.8
 50
180.5
 51
223.5999164104001
  0
ARC
  5
259
  8
0
  6
CONTINUOUS
 62
     7
 10
144.5305398863899
 20
614.831035544743
 30
0.0
 40
14.8
 50
316.4000835895999
 51
359.5000000000001
  0
LINE
  5
25A
  8
0
  6
CONTINUOUS
 62
     7
 10
106.2929890340875
 20
592.2678042039439
 30
0.0
 11
105.6045284838328
 21
590.8944313772157
 31
0.0
  0
LINE
  5
25B
  8
0
  6
CONTINUOUS
 62
     7
 10
105.6045284838328
 20
590.8944313772157
 30
0.0
 11
105.6042385260912
 21
590.8944538331391
 31
0.0
  0
LINE
  5
25C
  8
0
  6
CONTINUOUS
 62
     7
 10
105.6042385260912
 20
590.8944538331391
 30
0.0
 11
92.52915720700145
 21
604.6246819337293
 31
0.0
  0
LINE
  5
25D
  8
0
  6
CONTINUOUS
 62
     7
 10
155.2482983258653
 20
604.6246819337293
 30
0.0
 11
142.1732170067755
 21
590.8944538331391
 31
0.0
  0
LINE
  5
25E
  8
0
  6
CONTINUOUS
 62
     7
 10
142.1732170067755
 20
590.8944538331391
 30
0.0
 11
142.1729270490341
 21
590.8944313772157
 31
0.0
  0
LINE
  5
25F
  8
0
  6
CONTINUOUS
 62
     7
 10
142.1729270490341
 20
590.8944313772157
 30
0.0
 11
141.4844664987793
 21
592.2678042039439
 31
0.0
  0
ARC
  5
260
  8
0
  6
CONTINUOUS
 62
     7
 10
123.8887277664333
 20
826.987480950036
 30
0.0
 40
236.8000000000001
 50
265.5715742496877
 51
274.4284257503122
  0
LINE
  5
261
  8
0
  6
CONTINUOUS
 62
     7
 10
91.94734591585171
 20
614.7324256936115
 30
0.0
 11
91.87530514002351
 21
622.9874809500361
 31
0.0
  0
ARC
  5
262
  8
0
  6
CONTINUOUS
 62
     7
 10
103.2469156464769
 20
614.831035544743
 30
0.0
 40
11.29999999999998
 50
180.4999999999997
 51
223.5999164104001
  0
LINE
  5
263
  8
0
  6
CONTINUOUS
 62
     7
 10
107.209053046137
 20
594.2844976188695
 30
0.0
 11
95.06376224336385
 21
607.0383466390366
 31
0.0
  0
ARC
  5
264
  8
0
  6
CONTINUOUS
 62
     7
 10
123.8887277664334
 20
826.987480950034
 30
0.0
 40
233.2999999999979
 50
265.9001671928479
 51
274.0998328071518
  0
LINE
  5
265
  8
0
  6
CONTINUOUS
 62
     7
 10
152.7136932895029
 20
607.0383466390367
 30
0.0
 11
140.5684024867296
 21
594.2844976188695
 31
0.0
  0
ARC
  5
266
  8
0
  6
CONTINUOUS
 62
     7
 10
144.5305398863898
 20
614.8310355447431
 30
0.0
 40
11.30000000000002
 50
316.4000835895999
 51
359.4999999999999
  0
LINE
  5
267
  8
0
  6
CONTINUOUS
 62
     7
 10
155.9021503928432
 20
622.9874809500361
 30
0.0
 11
155.830109617015
 21
614.7324256936115
 31
0.0
  0
LINE
  5
268
  8
0
  6
CONTINUOUS
 62
     7
 10
156.6021770477132
 20
622.9874809500361
 30
0.0
 11
155.9021503928432
 21
622.9874809500361
 31
0.0
  0
LINE
  5
269
  8
0
  6
CONTINUOUS
 62
     7
 10
91.87530514002351
 20
622.9874809500361
 30
0.0
 11
91.1752784851535
 21
622.9874809500361
 31
0.0
  0
LINE
  5
26A
  8
0
  6
CONTINUOUS
 62
     7
 10
94.58945797916462
 20
622.987480950036
 30
0.0
 11
94.56499802171592
 21
616.987480950036
 31
0.0
  0
LINE
  5
26B
  8
0
  6
CONTINUOUS
 62
     7
 10
94.56499802171592
 20
616.987480950036
 30
0.0
 11
98.08874369155102
 21
616.987480950036
 31
0.0
  0
LINE
  5
26C
  8
0
  6
CONTINUOUS
 62
     7
 10
104.2124575111508
 20
616.987480950036
 30
0.0
 11
104.2916673926682
 21
597.3480633055345
 31
0.0
  0
LINE
  5
26D
  8
0
  6
CONTINUOUS
 62
     7
 10
93.15269617862107
 20
609.7519870772877
 30
0.0
 11
93.24784098267075
 21
622.987480950036
 31
0.0
  0
LINE
  5
26E
  8
0
  6
CONTINUOUS
 62
     7
 10
143.5649980217159
 20
616.987480950036
 30
0.0
 11
143.4857881401985
 21
597.3480633055344
 31
0.0
  0
LINE
  5
26F
  8
0
  6
CONTINUOUS
 62
     7
 10
153.2124575111508
 20
616.987480950036
 30
0.0
 11
149.6887277664334
 21
616.987480950036
 31
0.0
  0
LINE
  5
270
  8
0
  6
CONTINUOUS
 62
     7
 10
153.1879975537021
 20
622.987480950036
 30
0.0
 11
153.2124575111508
 21
616.987480950036
 31
0.0
  0
LINE
  5
271
  8
0
  6
CONTINUOUS
 62
     7
 10
154.6247593542459
 20
609.7519870772873
 30
0.0
 11
154.529614550196
 21
622.987480950036
 31
0.0
  0
ARC
  5
272
  8
0
  6
CONTINUOUS
 62
     7
 10
123.8887277664334
 20
622.987480950036
 30
0.0
 40
16.75
 50
180.0
 51
0.0
  0
LINE
  5
273
  8
0
  6
CONTINUOUS
 62
     7
 10
141.3815834509693
 20
622.987480950036
 30
0.0
 11
140.6387277664334
 21
622.987480950036
 31
0.0
  0
LINE
  5
274
  8
0
  6
CONTINUOUS
 62
     7
 10
106.3958720818975
 20
622.987480950036
 30
0.0
 11
107.1387277664333
 21
622.987480950036
 31
0.0
  0
LINE
  5
275
  8
0
  6
CONTINUOUS
 62
     7
 10
91.87530514002354
 20
622.987480950036
 30
0.0
 11
92.08982374440741
 21
622.987480950036
 31
0.0
  0
LINE
  5
276
  8
0
  6
CONTINUOUS
 62
     7
 10
155.9021503928432
 20
622.987480950036
 30
0.0
 11
155.6876317884593
 21
622.987480950036
 31
0.0
  0
LINE
  5
277
  8
0
  6
CONTINUOUS
 62
     7
 10
127.2160004937061
 20
655.9874809500361
 30
0.0
 11
127.2160004937061
 21
655.687480950036
 31
0.0
  0
LINE
  5
278
  8
0
  6
CONTINUOUS
 62
     7
 10
133.7387277664334
 20
655.687480950036
 30
0.0
 11
133.7387277664334
 21
655.9874809500361
 31
0.0
  0
LINE
  5
279
  8
0
  6
CONTINUOUS
 62
     7
 10
112.4180097987361
 20
655.9874809500361
 30
0.0
 11
112.4180097987361
 21
655.6874809500362
 31
0.0
  0
LINE
  5
27A
  8
0
  6
CONTINUOUS
 62
     7
 10
133.7069095846152
 20
655.649980950036
 30
0.0
 11
133.7069095846152
 21
655.687480950036
 31
0.0
  0
LINE
  5
27B
  8
0
  6
CONTINUOUS
 62
     7
 10
127.2160004937061
 20
655.687480950036
 30
0.0
 11
127.2160004937061
 21
655.649980950036
 31
0.0
  0
LINE
  5
27C
  8
0
  6
CONTINUOUS
 62
     7
 10
133.7492834180031
 20
655.687480950036
 30
0.0
 11
133.7492834180031
 21
655.9874809500361
 31
0.0
  0
ENDBLK
  8
0
  0
ENDSEC
  0
SECTION
  2
ENTITIES
  0
INSERT
  5
B2
  8
0
  6
CENTER
 62
     7
  2
D_FRAME_VIEW_1713
 10
0.0
 20
0.0
 30
0.0
  0
INSERT
  5
D9
  8
0
  6
CENTER
 62
     7
  2
D_FRAME_VIEW_2454
 10
0.0
 20
0.0
 30
0.0
  0
INSERT
  5
101
  8
0
  6
CENTER
 62
     7
  2
D_FRAME_VIEW_2490
 10
0.0
 20
0.0
 30
0.0
  0
INSERT
  5
1B0
  8
0
  6
CENTER
 62
     7
  2
D_FRAME_VIEW_2663
 10
0.0
 20
0.0
 30
0.0
  0
INSERT
  5
27D
  8
0
  6
CENTER
 62
     7
  2
D_FRAME_VIEW_2418
 10
0.0
 20
0.0
 30
0.0
  0
TEXT
  5
27E
  8
0
  6
CONTINUOUS
 62
     7
 10
336.2093588695371
 20
408.7193689984836
 30
0.0
 40
3.0
  1
RMSB-40
  0
ENDSEC
  0
EOF
