  0
SECTION
  2
HEADER
  9
$ACADVER
  1
AC1006
  9
$DWGCODEPAGE
  3
ansi_932
  9
$INSBASE
 10
0.0
 20
0.0
 30
0.0
  9
$EXTMIN
 10
48.6063656610462
 20
116.2214464830231
  9
$EXTMAX
 10
168.6765339171675
 20
259.2936343389538
  9
$LIMMIN
 10
0.0
 20
0.0
  9
$LIMMAX
 10
12.0
 20
9.0
  9
$ORTHOMODE
 70
     0
  9
$REGENMODE
 70
     1
  9
$FILLMODE
 70
     1
  9
$QTEXTMODE
 70
     0
  9
$MIRRTEXT
 70
     1
  9
$DRAGMODE
 70
     2
  9
$LTSCALE
 40
1.0
  9
$OSMODE
 70
    37
  9
$ATTMODE
 70
     1
  9
$TEXTSIZE
 40
0.2
  9
$TRACEWID
 40
0.05
  9
$TEXTSTYLE
  7
STANDARD
  9
$CLAYER
  8
0
  9
$CELTYPE
  6
BYLAYER
  9
$CECOLOR
 62
   256
  9
$DIMSCALE
 40
1.0
  9
$DIMASZ
 40
3.0
  9
$DIMEXO
 40
0.0625
  9
$DIMDLI
 40
0.38
  9
$DIMRND
 40
0.0
  9
$DIMDLE
 40
0.0
  9
$DIMEXE
 40
1.5
  9
$DIMTP
 40
0.0
  9
$DIMTM
 40
0.0
  9
$DIMTXT
 40
3.0
  9
$DIMCEN
 40
0.09
  9
$DIMTSZ
 40
0.0
  9
$DIMTOL
 70
     0
  9
$DIMLIM
 70
     0
  9
$DIMTIH
 70
     1
  9
$DIMTOH
 70
     1
  9
$DIMSE1
 70
     0
  9
$DIMSE2
 70
     0
  9
$DIMTAD
 70
     1
  9
$DIMZIN
 70
     0
  9
$DIMBLK
  1

  9
$DIMASO
 70
     1
  9
$DIMSHO
 70
     1
  9
$DIMPOST
  1

  9
$DIMAPOST
  1

  9
$DIMALT
 70
     0
  9
$DIMALTD
 70
     2
  9
$DIMALTF
 40
25.4
  9
$DIMLFAC
 40
1.0
  9
$DIMTOFL
 70
     0
  9
$DIMTVP
 40
0.0
  9
$DIMTIX
 70
     0
  9
$DIMSOXD
 70
     0
  9
$DIMSAH
 70
     0
  9
$DIMBLK1
  1

  9
$DIMBLK2
  1

  9
$LUNITS
 70
     2
  9
$LUPREC
 70
     4
  9
$SKETCHINC
 40
0.1
  9
$FILLETRAD
 40
0.5
  9
$AUNITS
 70
     0
  9
$AUPREC
 70
     0
  9
$MENU
  1
.
  9
$ELEVATION
 40
0.0
  9
$THICKNESS
 40
0.0
  9
$LIMCHECK
 70
     0
  9
$CHAMFERA
 40
0.0
  9
$CHAMFERB
 40
0.0
  9
$SKPOLY
 70
     0
  9
$TDCREATE
 40
2459416.538904537
  9
$TDUPDATE
 40
2459416.538904896
  9
$TDINDWG
 40
0.0000000116
  9
$TDUSRTIMER
 40
0.0000000116
  9
$USRTIMER
 70
     1
  9
$ANGBASE
 50
0.0
  9
$ANGDIR
 70
     0
  9
$PDMODE
 70
     0
  9
$PDSIZE
 40
0.0
  9
$PLINEWID
 40
0.0
  9
$COORDS
 70
     1
  9
$SPLFRAME
 70
     0
  9
$SPLINETYPE
 70
     6
  9
$SPLINESEGS
 70
     8
  9
$ATTDIA
 70
     0
  9
$ATTREQ
 70
     1
  9
$HANDLING
 70
     1
  9
$HANDSEED
  5
500
  9
$SURFTAB1
 70
     6
  9
$SURFTAB2
 70
     6
  9
$SURFTYPE
 70
     6
  9
$SURFU
 70
     6
  9
$SURFV
 70
     6
  9
$UCSNAME
  2

  9
$UCSORG
 10
0.0
 20
0.0
 30
0.0
  9
$UCSXDIR
 10
1.0
 20
0.0
 30
0.0
  9
$UCSYDIR
 10
0.0
 20
1.0
 30
0.0
  9
$USERI1
 70
     0
  9
$USERI2
 70
     0
  9
$USERI3
 70
     0
  9
$USERI4
 70
     0
  9
$USERI5
 70
     0
  9
$USERR1
 40
0.0
  9
$USERR2
 40
0.0
  9
$USERR3
 40
0.0
  9
$USERR4
 40
0.0
  9
$USERR5
 40
0.0
  9
$WORLDVIEW
 70
     1
  0
ENDSEC
  0
SECTION
  2
TABLES
  0
TABLE
  2
VPORT
 70
     1
  0
VPORT
  2
*ACTIVE
 70
     0
 10
0.0
 20
0.0
 11
1.0
 21
1.0
 12
108.6414497891068
 22
187.7575404109884
 13
0.0
 23
0.0
 14
0.5
 24
0.5
 15
0.5
 25
0.5
 16
0.0
 26
0.0
 36
1.0
 17
0.0
 27
0.0
 37
0.0
 40
143.0721878559307
 41
1.6
 42
50.0
 43
0.0
 44
0.0
 50
0.0
 51
0.0
 71
     0
 72
   100
 73
     1
 74
     3
 75
     0
 76
     0
 77
     0
 78
     0
  0
ENDTAB
  0
TABLE
  2
LTYPE
 70
     2
  0
LTYPE
  2
CONTINUOUS
 70
     0
  3
Solid line
 72
    65
 73
     0
 40
0.0
  0
LTYPE
  2
CENTER
 70
     0
  3

 72
    65
 73
     0
 40
0.0
  0
ENDTAB
  0
TABLE
  2
LAYER
 70
     1
  0
LAYER
  2
0
 70
     0
 62
     7
  6
CONTINUOUS
  0
ENDTAB
  0
TABLE
  2
STYLE
 70
     2
  0
STYLE
  2
STANDARD
 70
     0
 40
0.0
 41
1.0
 50
0.0
 71
     0
 42
0.2
  3
txt
  4

  0
STYLE
  2
ＭＳ_ゴシック
 70
     0
 40
0.0
 41
1.0
 50
0.0
 71
     0
 42
0.2
  3
ＭＳ ゴシック.shx
  4

  0
ENDTAB
  0
TABLE
  2
VIEW
 70
     0
  0
ENDTAB
  0
TABLE
  2
UCS
 70
     0
  0
ENDTAB
  0
ENDSEC
  0
SECTION
  2
BLOCKS
  0
BLOCK
  8
0
  2
D_FRAME_VIEW_1490
 70
     0
 10
0.0
 20
0.0
 30
0.0
  0
LINE
  5
76
  8
0
  6
CONTINUOUS
 62
     7
 10
100.0
 20
251.95
 30
0.0
 11
100.0087497752302
 21
251.9412502247697
 31
0.0
  0
LINE
  5
77
  8
0
  6
CONTINUOUS
 62
     7
 10
107.0
 20
251.95
 30
0.0
 11
100.0
 21
251.95
 31
0.0
  0
LINE
  5
78
  8
0
  6
CONTINUOUS
 62
     7
 10
107.0
 20
251.95
 30
0.0
 11
106.9842144005241
 21
251.9342144005241
 31
0.0
  0
LINE
  5
79
  8
0
  6
CONTINUOUS
 62
     7
 10
106.0
 20
251.9255647701858
 30
0.0
 11
106.9842144005242
 21
251.9342144005241
 31
0.0
  0
LINE
  5
7A
  8
0
  6
CONTINUOUS
 62
     7
 10
106.0
 20
251.9255647701858
 30
0.0
 11
100.0087497752302
 21
251.9412502247697
 31
0.0
  0
LINE
  5
7B
  8
0
  6
CONTINUOUS
 62
     7
 10
102.0
 20
174.0
 30
0.0
 11
94.99999999999999
 21
174.0
 31
0.0
  0
LINE
  5
7C
  8
0
  6
CONTINUOUS
 62
     7
 10
94.99999999999999
 20
174.0
 30
0.0
 11
95.00874977523024
 21
174.0087497752302
 31
0.0
  0
LINE
  5
7D
  8
0
  6
CONTINUOUS
 62
     7
 10
95.00874977523024
 20
174.0087497752302
 30
0.0
 11
101.0
 21
174.0244352298141
 31
0.0
  0
LINE
  5
7E
  8
0
  6
CONTINUOUS
 62
     7
 10
101.9842144005241
 20
174.0157855994758
 30
0.0
 11
101.0
 21
174.0244352298141
 31
0.0
  0
LINE
  5
7F
  8
0
  6
CONTINUOUS
 62
     7
 10
102.0
 20
174.0
 30
0.0
 11
101.9842144005241
 21
174.0157855994758
 31
0.0
  0
LINE
  5
80
  8
0
  6
CONTINUOUS
 62
     7
 10
65.0
 20
174.0
 30
0.0
 11
64.99125022476976
 21
174.0087497752302
 31
0.0
  0
LINE
  5
81
  8
0
  6
CONTINUOUS
 62
     7
 10
57.99999999999999
 20
174.0
 30
0.0
 11
65.0
 21
174.0
 31
0.0
  0
LINE
  5
82
  8
0
  6
CONTINUOUS
 62
     7
 10
57.99999999999999
 20
174.0
 30
0.0
 11
58.01578559947584
 21
174.0157855994758
 31
0.0
  0
LINE
  5
83
  8
0
  6
CONTINUOUS
 62
     7
 10
58.99999999999999
 20
174.0244352298141
 30
0.0
 11
58.01578559947584
 21
174.0157855994758
 31
0.0
  0
LINE
  5
84
  8
0
  6
CONTINUOUS
 62
     7
 10
64.99125022476976
 20
174.0087497752302
 30
0.0
 11
58.99999999999999
 21
174.0244352298141
 31
0.0
  0
LINE
  5
85
  8
0
  6
CONTINUOUS
 62
     7
 10
94.99999999999999
 20
178.5
 30
0.0
 11
95.00874977523024
 21
178.4912502247697
 31
0.0
  0
LINE
  5
86
  8
0
  6
CONTINUOUS
 62
     7
 10
94.99999999999999
 20
178.5
 30
0.0
 11
102.0
 21
178.5
 31
0.0
  0
LINE
  5
87
  8
0
  6
CONTINUOUS
 62
     7
 10
102.0
 20
178.5
 30
0.0
 11
101.9842144005241
 21
178.4842144005241
 31
0.0
  0
LINE
  5
88
  8
0
  6
CONTINUOUS
 62
     7
 10
101.0
 20
178.4755647701858
 30
0.0
 11
101.9842144005241
 21
178.4842144005241
 31
0.0
  0
LINE
  5
89
  8
0
  6
CONTINUOUS
 62
     7
 10
101.0
 20
178.4755647701858
 30
0.0
 11
95.00874977523024
 21
178.4912502247697
 31
0.0
  0
LINE
  5
8A
  8
0
  6
CONTINUOUS
 62
     7
 10
60.0
 20
248.15
 30
0.0
 11
59.99125022476974
 21
248.1587497752302
 31
0.0
  0
LINE
  5
8B
  8
0
  6
CONTINUOUS
 62
     7
 10
60.0
 20
248.15
 30
0.0
 11
53.00000000000001
 21
248.15
 31
0.0
  0
LINE
  5
8C
  8
0
  6
CONTINUOUS
 62
     7
 10
53.00000000000001
 20
248.15
 30
0.0
 11
53.01578559947585
 21
248.1657855994758
 31
0.0
  0
LINE
  5
8D
  8
0
  6
CONTINUOUS
 62
     7
 10
54.0
 20
248.1744352298141
 30
0.0
 11
53.01578559947585
 21
248.1657855994758
 31
0.0
  0
LINE
  5
8E
  8
0
  6
CONTINUOUS
 62
     7
 10
59.99125022476974
 20
248.1587497752302
 30
0.0
 11
54.0
 21
248.1744352298141
 31
0.0
  0
LINE
  5
8F
  8
0
  6
CONTINUOUS
 62
     7
 10
95.00874977523024
 20
178.4912502247697
 30
0.0
 11
95.00874977523024
 21
174.0087497752302
 31
0.0
  0
LINE
  5
90
  8
0
  6
CONTINUOUS
 62
     7
 10
101.0
 20
174.0244352298141
 30
0.0
 11
101.0
 21
178.4755647701858
 31
0.0
  0
LINE
  5
91
  8
0
  6
CONTINUOUS
 62
     7
 10
53.00000000000001
 20
251.95
 30
0.0
 11
60.0
 21
251.95
 31
0.0
  0
LINE
  5
92
  8
0
  6
CONTINUOUS
 62
     7
 10
60.0
 20
251.95
 30
0.0
 11
59.99125022476974
 21
251.9412502247697
 31
0.0
  0
LINE
  5
93
  8
0
  6
CONTINUOUS
 62
     7
 10
54.0
 20
251.9255647701858
 30
0.0
 11
59.99125022476974
 21
251.9412502247697
 31
0.0
  0
LINE
  5
94
  8
0
  6
CONTINUOUS
 62
     7
 10
53.01578559947585
 20
251.9342144005241
 30
0.0
 11
54.0
 21
251.9255647701858
 31
0.0
  0
LINE
  5
95
  8
0
  6
CONTINUOUS
 62
     7
 10
53.00000000000001
 20
251.95
 30
0.0
 11
53.01578559947585
 21
251.9342144005241
 31
0.0
  0
LINE
  5
96
  8
0
  6
CONTINUOUS
 62
     7
 10
59.99125022476974
 20
251.9412502247697
 30
0.0
 11
59.99125022476974
 21
248.1587497752302
 31
0.0
  0
LINE
  5
97
  8
0
  6
CONTINUOUS
 62
     7
 10
54.0
 20
248.1744352298141
 30
0.0
 11
54.0
 21
251.9255647701858
 31
0.0
  0
LINE
  5
98
  8
0
  6
CONTINUOUS
 62
     7
 10
58.99999999999999
 20
174.0244352298141
 30
0.0
 11
58.99999999999999
 21
178.4755647701858
 31
0.0
  0
LINE
  5
99
  8
0
  6
CONTINUOUS
 62
     7
 10
58.01578559947584
 20
178.4842144005241
 30
0.0
 11
58.99999999999999
 21
178.4755647701858
 31
0.0
  0
LINE
  5
9A
  8
0
  6
CONTINUOUS
 62
     7
 10
100.0
 20
248.15
 30
0.0
 11
107.0
 21
248.15
 31
0.0
  0
LINE
  5
9B
  8
0
  6
CONTINUOUS
 62
     7
 10
100.0
 20
248.15
 30
0.0
 11
100.0087497752302
 21
248.1587497752302
 31
0.0
  0
LINE
  5
9C
  8
0
  6
CONTINUOUS
 62
     7
 10
100.0087497752302
 20
248.1587497752302
 30
0.0
 11
106.0
 21
248.1744352298141
 31
0.0
  0
LINE
  5
9D
  8
0
  6
CONTINUOUS
 62
     7
 10
106.9842144005242
 20
248.1657855994758
 30
0.0
 11
106.0
 21
248.1744352298141
 31
0.0
  0
LINE
  5
9E
  8
0
  6
CONTINUOUS
 62
     7
 10
107.0
 20
248.15
 30
0.0
 11
106.9842144005242
 21
248.1657855994758
 31
0.0
  0
LINE
  5
9F
  8
0
  6
CONTINUOUS
 62
     7
 10
106.0
 20
248.1744352298141
 30
0.0
 11
106.0
 21
251.9255647701858
 31
0.0
  0
LINE
  5
A0
  8
0
  6
CONTINUOUS
 62
     7
 10
58.99999999999999
 20
178.4755647701858
 30
0.0
 11
64.99125022476976
 21
178.4912502247697
 31
0.0
  0
LINE
  5
A1
  8
0
  6
CONTINUOUS
 62
     7
 10
64.99125022476976
 20
178.4912502247697
 30
0.0
 11
64.99125022476976
 21
174.0087497752302
 31
0.0
  0
LINE
  5
A2
  8
0
  6
CONTINUOUS
 62
     7
 10
100.0087497752302
 20
251.9412502247697
 30
0.0
 11
100.0087497752302
 21
248.1587497752302
 31
0.0
  0
LINE
  5
A3
  8
0
  6
CONTINUOUS
 62
     7
 10
65.0
 20
178.5
 30
0.0
 11
57.99999999999999
 21
178.5
 31
0.0
  0
LINE
  5
A4
  8
0
  6
CONTINUOUS
 62
     7
 10
65.0
 20
178.5
 30
0.0
 11
64.99125022476976
 21
178.4912502247697
 31
0.0
  0
LINE
  5
A5
  8
0
  6
CONTINUOUS
 62
     7
 10
57.99999999999999
 20
178.5
 30
0.0
 11
58.01578559947584
 21
178.4842144005241
 31
0.0
  0
LINE
  5
A6
  8
0
  6
CONTINUOUS
 62
     7
 10
107.0
 20
248.15
 30
0.0
 11
107.0
 21
251.95
 31
0.0
  0
LINE
  5
A7
  8
0
  6
CONTINUOUS
 62
     7
 10
53.00000000000001
 20
248.15
 30
0.0
 11
53.00000000000001
 21
251.95
 31
0.0
  0
LINE
  5
A8
  8
0
  6
CONTINUOUS
 62
     7
 10
102.0
 20
178.5
 30
0.0
 11
102.0
 21
174.0
 31
0.0
  0
LINE
  5
A9
  8
0
  6
CONTINUOUS
 62
     7
 10
57.99999999999999
 20
178.5
 30
0.0
 11
57.99999999999999
 21
174.0
 31
0.0
  0
LINE
  5
AA
  8
0
  6
CONTINUOUS
 62
     7
 10
60.0
 20
251.95
 30
0.0
 11
60.0
 21
248.15
 31
0.0
  0
LINE
  5
AB
  8
0
  6
CONTINUOUS
 62
     7
 10
100.0
 20
251.95
 30
0.0
 11
100.0
 21
248.15
 31
0.0
  0
LINE
  5
AC
  8
0
  6
CONTINUOUS
 62
     7
 10
65.0
 20
174.0
 30
0.0
 11
65.0
 21
178.5
 31
0.0
  0
LINE
  5
AD
  8
0
  6
CONTINUOUS
 62
     7
 10
94.99999999999999
 20
174.0
 30
0.0
 11
94.99999999999999
 21
178.5
 31
0.0
  0
LINE
  5
AE
  8
0
  6
CONTINUOUS
 62
     7
 10
107.0
 20
248.15
 30
0.0
 11
109.85
 21
248.15
 31
0.0
  0
LINE
  5
AF
  8
0
  6
CONTINUOUS
 62
     7
 10
109.85
 20
248.15
 30
0.0
 11
109.85
 21
251.95
 31
0.0
  0
LINE
  5
B0
  8
0
  6
CONTINUOUS
 62
     7
 10
109.85
 20
251.95
 30
0.0
 11
107.0
 21
251.95
 31
0.0
  0
LINE
  5
B1
  8
0
  6
CONTINUOUS
 62
     7
 10
95.7063656610462
 20
242.75
 30
0.0
 11
95.7063656610462
 21
215.75
 31
0.0
  0
ARC
  5
B2
  8
0
  6
CONTINUOUS
 62
     7
 10
98.0
 20
215.75
 30
0.0
 40
2.293634338953798
 50
180.0
 51
306.8698976458443
  0
LINE
  5
B3
  8
0
  6
CONTINUOUS
 62
     7
 10
99.37618060337228
 20
213.9150925288369
 30
0.0
 11
101.3761806033723
 21
215.4150925288369
 31
0.0
  0
ARC
  5
B4
  8
0
  6
CONTINUOUS
 62
     7
 10
100.0
 20
217.25
 30
0.0
 40
2.29363433895379
 50
306.8698976458446
 51
88.9099333540712
  0
LINE
  5
B5
  8
0
  6
CONTINUOUS
 62
     7
 10
100.0436343389538
 20
219.5432192492852
 30
0.0
 11
100.0436343389538
 21
237.9567807507148
 31
0.0
  0
ARC
  5
B6
  8
0
  6
CONTINUOUS
 62
     7
 10
100.0
 20
240.25
 30
0.0
 40
2.293634338953778
 50
271.0900666459287
 51
38.65980825408928
  0
LINE
  5
B7
  8
0
  6
CONTINUOUS
 62
     7
 10
101.7910275155565
 20
241.6828220124451
 30
0.0
 11
99.79102751555655
 21
244.1828220124451
 31
0.0
  0
ARC
  5
B8
  8
0
  6
CONTINUOUS
 62
     7
 10
98.0
 20
242.75
 30
0.0
 40
2.293634338953788
 50
38.65980825408886
 51
180.0
  0
LINE
  5
B9
  8
0
  6
CONTINUOUS
 62
     7
 10
104.6
 20
174.0
 30
0.0
 11
102.0
 21
174.0
 31
0.0
  0
LINE
  5
BA
  8
0
  6
CONTINUOUS
 62
     7
 10
104.6
 20
178.5
 30
0.0
 11
104.6
 21
174.0
 31
0.0
  0
LINE
  5
BB
  8
0
  6
CONTINUOUS
 62
     7
 10
102.0
 20
178.5
 30
0.0
 11
104.6
 21
178.5
 31
0.0
  0
LINE
  5
BC
  8
0
  6
CONTINUOUS
 62
     7
 10
50.15
 20
251.95
 30
0.0
 11
53.00000000000001
 21
251.95
 31
0.0
  0
LINE
  5
BD
  8
0
  6
CONTINUOUS
 62
     7
 10
50.15
 20
248.15
 30
0.0
 11
50.15
 21
251.95
 31
0.0
  0
LINE
  5
BE
  8
0
  6
CONTINUOUS
 62
     7
 10
53.00000000000001
 20
248.15
 30
0.0
 11
50.15
 21
248.15
 31
0.0
  0
LINE
  5
BF
  8
0
  6
CONTINUOUS
 62
     7
 10
109.35
 20
245.9
 30
0.0
 11
109.35
 21
194.6385999591656
 31
0.0
  0
LINE
  5
C0
  8
0
  6
CONTINUOUS
 62
     7
 10
109.35
 20
245.9
 30
0.0
 11
101.9629284136518
 21
245.9
 31
0.0
  0
POLYLINE
  5
C1
  8
0
  6
CONTINUOUS
 62
     7
 66
     1
 10
0.0
 20
0.0
 30
0.0
  0
VERTEX
  5
21E
  8
0
  6
CONTINUOUS
 62
     7
 10
101.9629284136518
 20
245.9
 30
0.0
  0
VERTEX
  5
21F
  8
0
  6
CONTINUOUS
 62
     7
 10
101.8615579807166
 20
245.8896189348723
 30
0.0
  0
VERTEX
  5
220
  8
0
  6
CONTINUOUS
 62
     7
 10
101.7644000094161
 20
245.8589067891285
 30
0.0
  0
VERTEX
  5
221
  8
0
  6
CONTINUOUS
 62
     7
 10
101.6754887590431
 20
245.8091388133496
 30
0.0
  0
VERTEX
  5
222
  8
0
  6
CONTINUOUS
 62
     7
 10
101.5985160629414
 20
245.7423815072382
 30
0.0
  0
VERTEX
  5
223
  8
0
  6
CONTINUOUS
 62
     7
 10
101.5366780336933
 20
245.6614068130129
 30
0.0
  0
VERTEX
  5
224
  8
0
  6
CONTINUOUS
 62
     7
 10
101.4925423519616
 20
245.5695770169412
 30
0.0
  0
VERTEX
  5
225
  8
0
  6
CONTINUOUS
 62
     7
 10
101.4679416495087
 20
245.4707051382042
 30
0.0
  0
VERTEX
  5
226
  8
0
  6
CONTINUOUS
 62
     7
 10
101.4638974134155
 20
245.3688966021237
 30
0.0
  0
VERTEX
  5
227
  8
0
  6
CONTINUOUS
 62
     7
 10
101.4805775712006
 20
245.268378771903
 30
0.0
  0
VERTEX
  5
228
  8
0
  6
CONTINUOUS
 62
     7
 10
101.51728951802
 20
245.1733254171797
 30
0.0
  0
VERTEX
  5
229
  8
0
  6
CONTINUOUS
 62
     7
 10
101.5725088754761
 20
245.0876834079273
 30
0.0
  0
SEQEND
  5
4CC
  8
0
  6
CONTINUOUS
 62
     7
  0
LINE
  5
C2
  8
0
  6
CONTINUOUS
 62
     7
 10
103.3186924401329
 20
242.9049539521062
 30
0.0
 11
101.5725088754761
 21
245.0876834079273
 31
0.0
  0
ARC
  5
C3
  8
0
  6
CONTINUOUS
 62
     7
 10
100.0
 20
240.25
 30
0.0
 40
4.250000000000002
 50
301.7567359256694
 51
38.65980825408917
  0
POLYLINE
  5
C4
  8
0
  6
CONTINUOUS
 62
     7
 66
     1
 10
0.0
 20
0.0
 30
0.0
  0
VERTEX
  5
22A
  8
0
  6
CONTINUOUS
 62
     7
 10
102.2368340362957
 20
236.636265990133
 30
0.0
  0
VERTEX
  5
22B
  8
0
  6
CONTINUOUS
 62
     7
 10
102.2194035012025
 20
236.6249673809466
 30
0.0
  0
VERTEX
  5
22C
  8
0
  6
CONTINUOUS
 62
     7
 10
102.2024426550919
 20
236.61294413262
 30
0.0
  0
VERTEX
  5
22D
  8
0
  6
CONTINUOUS
 62
     7
 10
102.1859947113577
 20
236.6002282395995
 30
0.0
  0
VERTEX
  5
22E
  8
0
  6
CONTINUOUS
 62
     7
 10
102.1701028833938
 20
236.5868516963315
 30
0.0
  0
VERTEX
  5
22F
  8
0
  6
CONTINUOUS
 62
     7
 10
102.1543465923836
 20
236.5724071659776
 30
0.0
  0
VERTEX
  5
230
  8
0
  6
CONTINUOUS
 62
     7
 10
102.1392082451929
 20
236.557288534334
 30
0.0
  0
VERTEX
  5
231
  8
0
  6
CONTINUOUS
 62
     7
 10
102.1247284084917
 20
236.5415380772624
 30
0.0
  0
VERTEX
  5
232
  8
0
  6
CONTINUOUS
 62
     7
 10
102.11094764895
 20
236.5251980706244
 30
0.0
  0
VERTEX
  5
233
  8
0
  6
CONTINUOUS
 62
     7
 10
102.0982395726465
 20
236.5087667864195
 30
0.0
  0
VERTEX
  5
234
  8
0
  6
CONTINUOUS
 62
     7
 10
102.0862145866404
 20
236.4918071657839
 30
0.0
  0
VERTEX
  5
235
  8
0
  6
CONTINUOUS
 62
     7
 10
102.0749028769141
 20
236.4743637073923
 30
0.0
  0
VERTEX
  5
236
  8
0
  6
CONTINUOUS
 62
     7
 10
102.0643346294497
 20
236.4564809099192
 30
0.0
  0
VERTEX
  5
237
  8
0
  6
CONTINUOUS
 62
     7
 10
102.0542477930603
 20
236.4376351647633
 30
0.0
  0
VERTEX
  5
238
  8
0
  6
CONTINUOUS
 62
     7
 10
102.0449672111242
 20
236.4183578564989
 30
0.0
  0
VERTEX
  5
239
  8
0
  6
CONTINUOUS
 62
     7
 10
102.0365171668686
 20
236.3987023084216
 30
0.0
  0
VERTEX
  5
23A
  8
0
  6
CONTINUOUS
 62
     7
 10
102.0289219435208
 20
236.3787218438271
 30
0.0
  0
VERTEX
  5
23B
  8
0
  6
CONTINUOUS
 62
     7
 10
102.0222911182043
 20
236.3587577496917
 30
0.0
  0
VERTEX
  5
23C
  8
0
  6
CONTINUOUS
 62
     7
 10
102.0165008324285
 20
236.3385144548523
 30
0.0
  0
VERTEX
  5
23D
  8
0
  6
CONTINUOUS
 62
     7
 10
102.0115653118547
 20
236.3180459658839
 30
0.0
  0
VERTEX
  5
23E
  8
0
  6
CONTINUOUS
 62
     7
 10
102.0074987821446
 20
236.2974062893613
 30
0.0
  0
VERTEX
  5
23F
  8
0
  6
CONTINUOUS
 62
     7
 10
102.0042259808914
 20
236.2759911066732
 30
0.0
  0
VERTEX
  5
240
  8
0
  6
CONTINUOUS
 62
     7
 10
102.0018817319229
 20
236.2544339880363
 30
0.0
  0
VERTEX
  5
241
  8
0
  6
CONTINUOUS
 62
     7
 10
102.0004713125291
 20
236.2327956979034
 30
0.0
  0
VERTEX
  5
242
  8
0
  6
CONTINUOUS
 62
     7
 10
102.0
 20
236.2111370007272
 30
0.0
  0
SEQEND
  5
4CD
  8
0
  6
CONTINUOUS
 62
     7
  0
LINE
  5
C5
  8
0
  6
CONTINUOUS
 62
     7
 10
102.0
 20
221.2888629992727
 30
0.0
 11
102.0
 21
236.2111370007272
 31
0.0
  0
POLYLINE
  5
C6
  8
0
  6
CONTINUOUS
 62
     7
 66
     1
 10
0.0
 20
0.0
 30
0.0
  0
VERTEX
  5
243
  8
0
  6
CONTINUOUS
 62
     7
 10
102.0
 20
221.2888629992727
 30
0.0
  0
VERTEX
  5
244
  8
0
  6
CONTINUOUS
 62
     7
 10
102.0004331656739
 20
221.2680953684332
 30
0.0
  0
VERTEX
  5
245
  8
0
  6
CONTINUOUS
 62
     7
 10
102.0017296888556
 20
221.2473457219602
 30
0.0
  0
VERTEX
  5
246
  8
0
  6
CONTINUOUS
 62
     7
 10
102.0038851087857
 20
221.2266676429072
 30
0.0
  0
VERTEX
  5
247
  8
0
  6
CONTINUOUS
 62
     7
 10
102.0068949647043
 20
221.2061147143277
 30
0.0
  0
VERTEX
  5
248
  8
0
  6
CONTINUOUS
 62
     7
 10
102.010884254723
 20
221.1851149350742
 30
0.0
  0
VERTEX
  5
249
  8
0
  6
CONTINUOUS
 62
     7
 10
102.0157719589827
 20
221.1642857986178
 30
0.0
  0
VERTEX
  5
24A
  8
0
  6
CONTINUOUS
 62
     7
 10
102.0215434815281
 20
221.1436840487802
 30
0.0
  0
VERTEX
  5
24B
  8
0
  6
CONTINUOUS
 62
     7
 10
102.0281842264036
 20
221.1233664293827
 30
0.0
  0
VERTEX
  5
24C
  8
0
  6
CONTINUOUS
 62
     7
 10
102.0354671518026
 20
221.1039128615454
 30
0.0
  0
VERTEX
  5
24D
  8
0
  6
CONTINUOUS
 62
     7
 10
102.0435588364852
 20
221.0847620479974
 30
0.0
  0
VERTEX
  5
24E
  8
0
  6
CONTINUOUS
 62
     7
 10
102.0524373309594
 20
221.0659630758587
 30
0.0
  0
VERTEX
  5
24F
  8
0
  6
CONTINUOUS
 62
     7
 10
102.062080685733
 20
221.0475650322495
 30
0.0
  0
VERTEX
  5
250
  8
0
  6
CONTINUOUS
 62
     7
 10
102.07279619897
 20
221.0290695150926
 30
0.0
  0
VERTEX
  5
251
  8
0
  6
CONTINUOUS
 62
     7
 10
102.0843030090742
 20
221.0110324106624
 30
0.0
  0
VERTEX
  5
252
  8
0
  6
CONTINUOUS
 62
     7
 10
102.0965685563615
 20
220.993502431544
 30
0.0
  0
VERTEX
  5
253
  8
0
  6
CONTINUOUS
 62
     7
 10
102.1095602811476
 20
220.9765282903226
 30
0.0
  0
VERTEX
  5
254
  8
0
  6
CONTINUOUS
 62
     7
 10
102.1230456623702
 20
220.9603827834462
 30
0.0
  0
VERTEX
  5
255
  8
0
  6
CONTINUOUS
 62
     7
 10
102.1372108328947
 20
220.9448050320257
 30
0.0
  0
VERTEX
  5
256
  8
0
  6
CONTINUOUS
 62
     7
 10
102.1520173586145
 20
220.9298355564143
 30
0.0
  0
VERTEX
  5
257
  8
0
  6
CONTINUOUS
 62
     7
 10
102.167426805423
 20
220.9155148769653
 30
0.0
  0
VERTEX
  5
258
  8
0
  6
CONTINUOUS
 62
     7
 10
102.183913407957
 20
220.9014609375005
 30
0.0
  0
VERTEX
  5
259
  8
0
  6
CONTINUOUS
 62
     7
 10
102.2010094072252
 20
220.8881218342263
 30
0.0
  0
VERTEX
  5
25A
  8
0
  6
CONTINUOUS
 62
     7
 10
102.2186659133105
 20
220.875534035547
 30
0.0
  0
VERTEX
  5
25B
  8
0
  6
CONTINUOUS
 62
     7
 10
102.2368340362957
 20
220.8637340098669
 30
0.0
  0
SEQEND
  5
4CE
  8
0
  6
CONTINUOUS
 62
     7
  0
ARC
  5
C7
  8
0
  6
CONTINUOUS
 62
     7
 10
100.0
 20
217.25
 30
0.0
 40
4.250000000000004
 50
306.8698976458444
 51
58.24326407433051
  0
LINE
  5
C8
  8
0
  6
CONTINUOUS
 62
     7
 10
100.55
 20
212.35
 30
0.0
 11
102.55
 21
213.85
 31
0.0
  0
ARC
  5
C9
  8
0
  6
CONTINUOUS
 62
     7
 10
98.0
 20
215.75
 30
0.0
 40
4.250000000000004
 50
180.0
 51
306.8698976458441
  0
LINE
  5
CA
  8
0
  6
CONTINUOUS
 62
     7
 10
93.75
 20
242.75
 30
0.0
 11
93.75
 21
215.75
 31
0.0
  0
ARC
  5
CB
  8
0
  6
CONTINUOUS
 62
     7
 10
98.0
 20
242.75
 30
0.0
 40
4.250000000000004
 50
146.0892394651411
 51
180.0
  0
POLYLINE
  5
CC
  8
0
  6
CONTINUOUS
 62
     7
 66
     1
 10
0.0
 20
0.0
 30
0.0
  0
VERTEX
  5
25C
  8
0
  6
CONTINUOUS
 62
     7
 10
94.47289303084172
 20
245.1210791695165
 30
0.0
  0
VERTEX
  5
25D
  8
0
  6
CONTINUOUS
 62
     7
 10
94.48580467405425
 20
245.1413420340201
 30
0.0
  0
VERTEX
  5
25E
  8
0
  6
CONTINUOUS
 62
     7
 10
94.49775295707305
 20
245.1622673677374
 30
0.0
  0
VERTEX
  5
25F
  8
0
  6
CONTINUOUS
 62
     7
 10
94.50870361909762
 20
245.1837791685906
 30
0.0
  0
VERTEX
  5
260
  8
0
  6
CONTINUOUS
 62
     7
 10
94.51862239932744
 20
245.2058014345021
 30
0.0
  0
VERTEX
  5
261
  8
0
  6
CONTINUOUS
 62
     7
 10
94.527475036962
 20
245.2282581633944
 30
0.0
  0
VERTEX
  5
262
  8
0
  6
CONTINUOUS
 62
     7
 10
94.5352272712008
 20
245.2510733531898
 30
0.0
  0
VERTEX
  5
263
  8
0
  6
CONTINUOUS
 62
     7
 10
94.5418448412433
 20
245.2741710018108
 30
0.0
  0
VERTEX
  5
264
  8
0
  6
CONTINUOUS
 62
     7
 10
94.54732180985519
 20
245.2975655202593
 30
0.0
  0
VERTEX
  5
265
  8
0
  6
CONTINUOUS
 62
     7
 10
94.55167023797037
 20
245.321266361648
 30
0.0
  0
VERTEX
  5
266
  8
0
  6
CONTINUOUS
 62
     7
 10
94.55488295339325
 20
245.3451904382283
 30
0.0
  0
VERTEX
  5
267
  8
0
  6
CONTINUOUS
 62
     7
 10
94.55695278392811
 20
245.3692546622514
 30
0.0
  0
VERTEX
  5
268
  8
0
  6
CONTINUOUS
 62
     7
 10
94.5578725573793
 20
245.3933759459687
 30
0.0
  0
VERTEX
  5
269
  8
0
  6
CONTINUOUS
 62
     7
 10
94.55763510155114
 20
245.4174712016315
 30
0.0
  0
VERTEX
  5
26A
  8
0
  6
CONTINUOUS
 62
     7
 10
94.55623324424796
 20
245.4414573414911
 30
0.0
  0
VERTEX
  5
26B
  8
0
  6
CONTINUOUS
 62
     7
 10
94.55365702087721
 20
245.4653429540145
 30
0.0
  0
VERTEX
  5
26C
  8
0
  6
CONTINUOUS
 62
     7
 10
94.54991459475985
 20
245.4891440205875
 30
0.0
  0
VERTEX
  5
26D
  8
0
  6
CONTINUOUS
 62
     7
 10
94.54502671400574
 20
245.5127797772296
 30
0.0
  0
VERTEX
  5
26E
  8
0
  6
CONTINUOUS
 62
     7
 10
94.53901412672482
 20
245.5361694599602
 30
0.0
  0
VERTEX
  5
26F
  8
0
  6
CONTINUOUS
 62
     7
 10
94.531897581027
 20
245.5592323047988
 30
0.0
  0
VERTEX
  5
270
  8
0
  6
CONTINUOUS
 62
     7
 10
94.52369782502211
 20
245.581887547765
 30
0.0
  0
VERTEX
  5
271
  8
0
  6
CONTINUOUS
 62
     7
 10
94.51443560682009
 20
245.6040544248783
 30
0.0
  0
VERTEX
  5
272
  8
0
  6
CONTINUOUS
 62
     7
 10
94.50409873102028
 20
245.6257376878297
 30
0.0
  0
VERTEX
  5
273
  8
0
  6
CONTINUOUS
 62
     7
 10
94.4926896055322
 20
245.6469551852673
 30
0.0
  0
VERTEX
  5
274
  8
0
  6
CONTINUOUS
 62
     7
 10
94.48025454427045
 20
245.6676376081146
 30
0.0
  0
VERTEX
  5
275
  8
0
  6
CONTINUOUS
 62
     7
 10
94.4668398611496
 20
245.6877156472952
 30
0.0
  0
VERTEX
  5
276
  8
0
  6
CONTINUOUS
 62
     7
 10
94.45249187008419
 20
245.7071199937324
 30
0.0
  0
VERTEX
  5
277
  8
0
  6
CONTINUOUS
 62
     7
 10
94.43725688498881
 20
245.72578133835
 30
0.0
  0
VERTEX
  5
278
  8
0
  6
CONTINUOUS
 62
     7
 10
94.42118121977805
 20
245.7436303720713
 30
0.0
  0
VERTEX
  5
279
  8
0
  6
CONTINUOUS
 62
     7
 10
94.4042501113198
 20
245.7606691898777
 30
0.0
  0
VERTEX
  5
27A
  8
0
  6
CONTINUOUS
 62
     7
 10
94.38646147312845
 20
245.7769136500663
 30
0.0
  0
VERTEX
  5
27B
  8
0
  6
CONTINUOUS
 62
     7
 10
94.36788194241349
 20
245.7923137056496
 30
0.0
  0
VERTEX
  5
27C
  8
0
  6
CONTINUOUS
 62
     7
 10
94.34857815638436
 20
245.8068193096398
 30
0.0
  0
VERTEX
  5
27D
  8
0
  6
CONTINUOUS
 62
     7
 10
94.32861675225051
 20
245.8203804150494
 30
0.0
  0
VERTEX
  5
27E
  8
0
  6
CONTINUOUS
 62
     7
 10
94.30806436722142
 20
245.8329469748907
 30
0.0
  0
VERTEX
  5
27F
  8
0
  6
CONTINUOUS
 62
     7
 10
94.2869876385065
 20
245.8444689421761
 30
0.0
  0
VERTEX
  5
280
  8
0
  6
CONTINUOUS
 62
     7
 10
94.26536954670775
 20
245.8549445176664
 30
0.0
  0
VERTEX
  5
281
  8
0
  6
CONTINUOUS
 62
     7
 10
94.24320516265577
 20
245.8643866600122
 30
0.0
  0
VERTEX
  5
282
  8
0
  6
CONTINUOUS
 62
     7
 10
94.2205739287367
 20
245.8727702053203
 30
0.0
  0
VERTEX
  5
283
  8
0
  6
CONTINUOUS
 62
     7
 10
94.19755528733667
 20
245.8800699896974
 30
0.0
  0
VERTEX
  5
284
  8
0
  6
CONTINUOUS
 62
     7
 10
94.17422868084184
 20
245.8862608492501
 30
0.0
  0
VERTEX
  5
285
  8
0
  6
CONTINUOUS
 62
     7
 10
94.15067355163833
 20
245.8913176200851
 30
0.0
  0
VERTEX
  5
286
  8
0
  6
CONTINUOUS
 62
     7
 10
94.1269693421123
 20
245.8952151383091
 30
0.0
  0
VERTEX
  5
287
  8
0
  6
CONTINUOUS
 62
     7
 10
94.1040503732179
 20
245.8978700146503
 30
0.0
  0
VERTEX
  5
288
  8
0
  6
CONTINUOUS
 62
     7
 10
94.08102112956627
 20
245.8994666586241
 30
0.0
  0
VERTEX
  5
289
  8
0
  6
CONTINUOUS
 62
     7
 10
94.057955069932
 20
245.9
 30
0.0
  0
SEQEND
  5
4CF
  8
0
  6
CONTINUOUS
 62
     7
  0
LINE
  5
CD
  8
0
  6
CONTINUOUS
 62
     7
 10
65.942044930068
 20
245.9
 30
0.0
 11
94.057955069932
 21
245.9
 31
0.0
  0
POLYLINE
  5
CE
  8
0
  6
CONTINUOUS
 62
     7
 66
     1
 10
0.0
 20
0.0
 30
0.0
  0
VERTEX
  5
28A
  8
0
  6
CONTINUOUS
 62
     7
 10
65.52710696915828
 20
245.1210791695165
 30
0.0
  0
VERTEX
  5
28B
  8
0
  6
CONTINUOUS
 62
     7
 10
65.51419532594575
 20
245.1413420340201
 30
0.0
  0
VERTEX
  5
28C
  8
0
  6
CONTINUOUS
 62
     7
 10
65.50224704292695
 20
245.1622673677374
 30
0.0
  0
VERTEX
  5
28D
  8
0
  6
CONTINUOUS
 62
     7
 10
65.49129638090238
 20
245.1837791685906
 30
0.0
  0
VERTEX
  5
28E
  8
0
  6
CONTINUOUS
 62
     7
 10
65.48137760067256
 20
245.2058014345021
 30
0.0
  0
VERTEX
  5
28F
  8
0
  6
CONTINUOUS
 62
     7
 10
65.472524963038
 20
245.2282581633944
 30
0.0
  0
VERTEX
  5
290
  8
0
  6
CONTINUOUS
 62
     7
 10
65.4647727287992
 20
245.2510733531898
 30
0.0
  0
VERTEX
  5
291
  8
0
  6
CONTINUOUS
 62
     7
 10
65.45815515875668
 20
245.2741710018108
 30
0.0
  0
VERTEX
  5
292
  8
0
  6
CONTINUOUS
 62
     7
 10
65.45267819014481
 20
245.2975655202593
 30
0.0
  0
VERTEX
  5
293
  8
0
  6
CONTINUOUS
 62
     7
 10
65.44832976202962
 20
245.321266361648
 30
0.0
  0
VERTEX
  5
294
  8
0
  6
CONTINUOUS
 62
     7
 10
65.44511704660675
 20
245.3451904382283
 30
0.0
  0
VERTEX
  5
295
  8
0
  6
CONTINUOUS
 62
     7
 10
65.44304721607189
 20
245.3692546622514
 30
0.0
  0
VERTEX
  5
296
  8
0
  6
CONTINUOUS
 62
     7
 10
65.44212744262069
 20
245.3933759459687
 30
0.0
  0
VERTEX
  5
297
  8
0
  6
CONTINUOUS
 62
     7
 10
65.44236489844886
 20
245.4174712016315
 30
0.0
  0
VERTEX
  5
298
  8
0
  6
CONTINUOUS
 62
     7
 10
65.44376675575204
 20
245.4414573414911
 30
0.0
  0
VERTEX
  5
299
  8
0
  6
CONTINUOUS
 62
     7
 10
65.44634297912279
 20
245.4653429540145
 30
0.0
  0
VERTEX
  5
29A
  8
0
  6
CONTINUOUS
 62
     7
 10
65.45008540524015
 20
245.4891440205875
 30
0.0
  0
VERTEX
  5
29B
  8
0
  6
CONTINUOUS
 62
     7
 10
65.45497328599426
 20
245.5127797772296
 30
0.0
  0
VERTEX
  5
29C
  8
0
  6
CONTINUOUS
 62
     7
 10
65.46098587327518
 20
245.5361694599602
 30
0.0
  0
VERTEX
  5
29D
  8
0
  6
CONTINUOUS
 62
     7
 10
65.468102418973
 20
245.5592323047988
 30
0.0
  0
VERTEX
  5
29E
  8
0
  6
CONTINUOUS
 62
     7
 10
65.47630217497789
 20
245.581887547765
 30
0.0
  0
VERTEX
  5
29F
  8
0
  6
CONTINUOUS
 62
     7
 10
65.48556439317991
 20
245.6040544248783
 30
0.0
  0
VERTEX
  5
2A0
  8
0
  6
CONTINUOUS
 62
     7
 10
65.49590126897972
 20
245.6257376878297
 30
0.0
  0
VERTEX
  5
2A1
  8
0
  6
CONTINUOUS
 62
     7
 10
65.5073103944678
 20
245.6469551852674
 30
0.0
  0
VERTEX
  5
2A2
  8
0
  6
CONTINUOUS
 62
     7
 10
65.51974545572955
 20
245.6676376081146
 30
0.0
  0
VERTEX
  5
2A3
  8
0
  6
CONTINUOUS
 62
     7
 10
65.5331601388504
 20
245.6877156472952
 30
0.0
  0
VERTEX
  5
2A4
  8
0
  6
CONTINUOUS
 62
     7
 10
65.54750812991581
 20
245.7071199937324
 30
0.0
  0
VERTEX
  5
2A5
  8
0
  6
CONTINUOUS
 62
     7
 10
65.56274311501119
 20
245.72578133835
 30
0.0
  0
VERTEX
  5
2A6
  8
0
  6
CONTINUOUS
 62
     7
 10
65.57881878022195
 20
245.7436303720713
 30
0.0
  0
VERTEX
  5
2A7
  8
0
  6
CONTINUOUS
 62
     7
 10
65.5957498886802
 20
245.7606691898777
 30
0.0
  0
VERTEX
  5
2A8
  8
0
  6
CONTINUOUS
 62
     7
 10
65.61353852687155
 20
245.7769136500663
 30
0.0
  0
VERTEX
  5
2A9
  8
0
  6
CONTINUOUS
 62
     7
 10
65.63211805758651
 20
245.7923137056496
 30
0.0
  0
VERTEX
  5
2AA
  8
0
  6
CONTINUOUS
 62
     7
 10
65.65142184361564
 20
245.8068193096398
 30
0.0
  0
VERTEX
  5
2AB
  8
0
  6
CONTINUOUS
 62
     7
 10
65.67138324774949
 20
245.8203804150494
 30
0.0
  0
VERTEX
  5
2AC
  8
0
  6
CONTINUOUS
 62
     7
 10
65.69193563277858
 20
245.8329469748907
 30
0.0
  0
VERTEX
  5
2AD
  8
0
  6
CONTINUOUS
 62
     7
 10
65.71301236149348
 20
245.8444689421761
 30
0.0
  0
VERTEX
  5
2AE
  8
0
  6
CONTINUOUS
 62
     7
 10
65.73463045329224
 20
245.8549445176664
 30
0.0
  0
VERTEX
  5
2AF
  8
0
  6
CONTINUOUS
 62
     7
 10
65.75679483734423
 20
245.8643866600122
 30
0.0
  0
VERTEX
  5
2B0
  8
0
  6
CONTINUOUS
 62
     7
 10
65.7794260712633
 20
245.8727702053203
 30
0.0
  0
VERTEX
  5
2B1
  8
0
  6
CONTINUOUS
 62
     7
 10
65.80244471266333
 20
245.8800699896974
 30
0.0
  0
VERTEX
  5
2B2
  8
0
  6
CONTINUOUS
 62
     7
 10
65.82577131915816
 20
245.8862608492501
 30
0.0
  0
VERTEX
  5
2B3
  8
0
  6
CONTINUOUS
 62
     7
 10
65.84932644836167
 20
245.8913176200851
 30
0.0
  0
VERTEX
  5
2B4
  8
0
  6
CONTINUOUS
 62
     7
 10
65.8730306578877
 20
245.8952151383091
 30
0.0
  0
VERTEX
  5
2B5
  8
0
  6
CONTINUOUS
 62
     7
 10
65.8959496267821
 20
245.8978700146503
 30
0.0
  0
VERTEX
  5
2B6
  8
0
  6
CONTINUOUS
 62
     7
 10
65.91897887043373
 20
245.8994666586241
 30
0.0
  0
VERTEX
  5
2B7
  8
0
  6
CONTINUOUS
 62
     7
 10
65.942044930068
 20
245.9
 30
0.0
  0
SEQEND
  5
4D0
  8
0
  6
CONTINUOUS
 62
     7
  0
ARC
  5
CF
  8
0
  6
CONTINUOUS
 62
     7
 10
62.0
 20
242.75
 30
0.0
 40
4.250000000000004
 50
0.0
 51
33.91076053485892
  0
LINE
  5
D0
  8
0
  6
CONTINUOUS
 62
     7
 10
66.25
 20
242.75
 30
0.0
 11
66.25
 21
215.75
 31
0.0
  0
ARC
  5
D1
  8
0
  6
CONTINUOUS
 62
     7
 10
62.0
 20
215.75
 30
0.0
 40
4.250000000000004
 50
233.1301023541559
 51
0.0
  0
LINE
  5
D2
  8
0
  6
CONTINUOUS
 62
     7
 10
59.45
 20
212.35
 30
0.0
 11
57.44999999999998
 21
213.85
 31
0.0
  0
ARC
  5
D3
  8
0
  6
CONTINUOUS
 62
     7
 10
60.00000000000001
 20
217.25
 30
0.0
 40
4.250000000000008
 50
121.7567359256695
 51
233.1301023541555
  0
POLYLINE
  5
D4
  8
0
  6
CONTINUOUS
 62
     7
 66
     1
 10
0.0
 20
0.0
 30
0.0
  0
VERTEX
  5
2B8
  8
0
  6
CONTINUOUS
 62
     7
 10
57.99999999999999
 20
221.2888629992727
 30
0.0
  0
VERTEX
  5
2B9
  8
0
  6
CONTINUOUS
 62
     7
 10
57.99956683432614
 20
221.2680953684332
 30
0.0
  0
VERTEX
  5
2BA
  8
0
  6
CONTINUOUS
 62
     7
 10
57.99827031114434
 20
221.2473457219602
 30
0.0
  0
VERTEX
  5
2BB
  8
0
  6
CONTINUOUS
 62
     7
 10
57.9961148912143
 20
221.2266676429072
 30
0.0
  0
VERTEX
  5
2BC
  8
0
  6
CONTINUOUS
 62
     7
 10
57.99310503529573
 20
221.2061147143277
 30
0.0
  0
VERTEX
  5
2BD
  8
0
  6
CONTINUOUS
 62
     7
 10
57.98911574527701
 20
221.1851149350742
 30
0.0
  0
VERTEX
  5
2BE
  8
0
  6
CONTINUOUS
 62
     7
 10
57.98422804101725
 20
221.1642857986178
 30
0.0
  0
VERTEX
  5
2BF
  8
0
  6
CONTINUOUS
 62
     7
 10
57.97845651847189
 20
221.1436840487802
 30
0.0
  0
VERTEX
  5
2C0
  8
0
  6
CONTINUOUS
 62
     7
 10
57.97181577359635
 20
221.1233664293827
 30
0.0
  0
VERTEX
  5
2C1
  8
0
  6
CONTINUOUS
 62
     7
 10
57.96453284819738
 20
221.1039128615454
 30
0.0
  0
VERTEX
  5
2C2
  8
0
  6
CONTINUOUS
 62
     7
 10
57.95644116351474
 20
221.0847620479974
 30
0.0
  0
VERTEX
  5
2C3
  8
0
  6
CONTINUOUS
 62
     7
 10
57.94756266904056
 20
221.0659630758587
 30
0.0
  0
VERTEX
  5
2C4
  8
0
  6
CONTINUOUS
 62
     7
 10
57.93791931426698
 20
221.0475650322495
 30
0.0
  0
VERTEX
  5
2C5
  8
0
  6
CONTINUOUS
 62
     7
 10
57.92720380103003
 20
221.0290695150926
 30
0.0
  0
VERTEX
  5
2C6
  8
0
  6
CONTINUOUS
 62
     7
 10
57.91569699092581
 20
221.0110324106624
 30
0.0
  0
VERTEX
  5
2C7
  8
0
  6
CONTINUOUS
 62
     7
 10
57.90343144363852
 20
220.993502431544
 30
0.0
  0
VERTEX
  5
2C8
  8
0
  6
CONTINUOUS
 62
     7
 10
57.89043971885237
 20
220.9765282903226
 30
0.0
  0
VERTEX
  5
2C9
  8
0
  6
CONTINUOUS
 62
     7
 10
57.87695433762976
 20
220.9603827834462
 30
0.0
  0
VERTEX
  5
2CA
  8
0
  6
CONTINUOUS
 62
     7
 10
57.86278916710531
 20
220.9448050320257
 30
0.0
  0
VERTEX
  5
2CB
  8
0
  6
CONTINUOUS
 62
     7
 10
57.84798264138554
 20
220.9298355564143
 30
0.0
  0
VERTEX
  5
2CC
  8
0
  6
CONTINUOUS
 62
     7
 10
57.83257319457699
 20
220.9155148769653
 30
0.0
  0
VERTEX
  5
2CD
  8
0
  6
CONTINUOUS
 62
     7
 10
57.81608659204296
 20
220.9014609375005
 30
0.0
  0
VERTEX
  5
2CE
  8
0
  6
CONTINUOUS
 62
     7
 10
57.79899059277475
 20
220.8881218342263
 30
0.0
  0
VERTEX
  5
2CF
  8
0
  6
CONTINUOUS
 62
     7
 10
57.7813340866895
 20
220.875534035547
 30
0.0
  0
VERTEX
  5
2D0
  8
0
  6
CONTINUOUS
 62
     7
 10
57.76316596370434
 20
220.8637340098669
 30
0.0
  0
SEQEND
  5
4D1
  8
0
  6
CONTINUOUS
 62
     7
  0
LINE
  5
D5
  8
0
  6
CONTINUOUS
 62
     7
 10
57.99999999999999
 20
221.2888629992727
 30
0.0
 11
57.99999999999999
 21
236.2111370007272
 31
0.0
  0
POLYLINE
  5
D6
  8
0
  6
CONTINUOUS
 62
     7
 66
     1
 10
0.0
 20
0.0
 30
0.0
  0
VERTEX
  5
2D1
  8
0
  6
CONTINUOUS
 62
     7
 10
57.76316596370434
 20
236.636265990133
 30
0.0
  0
VERTEX
  5
2D2
  8
0
  6
CONTINUOUS
 62
     7
 10
57.7805964987975
 20
236.6249673809466
 30
0.0
  0
VERTEX
  5
2D3
  8
0
  6
CONTINUOUS
 62
     7
 10
57.7975573449081
 20
236.61294413262
 30
0.0
  0
VERTEX
  5
2D4
  8
0
  6
CONTINUOUS
 62
     7
 10
57.81400528864229
 20
236.6002282395995
 30
0.0
  0
VERTEX
  5
2D5
  8
0
  6
CONTINUOUS
 62
     7
 10
57.8298971166062
 20
236.5868516963315
 30
0.0
  0
VERTEX
  5
2D6
  8
0
  6
CONTINUOUS
 62
     7
 10
57.8456534076164
 20
236.5724071659776
 30
0.0
  0
VERTEX
  5
2D7
  8
0
  6
CONTINUOUS
 62
     7
 10
57.86079175480712
 20
236.557288534334
 30
0.0
  0
VERTEX
  5
2D8
  8
0
  6
CONTINUOUS
 62
     7
 10
57.87527159150832
 20
236.5415380772624
 30
0.0
  0
VERTEX
  5
2D9
  8
0
  6
CONTINUOUS
 62
     7
 10
57.88905235104995
 20
236.5251980706244
 30
0.0
  0
VERTEX
  5
2DA
  8
0
  6
CONTINUOUS
 62
     7
 10
57.90176042735354
 20
236.5087667864195
 30
0.0
  0
VERTEX
  5
2DB
  8
0
  6
CONTINUOUS
 62
     7
 10
57.91378541335959
 20
236.4918071657839
 30
0.0
  0
VERTEX
  5
2DC
  8
0
  6
CONTINUOUS
 62
     7
 10
57.9250971230859
 20
236.4743637073923
 30
0.0
  0
VERTEX
  5
2DD
  8
0
  6
CONTINUOUS
 62
     7
 10
57.93566537055028
 20
236.4564809099192
 30
0.0
  0
VERTEX
  5
2DE
  8
0
  6
CONTINUOUS
 62
     7
 10
57.9457522069397
 20
236.4376351647633
 30
0.0
  0
VERTEX
  5
2DF
  8
0
  6
CONTINUOUS
 62
     7
 10
57.95503278887578
 20
236.4183578564989
 30
0.0
  0
VERTEX
  5
2E0
  8
0
  6
CONTINUOUS
 62
     7
 10
57.96348283313134
 20
236.3987023084216
 30
0.0
  0
VERTEX
  5
2E1
  8
0
  6
CONTINUOUS
 62
     7
 10
57.97107805647921
 20
236.3787218438271
 30
0.0
  0
VERTEX
  5
2E2
  8
0
  6
CONTINUOUS
 62
     7
 10
57.97770888179568
 20
236.3587577496917
 30
0.0
  0
VERTEX
  5
2E3
  8
0
  6
CONTINUOUS
 62
     7
 10
57.98349916757152
 20
236.3385144548523
 30
0.0
  0
VERTEX
  5
2E4
  8
0
  6
CONTINUOUS
 62
     7
 10
57.98843468814526
 20
236.3180459658839
 30
0.0
  0
VERTEX
  5
2E5
  8
0
  6
CONTINUOUS
 62
     7
 10
57.99250121785544
 20
236.2974062893613
 30
0.0
  0
VERTEX
  5
2E6
  8
0
  6
CONTINUOUS
 62
     7
 10
57.9957740191086
 20
236.2759911066732
 30
0.0
  0
VERTEX
  5
2E7
  8
0
  6
CONTINUOUS
 62
     7
 10
57.99811826807712
 20
236.2544339880363
 30
0.0
  0
VERTEX
  5
2E8
  8
0
  6
CONTINUOUS
 62
     7
 10
57.99952868747094
 20
236.2327956979034
 30
0.0
  0
VERTEX
  5
2E9
  8
0
  6
CONTINUOUS
 62
     7
 10
57.99999999999999
 20
236.2111370007272
 30
0.0
  0
SEQEND
  5
4D2
  8
0
  6
CONTINUOUS
 62
     7
  0
ARC
  5
D7
  8
0
  6
CONTINUOUS
 62
     7
 10
60.00000000000001
 20
240.25
 30
0.0
 40
4.249999999999982
 50
141.3401917459109
 51
238.2432640743305
  0
LINE
  5
D8
  8
0
  6
CONTINUOUS
 62
     7
 10
56.68130755986709
 20
242.9049539521062
 30
0.0
 11
58.42749112452394
 21
245.0876834079273
 31
0.0
  0
POLYLINE
  5
D9
  8
0
  6
CONTINUOUS
 62
     7
 66
     1
 10
0.0
 20
0.0
 30
0.0
  0
VERTEX
  5
2EA
  8
0
  6
CONTINUOUS
 62
     7
 10
58.42749112452393
 20
245.0876834079273
 30
0.0
  0
VERTEX
  5
2EB
  8
0
  6
CONTINUOUS
 62
     7
 10
58.48271048198001
 20
245.1733254171797
 30
0.0
  0
VERTEX
  5
2EC
  8
0
  6
CONTINUOUS
 62
     7
 10
58.51942242879944
 20
245.268378771903
 30
0.0
  0
VERTEX
  5
2ED
  8
0
  6
CONTINUOUS
 62
     7
 10
58.53610258658451
 20
245.3688966021237
 30
0.0
  0
VERTEX
  5
2EE
  8
0
  6
CONTINUOUS
 62
     7
 10
58.53205835049127
 20
245.4707051382042
 30
0.0
  0
VERTEX
  5
2EF
  8
0
  6
CONTINUOUS
 62
     7
 10
58.5074576480384
 20
245.5695770169412
 30
0.0
  0
VERTEX
  5
2F0
  8
0
  6
CONTINUOUS
 62
     7
 10
58.46332196630672
 20
245.6614068130129
 30
0.0
  0
VERTEX
  5
2F1
  8
0
  6
CONTINUOUS
 62
     7
 10
58.40148393705861
 20
245.7423815072382
 30
0.0
  0
VERTEX
  5
2F2
  8
0
  6
CONTINUOUS
 62
     7
 10
58.3245112409569
 20
245.8091388133496
 30
0.0
  0
VERTEX
  5
2F3
  8
0
  6
CONTINUOUS
 62
     7
 10
58.2355999905839
 20
245.8589067891285
 30
0.0
  0
VERTEX
  5
2F4
  8
0
  6
CONTINUOUS
 62
     7
 10
58.13844201928337
 20
245.8896189348723
 30
0.0
  0
VERTEX
  5
2F5
  8
0
  6
CONTINUOUS
 62
     7
 10
58.03707158634818
 20
245.9
 30
0.0
  0
SEQEND
  5
4D3
  8
0
  6
CONTINUOUS
 62
     7
  0
LINE
  5
DA
  8
0
  6
CONTINUOUS
 62
     7
 10
50.65
 20
245.9
 30
0.0
 11
58.03707158634818
 21
245.9
 31
0.0
  0
LINE
  5
DB
  8
0
  6
CONTINUOUS
 62
     7
 10
50.65
 20
245.9
 30
0.0
 11
50.65
 21
194.6385999591656
 31
0.0
  0
LINE
  5
DC
  8
0
  6
CONTINUOUS
 62
     7
 10
50.65
 20
194.6385999591656
 30
0.0
 11
55.82724460751584
 21
181.8187561691264
 31
0.0
  0
POLYLINE
  5
DD
  8
0
  6
CONTINUOUS
 62
     7
 66
     1
 10
0.0
 20
0.0
 30
0.0
  0
VERTEX
  5
2F6
  8
0
  6
CONTINUOUS
 62
     7
 10
55.90000000000001
 20
181.4443073779307
 30
0.0
  0
VERTEX
  5
2F7
  8
0
  6
CONTINUOUS
 62
     7
 10
55.88164266237239
 20
181.6350331288394
 30
0.0
  0
VERTEX
  5
2F8
  8
0
  6
CONTINUOUS
 62
     7
 10
55.82724460751586
 20
181.8187561691264
 30
0.0
  0
SEQEND
  5
4D4
  8
0
  6
CONTINUOUS
 62
     7
  0
LINE
  5
DE
  8
0
  6
CONTINUOUS
 62
     7
 10
55.90000000000001
 20
181.4443073779306
 30
0.0
 11
55.90000000000001
 21
180.75
 31
0.0
  0
LINE
  5
DF
  8
0
  6
CONTINUOUS
 62
     7
 10
55.90000000000001
 20
180.75
 30
0.0
 11
104.1
 21
180.75
 31
0.0
  0
LINE
  5
E0
  8
0
  6
CONTINUOUS
 62
     7
 10
104.1
 20
181.4443073779306
 30
0.0
 11
104.1
 21
180.75
 31
0.0
  0
POLYLINE
  5
E1
  8
0
  6
CONTINUOUS
 62
     7
 66
     1
 10
0.0
 20
0.0
 30
0.0
  0
VERTEX
  5
2F9
  8
0
  6
CONTINUOUS
 62
     7
 10
104.1727553924841
 20
181.8187561691264
 30
0.0
  0
VERTEX
  5
2FA
  8
0
  6
CONTINUOUS
 62
     7
 10
104.1183573376276
 20
181.6350331288394
 30
0.0
  0
VERTEX
  5
2FB
  8
0
  6
CONTINUOUS
 62
     7
 10
104.1
 20
181.4443073779306
 30
0.0
  0
SEQEND
  5
4D5
  8
0
  6
CONTINUOUS
 62
     7
  0
LINE
  5
E2
  8
0
  6
CONTINUOUS
 62
     7
 10
109.35
 20
194.6385999591656
 30
0.0
 11
104.1727553924841
 21
181.8187561691264
 31
0.0
  0
LINE
  5
E3
  8
0
  6
CONTINUOUS
 62
     7
 10
58.20897248444349
 20
241.6828220124451
 30
0.0
 11
60.20897248444346
 21
244.1828220124451
 31
0.0
  0
ARC
  5
E4
  8
0
  6
CONTINUOUS
 62
     7
 10
60.00000000000001
 20
240.25
 30
0.0
 40
2.293634338953778
 50
141.3401917459107
 51
268.9099333540712
  0
LINE
  5
E5
  8
0
  6
CONTINUOUS
 62
     7
 10
59.9563656610462
 20
219.5432192492852
 30
0.0
 11
59.9563656610462
 21
237.9567807507148
 31
0.0
  0
ARC
  5
E6
  8
0
  6
CONTINUOUS
 62
     7
 10
60.00000000000001
 20
217.25
 30
0.0
 40
2.293634338953798
 50
91.0900666459288
 51
233.1301023541554
  0
LINE
  5
E7
  8
0
  6
CONTINUOUS
 62
     7
 10
60.62381939662771
 20
213.9150925288369
 30
0.0
 11
58.62381939662772
 21
215.4150925288369
 31
0.0
  0
ARC
  5
E8
  8
0
  6
CONTINUOUS
 62
     7
 10
62.0
 20
215.75
 30
0.0
 40
2.293634338953798
 50
233.1301023541557
 51
0.0
  0
LINE
  5
E9
  8
0
  6
CONTINUOUS
 62
     7
 10
64.2936343389538
 20
242.75
 30
0.0
 11
64.2936343389538
 21
215.75
 31
0.0
  0
ARC
  5
EA
  8
0
  6
CONTINUOUS
 62
     7
 10
62.0
 20
242.75
 30
0.0
 40
2.293634338953788
 50
0.0
 51
141.3401917459112
  0
LINE
  5
EB
  8
0
  6
CONTINUOUS
 62
     7
 10
55.40000000000001
 20
178.5
 30
0.0
 11
55.40000000000001
 21
174.0
 31
0.0
  0
LINE
  5
EC
  8
0
  6
CONTINUOUS
 62
     7
 10
55.40000000000001
 20
174.0
 30
0.0
 11
57.99999999999999
 21
174.0
 31
0.0
  0
LINE
  5
ED
  8
0
  6
CONTINUOUS
 62
     7
 10
57.99999999999999
 20
178.5
 30
0.0
 11
55.40000000000001
 21
178.5
 31
0.0
  0
LINE
  5
EE
  8
0
  6
CONTINUOUS
 62
     7
 10
55.90000000000001
 20
171.7499999999999
 30
0.0
 11
104.1
 21
171.7499999999999
 31
0.0
  0
LINE
  5
EF
  8
0
  6
CONTINUOUS
 62
     7
 10
55.90000000000001
 20
171.7499999999999
 30
0.0
 11
55.9
 21
162.25
 31
0.0
  0
LINE
  5
F0
  8
0
  6
CONTINUOUS
 62
     7
 10
55.9
 20
162.25
 30
0.0
 11
104.1
 21
162.25
 31
0.0
  0
LINE
  5
F1
  8
0
  6
CONTINUOUS
 62
     7
 10
104.1
 20
171.7499999999999
 30
0.0
 11
104.1
 21
162.25
 31
0.0
  0
LINE
  5
F2
  8
0
  6
CONTINUOUS
 62
     7
 10
81.2063656610462
 20
148.2063656610462
 30
0.0
 11
103.6803367718573
 21
148.2063656610462
 31
0.0
  0
LINE
  5
F3
  8
0
  6
CONTINUOUS
 62
     7
 10
103.6803367718573
 20
148.2063656610462
 30
0.0
 11
103.9462538504748
 21
150.0345455765411
 31
0.0
  0
LINE
  5
F4
  8
0
  6
CONTINUOUS
 62
     7
 10
103.9462538504748
 20
150.0345455765411
 30
0.0
 11
104.8081683455701
 21
150.8964600716365
 31
0.0
  0
POLYLINE
  5
F5
  8
0
  6
CONTINUOUS
 62
     7
 66
     1
 10
0.0
 20
0.0
 30
0.0
  0
VERTEX
  5
2FC
  8
0
  6
CONTINUOUS
 62
     7
 10
104.8081683455701
 20
150.8964600716365
 30
0.0
  0
VERTEX
  5
2FD
  8
0
  6
CONTINUOUS
 62
     7
 10
104.8703489670195
 20
150.9722267558081
 30
0.0
  0
VERTEX
  5
2FE
  8
0
  6
CONTINUOUS
 62
     7
 10
104.9165531556669
 20
151.0586670783101
 30
0.0
  0
VERTEX
  5
2FF
  8
0
  6
CONTINUOUS
 62
     7
 10
104.9450054820592
 20
151.1524595070697
 30
0.0
  0
VERTEX
  5
300
  8
0
  6
CONTINUOUS
 62
     7
 10
104.9546126449231
 20
151.25
 30
0.0
  0
VERTEX
  5
301
  8
0
  6
CONTINUOUS
 62
     7
 10
104.9450054820591
 20
151.3475404929302
 30
0.0
  0
VERTEX
  5
302
  8
0
  6
CONTINUOUS
 62
     7
 10
104.9165531556668
 20
151.4413329216899
 30
0.0
  0
VERTEX
  5
303
  8
0
  6
CONTINUOUS
 62
     7
 10
104.8703489670195
 20
151.5277732441919
 30
0.0
  0
VERTEX
  5
304
  8
0
  6
CONTINUOUS
 62
     7
 10
104.8081683455701
 20
151.6035399283635
 30
0.0
  0
SEQEND
  5
4D6
  8
0
  6
CONTINUOUS
 62
     7
  0
LINE
  5
F6
  8
0
  6
CONTINUOUS
 62
     7
 10
104.8081683455701
 20
151.6035399283635
 30
0.0
 11
104.1436343389538
 21
152.2680739349798
 31
0.0
  0
LINE
  5
F7
  8
0
  6
CONTINUOUS
 62
     7
 10
104.1436343389538
 20
152.2680739349798
 30
0.0
 11
104.1436343389538
 21
159.2936724158896
 31
0.0
  0
POLYLINE
  5
F8
  8
0
  6
CONTINUOUS
 62
     7
 66
     1
 10
0.0
 20
0.0
 30
0.0
  0
VERTEX
  5
305
  8
0
  6
CONTINUOUS
 62
     7
 10
104.1436343389538
 20
159.2936724158896
 30
0.0
  0
VERTEX
  5
306
  8
0
  6
CONTINUOUS
 62
     7
 10
104.1244207447929
 20
159.4887593663917
 30
0.0
  0
VERTEX
  5
307
  8
0
  6
CONTINUOUS
 62
     7
 10
104.0675182585981
 20
159.6763470330335
 30
0.0
  0
VERTEX
  5
308
  8
0
  6
CONTINUOUS
 62
     7
 10
103.9751133996634
 20
159.8492272236983
 30
0.0
  0
VERTEX
  5
309
  8
0
  6
CONTINUOUS
 62
     7
 10
103.850756891699
 20
160.000756891699
 30
0.0
  0
VERTEX
  5
30A
  8
0
  6
CONTINUOUS
 62
     7
 10
103.6992272236984
 20
160.1251133996633
 30
0.0
  0
VERTEX
  5
30B
  8
0
  6
CONTINUOUS
 62
     7
 10
103.5263470330335
 20
160.2175182585981
 30
0.0
  0
VERTEX
  5
30C
  8
0
  6
CONTINUOUS
 62
     7
 10
103.3387593663917
 20
160.2744207447929
 30
0.0
  0
VERTEX
  5
30D
  8
0
  6
CONTINUOUS
 62
     7
 10
103.1436724158896
 20
160.2936343389538
 30
0.0
  0
SEQEND
  5
4D7
  8
0
  6
CONTINUOUS
 62
     7
  0
LINE
  5
F9
  8
0
  6
CONTINUOUS
 62
     7
 10
56.85632758411037
 20
160.2936343389538
 30
0.0
 11
103.1436724158896
 21
160.2936343389538
 31
0.0
  0
POLYLINE
  5
FA
  8
0
  6
CONTINUOUS
 62
     7
 66
     1
 10
0.0
 20
0.0
 30
0.0
  0
VERTEX
  5
30E
  8
0
  6
CONTINUOUS
 62
     7
 10
56.85632758411037
 20
160.2936343389538
 30
0.0
  0
VERTEX
  5
30F
  8
0
  6
CONTINUOUS
 62
     7
 10
56.66124063360825
 20
160.2744207447929
 30
0.0
  0
VERTEX
  5
310
  8
0
  6
CONTINUOUS
 62
     7
 10
56.47365296696648
 20
160.2175182585981
 30
0.0
  0
VERTEX
  5
311
  8
0
  6
CONTINUOUS
 62
     7
 10
56.30077277630164
 20
160.1251133996633
 30
0.0
  0
VERTEX
  5
312
  8
0
  6
CONTINUOUS
 62
     7
 10
56.14924310830103
 20
160.000756891699
 30
0.0
  0
VERTEX
  5
313
  8
0
  6
CONTINUOUS
 62
     7
 10
56.02488660033663
 20
159.8492272236983
 30
0.0
  0
VERTEX
  5
314
  8
0
  6
CONTINUOUS
 62
     7
 10
55.93248174140188
 20
159.6763470330335
 30
0.0
  0
VERTEX
  5
315
  8
0
  6
CONTINUOUS
 62
     7
 10
55.87557925520711
 20
159.4887593663917
 30
0.0
  0
VERTEX
  5
316
  8
0
  6
CONTINUOUS
 62
     7
 10
55.85636566104618
 20
159.2936724158896
 30
0.0
  0
SEQEND
  5
4D8
  8
0
  6
CONTINUOUS
 62
     7
  0
LINE
  5
FB
  8
0
  6
CONTINUOUS
 62
     7
 10
55.85636566104619
 20
152.2680739349798
 30
0.0
 11
55.85636566104619
 21
159.2936724158896
 31
0.0
  0
LINE
  5
FC
  8
0
  6
CONTINUOUS
 62
     7
 10
55.1918316544299
 20
151.6035399283635
 30
0.0
 11
55.85636566104619
 21
152.2680739349798
 31
0.0
  0
POLYLINE
  5
FD
  8
0
  6
CONTINUOUS
 62
     7
 66
     1
 10
0.0
 20
0.0
 30
0.0
  0
VERTEX
  5
317
  8
0
  6
CONTINUOUS
 62
     7
 10
55.1918316544299
 20
151.6035399283635
 30
0.0
  0
VERTEX
  5
318
  8
0
  6
CONTINUOUS
 62
     7
 10
55.12965103298045
 20
151.5277732441919
 30
0.0
  0
VERTEX
  5
319
  8
0
  6
CONTINUOUS
 62
     7
 10
55.08344684433312
 20
151.4413329216899
 30
0.0
  0
VERTEX
  5
31A
  8
0
  6
CONTINUOUS
 62
     7
 10
55.05499451794082
 20
151.3475404929302
 30
0.0
  0
VERTEX
  5
31B
  8
0
  6
CONTINUOUS
 62
     7
 10
55.04538735507688
 20
151.25
 30
0.0
  0
VERTEX
  5
31C
  8
0
  6
CONTINUOUS
 62
     7
 10
55.05499451794082
 20
151.1524595070697
 30
0.0
  0
VERTEX
  5
31D
  8
0
  6
CONTINUOUS
 62
     7
 10
55.08344684433311
 20
151.0586670783101
 30
0.0
  0
VERTEX
  5
31E
  8
0
  6
CONTINUOUS
 62
     7
 10
55.12965103298044
 20
150.9722267558081
 30
0.0
  0
VERTEX
  5
31F
  8
0
  6
CONTINUOUS
 62
     7
 10
55.19183165442988
 20
150.8964600716365
 30
0.0
  0
SEQEND
  5
4D9
  8
0
  6
CONTINUOUS
 62
     7
  0
LINE
  5
FE
  8
0
  6
CONTINUOUS
 62
     7
 10
56.05374614952522
 20
150.0345455765411
 30
0.0
 11
55.19183165442988
 21
150.8964600716365
 31
0.0
  0
LINE
  5
FF
  8
0
  6
CONTINUOUS
 62
     7
 10
56.31966322814267
 20
148.2063656610462
 30
0.0
 11
56.05374614952522
 21
150.0345455765411
 31
0.0
  0
LINE
  5
100
  8
0
  6
CONTINUOUS
 62
     7
 10
78.79363433895378
 20
148.2063656610462
 30
0.0
 11
56.31966322814267
 21
148.2063656610462
 31
0.0
  0
LINE
  5
101
  8
0
  6
CONTINUOUS
 62
     7
 10
78.79363433895378
 20
156.25
 30
0.0
 11
78.79363433895378
 21
148.2063656610462
 31
0.0
  0
LINE
  5
102
  8
0
  6
CONTINUOUS
 62
     7
 10
81.2063656610462
 20
156.25
 30
0.0
 11
78.79363433895378
 21
156.25
 31
0.0
  0
LINE
  5
103
  8
0
  6
CONTINUOUS
 62
     7
 10
81.2063656610462
 20
156.25
 30
0.0
 11
81.2063656610462
 21
148.2063656610462
 31
0.0
  0
LINE
  5
104
  8
0
  6
CONTINUOUS
 62
     7
 10
56.64831901550403
 20
146.25
 30
0.0
 11
103.351680984496
 21
146.25
 31
0.0
  0
LINE
  5
105
  8
0
  6
CONTINUOUS
 62
     7
 10
58.3210462882313
 20
134.75
 30
0.0
 11
56.64831901550403
 21
146.25
 31
0.0
  0
LINE
  5
106
  8
0
  6
CONTINUOUS
 62
     7
 10
101.6789537117687
 20
134.75
 30
0.0
 11
58.3210462882313
 21
134.75
 31
0.0
  0
LINE
  5
107
  8
0
  6
CONTINUOUS
 62
     7
 10
101.6789537117687
 20
134.75
 30
0.0
 11
103.351680984496
 21
146.25
 31
0.0
  0
LINE
  5
108
  8
0
  6
CONTINUOUS
 62
     7
 10
110.1
 20
255.2500380769358
 30
0.0
 11
110.1
 21
254.25
 31
0.0
  0
LINE
  5
109
  8
0
  6
CONTINUOUS
 62
     7
 10
110.1
 20
254.25
 30
0.0
 11
110.8500190384679
 21
254.25
 31
0.0
  0
POLYLINE
  5
10A
  8
0
  6
CONTINUOUS
 62
     7
 66
     1
 10
0.0
 20
0.0
 30
0.0
  0
VERTEX
  5
320
  8
0
  6
CONTINUOUS
 62
     7
 10
111.35
 20
253.7500190384679
 30
0.0
  0
VERTEX
  5
321
  8
0
  6
CONTINUOUS
 62
     7
 10
111.3403932029195
 20
253.8475625137189
 30
0.0
  0
VERTEX
  5
322
  8
0
  6
CONTINUOUS
 62
     7
 10
111.3119419598221
 20
253.9413563470398
 30
0.0
  0
VERTEX
  5
323
  8
0
  6
CONTINUOUS
 62
     7
 10
111.2657395303548
 20
254.0277964423722
 30
0.0
  0
VERTEX
  5
324
  8
0
  6
CONTINUOUS
 62
     7
 10
111.2035612763726
 20
254.1035612763725
 30
0.0
  0
VERTEX
  5
325
  8
0
  6
CONTINUOUS
 62
     7
 10
111.1277964423723
 20
254.1657395303547
 30
0.0
  0
VERTEX
  5
326
  8
0
  6
CONTINUOUS
 62
     7
 10
111.0413563470399
 20
254.2119419598221
 30
0.0
  0
VERTEX
  5
327
  8
0
  6
CONTINUOUS
 62
     7
 10
110.947562513719
 20
254.2403932029194
 30
0.0
  0
VERTEX
  5
328
  8
0
  6
CONTINUOUS
 62
     7
 10
110.8500190384679
 20
254.2499999999999
 30
0.0
  0
SEQEND
  5
4DA
  8
0
  6
CONTINUOUS
 62
     7
  0
LINE
  5
10B
  8
0
  6
CONTINUOUS
 62
     7
 10
111.35
 20
253.7500190384679
 30
0.0
 11
111.35
 21
194.3471462906175
 31
0.0
  0
POLYLINE
  5
10C
  8
0
  6
CONTINUOUS
 62
     7
 66
     1
 10
0.0
 20
0.0
 30
0.0
  0
VERTEX
  5
329
  8
0
  6
CONTINUOUS
 62
     7
 10
111.3136223037579
 20
194.1599218950196
 30
0.0
  0
VERTEX
  5
32A
  8
0
  6
CONTINUOUS
 62
     7
 10
111.3408213311862
 20
194.2517834151631
 30
0.0
  0
VERTEX
  5
32B
  8
0
  6
CONTINUOUS
 62
     7
 10
111.35
 20
194.3471462906175
 30
0.0
  0
SEQEND
  5
4DB
  8
0
  6
CONTINUOUS
 62
     7
  0
LINE
  5
10D
  8
0
  6
CONTINUOUS
 62
     7
 10
111.3136223037579
 20
194.1599218950196
 30
0.0
 11
106.1363776962421
 21
181.3400781049804
 31
0.0
  0
POLYLINE
  5
10E
  8
0
  6
CONTINUOUS
 62
     7
 66
     1
 10
0.0
 20
0.0
 30
0.0
  0
VERTEX
  5
32C
  8
0
  6
CONTINUOUS
 62
     7
 10
106.1363776962421
 20
181.3400781049804
 30
0.0
  0
VERTEX
  5
32D
  8
0
  6
CONTINUOUS
 62
     7
 10
106.1091786688138
 20
181.2482165848369
 30
0.0
  0
VERTEX
  5
32E
  8
0
  6
CONTINUOUS
 62
     7
 10
106.1
 20
181.1528537093825
 30
0.0
  0
SEQEND
  5
4DC
  8
0
  6
CONTINUOUS
 62
     7
  0
LINE
  5
10F
  8
0
  6
CONTINUOUS
 62
     7
 10
106.1
 20
181.1528537093825
 30
0.0
 11
106.1
 21
151.2861719305287
 31
0.0
  0
LINE
  5
110
  8
0
  6
CONTINUOUS
 62
     7
 10
106.0947934179005
 20
151.2142047480658
 30
0.0
 11
106.1
 21
151.2861719305287
 31
0.0
  0
LINE
  5
111
  8
0
  6
CONTINUOUS
 62
     7
 10
106.0947934179005
 20
151.2142047480658
 30
0.0
 11
102.2245130993656
 21
124.6060275581383
 31
0.0
  0
POLYLINE
  5
112
  8
0
  6
CONTINUOUS
 62
     7
 66
     1
 10
0.0
 20
0.0
 30
0.0
  0
VERTEX
  5
32F
  8
0
  6
CONTINUOUS
 62
     7
 10
101.2349643405004
 20
123.75
 30
0.0
  0
VERTEX
  5
330
  8
0
  6
CONTINUOUS
 62
     7
 10
101.4373173564363
 20
123.7706872328224
 30
0.0
  0
VERTEX
  5
331
  8
0
  6
CONTINUOUS
 62
     7
 10
101.6312957176272
 20
123.8318930406768
 30
0.0
  0
VERTEX
  5
332
  8
0
  6
CONTINUOUS
 62
     7
 10
101.8088739786283
 20
123.9310851623933
 30
0.0
  0
VERTEX
  5
333
  8
0
  6
CONTINUOUS
 62
     7
 10
101.9627052135395
 20
124.0641597332083
 30
0.0
  0
VERTEX
  5
334
  8
0
  6
CONTINUOUS
 62
     7
 10
102.0864249795647
 20
124.2256110735108
 30
0.0
  0
VERTEX
  5
335
  8
0
  6
CONTINUOUS
 62
     7
 10
102.1749146324046
 20
124.4087594747206
 30
0.0
  0
VERTEX
  5
336
  8
0
  6
CONTINUOUS
 62
     7
 10
102.2245130993656
 20
124.6060275581383
 30
0.0
  0
SEQEND
  5
4DD
  8
0
  6
CONTINUOUS
 62
     7
  0
LINE
  5
113
  8
0
  6
CONTINUOUS
 62
     7
 10
101.2349643405004
 20
123.75
 30
0.0
 11
100.1230472211597
 21
123.75
 31
0.0
  0
LINE
  5
114
  8
0
  6
CONTINUOUS
 62
     7
 10
100.1230472211597
 20
123.75
 30
0.0
 11
101.2721000285726
 21
131.6497380509638
 31
0.0
  0
POLYLINE
  5
115
  8
0
  6
CONTINUOUS
 62
     7
 66
     1
 10
0.0
 20
0.0
 30
0.0
  0
VERTEX
  5
337
  8
0
  6
CONTINUOUS
 62
     7
 10
101.2721000285726
 20
131.6497380509638
 30
0.0
  0
VERTEX
  5
338
  8
0
  6
CONTINUOUS
 62
     7
 10
101.2814502360896
 20
131.8398002264423
 30
0.0
  0
VERTEX
  5
339
  8
0
  6
CONTINUOUS
 62
     7
 10
101.2546291377258
 20
132.0281894494379
 30
0.0
  0
VERTEX
  5
33A
  8
0
  6
CONTINUOUS
 62
     7
 10
101.1926078713967
 20
132.2080845258727
 30
0.0
  0
VERTEX
  5
33B
  8
0
  6
CONTINUOUS
 62
     7
 10
101.0976321021559
 20
132.3729718175969
 30
0.0
  0
VERTEX
  5
33C
  8
0
  6
CONTINUOUS
 62
     7
 10
100.9731407111897
 20
132.5168810880973
 30
0.0
  0
VERTEX
  5
33D
  8
0
  6
CONTINUOUS
 62
     7
 10
100.8236412808603
 20
132.6346016727297
 30
0.0
  0
VERTEX
  5
33E
  8
0
  6
CONTINUOUS
 62
     7
 10
100.6545468842326
 20
132.721871146383
 30
0.0
  0
VERTEX
  5
33F
  8
0
  6
CONTINUOUS
 62
     7
 10
100.4719800886093
 20
132.7755296573027
 30
0.0
  0
VERTEX
  5
340
  8
0
  6
CONTINUOUS
 62
     7
 10
100.2825512697074
 20
132.7936343389538
 30
0.0
  0
SEQEND
  5
4DE
  8
0
  6
CONTINUOUS
 62
     7
  0
LINE
  5
116
  8
0
  6
CONTINUOUS
 62
     7
 10
59.71744873029255
 20
132.7936343389538
 30
0.0
 11
100.2825512697074
 21
132.7936343389538
 31
0.0
  0
POLYLINE
  5
117
  8
0
  6
CONTINUOUS
 62
     7
 66
     1
 10
0.0
 20
0.0
 30
0.0
  0
VERTEX
  5
341
  8
0
  6
CONTINUOUS
 62
     7
 10
59.71744873029257
 20
132.7936343389538
 30
0.0
  0
VERTEX
  5
342
  8
0
  6
CONTINUOUS
 62
     7
 10
59.5280199113907
 20
132.7755296573027
 30
0.0
  0
VERTEX
  5
343
  8
0
  6
CONTINUOUS
 62
     7
 10
59.34545311576735
 20
132.721871146383
 30
0.0
  0
VERTEX
  5
344
  8
0
  6
CONTINUOUS
 62
     7
 10
59.17635871913974
 20
132.6346016727297
 30
0.0
  0
VERTEX
  5
345
  8
0
  6
CONTINUOUS
 62
     7
 10
59.02685928881026
 20
132.5168810880973
 30
0.0
  0
VERTEX
  5
346
  8
0
  6
CONTINUOUS
 62
     7
 10
58.9023678978441
 20
132.3729718175969
 30
0.0
  0
VERTEX
  5
347
  8
0
  6
CONTINUOUS
 62
     7
 10
58.8073921286033
 20
132.2080845258727
 30
0.0
  0
VERTEX
  5
348
  8
0
  6
CONTINUOUS
 62
     7
 10
58.74537086227417
 20
132.0281894494379
 30
0.0
  0
VERTEX
  5
349
  8
0
  6
CONTINUOUS
 62
     7
 10
58.71854976391037
 20
131.8398002264423
 30
0.0
  0
VERTEX
  5
34A
  8
0
  6
CONTINUOUS
 62
     7
 10
58.72789997142738
 20
131.6497380509638
 30
0.0
  0
SEQEND
  5
4DF
  8
0
  6
CONTINUOUS
 62
     7
  0
LINE
  5
118
  8
0
  6
CONTINUOUS
 62
     7
 10
59.87695277884032
 20
123.75
 30
0.0
 11
58.7278999714274
 21
131.6497380509638
 31
0.0
  0
LINE
  5
119
  8
0
  6
CONTINUOUS
 62
     7
 10
58.76503565949958
 20
123.75
 30
0.0
 11
59.87695277884032
 21
123.75
 31
0.0
  0
POLYLINE
  5
11A
  8
0
  6
CONTINUOUS
 62
     7
 66
     1
 10
0.0
 20
0.0
 30
0.0
  0
VERTEX
  5
34B
  8
0
  6
CONTINUOUS
 62
     7
 10
57.77548690063441
 20
124.6060275581383
 30
0.0
  0
VERTEX
  5
34C
  8
0
  6
CONTINUOUS
 62
     7
 10
57.82508536759536
 20
124.4087594747206
 30
0.0
  0
VERTEX
  5
34D
  8
0
  6
CONTINUOUS
 62
     7
 10
57.91357502043525
 20
124.2256110735108
 30
0.0
  0
VERTEX
  5
34E
  8
0
  6
CONTINUOUS
 62
     7
 10
58.03729478646046
 20
124.0641597332083
 30
0.0
  0
VERTEX
  5
34F
  8
0
  6
CONTINUOUS
 62
     7
 10
58.19112602137172
 20
123.9310851623933
 30
0.0
  0
VERTEX
  5
350
  8
0
  6
CONTINUOUS
 62
     7
 10
58.3687042823728
 20
123.8318930406768
 30
0.0
  0
VERTEX
  5
351
  8
0
  6
CONTINUOUS
 62
     7
 10
58.56268264356373
 20
123.7706872328224
 30
0.0
  0
VERTEX
  5
352
  8
0
  6
CONTINUOUS
 62
     7
 10
58.76503565949959
 20
123.75
 30
0.0
  0
SEQEND
  5
4E0
  8
0
  6
CONTINUOUS
 62
     7
  0
LINE
  5
11B
  8
0
  6
CONTINUOUS
 62
     7
 10
53.9052065820995
 20
151.2142047480658
 30
0.0
 11
57.77548690063441
 21
124.6060275581383
 31
0.0
  0
LINE
  5
11C
  8
0
  6
CONTINUOUS
 62
     7
 10
53.89999999999999
 20
151.2861719305287
 30
0.0
 11
53.9052065820995
 21
151.2142047480658
 31
0.0
  0
LINE
  5
11D
  8
0
  6
CONTINUOUS
 62
     7
 10
53.90000000000001
 20
181.1528537093825
 30
0.0
 11
53.9
 21
151.2861719305287
 31
0.0
  0
POLYLINE
  5
11E
  8
0
  6
CONTINUOUS
 62
     7
 66
     1
 10
0.0
 20
0.0
 30
0.0
  0
VERTEX
  5
353
  8
0
  6
CONTINUOUS
 62
     7
 10
53.89999999999999
 20
181.1528537093825
 30
0.0
  0
VERTEX
  5
354
  8
0
  6
CONTINUOUS
 62
     7
 10
53.89082133118618
 20
181.2482165848368
 30
0.0
  0
VERTEX
  5
355
  8
0
  6
CONTINUOUS
 62
     7
 10
53.86362230375792
 20
181.3400781049804
 30
0.0
  0
SEQEND
  5
4E1
  8
0
  6
CONTINUOUS
 62
     7
  0
LINE
  5
11F
  8
0
  6
CONTINUOUS
 62
     7
 10
48.68637769624208
 20
194.1599218950196
 30
0.0
 11
53.86362230375792
 21
181.3400781049804
 31
0.0
  0
POLYLINE
  5
120
  8
0
  6
CONTINUOUS
 62
     7
 66
     1
 10
0.0
 20
0.0
 30
0.0
  0
VERTEX
  5
356
  8
0
  6
CONTINUOUS
 62
     7
 10
48.64999999999998
 20
194.3471462906175
 30
0.0
  0
VERTEX
  5
357
  8
0
  6
CONTINUOUS
 62
     7
 10
48.65917866881379
 20
194.2517834151631
 30
0.0
  0
VERTEX
  5
358
  8
0
  6
CONTINUOUS
 62
     7
 10
48.68637769624207
 20
194.1599218950196
 30
0.0
  0
SEQEND
  5
4E2
  8
0
  6
CONTINUOUS
 62
     7
  0
LINE
  5
121
  8
0
  6
CONTINUOUS
 62
     7
 10
48.65
 20
253.7500190384679
 30
0.0
 11
48.64999999999999
 21
194.3471462906175
 31
0.0
  0
POLYLINE
  5
122
  8
0
  6
CONTINUOUS
 62
     7
 66
     1
 10
0.0
 20
0.0
 30
0.0
  0
VERTEX
  5
359
  8
0
  6
CONTINUOUS
 62
     7
 10
49.14998096153207
 20
254.2499999999999
 30
0.0
  0
VERTEX
  5
35A
  8
0
  6
CONTINUOUS
 62
     7
 10
49.05243748628103
 20
254.2403932029194
 30
0.0
  0
VERTEX
  5
35B
  8
0
  6
CONTINUOUS
 62
     7
 10
48.95864365296014
 20
254.2119419598221
 30
0.0
  0
VERTEX
  5
35C
  8
0
  6
CONTINUOUS
 62
     7
 10
48.87220355762773
 20
254.1657395303547
 30
0.0
  0
VERTEX
  5
35D
  8
0
  6
CONTINUOUS
 62
     7
 10
48.79643872362742
 20
254.1035612763725
 30
0.0
  0
VERTEX
  5
35E
  8
0
  6
CONTINUOUS
 62
     7
 10
48.73426046964523
 20
254.0277964423722
 30
0.0
  0
VERTEX
  5
35F
  8
0
  6
CONTINUOUS
 62
     7
 10
48.68805804017786
 20
253.9413563470398
 30
0.0
  0
VERTEX
  5
360
  8
0
  6
CONTINUOUS
 62
     7
 10
48.65960679708048
 20
253.8475625137189
 30
0.0
  0
VERTEX
  5
361
  8
0
  6
CONTINUOUS
 62
     7
 10
48.65000000000001
 20
253.7500190384679
 30
0.0
  0
SEQEND
  5
4E3
  8
0
  6
CONTINUOUS
 62
     7
  0
LINE
  5
123
  8
0
  6
CONTINUOUS
 62
     7
 10
49.9
 20
254.25
 30
0.0
 11
49.14998096153209
 21
254.25
 31
0.0
  0
LINE
  5
124
  8
0
  6
CONTINUOUS
 62
     7
 10
49.9
 20
255.2500380769358
 30
0.0
 11
49.9
 21
254.25
 31
0.0
  0
POLYLINE
  5
125
  8
0
  6
CONTINUOUS
 62
     7
 66
     1
 10
0.0
 20
0.0
 30
0.0
  0
VERTEX
  5
362
  8
0
  6
CONTINUOUS
 62
     7
 10
50.89996192306417
 20
256.25
 30
0.0
  0
VERTEX
  5
363
  8
0
  6
CONTINUOUS
 62
     7
 10
50.70487497256205
 20
256.2307864058391
 30
0.0
  0
VERTEX
  5
364
  8
0
  6
CONTINUOUS
 62
     7
 10
50.51728730592029
 20
256.1738839196443
 30
0.0
  0
VERTEX
  5
365
  8
0
  6
CONTINUOUS
 62
     7
 10
50.34440711525544
 20
256.0814790607096
 30
0.0
  0
VERTEX
  5
366
  8
0
  6
CONTINUOUS
 62
     7
 10
50.19287744725483
 20
255.9571225527451
 30
0.0
  0
VERTEX
  5
367
  8
0
  6
CONTINUOUS
 62
     7
 10
50.06852093929043
 20
255.8055928847445
 30
0.0
  0
VERTEX
  5
368
  8
0
  6
CONTINUOUS
 62
     7
 10
49.97611608035569
 20
255.6327126940797
 30
0.0
  0
VERTEX
  5
369
  8
0
  6
CONTINUOUS
 62
     7
 10
49.91921359416091
 20
255.4451250274379
 30
0.0
  0
VERTEX
  5
36A
  8
0
  6
CONTINUOUS
 62
     7
 10
49.89999999999998
 20
255.2500380769358
 30
0.0
  0
SEQEND
  5
4E4
  8
0
  6
CONTINUOUS
 62
     7
  0
LINE
  5
126
  8
0
  6
CONTINUOUS
 62
     7
 10
109.1000380769358
 20
256.25
 30
0.0
 11
50.89996192306418
 21
256.25
 31
0.0
  0
POLYLINE
  5
127
  8
0
  6
CONTINUOUS
 62
     7
 66
     1
 10
0.0
 20
0.0
 30
0.0
  0
VERTEX
  5
36B
  8
0
  6
CONTINUOUS
 62
     7
 10
110.1
 20
255.2500380769358
 30
0.0
  0
VERTEX
  5
36C
  8
0
  6
CONTINUOUS
 62
     7
 10
110.0807864058391
 20
255.4451250274379
 30
0.0
  0
VERTEX
  5
36D
  8
0
  6
CONTINUOUS
 62
     7
 10
110.0238839196443
 20
255.6327126940797
 30
0.0
  0
VERTEX
  5
36E
  8
0
  6
CONTINUOUS
 62
     7
 10
109.9314790607096
 20
255.8055928847445
 30
0.0
  0
VERTEX
  5
36F
  8
0
  6
CONTINUOUS
 62
     7
 10
109.8071225527452
 20
255.9571225527451
 30
0.0
  0
VERTEX
  5
370
  8
0
  6
CONTINUOUS
 62
     7
 10
109.6555928847446
 20
256.0814790607096
 30
0.0
  0
VERTEX
  5
371
  8
0
  6
CONTINUOUS
 62
     7
 10
109.4827126940797
 20
256.1738839196443
 30
0.0
  0
VERTEX
  5
372
  8
0
  6
CONTINUOUS
 62
     7
 10
109.2951250274379
 20
256.2307864058391
 30
0.0
  0
VERTEX
  5
373
  8
0
  6
CONTINUOUS
 62
     7
 10
109.1000380769358
 20
256.25
 30
0.0
  0
SEQEND
  5
4E5
  8
0
  6
CONTINUOUS
 62
     7
  0
LINE
  5
128
  8
0
  6
CONTINUOUS
 62
     7
 10
109.8238193966277
 20
251.9238193966277
 30
0.0
 11
109.85
 21
251.95
 31
0.0
  0
LINE
  5
129
  8
0
  6
CONTINUOUS
 62
     7
 10
109.8238193966277
 20
251.9238193966277
 30
0.0
 11
108.5
 21
251.9238193966277
 31
0.0
  0
LINE
  5
12A
  8
0
  6
CONTINUOUS
 62
     7
 10
107.0
 20
251.95
 30
0.0
 11
108.5
 21
251.9238193966277
 31
0.0
  0
LINE
  5
12B
  8
0
  6
CONTINUOUS
 62
     7
 10
53.00000000000001
 20
251.95
 30
0.0
 11
51.5
 21
251.9238193966277
 31
0.0
  0
LINE
  5
12C
  8
0
  6
CONTINUOUS
 62
     7
 10
50.17618060337227
 20
251.9238193966277
 30
0.0
 11
51.5
 21
251.9238193966277
 31
0.0
  0
LINE
  5
12D
  8
0
  6
CONTINUOUS
 62
     7
 10
50.17618060337227
 20
251.9238193966277
 30
0.0
 11
50.15
 21
251.95
 31
0.0
  0
LINE
  5
12E
  8
0
  6
CONTINUOUS
 62
     7
 10
51.5
 20
248.1761806033723
 30
0.0
 11
53.00000000000001
 21
248.15
 31
0.0
  0
LINE
  5
12F
  8
0
  6
CONTINUOUS
 62
     7
 10
51.5
 20
251.9238193966277
 30
0.0
 11
51.5
 21
248.1761806033723
 31
0.0
  0
LINE
  5
130
  8
0
  6
CONTINUOUS
 62
     7
 10
108.5
 20
251.9238193966277
 30
0.0
 11
108.5
 21
248.1761806033722
 31
0.0
  0
LINE
  5
131
  8
0
  6
CONTINUOUS
 62
     7
 10
108.5
 20
248.1761806033722
 30
0.0
 11
107.0
 21
248.15
 31
0.0
  0
LINE
  5
132
  8
0
  6
CONTINUOUS
 62
     7
 10
109.8238193966277
 20
248.1761806033722
 30
0.0
 11
109.85
 21
248.15
 31
0.0
  0
LINE
  5
133
  8
0
  6
CONTINUOUS
 62
     7
 10
108.5
 20
248.1761806033722
 30
0.0
 11
109.8238193966277
 21
248.1761806033722
 31
0.0
  0
LINE
  5
134
  8
0
  6
CONTINUOUS
 62
     7
 10
50.17618060337227
 20
248.1761806033723
 30
0.0
 11
50.15
 21
248.15
 31
0.0
  0
LINE
  5
135
  8
0
  6
CONTINUOUS
 62
     7
 10
51.5
 20
248.1761806033723
 30
0.0
 11
50.17618060337227
 21
248.1761806033723
 31
0.0
  0
LINE
  5
136
  8
0
  6
CONTINUOUS
 62
     7
 10
56.49999999999999
 20
174.0261806033722
 30
0.0
 11
57.99999999999999
 21
174.0
 31
0.0
  0
LINE
  5
137
  8
0
  6
CONTINUOUS
 62
     7
 10
55.42618060337227
 20
174.0261806033722
 30
0.0
 11
55.40000000000001
 21
174.0
 31
0.0
  0
LINE
  5
138
  8
0
  6
CONTINUOUS
 62
     7
 10
55.42618060337227
 20
174.0261806033722
 30
0.0
 11
56.49999999999999
 21
174.0261806033722
 31
0.0
  0
LINE
  5
139
  8
0
  6
CONTINUOUS
 62
     7
 10
102.0
 20
178.5
 30
0.0
 11
103.5
 21
178.4738193966277
 31
0.0
  0
LINE
  5
13A
  8
0
  6
CONTINUOUS
 62
     7
 10
103.5
 20
178.4738193966277
 30
0.0
 11
103.5
 21
174.0261806033722
 31
0.0
  0
LINE
  5
13B
  8
0
  6
CONTINUOUS
 62
     7
 10
103.5
 20
174.0261806033722
 30
0.0
 11
102.0
 21
174.0
 31
0.0
  0
LINE
  5
13C
  8
0
  6
CONTINUOUS
 62
     7
 10
104.5738193966277
 20
174.0261806033722
 30
0.0
 11
104.6
 21
174.0
 31
0.0
  0
LINE
  5
13D
  8
0
  6
CONTINUOUS
 62
     7
 10
104.5738193966277
 20
174.0261806033722
 30
0.0
 11
103.5
 21
174.0261806033722
 31
0.0
  0
LINE
  5
13E
  8
0
  6
CONTINUOUS
 62
     7
 10
56.49999999999999
 20
178.4738193966277
 30
0.0
 11
56.49999999999999
 21
174.0261806033722
 31
0.0
  0
LINE
  5
13F
  8
0
  6
CONTINUOUS
 62
     7
 10
57.99999999999999
 20
178.5
 30
0.0
 11
56.49999999999999
 21
178.4738193966277
 31
0.0
  0
ARC
  5
140
  8
0
  6
CONTINUOUS
 62
     7
 10
62.0
 20
215.75
 30
0.0
 40
4.276180603372273
 50
233.1301023541559
 51
0.0
  0
LINE
  5
141
  8
0
  6
CONTINUOUS
 62
     7
 10
94.00911148231567
 20
245.8738193966277
 30
0.0
 11
65.99088851768431
 21
245.8738193966277
 31
0.0
  0
POLYLINE
  5
142
  8
0
  6
CONTINUOUS
 62
     7
 66
     1
 10
0.0
 20
0.0
 30
0.0
  0
VERTEX
  5
374
  8
0
  6
CONTINUOUS
 62
     7
 10
57.73828356975924
 20
220.879098971072
 30
0.0
  0
VERTEX
  5
375
  8
0
  6
CONTINUOUS
 62
     7
 10
57.75567949399924
 20
220.890450809141
 30
0.0
  0
VERTEX
  5
376
  8
0
  6
CONTINUOUS
 62
     7
 10
57.7726035161467
 20
220.9025258479062
 30
0.0
  0
VERTEX
  5
377
  8
0
  6
CONTINUOUS
 62
     7
 10
57.78901252076103
 20
220.9152919609298
 30
0.0
  0
VERTEX
  5
378
  8
0
  6
CONTINUOUS
 62
     7
 10
57.80486339240162
 20
220.9287170217741
 30
0.0
  0
VERTEX
  5
379
  8
0
  6
CONTINUOUS
 62
     7
 10
57.82057546335324
 20
220.9432096514353
 30
0.0
  0
VERTEX
  5
37A
  8
0
  6
CONTINUOUS
 62
     7
 10
57.83566753239122
 20
220.9583744909138
 30
0.0
  0
VERTEX
  5
37B
  8
0
  6
CONTINUOUS
 62
     7
 10
57.85009916222717
 20
220.9741691404833
 30
0.0
  0
VERTEX
  5
37C
  8
0
  6
CONTINUOUS
 62
     7
 10
57.86382991557279
 20
220.990551200417
 30
0.0
  0
VERTEX
  5
37D
  8
0
  6
CONTINUOUS
 62
     7
 10
57.87648771072035
 20
221.0070212583786
 30
0.0
  0
VERTEX
  5
37E
  8
0
  6
CONTINUOUS
 62
     7
 10
57.88846080334685
 20
221.0240175626159
 30
0.0
  0
VERTEX
  5
37F
  8
0
  6
CONTINUOUS
 62
     7
 10
57.89971914361981
 20
221.0414955223416
 30
0.0
  0
VERTEX
  5
380
  8
0
  6
CONTINUOUS
 62
     7
 10
57.91023268170674
 20
221.0594105467679
 30
0.0
  0
VERTEX
  5
381
  8
0
  6
CONTINUOUS
 62
     7
 10
57.92026186725609
 20
221.0782870435299
 30
0.0
  0
VERTEX
  5
382
  8
0
  6
CONTINUOUS
 62
     7
 10
57.92948348245544
 20
221.0975926370983
 30
0.0
  0
VERTEX
  5
383
  8
0
  6
CONTINUOUS
 62
     7
 10
57.93787340718445
 20
221.1172739301492
 30
0.0
  0
VERTEX
  5
384
  8
0
  6
CONTINUOUS
 62
     7
 10
57.94540752132278
 20
221.1372775253587
 30
0.0
  0
VERTEX
  5
385
  8
0
  6
CONTINUOUS
 62
     7
 10
57.9519239920139
 20
221.1570873473929
 30
0.0
  0
VERTEX
  5
386
  8
0
  6
CONTINUOUS
 62
     7
 10
57.95761365831851
 20
221.1771691728012
 30
0.0
  0
VERTEX
  5
387
  8
0
  6
CONTINUOUS
 62
     7
 10
57.96246278373349
 20
221.1974703551658
 30
0.0
  0
VERTEX
  5
388
  8
0
  6
CONTINUOUS
 62
     7
 10
57.96645763175573
 20
221.2179382480692
 30
0.0
  0
VERTEX
  5
389
  8
0
  6
CONTINUOUS
 62
     7
 10
57.96967077489272
 20
221.2391611078412
 30
0.0
  0
VERTEX
  5
38A
  8
0
  6
CONTINUOUS
 62
     7
 10
57.97197217408127
 20
221.2605220332537
 30
0.0
  0
VERTEX
  5
38B
  8
0
  6
CONTINUOUS
 62
     7
 10
57.97335674332506
 20
221.2819619156124
 30
0.0
  0
VERTEX
  5
38C
  8
0
  6
CONTINUOUS
 62
     7
 10
57.97381939662773
 20
221.303421646223
 30
0.0
  0
SEQEND
  5
4E6
  8
0
  6
CONTINUOUS
 62
     7
  0
LINE
  5
143
  8
0
  6
CONTINUOUS
 62
     7
 10
78.79363433895378
 20
156.25
 30
0.0
 11
78.78490747116302
 21
157.25
 31
0.0
  0
LINE
  5
144
  8
0
  6
CONTINUOUS
 62
     7
 10
78.78490747116302
 20
157.25
 30
0.0
 11
81.21509252883696
 21
157.25
 31
0.0
  0
LINE
  5
145
  8
0
  6
CONTINUOUS
 62
     7
 10
81.2063656610462
 20
156.25
 30
0.0
 11
81.21509252883696
 21
157.25
 31
0.0
  0
POLYLINE
  5
146
  8
0
  6
CONTINUOUS
 62
     7
 66
     1
 10
0.0
 20
0.0
 30
0.0
  0
VERTEX
  5
38D
  8
0
  6
CONTINUOUS
 62
     7
 10
65.99088851768431
 20
245.8738193966277
 30
0.0
  0
VERTEX
  5
38E
  8
0
  6
CONTINUOUS
 62
     7
 10
65.96686890251698
 20
245.8732301958458
 30
0.0
  0
VERTEX
  5
38F
  8
0
  6
CONTINUOUS
 62
     7
 10
65.9428369589897
 20
245.8714719060061
 30
0.0
  0
VERTEX
  5
390
  8
0
  6
CONTINUOUS
 62
     7
 10
65.91887487563224
 20
245.8685584958676
 30
0.0
  0
VERTEX
  5
391
  8
0
  6
CONTINUOUS
 62
     7
 10
65.89506484097434
 20
245.8645039341894
 30
0.0
  0
VERTEX
  5
392
  8
0
  6
CONTINUOUS
 62
     7
 10
65.87148904354581
 20
245.8593221897306
 30
0.0
  0
VERTEX
  5
393
  8
0
  6
CONTINUOUS
 62
     7
 10
65.84822967187635
 20
245.8530272312502
 30
0.0
  0
VERTEX
  5
394
  8
0
  6
CONTINUOUS
 62
     7
 10
65.82536891449577
 20
245.8456330275072
 30
0.0
  0
VERTEX
  5
395
  8
0
  6
CONTINUOUS
 62
     7
 10
65.80289812620279
 20
245.8371266128721
 30
0.0
  0
VERTEX
  5
396
  8
0
  6
CONTINUOUS
 62
     7
 10
65.78080273044401
 20
245.8275127228489
 30
0.0
  0
VERTEX
  5
397
  8
0
  6
CONTINUOUS
 62
     7
 10
65.75915568274422
 20
245.8168317600492
 30
0.0
  0
VERTEX
  5
398
  8
0
  6
CONTINUOUS
 62
     7
 10
65.73802993862832
 20
245.8051241270845
 30
0.0
  0
VERTEX
  5
399
  8
0
  6
CONTINUOUS
 62
     7
 10
65.71749845362112
 20
245.7924302265665
 30
0.0
  0
VERTEX
  5
39A
  8
0
  6
CONTINUOUS
 62
     7
 10
65.6976341832475
 20
245.7787904611067
 30
0.0
  0
VERTEX
  5
39B
  8
0
  6
CONTINUOUS
 62
     7
 10
65.67851008303234
 20
245.7642452333167
 30
0.0
  0
VERTEX
  5
39C
  8
0
  6
CONTINUOUS
 62
     7
 10
65.66012454016321
 20
245.7487814438518
 30
0.0
  0
VERTEX
  5
39D
  8
0
  6
CONTINUOUS
 62
     7
 10
65.64245978452682
 20
245.7323969863319
 30
0.0
  0
VERTEX
  5
39E
  8
0
  6
CONTINUOUS
 62
     7
 10
65.62557126654899
 20
245.7151541377617
 30
0.0
  0
VERTEX
  5
39F
  8
0
  6
CONTINUOUS
 62
     7
 10
65.60951443665553
 20
245.6971151751456
 30
0.0
  0
VERTEX
  5
3A0
  8
0
  6
CONTINUOUS
 62
     7
 10
65.59434474527225
 20
245.6783423754883
 30
0.0
  0
VERTEX
  5
3A1
  8
0
  6
CONTINUOUS
 62
     7
 10
65.58011764282502
 20
245.6588980157944
 30
0.0
  0
VERTEX
  5
3A2
  8
0
  6
CONTINUOUS
 62
     7
 10
65.56688857973964
 20
245.6388443730684
 30
0.0
  0
VERTEX
  5
3A3
  8
0
  6
CONTINUOUS
 62
     7
 10
65.55466037465398
 20
245.6181686018789
 30
0.0
  0
VERTEX
  5
3A4
  8
0
  6
CONTINUOUS
 62
     7
 10
65.54341691948086
 20
245.5968628122558
 30
0.0
  0
VERTEX
  5
3A5
  8
0
  6
CONTINUOUS
 62
     7
 10
65.53318989567845
 20
245.5750041078343
 30
0.0
  0
VERTEX
  5
3A6
  8
0
  6
CONTINUOUS
 62
     7
 10
65.52401098470496
 20
245.55266959225
 30
0.0
  0
VERTEX
  5
3A7
  8
0
  6
CONTINUOUS
 62
     7
 10
65.51591186801862
 20
245.5299363691385
 30
0.0
  0
VERTEX
  5
3A8
  8
0
  6
CONTINUOUS
 62
     7
 10
65.50892422707761
 20
245.5068815421351
 30
0.0
  0
VERTEX
  5
3A9
  8
0
  6
CONTINUOUS
 62
     7
 10
65.50307974334015
 20
245.4835822148755
 30
0.0
  0
VERTEX
  5
3AA
  8
0
  6
CONTINUOUS
 62
     7
 10
65.49838490542307
 20
245.4600249148694
 30
0.0
  0
VERTEX
  5
3AB
  8
0
  6
CONTINUOUS
 62
     7
 10
65.49482773057349
 20
245.4361991135126
 30
0.0
  0
VERTEX
  5
3AC
  8
0
  6
CONTINUOUS
 62
     7
 10
65.49241257665507
 20
245.4121880350946
 30
0.0
  0
VERTEX
  5
3AD
  8
0
  6
CONTINUOUS
 62
     7
 10
65.49114380153142
 20
245.3880749039049
 30
0.0
  0
VERTEX
  5
3AE
  8
0
  6
CONTINUOUS
 62
     7
 10
65.49102576306616
 20
245.363942944233
 30
0.0
  0
VERTEX
  5
3AF
  8
0
  6
CONTINUOUS
 62
     7
 10
65.49206281912289
 20
245.3398753803685
 30
0.0
  0
VERTEX
  5
3B0
  8
0
  6
CONTINUOUS
 62
     7
 10
65.49425932756527
 20
245.315955436601
 30
0.0
  0
VERTEX
  5
3B1
  8
0
  6
CONTINUOUS
 62
     7
 10
65.49762627675507
 20
245.2921699945946
 30
0.0
  0
VERTEX
  5
3B2
  8
0
  6
CONTINUOUS
 62
     7
 10
65.50215566287002
 20
245.2685077313652
 30
0.0
  0
VERTEX
  5
3B3
  8
0
  6
CONTINUOUS
 62
     7
 10
65.50782404910942
 20
245.2450486165778
 30
0.0
  0
VERTEX
  5
3B4
  8
0
  6
CONTINUOUS
 62
     7
 10
65.51460799867253
 20
245.2218726198972
 30
0.0
  0
VERTEX
  5
3B5
  8
0
  6
CONTINUOUS
 62
     7
 10
65.52248407475867
 20
245.1990597109883
 30
0.0
  0
VERTEX
  5
3B6
  8
0
  6
CONTINUOUS
 62
     7
 10
65.53142884056712
 20
245.176689859516
 30
0.0
  0
VERTEX
  5
3B7
  8
0
  6
CONTINUOUS
 62
     7
 10
65.54141885929715
 20
245.154843035145
 30
0.0
  0
VERTEX
  5
3B8
  8
0
  6
CONTINUOUS
 62
     7
 10
65.55118595606137
 20
245.1358421290072
 30
0.0
  0
VERTEX
  5
3B9
  8
0
  6
CONTINUOUS
 62
     7
 10
65.56175997338207
 20
245.11726692796
 30
0.0
  0
VERTEX
  5
3BA
  8
0
  6
CONTINUOUS
 62
     7
 10
65.573111972372
 20
245.0991682327047
 30
0.0
  0
SEQEND
  5
4E7
  8
0
  6
CONTINUOUS
 62
     7
  0
LINE
  5
147
  8
0
  6
CONTINUOUS
 62
     7
 10
50.67618060337227
 20
245.8738193966277
 30
0.0
 11
50.67618060337227
 21
194.6436868498664
 31
0.0
  0
LINE
  5
148
  8
0
  6
CONTINUOUS
 62
     7
 10
50.67618060337227
 20
194.6436868498664
 30
0.0
 11
50.65
 21
194.6385999591656
 31
0.0
  0
LINE
  5
149
  8
0
  6
CONTINUOUS
 62
     7
 10
50.65
 20
245.9
 30
0.0
 11
50.67618060337227
 21
245.8738193966277
 31
0.0
  0
POLYLINE
  5
14A
  8
0
  6
CONTINUOUS
 62
     7
 66
     1
 10
0.0
 20
0.0
 30
0.0
  0
VERTEX
  5
3BB
  8
0
  6
CONTINUOUS
 62
     7
 10
59.76788905262228
 20
132.75
 30
0.0
  0
VERTEX
  5
3BC
  8
0
  6
CONTINUOUS
 62
     7
 10
59.57846023372041
 20
132.7318953183488
 30
0.0
  0
VERTEX
  5
3BD
  8
0
  6
CONTINUOUS
 62
     7
 10
59.39589343809707
 20
132.6782368074292
 30
0.0
  0
VERTEX
  5
3BE
  8
0
  6
CONTINUOUS
 62
     7
 10
59.22679904146946
 20
132.5909673337758
 30
0.0
  0
VERTEX
  5
3BF
  8
0
  6
CONTINUOUS
 62
     7
 10
59.07729961113998
 20
132.4732467491435
 30
0.0
  0
VERTEX
  5
3C0
  8
0
  6
CONTINUOUS
 62
     7
 10
58.95280822017381
 20
132.3293374786431
 30
0.0
  0
VERTEX
  5
3C1
  8
0
  6
CONTINUOUS
 62
     7
 10
58.85783245093302
 20
132.1644501869189
 30
0.0
  0
VERTEX
  5
3C2
  8
0
  6
CONTINUOUS
 62
     7
 10
58.79581118460388
 20
131.9845551104841
 30
0.0
  0
VERTEX
  5
3C3
  8
0
  6
CONTINUOUS
 62
     7
 10
58.7689900862401
 20
131.7961658874885
 30
0.0
  0
VERTEX
  5
3C4
  8
0
  6
CONTINUOUS
 62
     7
 10
58.77834029375713
 20
131.60610371201
 30
0.0
  0
SEQEND
  5
4E8
  8
0
  6
CONTINUOUS
 62
     7
  0
POLYLINE
  5
14B
  8
0
  6
CONTINUOUS
 62
     7
 66
     1
 10
0.0
 20
0.0
 30
0.0
  0
VERTEX
  5
3C5
  8
0
  6
CONTINUOUS
 62
     7
 10
56.89996192306415
 20
160.2499999999999
 30
0.0
  0
VERTEX
  5
3C6
  8
0
  6
CONTINUOUS
 62
     7
 10
56.70487497256205
 20
160.230786405839
 30
0.0
  0
VERTEX
  5
3C7
  8
0
  6
CONTINUOUS
 62
     7
 10
56.51728730592028
 20
160.1738839196443
 30
0.0
  0
VERTEX
  5
3C8
  8
0
  6
CONTINUOUS
 62
     7
 10
56.34440711525545
 20
160.0814790607095
 30
0.0
  0
VERTEX
  5
3C9
  8
0
  6
CONTINUOUS
 62
     7
 10
56.19287744725484
 20
159.9571225527451
 30
0.0
  0
VERTEX
  5
3CA
  8
0
  6
CONTINUOUS
 62
     7
 10
56.06852093929044
 20
159.8055928847445
 30
0.0
  0
VERTEX
  5
3CB
  8
0
  6
CONTINUOUS
 62
     7
 10
55.9761160803557
 20
159.6327126940797
 30
0.0
  0
VERTEX
  5
3CC
  8
0
  6
CONTINUOUS
 62
     7
 10
55.91921359416093
 20
159.4451250274379
 30
0.0
  0
VERTEX
  5
3CD
  8
0
  6
CONTINUOUS
 62
     7
 10
55.90000000000001
 20
159.2500380769358
 30
0.0
  0
SEQEND
  5
4E9
  8
0
  6
CONTINUOUS
 62
     7
  0
LINE
  5
14C
  8
0
  6
CONTINUOUS
 62
     7
 10
104.1436343389538
 20
152.2680739349798
 30
0.0
 11
104.1
 21
152.2499999999999
 31
0.0
  0
LINE
  5
14D
  8
0
  6
CONTINUOUS
 62
     7
 10
104.1
 20
152.2499999999999
 30
0.0
 11
104.1
 21
159.2500380769358
 31
0.0
  0
POLYLINE
  5
14E
  8
0
  6
CONTINUOUS
 62
     7
 66
     1
 10
0.0
 20
0.0
 30
0.0
  0
VERTEX
  5
3CE
  8
0
  6
CONTINUOUS
 62
     7
 10
48.60636566104619
 20
194.3386681394497
 30
0.0
  0
VERTEX
  5
3CF
  8
0
  6
CONTINUOUS
 62
     7
 10
48.61554432986001
 20
194.2433052639953
 30
0.0
  0
VERTEX
  5
3D0
  8
0
  6
CONTINUOUS
 62
     7
 10
48.64274335728828
 20
194.1514437438518
 30
0.0
  0
SEQEND
  5
4EA
  8
0
  6
CONTINUOUS
 62
     7
  0
LINE
  5
14F
  8
0
  6
CONTINUOUS
 62
     7
 10
55.90000000000001
 20
180.75
 30
0.0
 11
55.92618060337227
 21
180.7761806033722
 31
0.0
  0
LINE
  5
150
  8
0
  6
CONTINUOUS
 62
     7
 10
104.0738193966277
 20
180.7761806033722
 30
0.0
 11
55.92618060337228
 21
180.7761806033722
 31
0.0
  0
LINE
  5
151
  8
0
  6
CONTINUOUS
 62
     7
 10
104.1
 20
180.75
 30
0.0
 11
104.0738193966277
 21
180.7761806033722
 31
0.0
  0
LINE
  5
152
  8
0
  6
CONTINUOUS
 62
     7
 10
53.8615722431457
 20
151.2110479513101
 30
0.0
 11
57.73774020418215
 21
124.5623932191846
 31
0.0
  0
LINE
  5
153
  8
0
  6
CONTINUOUS
 62
     7
 10
56.67858320890187
 20
146.2238193966277
 30
0.0
 11
58.34369430610266
 21
134.7761806033723
 31
0.0
  0
LINE
  5
154
  8
0
  6
CONTINUOUS
 62
     7
 10
58.3210462882313
 20
134.75
 30
0.0
 11
58.34369430610266
 21
134.7761806033723
 31
0.0
  0
LINE
  5
155
  8
0
  6
CONTINUOUS
 62
     7
 10
56.64831901550403
 20
146.25
 30
0.0
 11
56.67858320890187
 21
146.2238193966277
 31
0.0
  0
LINE
  5
156
  8
0
  6
CONTINUOUS
 62
     7
 10
104.0738193966277
 20
181.4493942686314
 30
0.0
 11
104.0738193966277
 21
180.7761806033722
 31
0.0
  0
LINE
  5
157
  8
0
  6
CONTINUOUS
 62
     7
 10
64.25
 20
242.75
 30
0.0
 11
64.25
 21
215.75
 31
0.0
  0
POLYLINE
  5
158
  8
0
  6
CONTINUOUS
 62
     7
 66
     1
 10
0.0
 20
0.0
 30
0.0
  0
VERTEX
  5
3D1
  8
0
  6
CONTINUOUS
 62
     7
 10
57.97381939662772
 20
236.1965783537769
 30
0.0
  0
VERTEX
  5
3D2
  8
0
  6
CONTINUOUS
 62
     7
 10
57.97338623059591
 20
236.2173459914592
 30
0.0
  0
VERTEX
  5
3D3
  8
0
  6
CONTINUOUS
 62
     7
 10
57.97208970635705
 20
236.2380956447511
 30
0.0
  0
VERTEX
  5
3D4
  8
0
  6
CONTINUOUS
 62
     7
 10
57.96993428469605
 20
236.2587737305338
 30
0.0
  0
VERTEX
  5
3D5
  8
0
  6
CONTINUOUS
 62
     7
 10
57.96692442639778
 20
236.2793266656884
 30
0.0
  0
VERTEX
  5
3D6
  8
0
  6
CONTINUOUS
 62
     7
 10
57.96293513315935
 20
236.3003264520575
 30
0.0
  0
VERTEX
  5
3D7
  8
0
  6
CONTINUOUS
 62
     7
 10
57.95804742499693
 20
236.3211555954192
 30
0.0
  0
VERTEX
  5
3D8
  8
0
  6
CONTINUOUS
 62
     7
 10
57.95227589790877
 20
236.3417573518934
 30
0.0
  0
VERTEX
  5
3D9
  8
0
  6
CONTINUOUS
 62
     7
 10
57.94563514789319
 20
236.3620749775999
 30
0.0
  0
VERTEX
  5
3DA
  8
0
  6
CONTINUOUS
 62
     7
 10
57.93835221715781
 20
236.3815285507206
 30
0.0
  0
VERTEX
  5
3DB
  8
0
  6
CONTINUOUS
 62
     7
 10
57.93026052667152
 20
236.4006793692372
 30
0.0
  0
VERTEX
  5
3DC
  8
0
  6
CONTINUOUS
 62
     7
 10
57.92138202597058
 20
236.4194783459961
 30
0.0
  0
VERTEX
  5
3DD
  8
0
  6
CONTINUOUS
 62
     7
 10
57.91173866459129
 20
236.437876393844
 30
0.0
  0
VERTEX
  5
3DE
  8
0
  6
CONTINUOUS
 62
     7
 10
57.90102314401631
 20
236.4563719152371
 30
0.0
  0
VERTEX
  5
3DF
  8
0
  6
CONTINUOUS
 62
     7
 10
57.88951632620158
 20
236.4744090234782
 30
0.0
  0
VERTEX
  5
3E0
  8
0
  6
CONTINUOUS
 62
     7
 10
57.87725077088065
 20
236.4919390059594
 30
0.0
  0
VERTEX
  5
3E1
  8
0
  6
CONTINUOUS
 62
     7
 10
57.86425903778708
 20
236.5089131500728
 30
0.0
  0
VERTEX
  5
3E2
  8
0
  6
CONTINUOUS
 62
     7
 10
57.85089351344819
 20
236.5249211542717
 30
0.0
  0
VERTEX
  5
3E3
  8
0
  6
CONTINUOUS
 62
     7
 10
57.83685984047499
 20
236.5403713334699
 30
0.0
  0
VERTEX
  5
3E4
  8
0
  6
CONTINUOUS
 62
     7
 10
57.82219543332679
 20
236.5552241845656
 30
0.0
  0
VERTEX
  5
3E5
  8
0
  6
CONTINUOUS
 62
     7
 10
57.80693770646292
 20
236.5694402044572
 30
0.0
  0
VERTEX
  5
3E6
  8
0
  6
CONTINUOUS
 62
     7
 10
57.79062580422939
 20
236.5833921187068
 30
0.0
  0
VERTEX
  5
3E7
  8
0
  6
CONTINUOUS
 62
     7
 10
57.77371449790605
 20
236.5966432805852
 30
0.0
  0
VERTEX
  5
3E8
  8
0
  6
CONTINUOUS
 62
     7
 10
57.75625126168523
 20
236.6091581105173
 30
0.0
  0
VERTEX
  5
3E9
  8
0
  6
CONTINUOUS
 62
     7
 10
57.73828356975924
 20
236.6209010289279
 30
0.0
  0
SEQEND
  5
4EB
  8
0
  6
CONTINUOUS
 62
     7
  0
LINE
  5
159
  8
0
  6
CONTINUOUS
 62
     7
 10
60.64999999999999
 20
213.95
 30
0.0
 11
58.64999999999999
 21
215.45
 31
0.0
  0
POLYLINE
  5
15A
  8
0
  6
CONTINUOUS
 62
     7
 66
     1
 10
0.0
 20
0.0
 30
0.0
  0
VERTEX
  5
3EA
  8
0
  6
CONTINUOUS
 62
     7
 10
58.37301911062538
 20
245.061502804555
 30
0.0
  0
VERTEX
  5
3EB
  8
0
  6
CONTINUOUS
 62
     7
 10
58.42823846808147
 20
245.1471448138074
 30
0.0
  0
VERTEX
  5
3EC
  8
0
  6
CONTINUOUS
 62
     7
 10
58.4649504149009
 20
245.2421981685307
 30
0.0
  0
VERTEX
  5
3ED
  8
0
  6
CONTINUOUS
 62
     7
 10
58.48163057268597
 20
245.3427159987514
 30
0.0
  0
VERTEX
  5
3EE
  8
0
  6
CONTINUOUS
 62
     7
 10
58.47758633659272
 20
245.4445245348319
 30
0.0
  0
VERTEX
  5
3EF
  8
0
  6
CONTINUOUS
 62
     7
 10
58.45298563413985
 20
245.5433964135689
 30
0.0
  0
VERTEX
  5
3F0
  8
0
  6
CONTINUOUS
 62
     7
 10
58.40884995240817
 20
245.6352262096406
 30
0.0
  0
VERTEX
  5
3F1
  8
0
  6
CONTINUOUS
 62
     7
 10
58.34701192316006
 20
245.7162009038659
 30
0.0
  0
VERTEX
  5
3F2
  8
0
  6
CONTINUOUS
 62
     7
 10
58.27003922705835
 20
245.7829582099774
 30
0.0
  0
VERTEX
  5
3F3
  8
0
  6
CONTINUOUS
 62
     7
 10
58.18112797668535
 20
245.8327261857562
 30
0.0
  0
VERTEX
  5
3F4
  8
0
  6
CONTINUOUS
 62
     7
 10
58.08397000538483
 20
245.8634383315
 30
0.0
  0
VERTEX
  5
3F5
  8
0
  6
CONTINUOUS
 62
     7
 10
57.98259957244964
 20
245.8738193966277
 30
0.0
  0
SEQEND
  5
4EC
  8
0
  6
CONTINUOUS
 62
     7
  0
LINE
  5
15B
  8
0
  6
CONTINUOUS
 62
     7
 10
103.9051585988782
 20
150.0551585988783
 30
0.0
 11
103.9462538504748
 21
150.0345455765411
 31
0.0
  0
LINE
  5
15C
  8
0
  6
CONTINUOUS
 62
     7
 10
103.6425900754051
 20
148.25
 30
0.0
 11
103.6803367718573
 21
148.2063656610462
 31
0.0
  0
LINE
  5
15D
  8
0
  6
CONTINUOUS
 62
     7
 10
103.6425900754051
 20
148.25
 30
0.0
 11
103.9051585988782
 21
150.0551585988783
 31
0.0
  0
LINE
  5
15E
  8
0
  6
CONTINUOUS
 62
     7
 10
48.6063656610462
 20
253.7936533774217
 30
0.0
 11
48.6063656610462
 21
194.3386681394497
 31
0.0
  0
LINE
  5
15F
  8
0
  6
CONTINUOUS
 62
     7
 10
100.0726068988299
 20
123.7063656610462
 30
0.0
 11
100.1230472211597
 21
123.75
 31
0.0
  0
LINE
  5
160
  8
0
  6
CONTINUOUS
 62
     7
 10
100.0726068988299
 20
123.7063656610462
 30
0.0
 11
101.2216597062429
 21
131.60610371201
 31
0.0
  0
LINE
  5
161
  8
0
  6
CONTINUOUS
 62
     7
 10
53.8563656610462
 20
181.1443755582146
 30
0.0
 11
53.8563656610462
 21
151.283015133773
 31
0.0
  0
LINE
  5
162
  8
0
  6
CONTINUOUS
 62
     7
 10
58.34369430610266
 20
134.7761806033723
 30
0.0
 11
101.6563056938973
 21
134.7761806033723
 31
0.0
  0
LINE
  5
163
  8
0
  6
CONTINUOUS
 62
     7
 10
101.6789537117687
 20
134.75
 30
0.0
 11
101.6563056938973
 21
134.7761806033723
 31
0.0
  0
LINE
  5
164
  8
0
  6
CONTINUOUS
 62
     7
 10
100.0
 20
219.5
 30
0.0
 11
100.0
 21
237.9999999999999
 31
0.0
  0
LINE
  5
165
  8
0
  6
CONTINUOUS
 62
     7
 10
100.0
 20
237.9999999999999
 30
0.0
 11
100.0436343389538
 21
237.9567807507148
 31
0.0
  0
LINE
  5
166
  8
0
  6
CONTINUOUS
 62
     7
 10
100.0
 20
219.5
 30
0.0
 11
100.0436343389538
 21
219.5432192492852
 31
0.0
  0
LINE
  5
167
  8
0
  6
CONTINUOUS
 62
     7
 10
56.35740992459494
 20
148.25
 30
0.0
 11
56.31966322814267
 21
148.2063656610462
 31
0.0
  0
LINE
  5
168
  8
0
  6
CONTINUOUS
 62
     7
 10
56.09484140112174
 20
150.0551585988783
 30
0.0
 11
56.05374614952522
 21
150.0345455765411
 31
0.0
  0
LINE
  5
169
  8
0
  6
CONTINUOUS
 62
     7
 10
56.35740992459494
 20
148.25
 30
0.0
 11
56.09484140112174
 21
150.0551585988783
 31
0.0
  0
LINE
  5
16A
  8
0
  6
CONTINUOUS
 62
     7
 10
55.85636566104619
 20
152.2680739349798
 30
0.0
 11
55.89999999999999
 21
152.2499999999999
 31
0.0
  0
LINE
  5
16B
  8
0
  6
CONTINUOUS
 62
     7
 10
55.89999999999999
 20
152.2499999999999
 30
0.0
 11
55.89999999999999
 21
159.2500380769358
 31
0.0
  0
ARC
  5
16C
  8
0
  6
CONTINUOUS
 62
     7
 10
62.0
 20
215.75
 30
0.0
 40
2.250000000000002
 50
233.1301023541558
 51
0.0
  0
LINE
  5
16D
  8
0
  6
CONTINUOUS
 62
     7
 10
103.1000380769358
 20
160.25
 30
0.0
 11
80.75
 21
160.25
 31
0.0
  0
LINE
  5
16E
  8
0
  6
CONTINUOUS
 62
     7
 10
79.26007691893633
 20
160.2674537355815
 30
0.0
 11
80.73992308106365
 21
160.2674537355815
 31
0.0
  0
LINE
  5
16F
  8
0
  6
CONTINUOUS
 62
     7
 10
56.89996192306416
 20
160.25
 30
0.0
 11
79.24999999999999
 21
160.25
 31
0.0
  0
LINE
  5
170
  8
0
  6
CONTINUOUS
 62
     7
 10
66.27618060337227
 20
242.75
 30
0.0
 11
66.27618060337227
 21
215.75
 31
0.0
  0
LINE
  5
171
  8
0
  6
CONTINUOUS
 62
     7
 10
49.8563656610462
 20
254.2936343389538
 30
0.0
 11
49.9
 21
254.25
 31
0.0
  0
LINE
  5
172
  8
0
  6
CONTINUOUS
 62
     7
 10
49.8563656610462
 20
254.2936343389538
 30
0.0
 11
49.10634662257829
 21
254.2936343389538
 31
0.0
  0
LINE
  5
173
  8
0
  6
CONTINUOUS
 62
     7
 10
55.92618060337227
 20
181.4493942686314
 30
0.0
 11
55.92618060337227
 21
180.7761806033722
 31
0.0
  0
LINE
  5
174
  8
0
  6
CONTINUOUS
 62
     7
 10
48.64274335728829
 20
194.1514437438518
 30
0.0
 11
53.81998796480413
 21
181.3315999538125
 31
0.0
  0
LINE
  5
175
  8
0
  6
CONTINUOUS
 62
     7
 10
57.98259957244964
 20
245.8738193966277
 30
0.0
 11
50.67618060337227
 21
245.8738193966277
 31
0.0
  0
LINE
  5
176
  8
0
  6
CONTINUOUS
 62
     7
 10
55.90000000000001
 20
171.7499999999999
 30
0.0
 11
55.92618060337227
 21
171.7238193966277
 31
0.0
  0
LINE
  5
177
  8
0
  6
CONTINUOUS
 62
     7
 10
55.92618060337227
 20
171.7238193966277
 30
0.0
 11
55.92618060337227
 21
162.2761806033722
 31
0.0
  0
LINE
  5
178
  8
0
  6
CONTINUOUS
 62
     7
 10
55.9
 20
162.25
 30
0.0
 11
55.92618060337227
 21
162.2761806033722
 31
0.0
  0
LINE
  5
179
  8
0
  6
CONTINUOUS
 62
     7
 10
110.1436343389538
 20
254.2936343389538
 30
0.0
 11
110.1
 21
254.25
 31
0.0
  0
LINE
  5
17A
  8
0
  6
CONTINUOUS
 62
     7
 10
110.1436343389538
 20
254.2936343389538
 30
0.0
 11
110.8936533774217
 21
254.2936343389538
 31
0.0
  0
LINE
  5
17B
  8
0
  6
CONTINUOUS
 62
     7
 10
55.92618060337227
 20
162.2761806033722
 30
0.0
 11
104.0738193966277
 21
162.2761806033722
 31
0.0
  0
LINE
  5
17C
  8
0
  6
CONTINUOUS
 62
     7
 10
104.1
 20
162.25
 30
0.0
 11
104.0738193966277
 21
162.2761806033722
 31
0.0
  0
LINE
  5
17D
  8
0
  6
CONTINUOUS
 62
     7
 10
104.1
 20
171.7499999999999
 30
0.0
 11
104.0738193966277
 21
171.7238193966277
 31
0.0
  0
LINE
  5
17E
  8
0
  6
CONTINUOUS
 62
     7
 10
55.92618060337227
 20
171.7238193966277
 30
0.0
 11
104.0738193966277
 21
171.7238193966277
 31
0.0
  0
CIRCLE
  5
17F
  8
0
  6
CONTINUOUS
 62
     7
 10
80.0
 20
202.25
 30
0.0
 40
4.24999999999999
  0
CIRCLE
  5
180
  8
0
  6
CONTINUOUS
 62
     7
 10
80.0
 20
202.25
 30
0.0
 40
4.276180603372273
  0
CIRCLE
  5
181
  8
0
  6
CONTINUOUS
 62
     7
 10
80.0
 20
202.25
 30
0.0
 40
2.293634338953785
  0
CIRCLE
  5
182
  8
0
  6
CONTINUOUS
 62
     7
 10
80.0
 20
202.25
 30
0.0
 40
2.250000000000002
  0
LINE
  5
183
  8
0
  6
CONTINUOUS
 62
     7
 10
50.67618060337227
 20
194.6436868498664
 30
0.0
 11
55.85342521088813
 21
181.8238430598271
 31
0.0
  0
LINE
  5
184
  8
0
  6
CONTINUOUS
 62
     7
 10
50.17618060337227
 20
248.1761806033723
 30
0.0
 11
50.17618060337227
 21
251.9238193966277
 31
0.0
  0
ARC
  5
185
  8
0
  6
CONTINUOUS
 62
     7
 10
62.0
 20
242.75
 30
0.0
 40
4.27618060337227
 50
0.0
 51
33.32320807067481
  0
LINE
  5
186
  8
0
  6
CONTINUOUS
 62
     7
 10
58.24304517875317
 20
241.6555638569974
 30
0.0
 11
60.24304517875314
 21
244.1555638569974
 31
0.0
  0
LINE
  5
187
  8
0
  6
CONTINUOUS
 62
     7
 10
49.8563656610462
 20
255.2936724158896
 30
0.0
 11
49.8563656610462
 21
254.2936343389538
 31
0.0
  0
LINE
  5
188
  8
0
  6
CONTINUOUS
 62
     7
 10
78.76745373558151
 20
158.75
 30
0.0
 11
78.76745373558151
 21
159.4142053530246
 31
0.0
  0
LINE
  5
189
  8
0
  6
CONTINUOUS
 62
     7
 10
78.78054403726766
 20
157.25
 30
0.0
 11
78.76745373558151
 21
158.75
 31
0.0
  0
LINE
  5
18A
  8
0
  6
CONTINUOUS
 62
     7
 10
78.78490747116302
 20
157.25
 30
0.0
 11
78.78054403726766
 21
157.25
 31
0.0
  0
LINE
  5
18B
  8
0
  6
CONTINUOUS
 62
     7
 10
78.75
 20
148.25
 30
0.0
 11
78.79363433895378
 21
148.2063656610462
 31
0.0
  0
LINE
  5
18C
  8
0
  6
CONTINUOUS
 62
     7
 10
78.74999999999999
 20
159.3839745962156
 30
0.0
 11
78.75
 21
148.25
 31
0.0
  0
LINE
  5
18D
  8
0
  6
CONTINUOUS
 62
     7
 10
78.74999999999999
 20
159.3839745962156
 30
0.0
 11
78.76745373558151
 21
159.4142053530246
 31
0.0
  0
ARC
  5
18E
  8
0
  6
CONTINUOUS
 62
     7
 10
100.0
 20
240.25
 30
0.0
 40
2.249999999999974
 50
270.0000000000002
 51
38.65980825408928
  0
LINE
  5
18F
  8
0
  6
CONTINUOUS
 62
     7
 10
56.09484140112174
 20
150.0551585988783
 30
0.0
 11
55.25353992836353
 21
150.8964600716365
 31
0.0
  0
LINE
  5
190
  8
0
  6
CONTINUOUS
 62
     7
 10
59.92739310117004
 20
123.7063656610462
 30
0.0
 11
59.87695277884032
 21
123.75
 31
0.0
  0
LINE
  5
191
  8
0
  6
CONTINUOUS
 62
     7
 10
59.92739310117004
 20
123.7063656610462
 30
0.0
 11
58.77834029375713
 21
131.60610371201
 31
0.0
  0
ARC
  5
192
  8
0
  6
CONTINUOUS
 62
     7
 10
98.0
 20
242.75
 30
0.0
 40
2.250000000000003
 50
38.65980825408883
 51
180.0
  0
LINE
  5
193
  8
0
  6
CONTINUOUS
 62
     7
 10
58.72728896304731
 20
123.7063656610462
 30
0.0
 11
59.92739310117004
 21
123.7063656610462
 31
0.0
  0
POLYLINE
  5
194
  8
0
  6
CONTINUOUS
 62
     7
 66
     1
 10
0.0
 20
0.0
 30
0.0
  0
VERTEX
  5
3F6
  8
0
  6
CONTINUOUS
 62
     7
 10
50.85632758411039
 20
256.2936343389537
 30
0.0
  0
VERTEX
  5
3F7
  8
0
  6
CONTINUOUS
 62
     7
 10
50.66124063360828
 20
256.2744207447928
 30
0.0
  0
VERTEX
  5
3F8
  8
0
  6
CONTINUOUS
 62
     7
 10
50.47365296696652
 20
256.217518258598
 30
0.0
  0
VERTEX
  5
3F9
  8
0
  6
CONTINUOUS
 62
     7
 10
50.30077277630168
 20
256.1251133996633
 30
0.0
  0
VERTEX
  5
3FA
  8
0
  6
CONTINUOUS
 62
     7
 10
50.14924310830108
 20
256.0007568916989
 30
0.0
  0
VERTEX
  5
3FB
  8
0
  6
CONTINUOUS
 62
     7
 10
50.02488660033668
 20
255.8492272236983
 30
0.0
  0
VERTEX
  5
3FC
  8
0
  6
CONTINUOUS
 62
     7
 10
49.93248174140194
 20
255.6763470330334
 30
0.0
  0
VERTEX
  5
3FD
  8
0
  6
CONTINUOUS
 62
     7
 10
49.87557925520716
 20
255.4887593663917
 30
0.0
  0
VERTEX
  5
3FE
  8
0
  6
CONTINUOUS
 62
     7
 10
49.85636566104623
 20
255.2936724158896
 30
0.0
  0
SEQEND
  5
4ED
  8
0
  6
CONTINUOUS
 62
     7
  0
POLYLINE
  5
195
  8
0
  6
CONTINUOUS
 62
     7
 66
     1
 10
0.0
 20
0.0
 30
0.0
  0
VERTEX
  5
3FF
  8
0
  6
CONTINUOUS
 62
     7
 10
57.73774020418215
 20
124.5623932191846
 30
0.0
  0
VERTEX
  5
400
  8
0
  6
CONTINUOUS
 62
     7
 10
57.78733867114309
 20
124.3651251357668
 30
0.0
  0
VERTEX
  5
401
  8
0
  6
CONTINUOUS
 62
     7
 10
57.87582832398297
 20
124.181976734557
 30
0.0
  0
VERTEX
  5
402
  8
0
  6
CONTINUOUS
 62
     7
 10
57.99954809000818
 20
124.0205253942545
 30
0.0
  0
VERTEX
  5
403
  8
0
  6
CONTINUOUS
 62
     7
 10
58.15337932491944
 20
123.8874508234395
 30
0.0
  0
VERTEX
  5
404
  8
0
  6
CONTINUOUS
 62
     7
 10
58.33095758592052
 20
123.788258701723
 30
0.0
  0
VERTEX
  5
405
  8
0
  6
CONTINUOUS
 62
     7
 10
58.52493594711146
 20
123.7270528938686
 30
0.0
  0
VERTEX
  5
406
  8
0
  6
CONTINUOUS
 62
     7
 10
58.72728896304732
 20
123.7063656610462
 30
0.0
  0
SEQEND
  5
4EE
  8
0
  6
CONTINUOUS
 62
     7
  0
LINE
  5
196
  8
0
  6
CONTINUOUS
 62
     7
 10
53.8563656610462
 20
151.283015133773
 30
0.0
 11
53.8615722431457
 21
151.2110479513101
 31
0.0
  0
POLYLINE
  5
197
  8
0
  6
CONTINUOUS
 62
     7
 66
     1
 10
0.0
 20
0.0
 30
0.0
  0
VERTEX
  5
407
  8
0
  6
CONTINUOUS
 62
     7
 10
53.8563656610462
 20
181.1443755582146
 30
0.0
  0
VERTEX
  5
408
  8
0
  6
CONTINUOUS
 62
     7
 10
53.84718699223239
 20
181.239738433669
 30
0.0
  0
VERTEX
  5
409
  8
0
  6
CONTINUOUS
 62
     7
 10
53.81998796480413
 20
181.3315999538125
 30
0.0
  0
SEQEND
  5
4EF
  8
0
  6
CONTINUOUS
 62
     7
  0
ARC
  5
198
  8
0
  6
CONTINUOUS
 62
     7
 10
98.0
 20
215.75
 30
0.0
 40
4.276180603372287
 50
180.0
 51
306.8698976458441
  0
POLYLINE
  5
199
  8
0
  6
CONTINUOUS
 62
     7
 66
     1
 10
0.0
 20
0.0
 30
0.0
  0
VERTEX
  5
40A
  8
0
  6
CONTINUOUS
 62
     7
 10
49.10634662257829
 20
254.2936343389538
 30
0.0
  0
VERTEX
  5
40B
  8
0
  6
CONTINUOUS
 62
     7
 10
49.00880314732724
 20
254.2840275418733
 30
0.0
  0
VERTEX
  5
40C
  8
0
  6
CONTINUOUS
 62
     7
 10
48.91500931400635
 20
254.2555762987759
 30
0.0
  0
VERTEX
  5
40D
  8
0
  6
CONTINUOUS
 62
     7
 10
48.82856921867393
 20
254.2093738693086
 30
0.0
  0
VERTEX
  5
40E
  8
0
  6
CONTINUOUS
 62
     7
 10
48.75280438467363
 20
254.1471956153264
 30
0.0
  0
VERTEX
  5
40F
  8
0
  6
CONTINUOUS
 62
     7
 10
48.69062613069143
 20
254.071430781326
 30
0.0
  0
VERTEX
  5
410
  8
0
  6
CONTINUOUS
 62
     7
 10
48.64442370122406
 20
253.9849906859936
 30
0.0
  0
VERTEX
  5
411
  8
0
  6
CONTINUOUS
 62
     7
 10
48.61597245812667
 20
253.8911968526727
 30
0.0
  0
VERTEX
  5
412
  8
0
  6
CONTINUOUS
 62
     7
 10
48.6063656610462
 20
253.7936533774217
 30
0.0
  0
SEQEND
  5
4F0
  8
0
  6
CONTINUOUS
 62
     7
  0
LINE
  5
19A
  8
0
  6
CONTINUOUS
 62
     7
 10
109.3238193966277
 20
194.6436868498664
 30
0.0
 11
109.35
 21
194.6385999591656
 31
0.0
  0
LINE
  5
19B
  8
0
  6
CONTINUOUS
 62
     7
 10
109.3238193966277
 20
194.6436868498664
 30
0.0
 11
104.1465747891119
 21
181.8238430598271
 31
0.0
  0
LINE
  5
19C
  8
0
  6
CONTINUOUS
 62
     7
 10
111.3936343389538
 20
253.7936533774217
 30
0.0
 11
111.3936343389538
 21
194.3386681394497
 31
0.0
  0
ARC
  5
19D
  8
0
  6
CONTINUOUS
 62
     7
 10
98.0
 20
242.75
 30
0.0
 40
4.27618060337227
 50
146.6767919293252
 51
180.0
  0
LINE
  5
19E
  8
0
  6
CONTINUOUS
 62
     7
 10
109.35
 20
245.9
 30
0.0
 11
109.3238193966277
 21
245.8738193966277
 31
0.0
  0
LINE
  5
19F
  8
0
  6
CONTINUOUS
 62
     7
 10
102.0174004275504
 20
245.8738193966277
 30
0.0
 11
109.3238193966277
 21
245.8738193966277
 31
0.0
  0
LINE
  5
1A0
  8
0
  6
CONTINUOUS
 62
     7
 10
104.0738193966277
 20
171.7238193966277
 30
0.0
 11
104.0738193966277
 21
162.2761806033722
 31
0.0
  0
LINE
  5
1A1
  8
0
  6
CONTINUOUS
 62
     7
 10
60.0
 20
219.5
 30
0.0
 11
59.9563656610462
 21
219.5432192492852
 31
0.0
  0
ARC
  5
1A2
  8
0
  6
CONTINUOUS
 62
     7
 10
60.00000000000001
 20
217.25
 30
0.0
 40
2.250000000000008
 50
90.00000000000021
 51
233.1301023541554
  0
LINE
  5
1A3
  8
0
  6
CONTINUOUS
 62
     7
 10
60.0
 20
238.0
 30
0.0
 11
59.9563656610462
 21
237.9567807507148
 31
0.0
  0
LINE
  5
1A4
  8
0
  6
CONTINUOUS
 62
     7
 10
60.0
 20
219.5
 30
0.0
 11
60.0
 21
238.0
 31
0.0
  0
ARC
  5
1A5
  8
0
  6
CONTINUOUS
 62
     7
 10
60.00000000000001
 20
240.25
 30
0.0
 40
2.249999999999974
 50
141.3401917459107
 51
269.9999999999997
  0
LINE
  5
1A6
  8
0
  6
CONTINUOUS
 62
     7
 10
103.351680984496
 20
146.25
 30
0.0
 11
103.3214167910981
 21
146.2238193966277
 31
0.0
  0
LINE
  5
1A7
  8
0
  6
CONTINUOUS
 62
     7
 10
103.3214167910981
 20
146.2238193966277
 30
0.0
 11
56.67858320890187
 21
146.2238193966277
 31
0.0
  0
ARC
  5
1A8
  8
0
  6
CONTINUOUS
 62
     7
 10
62.0
 20
242.75
 30
0.0
 40
2.250000000000003
 50
0.0
 51
141.3401917459112
  0
LINE
  5
1A9
  8
0
  6
CONTINUOUS
 62
     7
 10
56.66086394328128
 20
242.9213088453749
 30
0.0
 11
58.37301911062539
 21
245.061502804555
 31
0.0
  0
ARC
  5
1AA
  8
0
  6
CONTINUOUS
 62
     7
 10
60.00000000000001
 20
240.25
 30
0.0
 40
4.276180603372277
 50
141.3401917459109
 51
238.0681349497559
  0
LINE
  5
1AB
  8
0
  6
CONTINUOUS
 62
     7
 10
56.49999999999999
 20
178.4738193966277
 30
0.0
 11
55.42618060337227
 21
178.4738193966277
 31
0.0
  0
LINE
  5
1AC
  8
0
  6
CONTINUOUS
 62
     7
 10
55.42618060337227
 20
178.4738193966277
 30
0.0
 11
55.40000000000001
 21
178.5
 31
0.0
  0
LINE
  5
1AD
  8
0
  6
CONTINUOUS
 62
     7
 10
55.42618060337227
 20
178.4738193966277
 30
0.0
 11
55.42618060337227
 21
174.0261806033722
 31
0.0
  0
LINE
  5
1AE
  8
0
  6
CONTINUOUS
 62
     7
 10
59.43429163797663
 20
212.3290555173022
 30
0.0
 11
57.43429163797661
 21
213.8290555173022
 31
0.0
  0
LINE
  5
1AF
  8
0
  6
CONTINUOUS
 62
     7
 10
110.1436343389538
 20
255.2936724158896
 30
0.0
 11
110.1436343389538
 21
254.2936343389538
 31
0.0
  0
LINE
  5
1B0
  8
0
  6
CONTINUOUS
 62
     7
 10
81.25
 20
159.3839745962156
 30
0.0
 11
81.25
 21
148.25
 31
0.0
  0
LINE
  5
1B1
  8
0
  6
CONTINUOUS
 62
     7
 10
81.25
 20
148.25
 30
0.0
 11
81.2063656610462
 21
148.2063656610462
 31
0.0
  0
LINE
  5
1B2
  8
0
  6
CONTINUOUS
 62
     7
 10
81.21509252883696
 20
157.25
 30
0.0
 11
81.21945596273233
 21
157.25
 31
0.0
  0
LINE
  5
1B3
  8
0
  6
CONTINUOUS
 62
     7
 10
81.23254626441847
 20
158.75
 30
0.0
 11
81.21945596273233
 21
157.25
 31
0.0
  0
LINE
  5
1B4
  8
0
  6
CONTINUOUS
 62
     7
 10
81.23254626441847
 20
158.75
 30
0.0
 11
81.23254626441847
 21
159.4142053530246
 31
0.0
  0
LINE
  5
1B5
  8
0
  6
CONTINUOUS
 62
     7
 10
81.25
 20
159.3839745962156
 30
0.0
 11
81.23254626441847
 21
159.4142053530246
 31
0.0
  0
LINE
  5
1B6
  8
0
  6
CONTINUOUS
 62
     7
 10
81.25
 20
148.25
 30
0.0
 11
103.6425900754051
 21
148.25
 31
0.0
  0
LINE
  5
1B7
  8
0
  6
CONTINUOUS
 62
     7
 10
103.9051585988782
 20
150.0551585988783
 30
0.0
 11
104.7464600716365
 21
150.8964600716365
 31
0.0
  0
LINE
  5
1B8
  8
0
  6
CONTINUOUS
 62
     7
 10
104.7464600716364
 20
151.6035399283635
 30
0.0
 11
104.1
 21
152.2499999999999
 31
0.0
  0
LINE
  5
1B9
  8
0
  6
CONTINUOUS
 62
     7
 10
109.3238193966277
 20
245.8738193966277
 30
0.0
 11
109.3238193966277
 21
194.6436868498664
 31
0.0
  0
LINE
  5
1BA
  8
0
  6
CONTINUOUS
 62
     7
 10
101.2727110369527
 20
123.7063656610462
 30
0.0
 11
100.0726068988299
 21
123.7063656610462
 31
0.0
  0
POLYLINE
  5
1BB
  8
0
  6
CONTINUOUS
 62
     7
 66
     1
 10
0.0
 20
0.0
 30
0.0
  0
VERTEX
  5
413
  8
0
  6
CONTINUOUS
 62
     7
 10
110.1436343389538
 20
255.2936724158896
 30
0.0
  0
VERTEX
  5
414
  8
0
  6
CONTINUOUS
 62
     7
 10
110.1244207447928
 20
255.4887593663917
 30
0.0
  0
VERTEX
  5
415
  8
0
  6
CONTINUOUS
 62
     7
 10
110.0675182585981
 20
255.6763470330335
 30
0.0
  0
VERTEX
  5
416
  8
0
  6
CONTINUOUS
 62
     7
 10
109.9751133996633
 20
255.8492272236983
 30
0.0
  0
VERTEX
  5
417
  8
0
  6
CONTINUOUS
 62
     7
 10
109.8507568916989
 20
256.0007568916989
 30
0.0
  0
VERTEX
  5
418
  8
0
  6
CONTINUOUS
 62
     7
 10
109.6992272236983
 20
256.1251133996633
 30
0.0
  0
VERTEX
  5
419
  8
0
  6
CONTINUOUS
 62
     7
 10
109.5263470330335
 20
256.217518258598
 30
0.0
  0
VERTEX
  5
41A
  8
0
  6
CONTINUOUS
 62
     7
 10
109.3387593663917
 20
256.2744207447928
 30
0.0
  0
VERTEX
  5
41B
  8
0
  6
CONTINUOUS
 62
     7
 10
109.1436724158896
 20
256.2936343389538
 30
0.0
  0
SEQEND
  5
4F1
  8
0
  6
CONTINUOUS
 62
     7
  0
POLYLINE
  5
1BC
  8
0
  6
CONTINUOUS
 62
     7
 66
     1
 10
0.0
 20
0.0
 30
0.0
  0
VERTEX
  5
41C
  8
0
  6
CONTINUOUS
 62
     7
 10
101.2727110369527
 20
123.7063656610462
 30
0.0
  0
VERTEX
  5
41D
  8
0
  6
CONTINUOUS
 62
     7
 10
101.4750640528885
 20
123.7270528938686
 30
0.0
  0
VERTEX
  5
41E
  8
0
  6
CONTINUOUS
 62
     7
 10
101.6690424140794
 20
123.788258701723
 30
0.0
  0
VERTEX
  5
41F
  8
0
  6
CONTINUOUS
 62
     7
 10
101.8466206750805
 20
123.8874508234395
 30
0.0
  0
VERTEX
  5
420
  8
0
  6
CONTINUOUS
 62
     7
 10
102.0004519099918
 20
124.0205253942545
 30
0.0
  0
VERTEX
  5
421
  8
0
  6
CONTINUOUS
 62
     7
 10
102.124171676017
 20
124.181976734557
 30
0.0
  0
VERTEX
  5
422
  8
0
  6
CONTINUOUS
 62
     7
 10
102.2126613288569
 20
124.3651251357668
 30
0.0
  0
VERTEX
  5
423
  8
0
  6
CONTINUOUS
 62
     7
 10
102.2622597958178
 20
124.5623932191846
 30
0.0
  0
SEQEND
  5
4F2
  8
0
  6
CONTINUOUS
 62
     7
  0
LINE
  5
1BD
  8
0
  6
CONTINUOUS
 62
     7
 10
111.3572566427117
 20
194.1514437438518
 30
0.0
 11
106.1800120351959
 21
181.3315999538125
 31
0.0
  0
LINE
  5
1BE
  8
0
  6
CONTINUOUS
 62
     7
 10
106.1436343389538
 20
181.1443755582146
 30
0.0
 11
106.1436343389538
 21
151.283015133773
 31
0.0
  0
LINE
  5
1BF
  8
0
  6
CONTINUOUS
 62
     7
 10
106.1384277568543
 20
151.2110479513101
 30
0.0
 11
102.2622597958178
 21
124.5623932191846
 31
0.0
  0
LINE
  5
1C0
  8
0
  6
CONTINUOUS
 62
     7
 10
109.1436724158896
 20
256.2936343389537
 30
0.0
 11
50.85632758411038
 21
256.2936343389537
 31
0.0
  0
LINE
  5
1C1
  8
0
  6
CONTINUOUS
 62
     7
 10
95.75
 20
242.75
 30
0.0
 11
95.75
 21
215.75
 31
0.0
  0
LINE
  5
1C2
  8
0
  6
CONTINUOUS
 62
     7
 10
59.76788905262229
 20
132.75
 30
0.0
 11
100.2321109473777
 21
132.75
 31
0.0
  0
ARC
  5
1C3
  8
0
  6
CONTINUOUS
 62
     7
 10
98.0
 20
215.75
 30
0.0
 40
2.250000000000002
 50
180.0
 51
306.8698976458442
  0
LINE
  5
1C4
  8
0
  6
CONTINUOUS
 62
     7
 10
99.35000000000001
 20
213.95
 30
0.0
 11
101.35
 21
215.45
 31
0.0
  0
ARC
  5
1C5
  8
0
  6
CONTINUOUS
 62
     7
 10
100.0
 20
217.25
 30
0.0
 40
2.250000000000008
 50
306.8698976458446
 51
89.99999999999977
  0
POLYLINE
  5
1C6
  8
0
  6
CONTINUOUS
 62
     7
 66
     1
 10
0.0
 20
0.0
 30
0.0
  0
VERTEX
  5
424
  8
0
  6
CONTINUOUS
 62
     7
 10
102.0174004275504
 20
245.8738193966277
 30
0.0
  0
VERTEX
  5
425
  8
0
  6
CONTINUOUS
 62
     7
 10
101.9160299946152
 20
245.8634383315
 30
0.0
  0
VERTEX
  5
426
  8
0
  6
CONTINUOUS
 62
     7
 10
101.8188720233147
 20
245.8327261857562
 30
0.0
  0
VERTEX
  5
427
  8
0
  6
CONTINUOUS
 62
     7
 10
101.7299607729417
 20
245.7829582099774
 30
0.0
  0
VERTEX
  5
428
  8
0
  6
CONTINUOUS
 62
     7
 10
101.6529880768399
 20
245.7162009038659
 30
0.0
  0
VERTEX
  5
429
  8
0
  6
CONTINUOUS
 62
     7
 10
101.5911500475918
 20
245.6352262096406
 30
0.0
  0
VERTEX
  5
42A
  8
0
  6
CONTINUOUS
 62
     7
 10
101.5470143658602
 20
245.5433964135689
 30
0.0
  0
VERTEX
  5
42B
  8
0
  6
CONTINUOUS
 62
     7
 10
101.5224136634073
 20
245.4445245348319
 30
0.0
  0
VERTEX
  5
42C
  8
0
  6
CONTINUOUS
 62
     7
 10
101.518369427314
 20
245.3427159987514
 30
0.0
  0
VERTEX
  5
42D
  8
0
  6
CONTINUOUS
 62
     7
 10
101.5350495850991
 20
245.2421981685307
 30
0.0
  0
VERTEX
  5
42E
  8
0
  6
CONTINUOUS
 62
     7
 10
101.5717615319186
 20
245.1471448138074
 30
0.0
  0
VERTEX
  5
42F
  8
0
  6
CONTINUOUS
 62
     7
 10
101.6269808893746
 20
245.061502804555
 30
0.0
  0
SEQEND
  5
4F3
  8
0
  6
CONTINUOUS
 62
     7
  0
LINE
  5
1C7
  8
0
  6
CONTINUOUS
 62
     7
 10
78.75
 20
148.25
 30
0.0
 11
56.35740992459494
 21
148.25
 31
0.0
  0
LINE
  5
1C8
  8
0
  6
CONTINUOUS
 62
     7
 10
101.7569548212468
 20
241.6555638569974
 30
0.0
 11
99.75695482124685
 21
244.1555638569974
 31
0.0
  0
LINE
  5
1C9
  8
0
  6
CONTINUOUS
 62
     7
 10
55.25353992836354
 20
151.6035399283635
 30
0.0
 11
55.89999999999999
 21
152.2499999999999
 31
0.0
  0
LINE
  5
1CA
  8
0
  6
CONTINUOUS
 62
     7
 10
103.3391360567187
 20
242.9213088453749
 30
0.0
 11
101.6269808893746
 21
245.061502804555
 31
0.0
  0
ARC
  5
1CB
  8
0
  6
CONTINUOUS
 62
     7
 10
100.0
 20
240.25
 30
0.0
 40
4.276180603372277
 50
301.9318650502441
 51
38.65980825408912
  0
LINE
  5
1CC
  8
0
  6
CONTINUOUS
 62
     7
 10
102.0261806033723
 20
221.303421646223
 30
0.0
 11
102.0261806033723
 21
236.1965783537769
 31
0.0
  0
ARC
  5
1CD
  8
0
  6
CONTINUOUS
 62
     7
 10
100.0
 20
217.25
 30
0.0
 40
4.276180603372262
 50
306.8698976458444
 51
58.06813494975586
  0
LINE
  5
1CE
  8
0
  6
CONTINUOUS
 62
     7
 10
100.5657083620234
 20
212.3290555173022
 30
0.0
 11
102.5657083620234
 21
213.8290555173022
 31
0.0
  0
POLYLINE
  5
1CF
  8
0
  6
CONTINUOUS
 62
     7
 66
     1
 10
0.0
 20
0.0
 30
0.0
  0
VERTEX
  5
430
  8
0
  6
CONTINUOUS
 62
     7
 10
102.0261806033723
 20
236.1965783537769
 30
0.0
  0
VERTEX
  5
431
  8
0
  6
CONTINUOUS
 62
     7
 10
102.0266137694041
 20
236.2173459914592
 30
0.0
  0
VERTEX
  5
432
  8
0
  6
CONTINUOUS
 62
     7
 10
102.0279102936429
 20
236.2380956447511
 30
0.0
  0
VERTEX
  5
433
  8
0
  6
CONTINUOUS
 62
     7
 10
102.030065715304
 20
236.2587737305338
 30
0.0
  0
VERTEX
  5
434
  8
0
  6
CONTINUOUS
 62
     7
 10
102.0330755736022
 20
236.2793266656884
 30
0.0
  0
VERTEX
  5
435
  8
0
  6
CONTINUOUS
 62
     7
 10
102.0370648668407
 20
236.3003264520575
 30
0.0
  0
VERTEX
  5
436
  8
0
  6
CONTINUOUS
 62
     7
 10
102.0419525750031
 20
236.3211555954192
 30
0.0
  0
VERTEX
  5
437
  8
0
  6
CONTINUOUS
 62
     7
 10
102.0477241020912
 20
236.3417573518934
 30
0.0
  0
VERTEX
  5
438
  8
0
  6
CONTINUOUS
 62
     7
 10
102.0543648521068
 20
236.3620749775999
 30
0.0
  0
VERTEX
  5
439
  8
0
  6
CONTINUOUS
 62
     7
 10
102.0616477828422
 20
236.3815285507206
 30
0.0
  0
VERTEX
  5
43A
  8
0
  6
CONTINUOUS
 62
     7
 10
102.0697394733285
 20
236.4006793692372
 30
0.0
  0
VERTEX
  5
43B
  8
0
  6
CONTINUOUS
 62
     7
 10
102.0786179740294
 20
236.4194783459961
 30
0.0
  0
VERTEX
  5
43C
  8
0
  6
CONTINUOUS
 62
     7
 10
102.0882613354087
 20
236.437876393844
 30
0.0
  0
VERTEX
  5
43D
  8
0
  6
CONTINUOUS
 62
     7
 10
102.0989768559837
 20
236.4563719152371
 30
0.0
  0
VERTEX
  5
43E
  8
0
  6
CONTINUOUS
 62
     7
 10
102.1104836737984
 20
236.4744090234782
 30
0.0
  0
VERTEX
  5
43F
  8
0
  6
CONTINUOUS
 62
     7
 10
102.1227492291193
 20
236.4919390059594
 30
0.0
  0
VERTEX
  5
440
  8
0
  6
CONTINUOUS
 62
     7
 10
102.1357409622129
 20
236.5089131500728
 30
0.0
  0
VERTEX
  5
441
  8
0
  6
CONTINUOUS
 62
     7
 10
102.1491064865518
 20
236.5249211542717
 30
0.0
  0
VERTEX
  5
442
  8
0
  6
CONTINUOUS
 62
     7
 10
102.163140159525
 20
236.5403713334699
 30
0.0
  0
VERTEX
  5
443
  8
0
  6
CONTINUOUS
 62
     7
 10
102.1778045666732
 20
236.5552241845656
 30
0.0
  0
VERTEX
  5
444
  8
0
  6
CONTINUOUS
 62
     7
 10
102.1930622935371
 20
236.5694402044572
 30
0.0
  0
VERTEX
  5
445
  8
0
  6
CONTINUOUS
 62
     7
 10
102.2093741957706
 20
236.5833921187068
 30
0.0
  0
VERTEX
  5
446
  8
0
  6
CONTINUOUS
 62
     7
 10
102.2262855020939
 20
236.5966432805852
 30
0.0
  0
VERTEX
  5
447
  8
0
  6
CONTINUOUS
 62
     7
 10
102.2437487383148
 20
236.6091581105173
 30
0.0
  0
VERTEX
  5
448
  8
0
  6
CONTINUOUS
 62
     7
 10
102.2617164302408
 20
236.6209010289279
 30
0.0
  0
SEQEND
  5
4F4
  8
0
  6
CONTINUOUS
 62
     7
  0
LINE
  5
1D0
  8
0
  6
CONTINUOUS
 62
     7
 10
93.72381939662773
 20
242.75
 30
0.0
 11
93.72381939662772
 21
215.75
 31
0.0
  0
LINE
  5
1D1
  8
0
  6
CONTINUOUS
 62
     7
 10
103.3214167910981
 20
146.2238193966277
 30
0.0
 11
101.6563056938973
 21
134.7761806033723
 31
0.0
  0
LINE
  5
1D2
  8
0
  6
CONTINUOUS
 62
     7
 10
57.97381939662773
 20
221.303421646223
 30
0.0
 11
57.97381939662772
 21
236.1965783537769
 31
0.0
  0
LINE
  5
1D3
  8
0
  6
CONTINUOUS
 62
     7
 10
106.1384277568543
 20
151.2110479513101
 30
0.0
 11
106.1436343389538
 21
151.283015133773
 31
0.0
  0
POLYLINE
  5
1D4
  8
0
  6
CONTINUOUS
 62
     7
 66
     1
 10
0.0
 20
0.0
 30
0.0
  0
VERTEX
  5
449
  8
0
  6
CONTINUOUS
 62
     7
 10
106.1800120351958
 20
181.3315999538125
 30
0.0
  0
VERTEX
  5
44A
  8
0
  6
CONTINUOUS
 62
     7
 10
106.1528130077676
 20
181.239738433669
 30
0.0
  0
VERTEX
  5
44B
  8
0
  6
CONTINUOUS
 62
     7
 10
106.1436343389538
 20
181.1443755582146
 30
0.0
  0
SEQEND
  5
4F5
  8
0
  6
CONTINUOUS
 62
     7
  0
POLYLINE
  5
1D5
  8
0
  6
CONTINUOUS
 62
     7
 66
     1
 10
0.0
 20
0.0
 30
0.0
  0
VERTEX
  5
44C
  8
0
  6
CONTINUOUS
 62
     7
 10
111.3572566427117
 20
194.1514437438518
 30
0.0
  0
VERTEX
  5
44D
  8
0
  6
CONTINUOUS
 62
     7
 10
111.38445567014
 20
194.2433052639953
 30
0.0
  0
VERTEX
  5
44E
  8
0
  6
CONTINUOUS
 62
     7
 10
111.3936343389538
 20
194.3386681394497
 30
0.0
  0
SEQEND
  5
4F6
  8
0
  6
CONTINUOUS
 62
     7
  0
POLYLINE
  5
1D6
  8
0
  6
CONTINUOUS
 62
     7
 66
     1
 10
0.0
 20
0.0
 30
0.0
  0
VERTEX
  5
44F
  8
0
  6
CONTINUOUS
 62
     7
 10
94.00911148231567
 20
245.8738193966277
 30
0.0
  0
VERTEX
  5
450
  8
0
  6
CONTINUOUS
 62
     7
 10
94.03313109748302
 20
245.8732301958458
 30
0.0
  0
VERTEX
  5
451
  8
0
  6
CONTINUOUS
 62
     7
 10
94.0571630410103
 20
245.8714719060061
 30
0.0
  0
VERTEX
  5
452
  8
0
  6
CONTINUOUS
 62
     7
 10
94.08112512436776
 20
245.8685584958676
 30
0.0
  0
VERTEX
  5
453
  8
0
  6
CONTINUOUS
 62
     7
 10
94.10493515902566
 20
245.8645039341894
 30
0.0
  0
VERTEX
  5
454
  8
0
  6
CONTINUOUS
 62
     7
 10
94.12851095645419
 20
245.8593221897306
 30
0.0
  0
VERTEX
  5
455
  8
0
  6
CONTINUOUS
 62
     7
 10
94.15177032812365
 20
245.8530272312502
 30
0.0
  0
VERTEX
  5
456
  8
0
  6
CONTINUOUS
 62
     7
 10
94.17463108550423
 20
245.8456330275072
 30
0.0
  0
VERTEX
  5
457
  8
0
  6
CONTINUOUS
 62
     7
 10
94.1971018737972
 20
245.8371266128721
 30
0.0
  0
VERTEX
  5
458
  8
0
  6
CONTINUOUS
 62
     7
 10
94.21919726955599
 20
245.8275127228489
 30
0.0
  0
VERTEX
  5
459
  8
0
  6
CONTINUOUS
 62
     7
 10
94.24084431725578
 20
245.8168317600492
 30
0.0
  0
VERTEX
  5
45A
  8
0
  6
CONTINUOUS
 62
     7
 10
94.26197006137168
 20
245.8051241270845
 30
0.0
  0
VERTEX
  5
45B
  8
0
  6
CONTINUOUS
 62
     7
 10
94.28250154637888
 20
245.7924302265665
 30
0.0
  0
VERTEX
  5
45C
  8
0
  6
CONTINUOUS
 62
     7
 10
94.30236581675248
 20
245.7787904611067
 30
0.0
  0
VERTEX
  5
45D
  8
0
  6
CONTINUOUS
 62
     7
 10
94.32148991696766
 20
245.7642452333167
 30
0.0
  0
VERTEX
  5
45E
  8
0
  6
CONTINUOUS
 62
     7
 10
94.33987545983679
 20
245.7487814438518
 30
0.0
  0
VERTEX
  5
45F
  8
0
  6
CONTINUOUS
 62
     7
 10
94.35754021547318
 20
245.7323969863319
 30
0.0
  0
VERTEX
  5
460
  8
0
  6
CONTINUOUS
 62
     7
 10
94.37442873345101
 20
245.7151541377617
 30
0.0
  0
VERTEX
  5
461
  8
0
  6
CONTINUOUS
 62
     7
 10
94.39048556334447
 20
245.6971151751456
 30
0.0
  0
VERTEX
  5
462
  8
0
  6
CONTINUOUS
 62
     7
 10
94.40565525472775
 20
245.6783423754883
 30
0.0
  0
VERTEX
  5
463
  8
0
  6
CONTINUOUS
 62
     7
 10
94.41988235717498
 20
245.6588980157944
 30
0.0
  0
VERTEX
  5
464
  8
0
  6
CONTINUOUS
 62
     7
 10
94.43311142026036
 20
245.6388443730684
 30
0.0
  0
VERTEX
  5
465
  8
0
  6
CONTINUOUS
 62
     7
 10
94.44533962534601
 20
245.6181686018789
 30
0.0
  0
VERTEX
  5
466
  8
0
  6
CONTINUOUS
 62
     7
 10
94.45658308051914
 20
245.5968628122558
 30
0.0
  0
VERTEX
  5
467
  8
0
  6
CONTINUOUS
 62
     7
 10
94.46681010432155
 20
245.5750041078343
 30
0.0
  0
VERTEX
  5
468
  8
0
  6
CONTINUOUS
 62
     7
 10
94.47598901529504
 20
245.55266959225
 30
0.0
  0
VERTEX
  5
469
  8
0
  6
CONTINUOUS
 62
     7
 10
94.48408813198138
 20
245.5299363691385
 30
0.0
  0
VERTEX
  5
46A
  8
0
  6
CONTINUOUS
 62
     7
 10
94.49107577292239
 20
245.5068815421351
 30
0.0
  0
VERTEX
  5
46B
  8
0
  6
CONTINUOUS
 62
     7
 10
94.49692025665985
 20
245.4835822148755
 30
0.0
  0
VERTEX
  5
46C
  8
0
  6
CONTINUOUS
 62
     7
 10
94.50161509457693
 20
245.4600249148694
 30
0.0
  0
VERTEX
  5
46D
  8
0
  6
CONTINUOUS
 62
     7
 10
94.50517226942651
 20
245.4361991135126
 30
0.0
  0
VERTEX
  5
46E
  8
0
  6
CONTINUOUS
 62
     7
 10
94.50758742334493
 20
245.4121880350946
 30
0.0
  0
VERTEX
  5
46F
  8
0
  6
CONTINUOUS
 62
     7
 10
94.50885619846858
 20
245.3880749039048
 30
0.0
  0
VERTEX
  5
470
  8
0
  6
CONTINUOUS
 62
     7
 10
94.50897423693384
 20
245.363942944233
 30
0.0
  0
VERTEX
  5
471
  8
0
  6
CONTINUOUS
 62
     7
 10
94.5079371808771
 20
245.3398753803685
 30
0.0
  0
VERTEX
  5
472
  8
0
  6
CONTINUOUS
 62
     7
 10
94.50574067243473
 20
245.315955436601
 30
0.0
  0
VERTEX
  5
473
  8
0
  6
CONTINUOUS
 62
     7
 10
94.50237372324492
 20
245.2921699945946
 30
0.0
  0
VERTEX
  5
474
  8
0
  6
CONTINUOUS
 62
     7
 10
94.49784433712998
 20
245.2685077313652
 30
0.0
  0
VERTEX
  5
475
  8
0
  6
CONTINUOUS
 62
     7
 10
94.49217595089058
 20
245.2450486165778
 30
0.0
  0
VERTEX
  5
476
  8
0
  6
CONTINUOUS
 62
     7
 10
94.48539200132747
 20
245.2218726198972
 30
0.0
  0
VERTEX
  5
477
  8
0
  6
CONTINUOUS
 62
     7
 10
94.47751592524133
 20
245.1990597109883
 30
0.0
  0
VERTEX
  5
478
  8
0
  6
CONTINUOUS
 62
     7
 10
94.46857115943288
 20
245.176689859516
 30
0.0
  0
VERTEX
  5
479
  8
0
  6
CONTINUOUS
 62
     7
 10
94.45858114070285
 20
245.154843035145
 30
0.0
  0
VERTEX
  5
47A
  8
0
  6
CONTINUOUS
 62
     7
 10
94.44881404393863
 20
245.1358421290072
 30
0.0
  0
VERTEX
  5
47B
  8
0
  6
CONTINUOUS
 62
     7
 10
94.43824002661793
 20
245.11726692796
 30
0.0
  0
VERTEX
  5
47C
  8
0
  6
CONTINUOUS
 62
     7
 10
94.426888027628
 20
245.0991682327047
 30
0.0
  0
SEQEND
  5
4F7
  8
0
  6
CONTINUOUS
 62
     7
  0
POLYLINE
  5
1D7
  8
0
  6
CONTINUOUS
 62
     7
 66
     1
 10
0.0
 20
0.0
 30
0.0
  0
VERTEX
  5
47D
  8
0
  6
CONTINUOUS
 62
     7
 10
111.3936343389538
 20
253.7936533774217
 30
0.0
  0
VERTEX
  5
47E
  8
0
  6
CONTINUOUS
 62
     7
 10
111.3840275418734
 20
253.8911968526727
 30
0.0
  0
VERTEX
  5
47F
  8
0
  6
CONTINUOUS
 62
     7
 10
111.355576298776
 20
253.9849906859936
 30
0.0
  0
VERTEX
  5
480
  8
0
  6
CONTINUOUS
 62
     7
 10
111.3093738693086
 20
254.0714307813261
 30
0.0
  0
VERTEX
  5
481
  8
0
  6
CONTINUOUS
 62
     7
 10
111.2471956153264
 20
254.1471956153264
 30
0.0
  0
VERTEX
  5
482
  8
0
  6
CONTINUOUS
 62
     7
 10
111.1714307813261
 20
254.2093738693086
 30
0.0
  0
VERTEX
  5
483
  8
0
  6
CONTINUOUS
 62
     7
 10
111.0849906859937
 20
254.255576298776
 30
0.0
  0
VERTEX
  5
484
  8
0
  6
CONTINUOUS
 62
     7
 10
110.9911968526728
 20
254.2840275418733
 30
0.0
  0
VERTEX
  5
485
  8
0
  6
CONTINUOUS
 62
     7
 10
110.8936533774217
 20
254.2936343389538
 30
0.0
  0
SEQEND
  5
4F8
  8
0
  6
CONTINUOUS
 62
     7
  0
POLYLINE
  5
1D8
  8
0
  6
CONTINUOUS
 62
     7
 66
     1
 10
0.0
 20
0.0
 30
0.0
  0
VERTEX
  5
486
  8
0
  6
CONTINUOUS
 62
     7
 10
101.2216597062429
 20
131.60610371201
 30
0.0
  0
VERTEX
  5
487
  8
0
  6
CONTINUOUS
 62
     7
 10
101.2310099137599
 20
131.7961658874885
 30
0.0
  0
VERTEX
  5
488
  8
0
  6
CONTINUOUS
 62
     7
 10
101.2041888153961
 20
131.9845551104841
 30
0.0
  0
VERTEX
  5
489
  8
0
  6
CONTINUOUS
 62
     7
 10
101.142167549067
 20
132.1644501869189
 30
0.0
  0
VERTEX
  5
48A
  8
0
  6
CONTINUOUS
 62
     7
 10
101.0471917798262
 20
132.3293374786431
 30
0.0
  0
VERTEX
  5
48B
  8
0
  6
CONTINUOUS
 62
     7
 10
100.92270038886
 20
132.4732467491435
 30
0.0
  0
VERTEX
  5
48C
  8
0
  6
CONTINUOUS
 62
     7
 10
100.7732009585305
 20
132.5909673337758
 30
0.0
  0
VERTEX
  5
48D
  8
0
  6
CONTINUOUS
 62
     7
 10
100.6041065619029
 20
132.6782368074292
 30
0.0
  0
VERTEX
  5
48E
  8
0
  6
CONTINUOUS
 62
     7
 10
100.4215397662796
 20
132.7318953183488
 30
0.0
  0
VERTEX
  5
48F
  8
0
  6
CONTINUOUS
 62
     7
 10
100.2321109473777
 20
132.75
 30
0.0
  0
SEQEND
  5
4F9
  8
0
  6
CONTINUOUS
 62
     7
  0
POLYLINE
  5
1D9
  8
0
  6
CONTINUOUS
 62
     7
 66
     1
 10
0.0
 20
0.0
 30
0.0
  0
VERTEX
  5
490
  8
0
  6
CONTINUOUS
 62
     7
 10
104.1
 20
159.2500380769358
 30
0.0
  0
VERTEX
  5
491
  8
0
  6
CONTINUOUS
 62
     7
 10
104.080786405839
 20
159.4451250274379
 30
0.0
  0
VERTEX
  5
492
  8
0
  6
CONTINUOUS
 62
     7
 10
104.0238839196443
 20
159.6327126940797
 30
0.0
  0
VERTEX
  5
493
  8
0
  6
CONTINUOUS
 62
     7
 10
103.9314790607095
 20
159.8055928847445
 30
0.0
  0
VERTEX
  5
494
  8
0
  6
CONTINUOUS
 62
     7
 10
103.8071225527451
 20
159.9571225527451
 30
0.0
  0
VERTEX
  5
495
  8
0
  6
CONTINUOUS
 62
     7
 10
103.6555928847445
 20
160.0814790607095
 30
0.0
  0
VERTEX
  5
496
  8
0
  6
CONTINUOUS
 62
     7
 10
103.4827126940797
 20
160.1738839196443
 30
0.0
  0
VERTEX
  5
497
  8
0
  6
CONTINUOUS
 62
     7
 10
103.2951250274379
 20
160.230786405839
 30
0.0
  0
VERTEX
  5
498
  8
0
  6
CONTINUOUS
 62
     7
 10
103.1000380769358
 20
160.2499999999999
 30
0.0
  0
SEQEND
  5
4FA
  8
0
  6
CONTINUOUS
 62
     7
  0
POLYLINE
  5
1DA
  8
0
  6
CONTINUOUS
 62
     7
 66
     1
 10
0.0
 20
0.0
 30
0.0
  0
VERTEX
  5
499
  8
0
  6
CONTINUOUS
 62
     7
 10
102.2617164302408
 20
220.879098971072
 30
0.0
  0
VERTEX
  5
49A
  8
0
  6
CONTINUOUS
 62
     7
 10
102.2443205060007
 20
220.890450809141
 30
0.0
  0
VERTEX
  5
49B
  8
0
  6
CONTINUOUS
 62
     7
 10
102.2273964838533
 20
220.9025258479062
 30
0.0
  0
VERTEX
  5
49C
  8
0
  6
CONTINUOUS
 62
     7
 10
102.210987479239
 20
220.9152919609298
 30
0.0
  0
VERTEX
  5
49D
  8
0
  6
CONTINUOUS
 62
     7
 10
102.1951366075984
 20
220.9287170217741
 30
0.0
  0
VERTEX
  5
49E
  8
0
  6
CONTINUOUS
 62
     7
 10
102.1794245366467
 20
220.9432096514353
 30
0.0
  0
VERTEX
  5
49F
  8
0
  6
CONTINUOUS
 62
     7
 10
102.1643324676088
 20
220.9583744909138
 30
0.0
  0
VERTEX
  5
4A0
  8
0
  6
CONTINUOUS
 62
     7
 10
102.1499008377728
 20
220.9741691404833
 30
0.0
  0
VERTEX
  5
4A1
  8
0
  6
CONTINUOUS
 62
     7
 10
102.1361700844272
 20
220.990551200417
 30
0.0
  0
VERTEX
  5
4A2
  8
0
  6
CONTINUOUS
 62
     7
 10
102.1235122892796
 20
221.0070212583786
 30
0.0
  0
VERTEX
  5
4A3
  8
0
  6
CONTINUOUS
 62
     7
 10
102.1115391966531
 20
221.0240175626159
 30
0.0
  0
VERTEX
  5
4A4
  8
0
  6
CONTINUOUS
 62
     7
 10
102.1002808563802
 20
221.0414955223416
 30
0.0
  0
VERTEX
  5
4A5
  8
0
  6
CONTINUOUS
 62
     7
 10
102.0897673182933
 20
221.0594105467679
 30
0.0
  0
VERTEX
  5
4A6
  8
0
  6
CONTINUOUS
 62
     7
 10
102.0797381327439
 20
221.0782870435299
 30
0.0
  0
VERTEX
  5
4A7
  8
0
  6
CONTINUOUS
 62
     7
 10
102.0705165175446
 20
221.0975926370983
 30
0.0
  0
VERTEX
  5
4A8
  8
0
  6
CONTINUOUS
 62
     7
 10
102.0621265928155
 20
221.1172739301492
 30
0.0
  0
VERTEX
  5
4A9
  8
0
  6
CONTINUOUS
 62
     7
 10
102.0545924786772
 20
221.1372775253587
 30
0.0
  0
VERTEX
  5
4AA
  8
0
  6
CONTINUOUS
 62
     7
 10
102.0480760079861
 20
221.1570873473929
 30
0.0
  0
VERTEX
  5
4AB
  8
0
  6
CONTINUOUS
 62
     7
 10
102.0423863416815
 20
221.1771691728012
 30
0.0
  0
VERTEX
  5
4AC
  8
0
  6
CONTINUOUS
 62
     7
 10
102.0375372162665
 20
221.1974703551658
 30
0.0
  0
VERTEX
  5
4AD
  8
0
  6
CONTINUOUS
 62
     7
 10
102.0335423682443
 20
221.2179382480692
 30
0.0
  0
VERTEX
  5
4AE
  8
0
  6
CONTINUOUS
 62
     7
 10
102.0303292251073
 20
221.2391611078412
 30
0.0
  0
VERTEX
  5
4AF
  8
0
  6
CONTINUOUS
 62
     7
 10
102.0280278259187
 20
221.2605220332537
 30
0.0
  0
VERTEX
  5
4B0
  8
0
  6
CONTINUOUS
 62
     7
 10
102.0266432566749
 20
221.2819619156124
 30
0.0
  0
VERTEX
  5
4B1
  8
0
  6
CONTINUOUS
 62
     7
 10
102.0261806033723
 20
221.303421646223
 30
0.0
  0
SEQEND
  5
4FB
  8
0
  6
CONTINUOUS
 62
     7
  0
POLYLINE
  5
1DB
  8
0
  6
CONTINUOUS
 62
     7
 66
     1
 10
0.0
 20
0.0
 30
0.0
  0
VERTEX
  5
4B2
  8
0
  6
CONTINUOUS
 62
     7
 10
104.1465747891119
 20
181.8238430598271
 30
0.0
  0
VERTEX
  5
4B3
  8
0
  6
CONTINUOUS
 62
     7
 10
104.0921767342553
 20
181.6401200195401
 30
0.0
  0
VERTEX
  5
4B4
  8
0
  6
CONTINUOUS
 62
     7
 10
104.0738193966277
 20
181.4493942686314
 30
0.0
  0
SEQEND
  5
4FC
  8
0
  6
CONTINUOUS
 62
     7
  0
POLYLINE
  5
1DC
  8
0
  6
CONTINUOUS
 62
     7
 66
     1
 10
0.0
 20
0.0
 30
0.0
  0
VERTEX
  5
4B5
  8
0
  6
CONTINUOUS
 62
     7
 10
55.25353992836354
 20
151.6035399283635
 30
0.0
  0
VERTEX
  5
4B6
  8
0
  6
CONTINUOUS
 62
     7
 10
55.19135930691409
 20
151.5277732441919
 30
0.0
  0
VERTEX
  5
4B7
  8
0
  6
CONTINUOUS
 62
     7
 10
55.14515511826676
 20
151.4413329216899
 30
0.0
  0
VERTEX
  5
4B8
  8
0
  6
CONTINUOUS
 62
     7
 10
55.11670279187446
 20
151.3475404929302
 30
0.0
  0
VERTEX
  5
4B9
  8
0
  6
CONTINUOUS
 62
     7
 10
55.10709562901052
 20
151.25
 30
0.0
  0
VERTEX
  5
4BA
  8
0
  6
CONTINUOUS
 62
     7
 10
55.11670279187446
 20
151.1524595070698
 30
0.0
  0
VERTEX
  5
4BB
  8
0
  6
CONTINUOUS
 62
     7
 10
55.14515511826675
 20
151.0586670783101
 30
0.0
  0
VERTEX
  5
4BC
  8
0
  6
CONTINUOUS
 62
     7
 10
55.19135930691408
 20
150.9722267558081
 30
0.0
  0
VERTEX
  5
4BD
  8
0
  6
CONTINUOUS
 62
     7
 10
55.25353992836352
 20
150.8964600716365
 30
0.0
  0
SEQEND
  5
4FD
  8
0
  6
CONTINUOUS
 62
     7
  0
POLYLINE
  5
1DD
  8
0
  6
CONTINUOUS
 62
     7
 66
     1
 10
0.0
 20
0.0
 30
0.0
  0
VERTEX
  5
4BE
  8
0
  6
CONTINUOUS
 62
     7
 10
55.92618060337227
 20
181.4493942686314
 30
0.0
  0
VERTEX
  5
4BF
  8
0
  6
CONTINUOUS
 62
     7
 10
55.90782326574465
 20
181.6401200195401
 30
0.0
  0
VERTEX
  5
4C0
  8
0
  6
CONTINUOUS
 62
     7
 10
55.85342521088811
 20
181.8238430598271
 30
0.0
  0
SEQEND
  5
4FE
  8
0
  6
CONTINUOUS
 62
     7
  0
ARC
  5
1DE
  8
0
  6
CONTINUOUS
 62
     7
 10
60.00000000000001
 20
217.25
 30
0.0
 40
4.276180603372262
 50
121.9318650502441
 51
233.1301023541555
  0
LINE
  5
1DF
  8
0
  6
CONTINUOUS
 62
     7
 10
104.5738193966277
 20
178.4738193966277
 30
0.0
 11
104.5738193966277
 21
174.0261806033722
 31
0.0
  0
LINE
  5
1E0
  8
0
  6
CONTINUOUS
 62
     7
 10
104.5738193966277
 20
178.4738193966277
 30
0.0
 11
104.6
 21
178.5
 31
0.0
  0
LINE
  5
1E1
  8
0
  6
CONTINUOUS
 62
     7
 10
109.8238193966277
 20
248.1761806033722
 30
0.0
 11
109.8238193966277
 21
251.9238193966277
 31
0.0
  0
POLYLINE
  5
1E2
  8
0
  6
CONTINUOUS
 62
     7
 66
     1
 10
0.0
 20
0.0
 30
0.0
  0
VERTEX
  5
4C1
  8
0
  6
CONTINUOUS
 62
     7
 10
104.7464600716365
 20
150.8964600716365
 30
0.0
  0
VERTEX
  5
4C2
  8
0
  6
CONTINUOUS
 62
     7
 10
104.8086406930859
 20
150.9722267558081
 30
0.0
  0
VERTEX
  5
4C3
  8
0
  6
CONTINUOUS
 62
     7
 10
104.8548448817332
 20
151.0586670783101
 30
0.0
  0
VERTEX
  5
4C4
  8
0
  6
CONTINUOUS
 62
     7
 10
104.8832972081255
 20
151.1524595070698
 30
0.0
  0
VERTEX
  5
4C5
  8
0
  6
CONTINUOUS
 62
     7
 10
104.8929043709895
 20
151.25
 30
0.0
  0
VERTEX
  5
4C6
  8
0
  6
CONTINUOUS
 62
     7
 10
104.8832972081255
 20
151.3475404929302
 30
0.0
  0
VERTEX
  5
4C7
  8
0
  6
CONTINUOUS
 62
     7
 10
104.8548448817332
 20
151.4413329216899
 30
0.0
  0
VERTEX
  5
4C8
  8
0
  6
CONTINUOUS
 62
     7
 10
104.8086406930859
 20
151.5277732441919
 30
0.0
  0
VERTEX
  5
4C9
  8
0
  6
CONTINUOUS
 62
     7
 10
104.7464600716364
 20
151.6035399283635
 30
0.0
  0
SEQEND
  5
4FF
  8
0
  6
CONTINUOUS
 62
     7
  0
LINE
  5
1E3
  8
0
  6
CONTINUOUS
 62
     7
 10
103.5
 20
178.4738193966277
 30
0.0
 11
104.5738193966277
 21
178.4738193966277
 31
0.0
  0
LINE
  5
1E4
  8
0
  6
CONTINUOUS
 62
     7
 10
81.23254626441847
 20
159.4142053530246
 30
0.0
 11
80.73992308106365
 21
160.2674537355815
 31
0.0
  0
LINE
  5
1E5
  8
0
  6
CONTINUOUS
 62
     7
 10
78.76745373558151
 20
159.4142053530246
 30
0.0
 11
79.26007691893633
 21
160.2674537355815
 31
0.0
  0
ENDBLK
  8
0
  0
BLOCK
  8
0
  2
D_FRAME_VIEW_1973
 70
     0
 10
0.0
 20
0.0
 30
0.0
  0
LINE
  5
1EA
  8
0
  6
CONTINUOUS
 62
     7
 10
153.8
 20
254.25
 30
0.0
 11
153.8
 21
253.7500190384679
 31
0.0
  0
LINE
  5
1EB
  8
0
  6
CONTINUOUS
 62
     7
 10
158.8
 20
254.2936343389538
 30
0.0
 11
153.8
 21
254.25
 31
0.0
  0
LINE
  5
1EC
  8
0
  6
CONTINUOUS
 62
     7
 10
158.8
 20
253.7936533774217
 30
0.0
 11
158.8
 21
254.2936343389538
 31
0.0
  0
LINE
  5
1ED
  8
0
  6
CONTINUOUS
 62
     7
 10
153.8
 20
194.3471462906175
 30
0.0
 11
153.8
 21
194.1599218950196
 31
0.0
  0
LINE
  5
1EE
  8
0
  6
CONTINUOUS
 62
     7
 10
158.8
 20
194.1514437438518
 30
0.0
 11
158.8
 21
194.3386681394497
 31
0.0
  0
LINE
  5
1EF
  8
0
  6
CONTINUOUS
 62
     7
 10
153.8
 20
253.7500190384679
 30
0.0
 11
153.8
 21
194.3471462906175
 31
0.0
  0
LINE
  5
1F0
  8
0
  6
CONTINUOUS
 62
     7
 10
158.8
 20
253.7936533774217
 30
0.0
 11
158.8
 21
194.3386681394497
 31
0.0
  0
LINE
  5
1F1
  8
0
  6
CONTINUOUS
 62
     7
 10
153.8
 20
194.1599218950196
 30
0.0
 11
153.8
 21
181.3400781049804
 31
0.0
  0
LINE
  5
1F2
  8
0
  6
CONTINUOUS
 62
     7
 10
158.8
 20
194.1514437438518
 30
0.0
 11
158.8
 21
181.3315999538125
 31
0.0
  0
LINE
  5
1F3
  8
0
  6
CONTINUOUS
 62
     7
 10
158.8
 20
256.2936343389537
 30
0.0
 11
153.8
 21
256.25
 31
0.0
  0
LINE
  5
1F4
  8
0
  6
CONTINUOUS
 62
     7
 10
153.8
 20
256.25
 30
0.0
 11
153.8
 21
255.2500380769358
 31
0.0
  0
LINE
  5
1F5
  8
0
  6
CONTINUOUS
 62
     7
 10
158.8
 20
255.2936724158896
 30
0.0
 11
158.8
 21
256.2936343389537
 31
0.0
  0
LINE
  5
1F6
  8
0
  6
CONTINUOUS
 62
     7
 10
153.8
 20
255.2500380769358
 30
0.0
 11
153.8
 21
254.25
 31
0.0
  0
LINE
  5
1F7
  8
0
  6
CONTINUOUS
 62
     7
 10
158.8
 20
255.2936724158896
 30
0.0
 11
158.8
 21
254.2936343389538
 31
0.0
  0
LINE
  5
1F8
  8
0
  6
CONTINUOUS
 62
     7
 10
153.8
 20
248.15
 30
0.0
 11
151.9911494645806
 21
248.1657855994758
 31
0.0
  0
LINE
  5
1F9
  8
0
  6
CONTINUOUS
 62
     7
 10
153.8
 20
251.95
 30
0.0
 11
151.9911494645806
 21
251.9342144005241
 31
0.0
  0
LINE
  5
1FA
  8
0
  6
CONTINUOUS
 62
     7
 10
151.0
 20
248.1744352298141
 30
0.0
 11
151.0
 21
251.9255647701858
 31
0.0
  0
LINE
  5
1FB
  8
0
  6
CONTINUOUS
 62
     7
 10
151.0
 20
251.9255647701858
 30
0.0
 11
151.9911494645806
 21
251.9342144005241
 31
0.0
  0
LINE
  5
1FC
  8
0
  6
CONTINUOUS
 62
     7
 10
151.9911494645806
 20
248.1657855994758
 30
0.0
 11
151.0
 21
248.1744352298141
 31
0.0
  0
LINE
  5
1FD
  8
0
  6
CONTINUOUS
 62
     7
 10
153.8
 20
181.1528537093825
 30
0.0
 11
153.8
 21
181.3400781049804
 31
0.0
  0
LINE
  5
1FE
  8
0
  6
CONTINUOUS
 62
     7
 10
158.8
 20
181.3315999538125
 30
0.0
 11
158.8
 21
181.1443755582146
 31
0.0
  0
LINE
  5
1FF
  8
0
  6
CONTINUOUS
 62
     7
 10
153.8
 20
181.1528537093825
 30
0.0
 11
153.8
 21
151.2861719305287
 31
0.0
  0
LINE
  5
200
  8
0
  6
CONTINUOUS
 62
     7
 10
158.8
 20
181.1443755582146
 30
0.0
 11
158.8
 21
151.283015133773
 31
0.0
  0
LINE
  5
201
  8
0
  6
CONTINUOUS
 62
     7
 10
153.8
 20
151.2861719305287
 30
0.0
 11
153.8
 21
151.2142047480658
 31
0.0
  0
LINE
  5
202
  8
0
  6
CONTINUOUS
 62
     7
 10
158.8
 20
151.2110479513101
 30
0.0
 11
158.8
 21
151.283015133773
 31
0.0
  0
LINE
  5
203
  8
0
  6
CONTINUOUS
 62
     7
 10
153.8
 20
151.2142047480658
 30
0.0
 11
153.8
 21
124.6060275581383
 31
0.0
  0
LINE
  5
204
  8
0
  6
CONTINUOUS
 62
     7
 10
158.8
 20
151.2110479513101
 30
0.0
 11
158.8
 21
124.5623932191846
 31
0.0
  0
LINE
  5
205
  8
0
  6
CONTINUOUS
 62
     7
 10
153.8
 20
123.75
 30
0.0
 11
158.8
 21
123.7063656610462
 31
0.0
  0
LINE
  5
206
  8
0
  6
CONTINUOUS
 62
     7
 10
153.8
 20
124.6060275581383
 30
0.0
 11
153.8
 21
123.75
 31
0.0
  0
LINE
  5
207
  8
0
  6
CONTINUOUS
 62
     7
 10
158.8
 20
123.7063656610462
 30
0.0
 11
158.8
 21
124.5623932191846
 31
0.0
  0
LINE
  5
208
  8
0
  6
CONTINUOUS
 62
     7
 10
153.8
 20
174.0
 30
0.0
 11
151.9911494645806
 21
174.0157855994758
 31
0.0
  0
LINE
  5
209
  8
0
  6
CONTINUOUS
 62
     7
 10
153.8
 20
178.5
 30
0.0
 11
151.9911494645806
 21
178.4842144005241
 31
0.0
  0
LINE
  5
20A
  8
0
  6
CONTINUOUS
 62
     7
 10
151.0
 20
174.0244352298141
 30
0.0
 11
151.0
 21
178.4755647701858
 31
0.0
  0
LINE
  5
20B
  8
0
  6
CONTINUOUS
 62
     7
 10
151.9911494645806
 20
174.0157855994758
 30
0.0
 11
151.0
 21
174.0244352298141
 31
0.0
  0
LINE
  5
20C
  8
0
  6
CONTINUOUS
 62
     7
 10
151.0
 20
178.4755647701858
 30
0.0
 11
151.9911494645806
 21
178.4842144005241
 31
0.0
  0
LINE
  5
20D
  8
0
  6
CONTINUOUS
 62
     7
 10
159.0
 20
235.25
 30
0.0
 11
159.0
 21
235.15
 31
0.0
  0
ARC
  5
20E
  8
0
  6
CONTINUOUS
 62
     7
 10
158.9
 20
235.25
 30
0.0
 40
0.1000000000000167
 50
0.0
 51
90.00000000000348
  0
LINE
  5
20F
  8
0
  6
CONTINUOUS
 62
     7
 10
159.0
 20
209.4
 30
0.0
 11
159.0
 21
209.35
 31
0.0
  0
LINE
  5
210
  8
0
  6
CONTINUOUS
 62
     7
 10
159.0
 20
235.15
 30
0.0
 11
159.0
 21
235.1
 31
0.0
  0
LINE
  5
211
  8
0
  6
CONTINUOUS
 62
     7
 10
159.0
 20
209.4
 30
0.0
 11
159.0
 21
235.1
 31
0.0
  0
LINE
  5
212
  8
0
  6
CONTINUOUS
 62
     7
 10
158.8
 20
235.35
 30
0.0
 11
158.9
 21
235.35
 31
0.0
  0
LINE
  5
213
  8
0
  6
CONTINUOUS
 62
     7
 10
158.9
 20
209.15
 30
0.0
 11
158.8
 21
209.15
 31
0.0
  0
LINE
  5
214
  8
0
  6
CONTINUOUS
 62
     7
 10
159.0
 20
209.35
 30
0.0
 11
159.0
 21
209.25
 31
0.0
  0
ARC
  5
215
  8
0
  6
CONTINUOUS
 62
     7
 10
158.9
 20
209.25
 30
0.0
 40
0.1000000000000167
 50
270.0
 51
0.0
  0
ENDBLK
  8
0
  0
ENDSEC
  0
SECTION
  2
ENTITIES
  0
LINE
  5
6F
  8
0
  6
CENTER
 62
     1
 10
80.0
 20
120.7063656610462
 30
0.0
 11
80.0
 21
259.2936343389538
 31
0.0
  0
LINE
  5
71
  8
0
  6
CENTER
 62
     1
 10
73.72381939662773
 20
202.25
 30
0.0
 11
86.27618060337227
 21
202.25
 31
0.0
  0
LINE
  5
72
  8
0
  6
CENTER
 62
     1
 10
80.0
 20
195.9738193966277
 30
0.0
 11
80.0
 21
208.5261806033722
 31
0.0
  0
POINT
  5
73
  8
0
 62
     1
 10
80.0
 20
190.0
 30
0.0
  0
TEXT
  5
74
  8
0
  6
CONTINUOUS
 62
     7
 10
133.8282908260083
 20
115.9078101193868
 30
0.0
 40
3.0
  1
ＲＭＳＢＳ－２０ＭＨ
  0
INSERT
  5
1E6
  8
0
  6
CENTER
 62
     7
  2
D_FRAME_VIEW_1490
 10
0.0
 20
0.0
 30
0.0
  0
INSERT
  5
216
  8
0
  6
CENTER
 62
     7
  2
D_FRAME_VIEW_1973
 10
0.0
 20
0.0
 30
0.0
  0
ENDSEC
  0
EOF
