  0
SECTION
  2
HEADER
  9
$ACADVER
  1
AC1006
  9
$DWGCODEPAGE
  3
ansi_932
  9
$INSBASE
 10
0.0
 20
0.0
 30
0.0
  9
$EXTMIN
 10
0.0
 20
0.0
  9
$EXTMAX
 10
961.6922472242
 20
952.7755685783
  9
$LIMMIN
 10
0.0
 20
0.0
  9
$LIMMAX
 10
12.0
 20
9.0
  9
$ORTHOMODE
 70
     0
  9
$REGENMODE
 70
     1
  9
$FILLMODE
 70
     1
  9
$QTEXTMODE
 70
     0
  9
$MIRRTEXT
 70
     1
  9
$DRAGMODE
 70
     2
  9
$LTSCALE
 40
1.0
  9
$OSMODE
 70
    37
  9
$ATTMODE
 70
     1
  9
$TEXTSIZE
 40
0.2
  9
$TRACEWID
 40
0.05
  9
$TEXTSTYLE
  7
STANDARD
  9
$CLAYER
  8
0
  9
$CELTYPE
  6
BYLAYER
  9
$CECOLOR
 62
   256
  9
$DIMSCALE
 40
1.0
  9
$DIMASZ
 40
2.0
  9
$DIMEXO
 40
0.0625
  9
$DIMDLI
 40
0.38
  9
$DIMRND
 40
0.0
  9
$DIMDLE
 40
0.0
  9
$DIMEXE
 40
1.0
  9
$DIMTP
 40
0.0
  9
$DIMTM
 40
0.0
  9
$DIMTXT
 40
3.2
  9
$DIMCEN
 40
0.09
  9
$DIMTSZ
 40
0.0
  9
$DIMTOL
 70
     0
  9
$DIMLIM
 70
     0
  9
$DIMTIH
 70
     1
  9
$DIMTOH
 70
     1
  9
$DIMSE1
 70
     0
  9
$DIMSE2
 70
     0
  9
$DIMTAD
 70
     1
  9
$DIMZIN
 70
     0
  9
$DIMBLK
  1

  9
$DIMASO
 70
     1
  9
$DIMSHO
 70
     1
  9
$DIMPOST
  1

  9
$DIMAPOST
  1

  9
$DIMALT
 70
     0
  9
$DIMALTD
 70
     2
  9
$DIMALTF
 40
25.4
  9
$DIMLFAC
 40
1.0
  9
$DIMTOFL
 70
     0
  9
$DIMTVP
 40
0.0
  9
$DIMTIX
 70
     0
  9
$DIMSOXD
 70
     0
  9
$DIMSAH
 70
     0
  9
$DIMBLK1
  1

  9
$DIMBLK2
  1

  9
$LUNITS
 70
     2
  9
$LUPREC
 70
     4
  9
$SKETCHINC
 40
0.1
  9
$FILLETRAD
 40
0.5
  9
$AUNITS
 70
     0
  9
$AUPREC
 70
     0
  9
$MENU
  1
.
  9
$ELEVATION
 40
0.0
  9
$THICKNESS
 40
0.0
  9
$LIMCHECK
 70
     0
  9
$CHAMFERA
 40
0.0
  9
$CHAMFERB
 40
0.0
  9
$SKPOLY
 70
     0
  9
$TDCREATE
 40
2460445.570638426
  9
$TDUPDATE
 40
2460445.570638634
  9
$TDINDWG
 40
0.0000000116
  9
$TDUSRTIMER
 40
0.0000000116
  9
$USRTIMER
 70
     1
  9
$ANGBASE
 50
0.0
  9
$ANGDIR
 70
     0
  9
$PDMODE
 70
     0
  9
$PDSIZE
 40
0.0
  9
$PLINEWID
 40
0.0
  9
$COORDS
 70
     1
  9
$SPLFRAME
 70
     0
  9
$SPLINETYPE
 70
     6
  9
$SPLINESEGS
 70
     8
  9
$ATTDIA
 70
     0
  9
$ATTREQ
 70
     1
  9
$HANDLING
 70
     1
  9
$HANDSEED
  5
C7
  9
$SURFTAB1
 70
     6
  9
$SURFTAB2
 70
     6
  9
$SURFTYPE
 70
     6
  9
$SURFU
 70
     6
  9
$SURFV
 70
     6
  9
$UCSNAME
  2

  9
$UCSORG
 10
0.0
 20
0.0
 30
0.0
  9
$UCSXDIR
 10
1.0
 20
0.0
 30
0.0
  9
$UCSYDIR
 10
0.0
 20
1.0
 30
0.0
  9
$USERI1
 70
     0
  9
$USERI2
 70
     0
  9
$USERI3
 70
     0
  9
$USERI4
 70
     0
  9
$USERI5
 70
     0
  9
$USERR1
 40
0.0
  9
$USERR2
 40
0.0
  9
$USERR3
 40
0.0
  9
$USERR4
 40
0.0
  9
$USERR5
 40
0.0
  9
$WORLDVIEW
 70
     1
  0
ENDSEC
  0
SECTION
  2
TABLES
  0
TABLE
  2
VPORT
 70
     1
  0
VPORT
  2
*ACTIVE
 70
     0
 10
0.0
 20
0.0
 11
1.0
 21
1.0
 12
480.8461236121
 22
476.38778428915
 13
0.0
 23
0.0
 14
0.5
 24
0.5
 15
0.5
 25
0.5
 16
0.0
 26
0.0
 36
1.0
 17
0.0
 27
0.0
 37
0.0
 40
952.7755685783
 41
1.6
 42
50.0
 43
0.0
 44
0.0
 50
0.0
 51
0.0
 71
     0
 72
   100
 73
     1
 74
     3
 75
     0
 76
     0
 77
     0
 78
     0
  0
ENDTAB
  0
TABLE
  2
LTYPE
 70
     1
  0
LTYPE
  2
CONTINUOUS
 70
     0
  3
Solid line
 72
    65
 73
     0
 40
0.0
  0
ENDTAB
  0
TABLE
  2
LAYER
 70
     2
  0
LAYER
  2
0
 70
     0
 62
     7
  6
CONTINUOUS
  0
LAYER
  2
1
 70
     0
 62
     7
  6
CONTINUOUS
  0
ENDTAB
  0
TABLE
  2
STYLE
 70
     2
  0
STYLE
  2
STANDARD
 70
     0
 40
0.0
 41
1.0
 50
0.0
 71
     0
 42
0.2
  3
txt
  4

  0
STYLE
  2
ＭＳ_ゴシック
 70
     0
 40
0.0
 41
1.0
 50
0.0
 71
     0
 42
0.2
  3
ＭＳ ゴシック.shx
  4

  0
ENDTAB
  0
TABLE
  2
VIEW
 70
     0
  0
ENDTAB
  0
TABLE
  2
UCS
 70
     0
  0
ENDTAB
  0
ENDSEC
  0
SECTION
  2
BLOCKS
  0
ENDSEC
  0
SECTION
  2
ENTITIES
  0
TEXT
  5
70
  8
1
  6
CONTINUOUS
 62
     7
 10
826.32330548722
 20
835.0410235454546
 30
0.0
 40
3.2
  1
ＲＭＳＬ－２０
 41
0.714091
 51
15.0
  0
LINE
  5
71
  8
1
  6
CONTINUOUS
 62
     7
 10
777.0922472239
 20
941.4255685783
 30
0.0
 11
807.0922472239
 21
941.4255685783
 31
0.0
  0
LINE
  5
72
  8
1
  6
CONTINUOUS
 62
     7
 10
807.0922472239
 20
908.1755685783
 30
0.0
 11
777.0922472239
 21
908.1755685783
 31
0.0
  0
ARC
  5
73
  8
1
  6
CONTINUOUS
 62
     7
 10
927.2922472242
 20
872.5527295748
 30
0.0
 40
8.0
 50
133.6722065547
 51
180.0
  0
ARC
  5
74
  8
1
  6
CONTINUOUS
 62
     7
 10
927.2922472242
 20
872.5952700993
 30
0.0
 40
10.2
 50
133.5186595325
 51
180.0
  0
LINE
  5
75
  8
1
  6
CONTINUOUS
 62
     7
 10
919.2922472242
 20
872.5527295748
 30
0.0
 11
919.2922472242
 21
846.9755685783
 31
0.0
  0
ARC
  5
76
  8
1
  6
CONTINUOUS
 62
     7
 10
939.3922472242
 20
745.9755685783
 30
0.0
 40
140.0
 50
85.90395624180002
 51
94.0960437582
  0
LINE
  5
77
  8
1
  6
CONTINUOUS
 62
     7
 10
897.0922472239
 20
952.7755685783
 30
0.0
 11
897.0922472239
 21
908.1755685783
 31
0.0
  0
LINE
  5
78
  8
1
  6
CONTINUOUS
 62
     7
 10
867.0922472239
 20
908.1755685783
 30
0.0
 11
867.0922472239
 21
952.7755685783
 31
0.0
  0
LINE
  5
79
  8
1
  6
CONTINUOUS
 62
     7
 10
777.0922472239
 20
952.7755685783
 30
0.0
 11
777.0922472239
 21
908.1755685783
 31
0.0
  0
LINE
  5
7A
  8
1
  6
CONTINUOUS
 62
     7
 10
857.0922472239
 20
908.6755685783
 30
0.0
 11
817.0922472239
 21
908.6755685783
 31
0.0
  0
LINE
  5
7B
  8
1
  6
CONTINUOUS
 62
     7
 10
921.7679942022
 20
878.3391471669
 30
0.0
 11
929.3922472242
 21
885.617969016
 31
0.0
  0
LINE
  5
7C
  8
1
  6
CONTINUOUS
 62
     7
 10
857.0922472239
 20
941.2255685783
 30
0.0
 11
817.0922472239
 21
941.2255685783
 31
0.0
  0
ARC
  5
7D
  8
1
  6
CONTINUOUS
 62
     7
 10
951.4922472242
 20
872.5952700993
 30
0.0
 40
10.2
 50
0.0
 51
46.48134046749999
  0
LINE
  5
7E
  8
1
  6
CONTINUOUS
 62
     7
 10
867.0922472239
 20
908.1755685783
 30
0.0
 11
897.0922472239
 21
908.1755685783
 31
0.0
  0
LINE
  5
7F
  8
1
  6
CONTINUOUS
 62
     7
 10
961.6922472242
 20
846.9755685783
 30
0.0
 11
961.6922472242
 21
872.5952700993
 31
0.0
  0
LINE
  5
80
  8
1
  6
CONTINUOUS
 62
     7
 10
917.0922472242
 20
846.9755685783
 30
0.0
 11
917.0922472242
 21
872.5952700993
 31
0.0
  0
LINE
  5
81
  8
1
  6
CONTINUOUS
 62
     7
 10
897.0922472239
 20
919.5255685783
 30
0.0
 11
867.0922472239
 21
919.5255685783
 31
0.0
  0
LINE
  5
82
  8
1
  6
CONTINUOUS
 62
     7
 10
928.4422472242
 20
887.753343635
 30
0.0
 11
920.2686213492
 21
879.9918016898
 31
0.0
  0
LINE
  5
83
  8
1
  6
CONTINUOUS
 62
     7
 10
867.0922472239
 20
941.4255685783
 30
0.0
 11
897.0922472239
 21
941.4255685783
 31
0.0
  0
LINE
  5
84
  8
1
  6
CONTINUOUS
 62
     7
 10
961.6922472242
 20
846.9755685783
 30
0.0
 11
917.0922472242
 21
846.9755685783
 31
0.0
  0
LINE
  5
85
  8
1
  6
CONTINUOUS
 62
     7
 10
817.0922472239
 20
919.7255685783
 30
0.0
 11
857.0922472239
 21
919.7255685783
 31
0.0
  0
ARC
  5
86
  8
1
  6
CONTINUOUS
 62
     7
 10
939.3922472242
 20
745.9755685783
 30
0.0
 40
142.2
 50
85.5836112614
 51
94.4163887386
  0
LINE
  5
87
  8
1
  6
CONTINUOUS
 62
     7
 10
950.3422472242
 20
887.753343635
 30
0.0
 11
958.5158730992
 21
879.9918016898
 31
0.0
  0
LINE
  5
88
  8
1
  6
CONTINUOUS
 62
     7
 10
807.0922472239
 20
952.7755685783
 30
0.0
 11
777.0922472239
 21
952.7755685783
 31
0.0
  0
LINE
  5
89
  8
1
  6
CONTINUOUS
 62
     7
 10
857.0922472239
 20
908.6755685783
 30
0.0
 11
857.0922472239
 21
952.2755685783
 31
0.0
  0
LINE
  5
8A
  8
1
  6
CONTINUOUS
 62
     7
 10
957.0165002461
 20
878.3391471669
 30
0.0
 11
949.3922472242
 21
885.617969016
 31
0.0
  0
LINE
  5
8B
  8
1
  6
CONTINUOUS
 62
     7
 10
807.0922472239
 20
919.5255685783
 30
0.0
 11
777.0922472239
 21
919.5255685783
 31
0.0
  0
LINE
  5
8C
  8
1
  6
CONTINUOUS
 62
     7
 10
807.0922472239
 20
952.7755685783
 30
0.0
 11
807.0922472239
 21
908.1755685783
 31
0.0
  0
LINE
  5
8D
  8
1
  6
CONTINUOUS
 62
     7
 10
817.0922472239
 20
908.6755685783
 30
0.0
 11
817.0922472239
 21
952.2755685783
 31
0.0
  0
LINE
  5
8E
  8
1
  6
CONTINUOUS
 62
     7
 10
807.0922472239
 20
908.1755685783
 30
0.0
 11
817.0922472239
 21
908.6755685783
 31
0.0
  0
LINE
  5
8F
  8
1
  6
CONTINUOUS
 62
     7
 10
817.0922472239
 20
952.2755685783
 30
0.0
 11
857.0922472239
 21
952.2755685783
 31
0.0
  0
LINE
  5
90
  8
1
  6
CONTINUOUS
 62
     7
 10
857.0922472239
 20
908.6755685783
 30
0.0
 11
867.0922472239
 21
908.1755685783
 31
0.0
  0
LINE
  5
91
  8
1
  6
CONTINUOUS
 62
     7
 10
857.0922472239
 20
919.7255685783
 30
0.0
 11
867.0922472239
 21
919.5255685783
 31
0.0
  0
LINE
  5
92
  8
1
  6
CONTINUOUS
 62
     7
 10
857.0922472239
 20
941.2255685783
 30
0.0
 11
867.0922472239
 21
941.4255685783
 31
0.0
  0
LINE
  5
93
  8
1
  6
CONTINUOUS
 62
     7
 10
867.0922472239
 20
952.7755685783
 30
0.0
 11
897.0922472239
 21
952.7755685783
 31
0.0
  0
LINE
  5
94
  8
1
  6
CONTINUOUS
 62
     7
 10
959.4922472242
 20
872.5527295748
 30
0.0
 11
959.4922472242
 21
846.9755685783
 31
0.0
  0
ARC
  5
95
  8
1
  6
CONTINUOUS
 62
     7
 10
951.4922472242
 20
872.5527295748
 30
0.0
 40
8.0
 50
0.0
 51
46.3277934453
  0
LINE
  5
96
  8
1
  6
CONTINUOUS
 62
     7
 10
817.0922472239
 20
952.2755685783
 30
0.0
 11
807.0922472239
 21
952.7755685783
 31
0.0
  0
LINE
  5
97
  8
1
  6
CONTINUOUS
 62
     7
 10
957.4951857087
 20
858.9755685783
 30
0.0
 11
955.3922472242
 21
858.9755685783
 31
0.0
  0
LINE
  5
98
  8
1
  6
CONTINUOUS
 62
     7
 10
956.4922472242
 20
865.7824737859
 30
0.0
 11
956.4922472242
 21
872.5527295748
 31
0.0
  0
LINE
  5
99
  8
1
  6
CONTINUOUS
 62
     7
 10
930.8922472242
 20
848.9755685783
 30
0.0
 11
947.8922472242
 21
848.9755685783
 31
0.0
  0
LINE
  5
9A
  8
1
  6
CONTINUOUS
 62
     7
 10
930.6783557318
 20
882.6981639862
 30
0.0
 11
923.8395890854
 21
876.1692405699
 31
0.0
  0
LINE
  5
9B
  8
1
  6
CONTINUOUS
 62
     7
 10
923.3922472242
 20
858.9755685783
 30
0.0
 11
925.4018661674
 21
851.4755685783
 31
0.0
  0
LINE
  5
9C
  8
1
  6
CONTINUOUS
 62
     7
 10
817.0922472239
 20
876.7755685783
 30
0.0
 11
857.0922472238
 21
876.7755685783
 31
0.0
  0
LINE
  5
9D
  8
1
  6
CONTINUOUS
 62
     7
 10
857.0922472239
 20
846.9755685783
 30
0.0
 11
857.0922472239
 21
887.6755685783
 31
0.0
  0
ARC
  5
9E
  8
1
  6
CONTINUOUS
 62
     7
 10
951.4922472242
 20
872.5527295748
 30
0.0
 40
5.0
 50
0.0
 51
46.3277934453
  0
LINE
  5
9F
  8
1
  6
CONTINUOUS
 62
     7
 10
857.0922472239
 20
887.6755685783
 30
0.0
 11
817.0922472239
 21
887.6755685783
 31
0.0
  0
LINE
  5
A0
  8
1
  6
CONTINUOUS
 62
     7
 10
777.0922472238
 20
876.9755685783
 30
0.0
 11
807.0922472239
 21
876.9755685783
 31
0.0
  0
LINE
  5
A1
  8
1
  6
CONTINUOUS
 62
     7
 10
807.0922472239
 20
876.9755685783
 30
0.0
 11
817.0922472239
 21
876.7755685783
 31
0.0
  0
LINE
  5
A2
  8
1
  6
CONTINUOUS
 62
     7
 10
921.2893087396
 20
858.9755685783
 30
0.0
 11
923.3922472242
 21
858.9755685783
 31
0.0
  0
LINE
  5
A3
  8
1
  6
CONTINUOUS
 62
     7
 10
867.0922472239
 20
888.1755685783
 30
0.0
 11
897.0922472238
 21
888.1755685783
 31
0.0
  0
LINE
  5
A4
  8
1
  6
CONTINUOUS
 62
     7
 10
867.0922472239
 20
876.9755685783
 30
0.0
 11
897.0922472238
 21
876.9755685783
 31
0.0
  0
LINE
  5
A5
  8
1
  6
CONTINUOUS
 62
     7
 10
954.9449053629
 20
876.1692405699
 30
0.0
 11
948.1061387165
 21
882.6981639862
 31
0.0
  0
LINE
  5
A6
  8
1
  6
CONTINUOUS
 62
     7
 10
930.8922472242
 20
846.9755685783
 30
0.0
 11
930.8922472242
 21
848.9755685783
 31
0.0
  0
LINE
  5
A7
  8
1
  6
CONTINUOUS
 62
     7
 10
955.3922472242
 20
858.9755685783
 30
0.0
 11
953.3826282809
 21
851.4755685783
 31
0.0
  0
LINE
  5
A8
  8
1
  6
CONTINUOUS
 62
     7
 10
897.0922472238
 20
888.1755685783
 30
0.0
 11
897.0922472239
 21
846.9755685783
 31
0.0
  0
LINE
  5
A9
  8
1
  6
CONTINUOUS
 62
     7
 10
817.0922472239
 20
919.7255685783
 30
0.0
 11
807.0922472239
 21
919.5255685783
 31
0.0
  0
LINE
  5
AA
  8
1
  6
CONTINUOUS
 62
     7
 10
920.3045009866
 20
858.149216756
 30
0.0
 11
919.2922472242
 21
852.4084403963
 31
0.0
  0
LINE
  5
AB
  8
1
  6
CONTINUOUS
 62
     7
 10
947.8922472242
 20
848.9755685783
 30
0.0
 11
947.8922472242
 21
846.9755685783
 31
0.0
  0
LINE
  5
AC
  8
1
  6
CONTINUOUS
 62
     7
 10
807.0922472239
 20
941.4255685775
 30
0.0
 11
817.0922472239
 21
941.2255685783
 31
0.0
  0
ARC
  5
AD
  8
1
  6
CONTINUOUS
 62
     7
 10
939.3922472242
 20
745.9755685783
 30
0.0
 40
137.0
 50
86.3532375128
 51
93.64676248720001
  0
ARC
  5
AE
  8
1
  6
CONTINUOUS
 62
     7
 10
927.2922472242
 20
872.5527295748
 30
0.0
 40
5.0
 50
133.6722065547
 51
180.0
  0
LINE
  5
AF
  8
1
  6
CONTINUOUS
 62
     7
 10
922.2922472242
 20
872.5527295748
 30
0.0
 11
922.2922472242
 21
865.7824737859
 31
0.0
  0
LINE
  5
B0
  8
1
  6
CONTINUOUS
 62
     7
 10
897.0922472239
 20
846.9755685783
 30
0.0
 11
777.0922472239
 21
846.9755685783
 31
0.0
  0
LINE
  5
B1
  8
1
  6
CONTINUOUS
 62
     7
 10
867.0922472239
 20
888.1755685783
 30
0.0
 11
857.0922472239
 21
887.6755685783
 31
0.0
  0
LINE
  5
B2
  8
1
  6
CONTINUOUS
 62
     7
 10
925.4018661674
 20
851.4755685783
 30
0.0
 11
953.3826282809
 21
851.4755685783
 31
0.0
  0
LINE
  5
B3
  8
1
  6
CONTINUOUS
 62
     7
 10
777.0922472238
 20
888.1755685783
 30
0.0
 11
807.0922472239
 21
888.1755685783
 31
0.0
  0
LINE
  5
B4
  8
1
  6
CONTINUOUS
 62
     7
 10
817.0922472239
 20
887.6755685783
 30
0.0
 11
807.0922472239
 21
888.1755685783
 31
0.0
  0
LINE
  5
B5
  8
1
  6
CONTINUOUS
 62
     7
 10
817.0922472239
 20
887.6755685783
 30
0.0
 11
817.0922472239
 21
846.9755685783
 31
0.0
  0
LINE
  5
B6
  8
1
  6
CONTINUOUS
 62
     7
 10
867.0922472239
 20
952.7755685783
 30
0.0
 11
857.0922472239
 21
952.2755685783
 31
0.0
  0
ARC
  5
B7
  8
1
  6
CONTINUOUS
 62
     7
 10
957.4951857087
 20
857.9755685783
 30
0.0
 40
1.0
 50
10.0
 51
90.0
  0
ARC
  5
B8
  8
1
  6
CONTINUOUS
 62
     7
 10
921.2893087396
 20
857.9755685783
 30
0.0
 40
1.0
 50
90.0
 51
170.0
  0
LINE
  5
B9
  8
1
  6
CONTINUOUS
 62
     7
 10
956.4922472242
 20
865.7824737859
 30
0.0
 11
959.4922472242
 21
865.7824737859
 31
0.0
  0
LINE
  5
BA
  8
1
  6
CONTINUOUS
 62
     7
 10
807.0922472239
 20
888.1755685783
 30
0.0
 11
807.0922472239
 21
846.9755685783
 31
0.0
  0
LINE
  5
BB
  8
1
  6
CONTINUOUS
 62
     7
 10
919.2922472242
 20
865.7824737859
 30
0.0
 11
922.2922472242
 21
865.7824737859
 31
0.0
  0
LINE
  5
BC
  8
1
  6
CONTINUOUS
 62
     7
 10
958.4799934617
 20
858.149216756
 30
0.0
 11
959.4922472242
 21
852.4084403964
 31
0.0
  0
LINE
  5
BD
  8
1
  6
CONTINUOUS
 62
     7
 10
867.0922472239
 20
888.1755685783
 30
0.0
 11
867.0922472239
 21
846.9755685783
 31
0.0
  0
LINE
  5
BE
  8
1
  6
CONTINUOUS
 62
     7
 10
857.0922472238
 20
876.7755685783
 30
0.0
 11
867.0922472239
 21
876.9755685783
 31
0.0
  0
LINE
  5
BF
  8
1
  6
CONTINUOUS
 62
     7
 10
777.0922472239
 20
846.9755685783
 30
0.0
 11
777.0922472238
 21
888.1755685783
 31
0.0
  0
ENDSEC
  0
EOF
