  0
SECTION
  2
HEADER
  9
$ACADVER
  1
AC1006
  9
$DWGCODEPAGE
  3
ansi_932
  9
$INSBASE
 10
0.0
 20
0.0
 30
0.0
  9
$EXTMIN
 10
4.181003726563454
 20
328.6704545454545
  9
$EXTMAX
 10
377.5000000000001
 20
692.5000000000001
  9
$LIMMIN
 10
0.0
 20
0.0
  9
$LIMMAX
 10
12.0
 20
9.0
  9
$ORTHOMODE
 70
     0
  9
$REGENMODE
 70
     1
  9
$FILLMODE
 70
     1
  9
$QTEXTMODE
 70
     0
  9
$MIRRTEXT
 70
     1
  9
$DRAGMODE
 70
     2
  9
$LTSCALE
 40
1.0
  9
$OSMODE
 70
    37
  9
$ATTMODE
 70
     1
  9
$TEXTSIZE
 40
0.2
  9
$TRACEWID
 40
0.05
  9
$TEXTSTYLE
  7
STANDARD
  9
$CLAYER
  8
0
  9
$CELTYPE
  6
BYLAYER
  9
$CECOLOR
 62
   256
  9
$DIMSCALE
 40
1.0
  9
$DIMASZ
 40
3.0
  9
$DIMEXO
 40
0.0625
  9
$DIMDLI
 40
0.38
  9
$DIMRND
 40
0.0
  9
$DIMDLE
 40
0.0
  9
$DIMEXE
 40
1.5
  9
$DIMTP
 40
0.0
  9
$DIMTM
 40
0.0
  9
$DIMTXT
 40
3.0
  9
$DIMCEN
 40
0.09
  9
$DIMTSZ
 40
0.0
  9
$DIMTOL
 70
     0
  9
$DIMLIM
 70
     0
  9
$DIMTIH
 70
     1
  9
$DIMTOH
 70
     1
  9
$DIMSE1
 70
     0
  9
$DIMSE2
 70
     0
  9
$DIMTAD
 70
     1
  9
$DIMZIN
 70
     0
  9
$DIMBLK
  1

  9
$DIMASO
 70
     1
  9
$DIMSHO
 70
     1
  9
$DIMPOST
  1

  9
$DIMAPOST
  1

  9
$DIMALT
 70
     0
  9
$DIMALTD
 70
     2
  9
$DIMALTF
 40
25.4
  9
$DIMLFAC
 40
1.0
  9
$DIMTOFL
 70
     0
  9
$DIMTVP
 40
0.0
  9
$DIMTIX
 70
     0
  9
$DIMSOXD
 70
     0
  9
$DIMSAH
 70
     0
  9
$DIMBLK1
  1

  9
$DIMBLK2
  1

  9
$LUNITS
 70
     2
  9
$LUPREC
 70
     4
  9
$SKETCHINC
 40
0.1
  9
$FILLETRAD
 40
0.5
  9
$AUNITS
 70
     0
  9
$AUPREC
 70
     0
  9
$MENU
  1
.
  9
$ELEVATION
 40
0.0
  9
$THICKNESS
 40
0.0
  9
$LIMCHECK
 70
     0
  9
$CHAMFERA
 40
0.0
  9
$CHAMFERB
 40
0.0
  9
$SKPOLY
 70
     0
  9
$TDCREATE
 40
2459614.434666262
  9
$TDUPDATE
 40
2459614.434666562
  9
$TDINDWG
 40
0.0000000116
  9
$TDUSRTIMER
 40
0.0000000116
  9
$USRTIMER
 70
     1
  9
$ANGBASE
 50
0.0
  9
$ANGDIR
 70
     0
  9
$PDMODE
 70
     0
  9
$PDSIZE
 40
0.0
  9
$PLINEWID
 40
0.0
  9
$COORDS
 70
     1
  9
$SPLFRAME
 70
     0
  9
$SPLINETYPE
 70
     6
  9
$SPLINESEGS
 70
     8
  9
$ATTDIA
 70
     0
  9
$ATTREQ
 70
     1
  9
$HANDLING
 70
     1
  9
$HANDSEED
  5
28E
  9
$SURFTAB1
 70
     6
  9
$SURFTAB2
 70
     6
  9
$SURFTYPE
 70
     6
  9
$SURFU
 70
     6
  9
$SURFV
 70
     6
  9
$UCSNAME
  2

  9
$UCSORG
 10
0.0
 20
0.0
 30
0.0
  9
$UCSXDIR
 10
1.0
 20
0.0
 30
0.0
  9
$UCSYDIR
 10
0.0
 20
1.0
 30
0.0
  9
$USERI1
 70
     0
  9
$USERI2
 70
     0
  9
$USERI3
 70
     0
  9
$USERI4
 70
     0
  9
$USERI5
 70
     0
  9
$USERR1
 40
0.0
  9
$USERR2
 40
0.0
  9
$USERR3
 40
0.0
  9
$USERR4
 40
0.0
  9
$USERR5
 40
0.0
  9
$WORLDVIEW
 70
     1
  0
ENDSEC
  0
SECTION
  2
TABLES
  0
TABLE
  2
VPORT
 70
     1
  0
VPORT
  2
*ACTIVE
 70
     0
 10
0.0
 20
0.0
 11
1.0
 21
1.0
 12
190.8405018632818
 22
510.5852272727273
 13
0.0
 23
0.0
 14
0.5
 24
0.5
 15
0.5
 25
0.5
 16
0.0
 26
0.0
 36
1.0
 17
0.0
 27
0.0
 37
0.0
 40
363.8295454545456
 41
1.6
 42
50.0
 43
0.0
 44
0.0
 50
0.0
 51
0.0
 71
     0
 72
   100
 73
     1
 74
     3
 75
     0
 76
     0
 77
     0
 78
     0
  0
ENDTAB
  0
TABLE
  2
LTYPE
 70
     1
  0
LTYPE
  2
CONTINUOUS
 70
     0
  3
Solid line
 72
    65
 73
     0
 40
0.0
  0
ENDTAB
  0
TABLE
  2
LAYER
 70
     2
  0
LAYER
  2
0
 70
     0
 62
     7
  6
CONTINUOUS
  0
LAYER
  2
1
 70
     0
 62
     7
  6
CONTINUOUS
  0
ENDTAB
  0
TABLE
  2
STYLE
 70
     2
  0
STYLE
  2
STANDARD
 70
     0
 40
0.0
 41
1.0
 50
0.0
 71
     0
 42
0.2
  3
txt
  4

  0
STYLE
  2
ＭＳ_ゴシック
 70
     0
 40
0.0
 41
1.0
 50
0.0
 71
     0
 42
0.2
  3
ＭＳ ゴシック.shx
  4

  0
ENDTAB
  0
TABLE
  2
VIEW
 70
     0
  0
ENDTAB
  0
TABLE
  2
UCS
 70
     0
  0
ENDTAB
  0
ENDSEC
  0
SECTION
  2
BLOCKS
  0
BLOCK
  8
0
  2
D_FRAME_VIEW_1473
 70
     0
 10
0.0
 20
0.0
 30
0.0
  0
POLYLINE
  5
71
  8
1
  6
CONTINUOUS
 62
     7
 66
     1
 10
0.0
 20
0.0
 30
0.0
  0
VERTEX
  5
166
  8
1
  6
CONTINUOUS
 62
     7
 10
27.49999999999995
 20
348.4190969831386
 30
0.0
  0
VERTEX
  5
167
  8
1
  6
CONTINUOUS
 62
     7
 10
27.59754516100801
 20
348.4287047087698
 30
0.0
  0
VERTEX
  5
168
  8
1
  6
CONTINUOUS
 62
     7
 10
27.69134171618249
 20
348.4571586661552
 30
0.0
  0
VERTEX
  5
169
  8
1
  6
CONTINUOUS
 62
     7
 10
27.77778511650975
 20
348.5033653856699
 30
0.0
  0
VERTEX
  5
16A
  8
1
  6
CONTINUOUS
 62
     7
 10
27.85355339059322
 20
348.5655491689958
 30
0.0
  0
VERTEX
  5
16B
  8
1
  6
CONTINUOUS
 62
     7
 10
27.91573480615122
 20
348.6413203282129
 30
0.0
  0
VERTEX
  5
16C
  8
1
  6
CONTINUOUS
 62
     7
 10
27.96193976625559
 20
348.7277670201653
 30
0.0
  0
VERTEX
  5
16D
  8
1
  6
CONTINUOUS
 62
     7
 10
27.99039264020156
 20
348.8215671469612
 30
0.0
  0
VERTEX
  5
16E
  8
1
  6
CONTINUOUS
 62
     7
 10
27.99999999999995
 20
348.9191160223315
 30
0.0
  0
SEQEND
  5
273
  8
1
  6
CONTINUOUS
 62
     7
  0
POLYLINE
  5
72
  8
1
  6
CONTINUOUS
 62
     7
 66
     1
 10
0.0
 20
0.0
 30
0.0
  0
VERTEX
  5
16F
  8
1
  6
CONTINUOUS
 62
     7
 10
21.36911602233145
 20
351.55
 30
0.0
  0
VERTEX
  5
170
  8
1
  6
CONTINUOUS
 62
     7
 10
21.27156714696111
 20
351.5403926402016
 30
0.0
  0
VERTEX
  5
171
  8
1
  6
CONTINUOUS
 62
     7
 10
21.17776702016523
 20
351.5119397662556
 30
0.0
  0
VERTEX
  5
172
  8
1
  6
CONTINUOUS
 62
     7
 10
21.09132032821283
 20
351.4657348061512
 30
0.0
  0
VERTEX
  5
173
  8
1
  6
CONTINUOUS
 62
     7
 10
21.01554916899579
 20
351.4035533905932
 30
0.0
  0
VERTEX
  5
174
  8
1
  6
CONTINUOUS
 62
     7
 10
20.95336538566987
 20
351.3277851165097
 30
0.0
  0
VERTEX
  5
175
  8
1
  6
CONTINUOUS
 62
     7
 10
20.9071586661552
 20
351.2413417161825
 30
0.0
  0
VERTEX
  5
176
  8
1
  6
CONTINUOUS
 62
     7
 10
20.87870470876972
 20
351.147545161008
 30
0.0
  0
VERTEX
  5
177
  8
1
  6
CONTINUOUS
 62
     7
 10
20.86909698313858
 20
351.05
 30
0.0
  0
SEQEND
  5
274
  8
1
  6
CONTINUOUS
 62
     7
  0
POLYLINE
  5
73
  8
1
  6
CONTINUOUS
 62
     7
 66
     1
 10
0.0
 20
0.0
 30
0.0
  0
VERTEX
  5
178
  8
1
  6
CONTINUOUS
 62
     7
 10
51.99999999999999
 20
348.9191160223315
 30
0.0
  0
VERTEX
  5
179
  8
1
  6
CONTINUOUS
 62
     7
 10
52.00960735979837
 20
348.8215671469612
 30
0.0
  0
VERTEX
  5
17A
  8
1
  6
CONTINUOUS
 62
     7
 10
52.03806023374434
 20
348.7277670201652
 30
0.0
  0
VERTEX
  5
17B
  8
1
  6
CONTINUOUS
 62
     7
 10
52.08426519384872
 20
348.6413203282128
 30
0.0
  0
VERTEX
  5
17C
  8
1
  6
CONTINUOUS
 62
     7
 10
52.14644660940671
 20
348.5655491689958
 30
0.0
  0
VERTEX
  5
17D
  8
1
  6
CONTINUOUS
 62
     7
 10
52.22221488349018
 20
348.5033653856699
 30
0.0
  0
VERTEX
  5
17E
  8
1
  6
CONTINUOUS
 62
     7
 10
52.30865828381744
 20
348.4571586661552
 30
0.0
  0
VERTEX
  5
17F
  8
1
  6
CONTINUOUS
 62
     7
 10
52.40245483899192
 20
348.4287047087697
 30
0.0
  0
VERTEX
  5
180
  8
1
  6
CONTINUOUS
 62
     7
 10
52.49999999999999
 20
348.4190969831386
 30
0.0
  0
SEQEND
  5
275
  8
1
  6
CONTINUOUS
 62
     7
  0
ARC
  5
74
  8
1
  6
CONTINUOUS
 62
     7
 10
52.49999999999999
 20
351.05
 30
0.0
 40
0.5000000000000004
 50
90.00000000000001
 51
180.0
  0
LINE
  5
75
  8
1
  6
CONTINUOUS
 62
     7
 10
52.49999999999999
 20
351.55
 30
0.0
 11
58.63088397766849
 21
351.55
 31
0.0
  0
POLYLINE
  5
76
  8
1
  6
CONTINUOUS
 62
     7
 66
     1
 10
0.0
 20
0.0
 30
0.0
  0
VERTEX
  5
181
  8
1
  6
CONTINUOUS
 62
     7
 10
59.13090301686135
 20
351.05
 30
0.0
  0
VERTEX
  5
182
  8
1
  6
CONTINUOUS
 62
     7
 10
59.12129529123021
 20
351.147545161008
 30
0.0
  0
VERTEX
  5
183
  8
1
  6
CONTINUOUS
 62
     7
 10
59.09284133384473
 20
351.2413417161825
 30
0.0
  0
VERTEX
  5
184
  8
1
  6
CONTINUOUS
 62
     7
 10
59.04663461433007
 20
351.3277851165097
 30
0.0
  0
VERTEX
  5
185
  8
1
  6
CONTINUOUS
 62
     7
 10
58.98445083100415
 20
351.4035533905932
 30
0.0
  0
VERTEX
  5
186
  8
1
  6
CONTINUOUS
 62
     7
 10
58.90867967178711
 20
351.4657348061512
 30
0.0
  0
VERTEX
  5
187
  8
1
  6
CONTINUOUS
 62
     7
 10
58.82223297983471
 20
351.5119397662556
 30
0.0
  0
VERTEX
  5
188
  8
1
  6
CONTINUOUS
 62
     7
 10
58.72843285303883
 20
351.5403926402016
 30
0.0
  0
VERTEX
  5
189
  8
1
  6
CONTINUOUS
 62
     7
 10
58.63088397766849
 20
351.55
 30
0.0
  0
SEQEND
  5
276
  8
1
  6
CONTINUOUS
 62
     7
  0
LINE
  5
77
  8
1
  6
CONTINUOUS
 62
     7
 10
59.13090301686135
 20
351.05
 30
0.0
 11
59.13090301686135
 21
348.9190779446707
 31
0.0
  0
POLYLINE
  5
78
  8
1
  6
CONTINUOUS
 62
     7
 66
     1
 10
0.0
 20
0.0
 30
0.0
  0
VERTEX
  5
18A
  8
1
  6
CONTINUOUS
 62
     7
 10
58.63092205532926
 20
348.4190969831386
 30
0.0
  0
VERTEX
  5
18B
  8
1
  6
CONTINUOUS
 62
     7
 10
58.72846553058032
 20
348.4287037802191
 30
0.0
  0
VERTEX
  5
18C
  8
1
  6
CONTINUOUS
 62
     7
 10
58.8222593639012
 20
348.4571550233165
 30
0.0
  0
VERTEX
  5
18D
  8
1
  6
CONTINUOUS
 62
     7
 10
58.90869945923362
 20
348.5033574527838
 30
0.0
  0
VERTEX
  5
18E
  8
1
  6
CONTINUOUS
 62
     7
 10
58.98446429323393
 20
348.565535706766
 30
0.0
  0
VERTEX
  5
18F
  8
1
  6
CONTINUOUS
 62
     7
 10
59.04664254721613
 20
348.6413005407663
 30
0.0
  0
VERTEX
  5
190
  8
1
  6
CONTINUOUS
 62
     7
 10
59.0928449766835
 20
348.7277406360988
 30
0.0
  0
VERTEX
  5
191
  8
1
  6
CONTINUOUS
 62
     7
 10
59.12129621978089
 20
348.8215344694196
 30
0.0
  0
VERTEX
  5
192
  8
1
  6
CONTINUOUS
 62
     7
 10
59.13090301686135
 20
348.9190779446707
 30
0.0
  0
SEQEND
  5
277
  8
1
  6
CONTINUOUS
 62
     7
  0
LINE
  5
79
  8
1
  6
CONTINUOUS
 62
     7
 10
58.63092205532926
 20
348.4190969831386
 30
0.0
 11
52.49999999999999
 21
348.4190969831386
 31
0.0
  0
LINE
  5
7A
  8
1
  6
CONTINUOUS
 62
     7
 10
51.99999999999999
 20
348.9191160223315
 30
0.0
 11
51.99999999999999
 21
351.05
 31
0.0
  0
LINE
  5
7B
  8
1
  6
CONTINUOUS
 62
     7
 10
21.36907794467067
 20
348.4190969831386
 30
0.0
 11
27.49999999999995
 21
348.4190969831386
 31
0.0
  0
LINE
  5
7C
  8
1
  6
CONTINUOUS
 62
     7
 10
27.99999999999995
 20
348.9191160223315
 30
0.0
 11
27.99999999999995
 21
351.05
 31
0.0
  0
LINE
  5
7D
  8
1
  6
CONTINUOUS
 62
     7
 10
20.86909698313858
 20
351.05
 30
0.0
 11
20.86909698313858
 21
348.9190779446707
 31
0.0
  0
ARC
  5
7E
  8
1
  6
CONTINUOUS
 62
     7
 10
27.49999999999995
 20
351.05
 30
0.0
 40
0.5000000000000004
 50
0.000000000000007
 51
90.0
  0
POLYLINE
  5
7F
  8
1
  6
CONTINUOUS
 62
     7
 66
     1
 10
0.0
 20
0.0
 30
0.0
  0
VERTEX
  5
193
  8
1
  6
CONTINUOUS
 62
     7
 10
20.86909698313859
 20
348.9190779446707
 30
0.0
  0
VERTEX
  5
194
  8
1
  6
CONTINUOUS
 62
     7
 10
20.87870378021906
 20
348.8215344694196
 30
0.0
  0
VERTEX
  5
195
  8
1
  6
CONTINUOUS
 62
     7
 10
20.90715502331644
 20
348.7277406360988
 30
0.0
  0
VERTEX
  5
196
  8
1
  6
CONTINUOUS
 62
     7
 10
20.95335745278382
 20
348.6413005407663
 30
0.0
  0
VERTEX
  5
197
  8
1
  6
CONTINUOUS
 62
     7
 10
21.01553570676602
 20
348.565535706766
 30
0.0
  0
VERTEX
  5
198
  8
1
  6
CONTINUOUS
 62
     7
 10
21.09130054076632
 20
348.5033574527838
 30
0.0
  0
VERTEX
  5
199
  8
1
  6
CONTINUOUS
 62
     7
 10
21.17774063609874
 20
348.4571550233165
 30
0.0
  0
VERTEX
  5
19A
  8
1
  6
CONTINUOUS
 62
     7
 10
21.27153446941962
 20
348.4287037802191
 30
0.0
  0
VERTEX
  5
19B
  8
1
  6
CONTINUOUS
 62
     7
 10
21.36907794467067
 20
348.4190969831386
 30
0.0
  0
SEQEND
  5
278
  8
1
  6
CONTINUOUS
 62
     7
  0
LINE
  5
80
  8
1
  6
CONTINUOUS
 62
     7
 10
27.49999999999995
 20
351.55
 30
0.0
 11
21.36911602233144
 21
351.55
 31
0.0
  0
POLYLINE
  5
81
  8
1
  6
CONTINUOUS
 62
     7
 66
     1
 10
0.0
 20
0.0
 30
0.0
  0
VERTEX
  5
19C
  8
1
  6
CONTINUOUS
 62
     7
 10
55.4040513032173
 20
351.5752247304751
 30
0.0
  0
VERTEX
  5
19D
  8
1
  6
CONTINUOUS
 62
     7
 10
55.4814438997401
 20
351.5563464601755
 30
0.0
  0
VERTEX
  5
19E
  8
1
  6
CONTINUOUS
 62
     7
 10
55.56085234644127
 20
351.55
 30
0.0
  0
SEQEND
  5
279
  8
1
  6
CONTINUOUS
 62
     7
  0
POLYLINE
  5
82
  8
1
  6
CONTINUOUS
 62
     7
 66
     1
 10
0.0
 20
0.0
 30
0.0
  0
VERTEX
  5
19F
  8
1
  6
CONTINUOUS
 62
     7
 10
24.43914765355867
 20
351.55
 30
0.0
  0
VERTEX
  5
1A0
  8
1
  6
CONTINUOUS
 62
     7
 10
24.51667156127388
 20
351.5560469808871
 30
0.0
  0
VERTEX
  5
1A1
  8
1
  6
CONTINUOUS
 62
     7
 10
24.59232032663608
 20
351.5740416596373
 30
0.0
  0
SEQEND
  5
27A
  8
1
  6
CONTINUOUS
 62
     7
  0
ARC
  5
83
  8
1
  6
CONTINUOUS
 62
     7
 10
39.99999999999996
 20
368.15
 30
0.0
 40
14.33286716635142
 50
0.0074903573801066
 51
179.99250964262
  0
LINE
  5
84
  8
1
  6
CONTINUOUS
 62
     7
 10
24.93861909002879
 20
352.0274335194366
 30
0.0
 11
25.6671329561279
 21
368.1518737557628
 31
0.0
  0
LINE
  5
85
  8
1
  6
CONTINUOUS
 62
     7
 10
54.33286704387203
 20
368.1518737557628
 30
0.0
 11
55.06138090997114
 21
352.0274335194366
 31
0.0
  0
ARC
  5
86
  8
1
  6
CONTINUOUS
 62
     7
 10
39.99999999999996
 20
368.15
 30
0.0
 40
11.16273132209241
 50
5.183905030318442
 51
174.8160949696816
  0
LINE
  5
87
  8
1
  6
CONTINUOUS
 62
     7
 10
28.20795970306116
 20
354.2193242641337
 30
0.0
 11
28.88292627013573
 21
369.1585842820509
 31
0.0
  0
ARC
  5
88
  8
1
  6
CONTINUOUS
 62
     7
 10
33.20309168021488
 20
353.9937988448211
 30
0.0
 40
5.000220513531358
 50
177.4149060539154
 51
224.6369051714964
  0
ARC
  5
89
  8
1
  6
CONTINUOUS
 62
     7
 10
26.08732678736722
 20
346.9674728958355
 30
0.0
 40
4.999947803477613
 50
13.68330714302866
 51
44.63839217192542
  0
LINE
  5
8A
  8
1
  6
CONTINUOUS
 62
     7
 10
51.79204029693877
 20
354.2193242641337
 30
0.0
 11
51.1170737298642
 21
369.1585842820509
 31
0.0
  0
ARC
  5
8B
  8
1
  6
CONTINUOUS
 62
     7
 10
53.91267321263272
 20
346.9674728958355
 30
0.0
 40
4.999947803477619
 50
135.3616078280746
 51
166.3166928569714
  0
ARC
  5
8C
  8
1
  6
CONTINUOUS
 62
     7
 10
46.79690831978509
 20
353.9937988448211
 30
0.0
 40
5.000220513531328
 50
315.3630948285032
 51
2.585093946084442
  0
POLYLINE
  5
8D
  8
1
  6
CONTINUOUS
 62
     7
 66
     1
 10
0.0
 20
0.0
 30
0.0
  0
VERTEX
  5
1A2
  8
1
  6
CONTINUOUS
 62
     7
 10
18.09269283757484
 20
351.3520410288673
 30
0.0
  0
VERTEX
  5
1A3
  8
1
  6
CONTINUOUS
 62
     7
 10
18.18972882456792
 20
351.3615473759688
 30
0.0
  0
VERTEX
  5
1A4
  8
1
  6
CONTINUOUS
 62
     7
 10
18.28307394146906
 20
351.3897049484968
 30
0.0
  0
VERTEX
  5
1A5
  8
1
  6
CONTINUOUS
 62
     7
 10
18.36917883910573
 20
351.4354430845884
 30
0.0
  0
VERTEX
  5
1A6
  8
1
  6
CONTINUOUS
 62
     7
 10
18.44476946997208
 20
351.4970226400773
 30
0.0
  0
VERTEX
  5
1A7
  8
1
  6
CONTINUOUS
 62
     7
 10
18.50697158041648
 20
351.5721021176089
 30
0.0
  0
VERTEX
  5
1A8
  8
1
  6
CONTINUOUS
 62
     7
 10
18.55342000109142
 20
351.6578266995954
 30
0.0
  0
VERTEX
  5
1A9
  8
1
  6
CONTINUOUS
 62
     7
 10
18.58234858001209
 20
351.7509367996306
 30
0.0
  0
SEQEND
  5
27B
  8
1
  6
CONTINUOUS
 62
     7
  0
LINE
  5
8E
  8
1
  6
CONTINUOUS
 62
     7
 10
23.00000000000001
 20
373.1499999999999
 30
0.0
 11
18.5823485800121
 21
351.7509367996306
 31
0.0
  0
POLYLINE
  5
8F
  8
1
  6
CONTINUOUS
 62
     7
 66
     1
 10
0.0
 20
0.0
 30
0.0
  0
VERTEX
  5
1AA
  8
1
  6
CONTINUOUS
 62
     7
 10
61.41765141998793
 20
351.7509367996306
 30
0.0
  0
VERTEX
  5
1AB
  8
1
  6
CONTINUOUS
 62
     7
 10
61.44657999890861
 20
351.6578266995954
 30
0.0
  0
VERTEX
  5
1AC
  8
1
  6
CONTINUOUS
 62
     7
 10
61.49302841958355
 20
351.5721021176089
 30
0.0
  0
VERTEX
  5
1AD
  8
1
  6
CONTINUOUS
 62
     7
 10
61.55523053002795
 20
351.4970226400773
 30
0.0
  0
VERTEX
  5
1AE
  8
1
  6
CONTINUOUS
 62
     7
 10
61.6308211608943
 20
351.4354430845884
 30
0.0
  0
VERTEX
  5
1AF
  8
1
  6
CONTINUOUS
 62
     7
 10
61.71692605853097
 20
351.3897049484968
 30
0.0
  0
VERTEX
  5
1B0
  8
1
  6
CONTINUOUS
 62
     7
 10
61.81027117543211
 20
351.3615473759688
 30
0.0
  0
VERTEX
  5
1B1
  8
1
  6
CONTINUOUS
 62
     7
 10
61.90730716242518
 20
351.3520410288673
 30
0.0
  0
SEQEND
  5
27C
  8
1
  6
CONTINUOUS
 62
     7
  0
LINE
  5
90
  8
1
  6
CONTINUOUS
 62
     7
 10
51.04113950452391
 20
351.3520410288672
 30
0.0
 11
50.40137818725647
 21
351.3520410288672
 31
0.0
  0
LINE
  5
91
  8
1
  6
CONTINUOUS
 62
     7
 10
53.99878071293391
 20
372.9652337931605
 30
0.0
 11
54.01934406250648
 21
372.7498663279437
 31
0.0
  0
ARC
  5
92
  8
1
  6
CONTINUOUS
 62
     7
 10
40.00000000000001
 20
373.15
 30
0.0
 40
13.99999999999999
 50
359.2438120580674
 51
180.7561879419326
  0
LINE
  5
93
  8
1
  6
CONTINUOUS
 62
     7
 10
26.00121928706611
 20
372.9652337931605
 30
0.0
 11
25.98065593749355
 21
372.7498663279436
 31
0.0
  0
LINE
  5
94
  8
1
  6
CONTINUOUS
 62
     7
 10
25.98065593749355
 20
372.7498663279436
 30
0.0
 11
25.32995257095375
 21
369.5978651532297
 31
0.0
  0
POLYLINE
  5
95
  8
1
  6
CONTINUOUS
 62
     7
 66
     1
 10
0.0
 20
0.0
 30
0.0
  0
VERTEX
  5
1B2
  8
1
  6
CONTINUOUS
 62
     7
 10
28.58503975475617
 20
361.4209953969208
 30
0.0
  0
VERTEX
  5
1B3
  8
1
  6
CONTINUOUS
 62
     7
 10
28.61859984582721
 20
361.3965076645119
 30
0.0
  0
VERTEX
  5
1B4
  8
1
  6
CONTINUOUS
 62
     7
 10
28.65114195985183
 20
361.3706247299192
 30
0.0
  0
VERTEX
  5
1B5
  8
1
  6
CONTINUOUS
 62
     7
 10
28.68258333537934
 20
361.3434152582316
 30
0.0
  0
VERTEX
  5
1B6
  8
1
  6
CONTINUOUS
 62
     7
 10
28.71284121095908
 20
361.3149479145375
 30
0.0
  0
VERTEX
  5
1B7
  8
1
  6
CONTINUOUS
 62
     7
 10
28.74271048067971
 20
361.2843628152816
 30
0.0
  0
VERTEX
  5
1B8
  8
1
  6
CONTINUOUS
 62
     7
 10
28.77127129829431
 20
361.2524998126077
 30
0.0
  0
VERTEX
  5
1B9
  8
1
  6
CONTINUOUS
 62
     7
 10
28.79844732391568
 20
361.21944781049
 30
0.0
  0
VERTEX
  5
1BA
  8
1
  6
CONTINUOUS
 62
     7
 10
28.8241622176566
 20
361.1852957129031
 30
0.0
  0
VERTEX
  5
1BB
  8
1
  6
CONTINUOUS
 62
     7
 10
28.84772493200902
 20
361.151079812944
 30
0.0
  0
VERTEX
  5
1BC
  8
1
  6
CONTINUOUS
 62
     7
 10
28.86986520239891
 20
361.1158842932988
 30
0.0
  0
VERTEX
  5
1BD
  8
1
  6
CONTINUOUS
 62
     7
 10
28.89052766449579
 20
361.0798013495254
 30
0.0
  0
VERTEX
  5
1BE
  8
1
  6
CONTINUOUS
 62
     7
 10
28.9096569539692
 20
361.0429231771821
 30
0.0
  0
VERTEX
  5
1BF
  8
1
  6
CONTINUOUS
 62
     7
 10
28.92771854555972
 20
361.0041752224097
 30
0.0
  0
VERTEX
  5
1C0
  8
1
  6
CONTINUOUS
 62
     7
 10
28.94412243339859
 20
360.9646545028945
 30
0.0
  0
VERTEX
  5
1C1
  8
1
  6
CONTINUOUS
 62
     7
 10
28.95882601533836
 20
360.9244701837561
 30
0.0
  0
VERTEX
  5
1C2
  8
1
  6
CONTINUOUS
 62
     7
 10
28.97178668923159
 20
360.883731430114
 30
0.0
  0
VERTEX
  5
1C3
  8
1
  6
CONTINUOUS
 62
     7
 10
28.98228029038422
 20
360.8453076898879
 30
0.0
  0
VERTEX
  5
1C4
  8
1
  6
CONTINUOUS
 62
     7
 10
28.99123983600286
 20
360.8064813233812
 30
0.0
  0
VERTEX
  5
1C5
  8
1
  6
CONTINUOUS
 62
     7
 10
28.99864402238219
 20
360.7673446715112
 30
0.0
  0
VERTEX
  5
1C6
  8
1
  6
CONTINUOUS
 62
     7
 10
29.00455503768564
 20
360.7273649571385
 30
0.0
  0
VERTEX
  5
1C7
  8
1
  6
CONTINUOUS
 62
     7
 10
29.00884850466484
 20
360.6871627175475
 30
0.0
  0
VERTEX
  5
1C8
  8
1
  6
CONTINUOUS
 62
     7
 10
29.01151391799139
 20
360.6468363829699
 30
0.0
  0
SEQEND
  5
27D
  8
1
  6
CONTINUOUS
 62
     7
  0
ARC
  5
96
  8
1
  6
CONTINUOUS
 62
     7
 10
29.5987314639297
 20
353.3519100367561
 30
0.0
 40
1.999869010894861
 50
269.9968585191564
 51
36.8624666167309
  0
LINE
  5
97
  8
1
  6
CONTINUOUS
 62
     7
 10
28.95886049547603
 20
351.3520410288672
 30
0.0
 11
29.59862181274356
 21
351.3520410288672
 31
0.0
  0
LINE
  5
98
  8
1
  6
CONTINUOUS
 62
     7
 10
57.00000000000001
 20
373.1499999999999
 30
0.0
 11
61.41765141998793
 21
351.7509367996306
 31
0.0
  0
ARC
  5
99
  8
1
  6
CONTINUOUS
 62
     7
 10
40.00000000000001
 20
373.15
 30
0.0
 40
17.0
 50
108.5662722701392
 51
180.0000000000002
  0
ARC
  5
9A
  8
1
  6
CONTINUOUS
 62
     7
 10
40.00000000000001
 20
373.15
 30
0.0
 40
17.00000000000002
 50
359.9999999999998
 51
71.43372772986083
  0
ARC
  5
9B
  8
1
  6
CONTINUOUS
 62
     7
 10
40.00000000000001
 20
361.15
 30
0.0
 40
11.0
 50
323.1406748641128
 51
357.3782532222589
  0
ARC
  5
9C
  8
1
  6
CONTINUOUS
 62
     7
 10
46.83525722524633
 20
367.9804405143546
 30
0.0
 40
8.000000000000002
 50
342.1756233658837
 51
11.66435619109268
  0
ARC
  5
9D
  8
1
  6
CONTINUOUS
 62
     7
 10
46.83525722524633
 20
367.9804405143546
 30
0.0
 40
7.999999999999995
 50
304.9221488784793
 51
305.3610277497836
  0
ARC
  5
9E
  8
1
  6
CONTINUOUS
 62
     7
 10
40.00000000000001
 20
361.15
 30
0.0
 40
10.99999999999999
 50
182.6217467777411
 51
216.8593251358873
  0
POLYLINE
  5
9F
  8
1
  6
CONTINUOUS
 62
     7
 66
     1
 10
0.0
 20
0.0
 30
0.0
  0
VERTEX
  5
1C9
  8
1
  6
CONTINUOUS
 62
     7
 10
51.41496024524385
 20
361.4209953969208
 30
0.0
  0
VERTEX
  5
1CA
  8
1
  6
CONTINUOUS
 62
     7
 10
51.38140015417282
 20
361.3965076645119
 30
0.0
  0
VERTEX
  5
1CB
  8
1
  6
CONTINUOUS
 62
     7
 10
51.3488580401482
 20
361.3706247299192
 30
0.0
  0
VERTEX
  5
1CC
  8
1
  6
CONTINUOUS
 62
     7
 10
51.31741666462069
 20
361.3434152582316
 30
0.0
  0
VERTEX
  5
1CD
  8
1
  6
CONTINUOUS
 62
     7
 10
51.28715878904095
 20
361.3149479145375
 30
0.0
  0
VERTEX
  5
1CE
  8
1
  6
CONTINUOUS
 62
     7
 10
51.25728951932032
 20
361.2843628152816
 30
0.0
  0
VERTEX
  5
1CF
  8
1
  6
CONTINUOUS
 62
     7
 10
51.22872870170571
 20
361.2524998126077
 30
0.0
  0
VERTEX
  5
1D0
  8
1
  6
CONTINUOUS
 62
     7
 10
51.20155267608435
 20
361.2194478104901
 30
0.0
  0
VERTEX
  5
1D1
  8
1
  6
CONTINUOUS
 62
     7
 10
51.17583778234342
 20
361.1852957129031
 30
0.0
  0
VERTEX
  5
1D2
  8
1
  6
CONTINUOUS
 62
     7
 10
51.15227506799101
 20
361.151079812944
 30
0.0
  0
VERTEX
  5
1D3
  8
1
  6
CONTINUOUS
 62
     7
 10
51.13013479760112
 20
361.1158842932988
 30
0.0
  0
VERTEX
  5
1D4
  8
1
  6
CONTINUOUS
 62
     7
 10
51.10947233550424
 20
361.0798013495254
 30
0.0
  0
VERTEX
  5
1D5
  8
1
  6
CONTINUOUS
 62
     7
 10
51.09034304603082
 20
361.0429231771821
 30
0.0
  0
VERTEX
  5
1D6
  8
1
  6
CONTINUOUS
 62
     7
 10
51.0722814544403
 20
361.0041752224097
 30
0.0
  0
VERTEX
  5
1D7
  8
1
  6
CONTINUOUS
 62
     7
 10
51.05587756660144
 20
360.9646545028945
 30
0.0
  0
VERTEX
  5
1D8
  8
1
  6
CONTINUOUS
 62
     7
 10
51.04117398466168
 20
360.9244701837561
 30
0.0
  0
VERTEX
  5
1D9
  8
1
  6
CONTINUOUS
 62
     7
 10
51.02821331076844
 20
360.883731430114
 30
0.0
  0
VERTEX
  5
1DA
  8
1
  6
CONTINUOUS
 62
     7
 10
51.0177197096158
 20
360.8453076898879
 30
0.0
  0
VERTEX
  5
1DB
  8
1
  6
CONTINUOUS
 62
     7
 10
51.00876016399716
 20
360.8064813233812
 30
0.0
  0
VERTEX
  5
1DC
  8
1
  6
CONTINUOUS
 62
     7
 10
51.00135597761784
 20
360.7673446715112
 30
0.0
  0
VERTEX
  5
1DD
  8
1
  6
CONTINUOUS
 62
     7
 10
50.99544496231439
 20
360.7273649571385
 30
0.0
  0
VERTEX
  5
1DE
  8
1
  6
CONTINUOUS
 62
     7
 10
50.99115149533518
 20
360.6871627175475
 30
0.0
  0
VERTEX
  5
1DF
  8
1
  6
CONTINUOUS
 62
     7
 10
50.98848608200863
 20
360.6468363829699
 30
0.0
  0
SEQEND
  5
27E
  8
1
  6
CONTINUOUS
 62
     7
  0
LINE
  5
A0
  8
1
  6
CONTINUOUS
 62
     7
 10
18.09269283757485
 20
351.3520410288672
 30
0.0
 11
15.97205621128048
 21
351.3520410288672
 31
0.0
  0
LINE
  5
A1
  8
1
  6
CONTINUOUS
 62
     7
 10
61.90730716242518
 20
351.3520410288672
 30
0.0
 11
64.0279437887195
 21
351.3520410288672
 31
0.0
  0
ARC
  5
A2
  8
1
  6
CONTINUOUS
 62
     7
 10
50.40126853607032
 20
353.3519100367561
 30
0.0
 40
1.99986901089485
 50
143.1375333832688
 51
270.003141480844
  0
ARC
  5
A3
  8
1
  6
CONTINUOUS
 62
     7
 10
33.16474277475369
 20
367.9804405143546
 30
0.0
 40
7.999999999999995
 50
168.3356438089073
 51
197.8243766341145
  0
ARC
  5
A4
  8
1
  6
CONTINUOUS
 62
     7
 10
33.16474277475369
 20
367.9804405143546
 30
0.0
 40
7.999999999999998
 50
234.6389722502156
 51
235.0778511215206
  0
LINE
  5
A5
  8
1
  6
CONTINUOUS
 62
     7
 10
54.01934406250648
 20
372.7498663279436
 30
0.0
 11
54.67004742904628
 21
369.5978651532297
 31
0.0
  0
LINE
  5
A6
  8
1
  6
CONTINUOUS
 62
     7
 10
49.49999999999994
 20
341.15
 30
0.0
 11
49.48254626441842
 21
343.15
 31
0.0
  0
LINE
  5
A7
  8
1
  6
CONTINUOUS
 62
     7
 10
49.48254626441843
 20
343.15
 30
0.0
 11
48.48258434135426
 21
343.15
 31
0.0
  0
LINE
  5
A8
  8
1
  6
CONTINUOUS
 62
     7
 10
48.50003807693578
 20
341.15
 30
0.0
 11
49.49999999999994
 21
341.15
 31
0.0
  0
LINE
  5
A9
  8
1
  6
CONTINUOUS
 62
     7
 10
39.99999999999995
 20
342.85
 30
0.0
 11
39.69999999999996
 21
343.1499999999999
 31
0.0
  0
LINE
  5
AA
  8
1
  6
CONTINUOUS
 62
     7
 10
39.99999999999995
 20
342.85
 30
0.0
 11
40.29999999999995
 21
343.1499999999999
 31
0.0
  0
LINE
  5
AB
  8
1
  6
CONTINUOUS
 62
     7
 10
48.48258434135426
 20
343.15
 30
0.0
 11
40.29999999999995
 21
343.15
 31
0.0
  0
LINE
  5
AC
  8
1
  6
CONTINUOUS
 62
     7
 10
31.51741565864564
 20
343.15
 30
0.0
 11
39.69999999999996
 21
343.15
 31
0.0
  0
LINE
  5
AD
  8
1
  6
CONTINUOUS
 62
     7
 10
31.49996192306413
 20
341.15
 30
0.0
 11
48.50003807693578
 21
341.15
 31
0.0
  0
LINE
  5
AE
  8
1
  6
CONTINUOUS
 62
     7
 10
30.49999999999996
 20
341.15
 30
0.0
 11
30.51745373558148
 21
343.15
 31
0.0
  0
LINE
  5
AF
  8
1
  6
CONTINUOUS
 62
     7
 10
30.51745373558148
 20
343.15
 30
0.0
 11
31.51741565864564
 21
343.15
 31
0.0
  0
LINE
  5
B0
  8
1
  6
CONTINUOUS
 62
     7
 10
31.49996192306413
 20
341.15
 30
0.0
 11
30.49999999999996
 21
341.15
 31
0.0
  0
LINE
  5
B1
  8
1
  6
CONTINUOUS
 62
     7
 10
16.0523615390369
 20
347.1500380769359
 30
0.0
 11
15.99999999999996
 21
341.15
 31
0.0
  0
LINE
  5
B2
  8
1
  6
CONTINUOUS
 62
     7
 10
16.56110711300319
 20
347.6543632677491
 30
0.0
 11
16.0523615390369
 21
347.1500380769359
 31
0.0
  0
LINE
  5
B3
  8
1
  6
CONTINUOUS
 62
     7
 10
63.43889288699672
 20
347.6543632677491
 30
0.0
 11
63.94763846096302
 21
347.1500380769358
 31
0.0
  0
LINE
  5
B4
  8
1
  6
CONTINUOUS
 62
     7
 10
63.94763846096302
 20
347.1500380769359
 30
0.0
 11
63.99999999999996
 21
341.15
 31
0.0
  0
LINE
  5
B5
  8
1
  6
CONTINUOUS
 62
     7
 10
15.99999999999996
 20
341.15
 30
0.0
 11
30.49999999999996
 21
341.15
 31
0.0
  0
LINE
  5
B6
  8
1
  6
CONTINUOUS
 62
     7
 10
63.99999999999997
 20
341.15
 30
0.0
 11
49.49999999999996
 21
341.15
 31
0.0
  0
LINE
  5
B7
  8
1
  6
CONTINUOUS
 62
     7
 10
17.06108807453527
 20
348.15
 30
0.0
 11
39.69999999999996
 21
348.15
 31
0.0
  0
LINE
  5
B8
  8
1
  6
CONTINUOUS
 62
     7
 10
39.69999999999996
 20
348.15
 30
0.0
 11
39.99999999999996
 21
347.85
 31
0.0
  0
LINE
  5
B9
  8
1
  6
CONTINUOUS
 62
     7
 10
40.29999999999996
 20
348.15
 30
0.0
 11
39.99999999999996
 21
347.85
 31
0.0
  0
LINE
  5
BA
  8
1
  6
CONTINUOUS
 62
     7
 10
62.93891192546466
 20
348.15
 30
0.0
 11
40.29999999999997
 21
348.15
 31
0.0
  0
LINE
  5
BB
  8
1
  6
CONTINUOUS
 62
     7
 10
16.56110711300319
 20
347.6543632677491
 30
0.0
 11
17.06108807453527
 21
348.15
 31
0.0
  0
LINE
  5
BC
  8
1
  6
CONTINUOUS
 62
     7
 10
63.43889288699672
 20
347.6543632677491
 30
0.0
 11
62.93891192546464
 21
348.15
 31
0.0
  0
LINE
  5
BD
  8
1
  6
CONTINUOUS
 62
     7
 10
64.45544037267656
 20
341.15
 30
0.0
 11
63.99999999999997
 21
341.15
 31
0.0
  0
LINE
  5
BE
  8
1
  6
CONTINUOUS
 62
     7
 10
15.54455962732338
 20
341.1499999999999
 30
0.0
 11
15.99999999999997
 21
341.1499999999999
 31
0.0
  0
LINE
  5
BF
  8
1
  6
CONTINUOUS
 62
     7
 10
64.39435229814121
 20
348.15
 30
0.0
 11
62.93891192546465
 21
348.15
 31
0.0
  0
LINE
  5
C0
  8
1
  6
CONTINUOUS
 62
     7
 10
15.6056477018587
 20
348.15
 30
0.0
 11
17.06108807453528
 21
348.15
 31
0.0
  0
ARC
  5
C1
  8
1
  6
CONTINUOUS
 62
     7
 10
63.50434439470251
 20
348.65
 30
0.0
 40
0.5000000000000014
 50
270.0000000000003
 51
359.5000000000001
  0
ARC
  5
C2
  8
1
  6
CONTINUOUS
 62
     7
 10
16.49565560529748
 20
348.65
 30
0.0
 40
0.5000000000000016
 50
180.5
 51
269.9999999999997
  0
LINE
  5
C3
  8
1
  6
CONTINUOUS
 62
     7
 10
64.17453735581516
 20
368.15
 30
0.0
 11
64.00432535623459
 21
348.6456367322508
 31
0.0
  0
LINE
  5
C4
  8
1
  6
CONTINUOUS
 62
     7
 10
64.21981494232604
 20
368.15
 30
0.0
 11
64.17453735581516
 21
368.15
 31
0.0
  0
LINE
  5
C5
  8
1
  6
CONTINUOUS
 62
     7
 10
15.78018505767388
 20
368.15
 30
0.0
 11
15.82546264418481
 21
368.15
 31
0.0
  0
LINE
  5
C6
  8
1
  6
CONTINUOUS
 62
     7
 10
15.82546264418482
 20
368.15
 30
0.0
 11
15.9956746437654
 21
348.6456367322508
 31
0.0
  0
LINE
  5
C7
  8
1
  6
CONTINUOUS
 62
     7
 10
49.00000000000001
 20
341.05
 30
0.0
 11
49.09999999999999
 21
341.1499999999999
 31
0.0
  0
LINE
  5
C8
  8
1
  6
CONTINUOUS
 62
     7
 10
30.89999999999999
 20
341.1499999999999
 30
0.0
 11
31.00000000000009
 21
341.05
 31
0.0
  0
LINE
  5
C9
  8
1
  6
CONTINUOUS
 62
     7
 10
61.54368294543149
 20
353.1555697506651
 30
0.0
 11
61.52944967585096
 21
351.5245986025059
 31
0.0
  0
LINE
  5
CA
  8
1
  6
CONTINUOUS
 62
     7
 10
18.45631705456854
 20
353.1555697506651
 30
0.0
 11
18.47055032414907
 21
351.5245986025059
 31
0.0
  0
ARC
  5
CB
  8
1
  6
CONTINUOUS
 62
     7
 10
62.04366390696358
 20
353.151206482916
 30
0.0
 40
0.5000000000000024
 50
100.0000000000003
 51
179.5
  0
LINE
  5
CC
  8
1
  6
CONTINUOUS
 62
     7
 10
64.05116472128435
 20
354.0128963462178
 30
0.0
 11
61.95683981813011
 21
353.643610359422
 31
0.0
  0
ARC
  5
CD
  8
1
  6
CONTINUOUS
 62
     7
 10
17.95633609303646
 20
353.151206482916
 30
0.0
 40
0.5000000000000024
 50
0.5000000000001136
 51
79.99999999999977
  0
LINE
  5
CE
  8
1
  6
CONTINUOUS
 62
     7
 10
15.94883527871562
 20
354.0128963462178
 30
0.0
 11
18.04316018186993
 21
353.643610359422
 31
0.0
  0
LINE
  5
CF
  8
1
  6
CONTINUOUS
 62
     7
 10
12.74445300784333
 20
341.15
 30
0.0
 11
13.01686978691309
 21
372.3658709861787
 31
0.0
  0
LINE
  5
D0
  8
1
  6
CONTINUOUS
 62
     7
 10
14.24382503196569
 20
341.15
 30
0.0
 11
12.74445300784333
 21
341.15
 31
0.0
  0
LINE
  5
D1
  8
1
  6
CONTINUOUS
 62
     7
 10
64.45544037267653
 20
341.15
 30
0.0
 11
64.18323682850715
 21
372.3414366867833
 31
0.0
  0
ARC
  5
D2
  8
1
  6
CONTINUOUS
 62
     7
 10
54.18361759786544
 20
372.2541713317996
 30
0.0
 40
10.0
 50
0.4999999999997644
 51
42.20075550213109
  0
LINE
  5
D3
  8
1
  6
CONTINUOUS
 62
     7
 10
61.59157498701407
 20
378.9714749069374
 30
0.0
 11
52.50000000000001
 21
388.9978194588387
 31
0.0
  0
ARC
  5
D4
  8
1
  6
CONTINUOUS
 62
     7
 10
39.99999999999995
 20
216.45
 30
0.0
 40
173.0
 50
85.85652088815554
 51
94.14347911184434
  0
LINE
  5
D5
  8
1
  6
CONTINUOUS
 62
     7
 10
18.40842501298586
 20
378.9714749069374
 30
0.0
 11
27.49999999999991
 21
388.9978194588387
 31
0.0
  0
ARC
  5
D6
  8
1
  6
CONTINUOUS
 62
     7
 10
25.81638240213448
 20
372.2541713317996
 30
0.0
 40
10.0
 50
137.7992444978688
 51
179.5000000000001
  0
LINE
  5
D7
  8
1
  6
CONTINUOUS
 62
     7
 10
15.54455962732338
 20
341.15
 30
0.0
 11
15.81676317149278
 21
372.3414366867833
 31
0.0
  0
LINE
  5
D8
  8
1
  6
CONTINUOUS
 62
     7
 10
14.24382503196569
 20
341.15
 30
0.0
 11
15.54455962732338
 21
341.15
 31
0.0
  0
LINE
  5
D9
  8
1
  6
CONTINUOUS
 62
     7
 10
65.7561749680342
 20
341.15
 30
0.0
 11
64.45544037267653
 21
341.15
 31
0.0
  0
LINE
  5
DA
  8
1
  6
CONTINUOUS
 62
     7
 10
66.98313021308682
 20
372.3658709861787
 30
0.0
 11
67.25554699215658
 21
341.15
 31
0.0
  0
LINE
  5
DB
  8
1
  6
CONTINUOUS
 62
     7
 10
67.25554699215658
 20
341.15
 30
0.0
 11
65.7561749680342
 21
341.15
 31
0.0
  0
ARC
  5
DC
  8
1
  6
CONTINUOUS
 62
     7
 10
25.81638240213449
 20
372.2541713317996
 30
0.0
 40
12.8
 50
137.799244497869
 51
179.5000000000004
  0
ARC
  5
DD
  8
1
  6
CONTINUOUS
 62
     7
 10
54.18361759786544
 20
372.2541713317996
 30
0.0
 40
12.8
 50
0.4999999999996589
 51
42.20075550213107
  0
LINE
  5
DE
  8
1
  6
CONTINUOUS
 62
     7
 10
26.88597426240174
 20
390.3344656530397
 30
0.0
 11
26.17593019571399
 21
391.7056278527062
 31
0.0
  0
LINE
  5
DF
  8
1
  6
CONTINUOUS
 62
     7
 10
16.33419694402424
 20
380.8523199079759
 30
0.0
 11
26.17561378470232
 21
391.705602894088
 31
0.0
  0
LINE
  5
E0
  8
1
  6
CONTINUOUS
 62
     7
 10
26.17561378470232
 20
391.705602894088
 30
0.0
 11
26.17593019571399
 21
391.7056278527061
 31
0.0
  0
LINE
  5
E1
  8
1
  6
CONTINUOUS
 62
     7
 10
53.1140257375982
 20
390.3344656530397
 30
0.0
 11
53.82406980428591
 21
391.7056278527062
 31
0.0
  0
LINE
  5
E2
  8
1
  6
CONTINUOUS
 62
     7
 10
53.82406980428591
 20
391.7056278527062
 30
0.0
 11
53.82438621529761
 21
391.705602894088
 31
0.0
  0
LINE
  5
E3
  8
1
  6
CONTINUOUS
 62
     7
 10
53.82438621529761
 20
391.705602894088
 30
0.0
 11
63.66580305597569
 21
380.8523199079759
 31
0.0
  0
ARC
  5
E4
  8
1
  6
CONTINUOUS
 62
     7
 10
39.99999999999995
 20
216.45
 30
0.0
 40
175.8
 50
85.48987816010062
 51
94.5101218398994
  0
ARC
  5
E5
  8
1
  6
CONTINUOUS
 62
     7
 10
60.64181211995661
 20
384.306445405293
 30
0.0
 40
14.79999999999987
 50
0.4999999999997726
 51
43.59991641040018
  0
ARC
  5
E6
  8
1
  6
CONTINUOUS
 62
     7
 10
19.35818788004345
 20
384.3064454052929
 30
0.0
 40
14.79999999999997
 50
136.4000835895999
 51
179.5
  0
LINE
  5
E7
  8
1
  6
CONTINUOUS
 62
     7
 10
75.44124858130621
 20
384.4355981306688
 30
0.0
 11
75.81899627343647
 21
341.15
 31
0.0
  0
LINE
  5
E8
  8
1
  6
CONTINUOUS
 62
     7
 10
75.81899627343647
 20
341.15
 30
0.0
 11
67.2555469921566
 21
341.15
 31
0.0
  0
LINE
  5
E9
  8
1
  6
CONTINUOUS
 62
     7
 10
4.55875141869376
 20
384.4355981306688
 30
0.0
 11
4.1810037265635
 21
341.15
 31
0.0
  0
LINE
  5
EA
  8
1
  6
CONTINUOUS
 62
     7
 10
4.1810037265635
 20
341.15
 30
0.0
 11
12.74445300784334
 21
341.15
 31
0.0
  0
LINE
  5
EB
  8
1
  6
CONTINUOUS
 62
     7
 10
58.28448924034218
 20
408.2430271168969
 30
0.0
 11
53.82438621529762
 21
391.705602894088
 31
0.0
  0
LINE
  5
EC
  8
1
  6
CONTINUOUS
 62
     7
 10
58.28448924034219
 20
408.2430271168969
 30
0.0
 11
71.35957055943193
 21
394.5127990163066
 31
0.0
  0
LINE
  5
ED
  8
1
  6
CONTINUOUS
 62
     7
 10
21.7155107596578
 20
408.2430271168969
 30
0.0
 11
26.17561378470234
 21
391.705602894088
 31
0.0
  0
LINE
  5
EE
  8
1
  6
CONTINUOUS
 62
     7
 10
21.71551075965778
 20
408.2430271168969
 30
0.0
 11
8.640429440568052
 21
394.5127990163066
 31
0.0
  0
ARC
  5
EF
  8
1
  6
CONTINUOUS
 62
     7
 10
40.0
 20
172.1499999999942
 30
0.0
 40
236.8000000000058
 50
85.57150388185784
 51
90.0
  0
ARC
  5
F0
  8
1
  6
CONTINUOUS
 62
     7
 10
39.99999999999998
 20
172.1499999999942
 30
0.0
 40
236.8000000000058
 50
90.0
 51
94.42849611814223
  0
POLYLINE
  5
F1
  8
1
  6
CONTINUOUS
 62
     7
 66
     1
 10
0.0
 20
0.0
 30
0.0
  0
VERTEX
  5
1E0
  8
1
  6
CONTINUOUS
 62
     7
 10
55.40405283959976
 20
351.5752242230278
 30
0.0
  0
VERTEX
  5
1E1
  8
1
  6
CONTINUOUS
 62
     7
 10
55.3827660245699
 20
351.582802181209
 30
0.0
  0
VERTEX
  5
1E2
  8
1
  6
CONTINUOUS
 62
     7
 10
55.36189609616824
 20
351.591304692999
 30
0.0
  0
VERTEX
  5
1E3
  8
1
  6
CONTINUOUS
 62
     7
 10
55.34148491026153
 20
351.6007045396876
 30
0.0
  0
VERTEX
  5
1E4
  8
1
  6
CONTINUOUS
 62
     7
 10
55.32157229831163
 20
351.6109730420958
 30
0.0
  0
VERTEX
  5
1E5
  8
1
  6
CONTINUOUS
 62
     7
 10
55.302196036106
 20
351.6220801593434
 30
0.0
  0
VERTEX
  5
1E6
  8
1
  6
CONTINUOUS
 62
     7
 10
55.28339181946792
 20
351.6339945882956
 30
0.0
  0
VERTEX
  5
1E7
  8
1
  6
CONTINUOUS
 62
     7
 10
55.26519324663614
 20
351.6466838634105
 30
0.0
  0
VERTEX
  5
1E8
  8
1
  6
CONTINUOUS
 62
     7
 10
55.24763180699586
 20
351.6601144567148
 30
0.0
  0
VERTEX
  5
1E9
  8
1
  6
CONTINUOUS
 62
     7
 10
55.23073687583687
 20
351.6742518776451
 30
0.0
  0
VERTEX
  5
1EA
  8
1
  6
CONTINUOUS
 62
     7
 10
55.21453571481082
 20
351.6890607724978
 30
0.0
  0
VERTEX
  5
1EB
  8
1
  6
CONTINUOUS
 62
     7
 10
55.19905347775752
 20
351.7045050232433
 30
0.0
  0
VERTEX
  5
1EC
  8
1
  6
CONTINUOUS
 62
     7
 10
55.18431322156977
 20
351.7205478454648
 30
0.0
  0
VERTEX
  5
1ED
  8
1
  6
CONTINUOUS
 62
     7
 10
55.17033592176763
 20
351.737151885197
 30
0.0
  0
VERTEX
  5
1EE
  8
1
  6
CONTINUOUS
 62
     7
 10
55.1571404924556
 20
351.7542793144438
 30
0.0
  0
VERTEX
  5
1EF
  8
1
  6
CONTINUOUS
 62
     7
 10
55.14275642565732
 20
351.7748718310576
 30
0.0
  0
VERTEX
  5
1F0
  8
1
  6
CONTINUOUS
 62
     7
 10
55.12948280706362
 20
351.7960635667939
 30
0.0
  0
VERTEX
  5
1F1
  8
1
  6
CONTINUOUS
 62
     7
 10
55.11733932877114
 20
351.8177930282314
 30
0.0
  0
VERTEX
  5
1F2
  8
1
  6
CONTINUOUS
 62
     7
 10
55.10634210386687
 20
351.8399985731296
 30
0.0
  0
VERTEX
  5
1F3
  8
1
  6
CONTINUOUS
 62
     7
 10
55.09650374908189
 20
351.8626185942415
 30
0.0
  0
VERTEX
  5
1F4
  8
1
  6
CONTINUOUS
 62
     7
 10
55.08783347353459
 20
351.8855916969057
 30
0.0
  0
VERTEX
  5
1F5
  8
1
  6
CONTINUOUS
 62
     7
 10
55.08033717277381
 20
351.9088568700272
 30
0.0
  0
VERTEX
  5
1F6
  8
1
  6
CONTINUOUS
 62
     7
 10
55.07401752737012
 20
351.9323536500943
 30
0.0
  0
VERTEX
  5
1F7
  8
1
  6
CONTINUOUS
 62
     7
 10
55.06887410534262
 20
351.9560222779204
 30
0.0
  0
VERTEX
  5
1F8
  8
1
  6
CONTINUOUS
 62
     7
 10
55.06490346774987
 20
351.9798038478371
 30
0.0
  0
VERTEX
  5
1F9
  8
1
  6
CONTINUOUS
 62
     7
 10
55.06209927681454
 20
352.003640449105
 30
0.0
  0
VERTEX
  5
1FA
  8
1
  6
CONTINUOUS
 62
     7
 10
55.06045240599425
 20
352.027475299347
 30
0.0
  0
SEQEND
  5
27F
  8
1
  6
CONTINUOUS
 62
     7
  0
POLYLINE
  5
F2
  8
1
  6
CONTINUOUS
 62
     7
 66
     1
 10
0.0
 20
0.0
 30
0.0
  0
VERTEX
  5
1FB
  8
1
  6
CONTINUOUS
 62
     7
 10
24.9392561858561
 20
352.0274621868492
 30
0.0
  0
VERTEX
  5
1FC
  8
1
  6
CONTINUOUS
 62
     7
 10
24.93763557593281
 20
352.0038974308875
 30
0.0
  0
VERTEX
  5
1FD
  8
1
  6
CONTINUOUS
 62
     7
 10
24.93496334917137
 20
351.9808642907939
 30
0.0
  0
VERTEX
  5
1FE
  8
1
  6
CONTINUOUS
 62
     7
 10
24.93130492280911
 20
351.9584053997157
 30
0.0
  0
VERTEX
  5
1FF
  8
1
  6
CONTINUOUS
 62
     7
 10
24.92672604424383
 20
351.9365578102604
 30
0.0
  0
VERTEX
  5
200
  8
1
  6
CONTINUOUS
 62
     7
 10
24.92129241714252
 20
351.9153532154256
 30
0.0
  0
VERTEX
  5
201
  8
1
  6
CONTINUOUS
 62
     7
 10
24.91506936115843
 20
351.8948181856851
 30
0.0
  0
VERTEX
  5
202
  8
1
  6
CONTINUOUS
 62
     7
 10
24.90812150461723
 20
351.8749744189582
 30
0.0
  0
VERTEX
  5
203
  8
1
  6
CONTINUOUS
 62
     7
 10
24.90051250931996
 20
351.8558390004193
 30
0.0
  0
VERTEX
  5
204
  8
1
  6
CONTINUOUS
 62
     7
 10
24.89230482642921
 20
351.8374246693413
 30
0.0
  0
VERTEX
  5
205
  8
1
  6
CONTINUOUS
 62
     7
 10
24.88355948225328
 20
351.8197400903939
 30
0.0
  0
VERTEX
  5
206
  8
1
  6
CONTINUOUS
 62
     7
 10
24.87319968070046
 20
351.8008055961346
 30
0.0
  0
VERTEX
  5
207
  8
1
  6
CONTINUOUS
 62
     7
 10
24.86232074943101
 20
351.782794113366
 30
0.0
  0
VERTEX
  5
208
  8
1
  6
CONTINUOUS
 62
     7
 10
24.85100050374638
 20
351.765702172449
 30
0.0
  0
VERTEX
  5
209
  8
1
  6
CONTINUOUS
 62
     7
 10
24.83931356161535
 20
351.7495217012643
 30
0.0
  0
VERTEX
  5
20A
  8
1
  6
CONTINUOUS
 62
     7
 10
24.82733120337085
 20
351.73424048527
 30
0.0
  0
VERTEX
  5
20B
  8
1
  6
CONTINUOUS
 62
     7
 10
24.81534092386581
 20
351.7200920796041
 30
0.0
  0
VERTEX
  5
20C
  8
1
  6
CONTINUOUS
 62
     7
 10
24.80319212217432
 20
351.7067776203946
 30
0.0
  0
VERTEX
  5
20D
  8
1
  6
CONTINUOUS
 62
     7
 10
24.79094249955073
 20
351.6942763072843
 30
0.0
  0
VERTEX
  5
20E
  8
1
  6
CONTINUOUS
 62
     7
 10
24.77864647187835
 20
351.6825650426041
 30
0.0
  0
VERTEX
  5
20F
  8
1
  6
CONTINUOUS
 62
     7
 10
24.76468216065098
 20
351.6701839188177
 30
0.0
  0
VERTEX
  5
210
  8
1
  6
CONTINUOUS
 62
     7
 10
24.75079390980712
 20
351.6587513223519
 30
0.0
  0
VERTEX
  5
211
  8
1
  6
CONTINUOUS
 62
     7
 10
24.73704650798582
 20
351.6482258349903
 30
0.0
  0
VERTEX
  5
212
  8
1
  6
CONTINUOUS
 62
     7
 10
24.72349966030902
 20
351.6385644369723
 30
0.0
  0
VERTEX
  5
213
  8
1
  6
CONTINUOUS
 62
     7
 10
24.71020817310066
 20
351.629723002999
 30
0.0
  0
VERTEX
  5
214
  8
1
  6
CONTINUOUS
 62
     7
 10
24.69722216145824
 20
351.6216567578272
 30
0.0
  0
VERTEX
  5
215
  8
1
  6
CONTINUOUS
 62
     7
 10
24.68458727470909
 20
351.614320692434
 30
0.0
  0
VERTEX
  5
216
  8
1
  6
CONTINUOUS
 62
     7
 10
24.67234493519464
 20
351.6076699420757
 30
0.0
  0
VERTEX
  5
217
  8
1
  6
CONTINUOUS
 62
     7
 10
24.65914563816149
 20
351.6009799410744
 30
0.0
  0
VERTEX
  5
218
  8
1
  6
CONTINUOUS
 62
     7
 10
24.6465327018506
 20
351.5950328076065
 30
0.0
  0
VERTEX
  5
219
  8
1
  6
CONTINUOUS
 62
     7
 10
24.63454779354349
 20
351.5897691227818
 30
0.0
  0
VERTEX
  5
21A
  8
1
  6
CONTINUOUS
 62
     7
 10
24.62322761544059
 20
351.5851316126272
 30
0.0
  0
VERTEX
  5
21B
  8
1
  6
CONTINUOUS
 62
     7
 10
24.61482062515042
 20
351.5818913645439
 30
0.0
  0
VERTEX
  5
21C
  8
1
  6
CONTINUOUS
 62
     7
 10
24.6068577606364
 20
351.5789784653426
 30
0.0
  0
VERTEX
  5
21D
  8
1
  6
CONTINUOUS
 62
     7
 10
24.59935139447438
 20
351.5763687203028
 30
0.0
  0
VERTEX
  5
21E
  8
1
  6
CONTINUOUS
 62
     7
 10
24.59231257759707
 20
351.5740391657248
 30
0.0
  0
SEQEND
  5
280
  8
1
  6
CONTINUOUS
 62
     7
  0
LINE
  5
F3
  8
1
  6
CONTINUOUS
 62
     7
 10
31.00000000000021
 20
341.05
 30
0.0
 11
48.99999999999999
 21
341.05
 31
0.0
  0
ENDBLK
  8
0
  0
BLOCK
  8
0
  2
D_FRAME_VIEW_4029
 70
     0
 10
0.0
 20
0.0
 30
0.0
  0
LINE
  5
F9
  8
1
  6
CONTINUOUS
 62
     7
 10
26.17561378470234
 20
517.4999999999999
 30
0.0
 11
39.99999999999997
 21
517.4999999999999
 31
0.0
  0
LINE
  5
FA
  8
1
  6
CONTINUOUS
 62
     7
 10
21.71551075965779
 20
557.4999999999999
 30
0.0
 11
26.17561378470234
 21
517.4999999999999
 31
0.0
  0
LINE
  5
FB
  8
1
  6
CONTINUOUS
 62
     7
 10
39.99999999999999
 20
557.4999999999999
 30
0.0
 11
21.71551075965779
 21
557.4999999999999
 31
0.0
  0
LINE
  5
FC
  8
1
  6
CONTINUOUS
 62
     7
 10
58.28448924034218
 20
557.4999999999999
 30
0.0
 11
53.82438621529762
 21
517.4999999999999
 31
0.0
  0
LINE
  5
FD
  8
1
  6
CONTINUOUS
 62
     7
 10
53.82438621529762
 20
517.4999999999999
 30
0.0
 11
39.99999999999998
 21
517.4999999999999
 31
0.0
  0
LINE
  5
FE
  8
1
  6
CONTINUOUS
 62
     7
 10
39.99999999999999
 20
557.4999999999999
 30
0.0
 11
58.28448924034218
 21
557.4999999999999
 31
0.0
  0
LINE
  5
FF
  8
1
  6
CONTINUOUS
 62
     7
 10
58.28448924034223
 20
687.535956984632
 30
0.0
 11
58.28419928260065
 21
687.5601207266542
 31
0.0
  0
LINE
  5
100
  8
1
  6
CONTINUOUS
 62
     7
 10
58.28448924034218
 20
557.4999999999999
 30
0.0
 11
58.28448924034223
 21
687.535956984632
 31
0.0
  0
LINE
  5
101
  8
1
  6
CONTINUOUS
 62
     7
 10
21.71551075965779
 20
557.4999999999999
 30
0.0
 11
21.7155107596578
 21
687.5359569846319
 31
0.0
  0
LINE
  5
102
  8
1
  6
CONTINUOUS
 62
     7
 10
21.71580071739938
 20
687.5601207266542
 30
0.0
 11
21.7155107596578
 21
687.535956984632
 31
0.0
  0
ARC
  5
103
  8
1
  6
CONTINUOUS
 62
     7
 10
24.19677510750646
 20
687.5699622609445
 30
0.0
 40
2.480993909739482
 50
151.6071758098338
 51
180.2272798233696
  0
POLYLINE
  5
104
  8
1
  6
CONTINUOUS
 62
     7
 66
     1
 10
0.0
 20
0.0
 30
0.0
  0
VERTEX
  5
21F
  8
1
  6
CONTINUOUS
 62
     7
 10
22.01422458504938
 20
688.7497096903068
 30
0.0
  0
VERTEX
  5
220
  8
1
  6
CONTINUOUS
 62
     7
 10
22.08681918411375
 20
688.8523102376049
 30
0.0
  0
VERTEX
  5
221
  8
1
  6
CONTINUOUS
 62
     7
 10
22.16556261836337
 20
688.9366569124069
 30
0.0
  0
VERTEX
  5
222
  8
1
  6
CONTINUOUS
 62
     7
 10
22.24876810344528
 20
688.9999569225986
 30
0.0
  0
VERTEX
  5
223
  8
1
  6
CONTINUOUS
 62
     7
 10
22.36193204540353
 20
689.0482724716064
 30
0.0
  0
VERTEX
  5
224
  8
1
  6
CONTINUOUS
 62
     7
 10
22.40426126765399
 20
689.055777686538
 30
0.0
  0
SEQEND
  5
281
  8
1
  6
CONTINUOUS
 62
     7
  0
ARC
  5
105
  8
1
  6
CONTINUOUS
 62
     7
 10
55.85477126627649
 20
687.5772885926606
 30
0.0
 40
2.429488675035132
 50
359.5951187333955
 51
29.81693375735437
  0
POLYLINE
  5
106
  8
1
  6
CONTINUOUS
 62
     7
 66
     1
 10
0.0
 20
0.0
 30
0.0
  0
VERTEX
  5
225
  8
1
  6
CONTINUOUS
 62
     7
 10
57.96264067108248
 20
688.7853042359395
 30
0.0
  0
VERTEX
  5
226
  8
1
  6
CONTINUOUS
 62
     7
 10
57.88747947751023
 20
688.882676768971
 30
0.0
  0
VERTEX
  5
227
  8
1
  6
CONTINUOUS
 62
     7
 10
57.80717484897929
 20
688.9601522456568
 30
0.0
  0
VERTEX
  5
228
  8
1
  6
CONTINUOUS
 62
     7
 10
57.71394024066743
 20
689.0205128604456
 30
0.0
  0
VERTEX
  5
229
  8
1
  6
CONTINUOUS
 62
     7
 10
57.59978987775035
 20
689.0553045920852
 30
0.0
  0
VERTEX
  5
22A
  8
1
  6
CONTINUOUS
 62
     7
 10
57.59573873234605
 20
689.055777686538
 30
0.0
  0
SEQEND
  5
282
  8
1
  6
CONTINUOUS
 62
     7
  0
LINE
  5
107
  8
1
  6
CONTINUOUS
 62
     7
 10
63.66580305597569
 20
517.4999999999999
 30
0.0
 11
53.82438621529768
 21
517.4999999999999
 31
0.0
  0
LINE
  5
108
  8
1
  6
CONTINUOUS
 62
     7
 10
58.28448924034219
 20
557.4999999999999
 30
0.0
 11
71.35957055943193
 21
557.4999999999999
 31
0.0
  0
LINE
  5
109
  8
1
  6
CONTINUOUS
 62
     7
 10
16.33419694402426
 20
517.4999999999999
 30
0.0
 11
26.17561378470227
 21
517.4999999999999
 31
0.0
  0
LINE
  5
10A
  8
1
  6
CONTINUOUS
 62
     7
 10
21.71551075965778
 20
557.4999999999999
 30
0.0
 11
8.640429440568052
 21
557.4999999999999
 31
0.0
  0
LINE
  5
10B
  8
1
  6
CONTINUOUS
 62
     7
 10
6.981110346043574
 20
692.4999999999999
 30
0.0
 11
7.358644803273445
 21
690.232778474403
 31
0.0
  0
POLYLINE
  5
10C
  8
1
  6
CONTINUOUS
 62
     7
 66
     1
 10
0.0
 20
0.0
 30
0.0
  0
VERTEX
  5
22B
  8
1
  6
CONTINUOUS
 62
     7
 10
7.358644803273462
 20
690.2327784744031
 30
0.0
  0
VERTEX
  5
22C
  8
1
  6
CONTINUOUS
 62
     7
 10
7.589786270343753
 20
690.1153066309104
 30
0.0
  0
VERTEX
  5
22D
  8
1
  6
CONTINUOUS
 62
     7
 10
8.235905446171412
 20
690.0021706030005
 30
0.0
  0
VERTEX
  5
22E
  8
1
  6
CONTINUOUS
 62
     7
 10
9.274218858194782
 20
689.8973597964737
 30
0.0
  0
VERTEX
  5
22F
  8
1
  6
CONTINUOUS
 62
     7
 10
10.66811346965802
 20
689.8045700529393
 30
0.0
  0
SEQEND
  5
283
  8
1
  6
CONTINUOUS
 62
     7
  0
LINE
  5
10D
  8
1
  6
CONTINUOUS
 62
     7
 10
10.66811346965803
 20
689.8045700529393
 30
0.0
 11
23.00000000000004
 21
689.1259000857555
 31
0.0
  0
LINE
  5
10E
  8
1
  6
CONTINUOUS
 62
     7
 10
23.00000000000009
 20
689.1259000857555
 30
0.0
 11
56.99999999999996
 21
689.1259000857555
 31
0.0
  0
LINE
  5
10F
  8
1
  6
CONTINUOUS
 62
     7
 10
69.33188653034202
 20
689.8045700529392
 30
0.0
 11
57.00000000000001
 21
689.1259000857553
 31
0.0
  0
POLYLINE
  5
110
  8
1
  6
CONTINUOUS
 62
     7
 66
     1
 10
0.0
 20
0.0
 30
0.0
  0
VERTEX
  5
230
  8
1
  6
CONTINUOUS
 62
     7
 10
69.33188653034202
 20
689.8045700529393
 30
0.0
  0
VERTEX
  5
231
  8
1
  6
CONTINUOUS
 62
     7
 10
70.72578114180526
 20
689.8973597964737
 30
0.0
  0
VERTEX
  5
232
  8
1
  6
CONTINUOUS
 62
     7
 10
71.76409455382863
 20
690.0021706030005
 30
0.0
  0
VERTEX
  5
233
  8
1
  6
CONTINUOUS
 62
     7
 10
72.41021372965629
 20
690.1153066309104
 30
0.0
  0
VERTEX
  5
234
  8
1
  6
CONTINUOUS
 62
     7
 10
72.64135519672658
 20
690.2327784744031
 30
0.0
  0
SEQEND
  5
284
  8
1
  6
CONTINUOUS
 62
     7
  0
LINE
  5
111
  8
1
  6
CONTINUOUS
 62
     7
 10
73.01888965395645
 20
692.4999999999999
 30
0.0
 11
72.6413551967266
 21
690.232778474403
 31
0.0
  0
LINE
  5
112
  8
1
  6
CONTINUOUS
 62
     7
 10
74.31962424931415
 20
692.4999999999999
 30
0.0
 11
73.01888965395645
 21
692.4999999999999
 31
0.0
  0
LINE
  5
113
  8
1
  6
CONTINUOUS
 62
     7
 10
5.68037575068589
 20
692.4999999999999
 30
0.0
 11
6.981110346043574
 21
692.4999999999999
 31
0.0
  0
LINE
  5
114
  8
1
  6
CONTINUOUS
 62
     7
 10
13.22152722960161
 20
517.5000068129278
 30
0.0
 11
13.01686978691311
 21
517.5
 31
0.0
  0
LINE
  5
115
  8
1
  6
CONTINUOUS
 62
     7
 10
8.640429440568038
 20
557.5000000000001
 30
0.0
 11
4.558751418693753
 21
557.5000000000001
 31
0.0
  0
LINE
  5
116
  8
1
  6
CONTINUOUS
 62
     7
 10
16.33419694402424
 20
517.5000000000001
 30
0.0
 11
13.2215272296016
 21
517.500006812928
 31
0.0
  0
LINE
  5
117
  8
1
  6
CONTINUOUS
 62
     7
 10
71.35957055943194
 20
557.5
 30
0.0
 11
75.44124858130623
 21
557.5
 31
0.0
  0
LINE
  5
118
  8
1
  6
CONTINUOUS
 62
     7
 10
66.77847277039835
 20
517.5000068129278
 30
0.0
 11
66.98313021308684
 21
517.4999999999999
 31
0.0
  0
LINE
  5
119
  8
1
  6
CONTINUOUS
 62
     7
 10
63.66580305597572
 20
517.5000000000001
 30
0.0
 11
66.77847277039835
 21
517.5000068129278
 31
0.0
  0
LINE
  5
11A
  8
1
  6
CONTINUOUS
 62
     7
 10
53.82438621529763
 20
517.5
 30
0.0
 11
53.82438621529761
 21
461.5987595525198
 31
0.0
  0
LINE
  5
11B
  8
1
  6
CONTINUOUS
 62
     7
 10
53.82406980428592
 20
461.5731984604554
 30
0.0
 11
53.82438621529761
 21
461.5987595525198
 31
0.0
  0
LINE
  5
11C
  8
1
  6
CONTINUOUS
 62
     7
 10
26.17561378470232
 20
461.5987595525198
 30
0.0
 11
26.17593019571399
 21
461.5731984604554
 31
0.0
  0
LINE
  5
11D
  8
1
  6
CONTINUOUS
 62
     7
 10
26.17561378470233
 20
517.5
 30
0.0
 11
26.17561378470232
 21
461.5987595525198
 31
0.0
  0
POLYLINE
  5
11E
  8
1
  6
CONTINUOUS
 62
     7
 66
     1
 10
0.0
 20
0.0
 30
0.0
  0
VERTEX
  5
235
  8
1
  6
CONTINUOUS
 62
     7
 10
26.88597426240174
 20
460.0776486200987
 30
0.0
  0
VERTEX
  5
236
  8
1
  6
CONTINUOUS
 62
     7
 10
26.76255686187942
 20
460.1136325665324
 30
0.0
  0
VERTEX
  5
237
  8
1
  6
CONTINUOUS
 62
     7
 10
26.66714787851632
 20
460.17388387594
 30
0.0
  0
VERTEX
  5
238
  8
1
  6
CONTINUOUS
 62
     7
 10
26.58482164335516
 20
460.251060917708
 30
0.0
  0
VERTEX
  5
239
  8
1
  6
CONTINUOUS
 62
     7
 10
26.50554866514086
 20
460.351057307582
 30
0.0
  0
SEQEND
  5
285
  8
1
  6
CONTINUOUS
 62
     7
  0
ARC
  5
11F
  8
1
  6
CONTINUOUS
 62
     7
 10
28.52303602242788
 20
461.5507057752054
 30
0.0
 40
2.347213599714368
 50
179.4509423175222
 51
210.7367757554559
  0
POLYLINE
  5
120
  8
1
  6
CONTINUOUS
 62
     7
 66
     1
 10
0.0
 20
0.0
 30
0.0
  0
VERTEX
  5
23A
  8
1
  6
CONTINUOUS
 62
     7
 10
53.11402573759821
 20
460.0776486200987
 30
0.0
  0
VERTEX
  5
23B
  8
1
  6
CONTINUOUS
 62
     7
 10
53.2374431381205
 20
460.1136325665324
 30
0.0
  0
VERTEX
  5
23C
  8
1
  6
CONTINUOUS
 62
     7
 10
53.33285212148356
 20
460.17388387594
 30
0.0
  0
VERTEX
  5
23D
  8
1
  6
CONTINUOUS
 62
     7
 10
53.41517835664476
 20
460.251060917708
 30
0.0
  0
VERTEX
  5
23E
  8
1
  6
CONTINUOUS
 62
     7
 10
53.49445133485906
 20
460.351057307582
 30
0.0
  0
SEQEND
  5
286
  8
1
  6
CONTINUOUS
 62
     7
  0
ARC
  5
121
  8
1
  6
CONTINUOUS
 62
     7
 10
51.47696397757232
 20
461.5507057752052
 30
0.0
 40
2.347213599714061
 50
329.2632242445427
 51
0.5490576824806227
  0
LINE
  5
122
  8
1
  6
CONTINUOUS
 62
     7
 10
65.75617496803422
 20
457.4999999999998
 30
0.0
 11
64.45544037267653
 21
457.4999999999999
 31
0.0
  0
LINE
  5
123
  8
1
  6
CONTINUOUS
 62
     7
 10
64.45544037267653
 20
457.4999999999999
 30
0.0
 11
64.18323682850715
 21
459.1346739294018
 31
0.0
  0
POLYLINE
  5
124
  8
1
  6
CONTINUOUS
 62
     7
 66
     1
 10
0.0
 20
0.0
 30
0.0
  0
VERTEX
  5
23F
  8
1
  6
CONTINUOUS
 62
     7
 10
64.18323682850715
 20
459.1346739294018
 30
0.0
  0
VERTEX
  5
240
  8
1
  6
CONTINUOUS
 62
     7
 10
64.00237245787243
 20
459.229427501742
 30
0.0
  0
VERTEX
  5
241
  8
1
  6
CONTINUOUS
 62
     7
 10
63.49733235856343
 20
459.3209016981598
 30
0.0
  0
VERTEX
  5
242
  8
1
  6
CONTINUOUS
 62
     7
 10
62.68479092000508
 20
459.4060764092117
 30
0.0
  0
VERTEX
  5
243
  8
1
  6
CONTINUOUS
 62
     7
 10
61.59157498701406
 20
459.4821395090818
 30
0.0
  0
SEQEND
  5
287
  8
1
  6
CONTINUOUS
 62
     7
  0
LINE
  5
125
  8
1
  6
CONTINUOUS
 62
     7
 10
61.59157498701406
 20
459.4821395090817
 30
0.0
 11
52.50000000000002
 21
460.0075979613735
 31
0.0
  0
LINE
  5
126
  8
1
  6
CONTINUOUS
 62
     7
 10
52.50000000000009
 20
460.0075979613735
 30
0.0
 11
27.49999999999988
 21
460.0075979613735
 31
0.0
  0
LINE
  5
127
  8
1
  6
CONTINUOUS
 62
     7
 10
18.40842501298586
 20
459.4821395090817
 30
0.0
 11
27.49999999999991
 21
460.0075979613735
 31
0.0
  0
POLYLINE
  5
128
  8
1
  6
CONTINUOUS
 62
     7
 66
     1
 10
0.0
 20
0.0
 30
0.0
  0
VERTEX
  5
244
  8
1
  6
CONTINUOUS
 62
     7
 10
18.40842501298584
 20
459.4821395090818
 30
0.0
  0
VERTEX
  5
245
  8
1
  6
CONTINUOUS
 62
     7
 10
17.31520907999483
 20
459.4060764092117
 30
0.0
  0
VERTEX
  5
246
  8
1
  6
CONTINUOUS
 62
     7
 10
16.50266764143649
 20
459.3209016981598
 30
0.0
  0
VERTEX
  5
247
  8
1
  6
CONTINUOUS
 62
     7
 10
15.99762754212751
 20
459.229427501742
 30
0.0
  0
VERTEX
  5
248
  8
1
  6
CONTINUOUS
 62
     7
 10
15.81676317149277
 20
459.1346739294018
 30
0.0
  0
SEQEND
  5
288
  8
1
  6
CONTINUOUS
 62
     7
  0
LINE
  5
129
  8
1
  6
CONTINUOUS
 62
     7
 10
15.54455962732338
 20
457.4999999999999
 30
0.0
 11
15.81676317149278
 21
459.1346739294018
 31
0.0
  0
LINE
  5
12A
  8
1
  6
CONTINUOUS
 62
     7
 10
14.24382503196569
 20
457.4999999999998
 30
0.0
 11
15.54455962732338
 21
457.4999999999999
 31
0.0
  0
POLYLINE
  5
12B
  8
1
  6
CONTINUOUS
 62
     7
 66
     1
 10
0.0
 20
0.0
 30
0.0
  0
VERTEX
  5
249
  8
1
  6
CONTINUOUS
 62
     7
 10
5.680375750685899
 20
692.5
 30
0.0
  0
VERTEX
  5
24A
  8
1
  6
CONTINUOUS
 62
     7
 10
5.387826303013521
 20
692.471155093518
 30
0.0
  0
VERTEX
  5
24B
  8
1
  6
CONTINUOUS
 62
     7
 10
5.10653916344592
 20
692.3857282252231
 30
0.0
  0
VERTEX
  5
24C
  8
1
  6
CONTINUOUS
 62
     7
 10
4.847317774236281
 20
692.2470003991457
 30
0.0
  0
VERTEX
  5
24D
  8
1
  6
CONTINUOUS
 62
     7
 10
4.620118094670269
 20
692.0602997581229
 30
0.0
  0
VERTEX
  5
24E
  8
1
  6
CONTINUOUS
 62
     7
 10
4.433666220871251
 20
691.8327969449258
 30
0.0
  0
VERTEX
  5
24F
  8
1
  6
CONTINUOUS
 62
     7
 10
4.295123241165844
 20
691.5732296981818
 30
0.0
  0
VERTEX
  5
250
  8
1
  6
CONTINUOUS
 62
     7
 10
4.209810198965889
 20
691.2915672605849
 30
0.0
  0
VERTEX
  5
251
  8
1
  6
CONTINUOUS
 62
     7
 10
4.181003726563454
 20
690.9986274885225
 30
0.0
  0
SEQEND
  5
289
  8
1
  6
CONTINUOUS
 62
     7
  0
POLYLINE
  5
12C
  8
1
  6
CONTINUOUS
 62
     7
 66
     1
 10
0.0
 20
0.0
 30
0.0
  0
VERTEX
  5
252
  8
1
  6
CONTINUOUS
 62
     7
 10
75.81899627343647
 20
690.9986274885223
 30
0.0
  0
VERTEX
  5
253
  8
1
  6
CONTINUOUS
 62
     7
 10
75.79018980103403
 20
691.2915672605848
 30
0.0
  0
VERTEX
  5
254
  8
1
  6
CONTINUOUS
 62
     7
 10
75.70487675883409
 20
691.5732296981818
 30
0.0
  0
VERTEX
  5
255
  8
1
  6
CONTINUOUS
 62
     7
 10
75.5663337791287
 20
691.8327969449256
 30
0.0
  0
VERTEX
  5
256
  8
1
  6
CONTINUOUS
 62
     7
 10
75.3798819053297
 20
692.0602997581227
 30
0.0
  0
VERTEX
  5
257
  8
1
  6
CONTINUOUS
 62
     7
 10
75.1526822257637
 20
692.2470003991456
 30
0.0
  0
VERTEX
  5
258
  8
1
  6
CONTINUOUS
 62
     7
 10
74.89346083655408
 20
692.3857282252229
 30
0.0
  0
VERTEX
  5
259
  8
1
  6
CONTINUOUS
 62
     7
 10
74.6121736969865
 20
692.4711550935177
 30
0.0
  0
VERTEX
  5
25A
  8
1
  6
CONTINUOUS
 62
     7
 10
74.31962424931416
 20
692.4999999999998
 30
0.0
  0
SEQEND
  5
28A
  8
1
  6
CONTINUOUS
 62
     7
  0
LINE
  5
12D
  8
1
  6
CONTINUOUS
 62
     7
 10
12.74445300784335
 20
517.4999999999999
 30
0.0
 11
13.01686978691311
 21
517.4999999999999
 31
0.0
  0
LINE
  5
12E
  8
1
  6
CONTINUOUS
 62
     7
 10
4.1810037265635
 20
557.5
 30
0.0
 11
12.74445300784334
 21
517.4999999999999
 31
0.0
  0
LINE
  5
12F
  8
1
  6
CONTINUOUS
 62
     7
 10
4.55875141869376
 20
557.4999999999999
 30
0.0
 11
4.1810037265635
 21
557.4999999999999
 31
0.0
  0
LINE
  5
130
  8
1
  6
CONTINUOUS
 62
     7
 10
4.1810037265635
 20
557.5
 30
0.0
 11
4.181003726563527
 21
690.9986274885225
 31
0.0
  0
LINE
  5
131
  8
1
  6
CONTINUOUS
 62
     7
 10
75.44124858130621
 20
557.4999999999999
 30
0.0
 11
75.81899627343647
 21
557.4999999999999
 31
0.0
  0
LINE
  5
132
  8
1
  6
CONTINUOUS
 62
     7
 10
75.81899627343647
 20
557.5
 30
0.0
 11
67.25554699215661
 21
517.4999999999999
 31
0.0
  0
LINE
  5
133
  8
1
  6
CONTINUOUS
 62
     7
 10
67.2555469921566
 20
517.4999999999999
 30
0.0
 11
66.98313021308682
 21
517.4999999999999
 31
0.0
  0
LINE
  5
134
  8
1
  6
CONTINUOUS
 62
     7
 10
75.81899627343647
 20
557.5
 30
0.0
 11
75.8189962734365
 21
690.9986274885225
 31
0.0
  0
POLYLINE
  5
135
  8
1
  6
CONTINUOUS
 62
     7
 66
     1
 10
0.0
 20
0.0
 30
0.0
  0
VERTEX
  5
25B
  8
1
  6
CONTINUOUS
 62
     7
 10
65.75617496803422
 20
457.4999999999998
 30
0.0
  0
VERTEX
  5
25C
  8
1
  6
CONTINUOUS
 62
     7
 10
66.04872441570657
 20
457.5288449064819
 30
0.0
  0
VERTEX
  5
25D
  8
1
  6
CONTINUOUS
 62
     7
 10
66.33001155527415
 20
457.6142717747767
 30
0.0
  0
VERTEX
  5
25E
  8
1
  6
CONTINUOUS
 62
     7
 10
66.58923294448377
 20
457.7529996008542
 30
0.0
  0
VERTEX
  5
25F
  8
1
  6
CONTINUOUS
 62
     7
 10
66.81643262404977
 20
457.9397002418769
 30
0.0
  0
VERTEX
  5
260
  8
1
  6
CONTINUOUS
 62
     7
 10
67.00288449784878
 20
458.1672030550741
 30
0.0
  0
VERTEX
  5
261
  8
1
  6
CONTINUOUS
 62
     7
 10
67.14142747755419
 20
458.426770301818
 30
0.0
  0
VERTEX
  5
262
  8
1
  6
CONTINUOUS
 62
     7
 10
67.22674051975414
 20
458.7084327394149
 30
0.0
  0
VERTEX
  5
263
  8
1
  6
CONTINUOUS
 62
     7
 10
67.2555469921566
 20
459.0013725114773
 30
0.0
  0
SEQEND
  5
28B
  8
1
  6
CONTINUOUS
 62
     7
  0
POLYLINE
  5
136
  8
1
  6
CONTINUOUS
 62
     7
 66
     1
 10
0.0
 20
0.0
 30
0.0
  0
VERTEX
  5
264
  8
1
  6
CONTINUOUS
 62
     7
 10
12.74445300784337
 20
459.0013725114773
 30
0.0
  0
VERTEX
  5
265
  8
1
  6
CONTINUOUS
 62
     7
 10
12.77325948024582
 20
458.7084327394149
 30
0.0
  0
VERTEX
  5
266
  8
1
  6
CONTINUOUS
 62
     7
 10
12.85857252244577
 20
458.426770301818
 30
0.0
  0
VERTEX
  5
267
  8
1
  6
CONTINUOUS
 62
     7
 10
12.99711550215117
 20
458.1672030550741
 30
0.0
  0
VERTEX
  5
268
  8
1
  6
CONTINUOUS
 62
     7
 10
13.18356737595017
 20
457.9397002418769
 30
0.0
  0
VERTEX
  5
269
  8
1
  6
CONTINUOUS
 62
     7
 10
13.41076705551616
 20
457.7529996008542
 30
0.0
  0
VERTEX
  5
26A
  8
1
  6
CONTINUOUS
 62
     7
 10
13.66998844472577
 20
457.6142717747767
 30
0.0
  0
VERTEX
  5
26B
  8
1
  6
CONTINUOUS
 62
     7
 10
13.95127558429334
 20
457.5288449064819
 30
0.0
  0
VERTEX
  5
26C
  8
1
  6
CONTINUOUS
 62
     7
 10
14.24382503196569
 20
457.4999999999998
 30
0.0
  0
SEQEND
  5
28C
  8
1
  6
CONTINUOUS
 62
     7
  0
LINE
  5
137
  8
1
  6
CONTINUOUS
 62
     7
 10
12.74445300784334
 20
517.4999999999999
 30
0.0
 11
12.74445300784333
 21
459.0013725114773
 31
0.0
  0
LINE
  5
138
  8
1
  6
CONTINUOUS
 62
     7
 10
67.25554699215661
 20
517.4999999999999
 30
0.0
 11
67.2555469921566
 21
459.0013725114773
 31
0.0
  0
ENDBLK
  8
0
  0
BLOCK
  8
0
  2
D_FRAME_VIEW_1724
 70
     0
 10
0.0
 20
0.0
 30
0.0
  0
LINE
  5
13D
  8
1
  6
CONTINUOUS
 62
     7
 10
327.5000000000002
 20
341.05
 30
0.0
 11
327.6
 21
341.1499999999999
 31
0.0
  0
LINE
  5
13E
  8
1
  6
CONTINUOUS
 62
     7
 10
277.4999999999999
 20
341.05
 30
0.0
 11
277.4
 21
341.1499999999999
 31
0.0
  0
LINE
  5
13F
  8
1
  6
CONTINUOUS
 62
     7
 10
242.5000000000001
 20
394.5127990163066
 30
0.0
 11
242.5000000000001
 21
384.4355981306688
 31
0.0
  0
LINE
  5
140
  8
1
  6
CONTINUOUS
 62
     7
 10
202.5000068129279
 20
374.53663122913
 30
0.0
 11
202.5
 21
372.3658709861788
 31
0.0
  0
LINE
  5
141
  8
1
  6
CONTINUOUS
 62
     7
 10
202.5000000000001
 20
380.852319907976
 30
0.0
 11
202.5000068129279
 21
374.53663122913
 31
0.0
  0
LINE
  5
142
  8
1
  6
CONTINUOUS
 62
     7
 10
242.4999999999999
 20
384.4355981306688
 30
0.0
 11
242.4999999999999
 21
341.15
 31
0.0
  0
LINE
  5
143
  8
1
  6
CONTINUOUS
 62
     7
 10
242.5000000000001
 20
341.15
 30
0.0
 11
375.9986274885225
 21
341.15
 31
0.0
  0
LINE
  5
144
  8
1
  6
CONTINUOUS
 62
     7
 10
242.5000000000001
 20
341.15
 30
0.0
 11
202.4999999999999
 21
341.15
 31
0.0
  0
LINE
  5
145
  8
1
  6
CONTINUOUS
 62
     7
 10
202.4999999999999
 20
341.15
 30
0.0
 11
202.4999999999999
 21
372.3658709861787
 31
0.0
  0
LINE
  5
146
  8
1
  6
CONTINUOUS
 62
     7
 10
375.228069717688
 20
384.5010122617857
 30
0.0
 11
377.4999999999999
 21
341.1499999999999
 31
0.0
  0
LINE
  5
147
  8
1
  6
CONTINUOUS
 62
     7
 10
377.5000000000001
 20
341.1499999999999
 30
0.0
 11
375.9986274885225
 21
341.1499999999999
 31
0.0
  0
LINE
  5
148
  8
1
  6
CONTINUOUS
 62
     7
 10
374.7534720505655
 20
393.5568752198251
 30
0.0
 11
375.228069717688
 21
384.5010122617857
 31
0.0
  0
LINE
  5
149
  8
1
  6
CONTINUOUS
 62
     7
 10
242.5
 20
408.2430271168969
 30
0.0
 11
242.5
 21
394.5127990163066
 31
0.0
  0
LINE
  5
14A
  8
1
  6
CONTINUOUS
 62
     7
 10
202.4999999999999
 20
380.8523199079759
 30
0.0
 11
202.4999999999999
 21
391.705602894088
 31
0.0
  0
LINE
  5
14B
  8
1
  6
CONTINUOUS
 62
     7
 10
372.535956984632
 20
408.2430271168969
 30
0.0
 11
372.5601207266542
 21
408.2430495728202
 31
0.0
  0
ARC
  5
14C
  8
1
  6
CONTINUOUS
 62
     7
 10
372.5788251840084
 20
406.7556632574143
 30
0.0
 40
1.487503918644193
 50
17.18026398770456
 51
90.72047857806064
  0
POLYLINE
  5
14D
  8
1
  6
CONTINUOUS
 62
     7
 66
     1
 10
0.0
 20
0.0
 30
0.0
  0
VERTEX
  5
26F
  8
1
  6
CONTINUOUS
 62
     7
 10
373.9999569225986
 20
407.1950406459466
 30
0.0
  0
VERTEX
  5
270
  8
1
  6
CONTINUOUS
 62
     7
 10
374.0365899830931
 20
407.0388724508731
 30
0.0
  0
VERTEX
  5
271
  8
1
  6
CONTINUOUS
 62
     7
 10
374.0553045920854
 20
406.8782080323872
 30
0.0
  0
VERTEX
  5
272
  8
1
  6
CONTINUOUS
 62
     7
 10
374.055777686538
 20
406.869676746092
 30
0.0
  0
SEQEND
  5
28D
  8
1
  6
CONTINUOUS
 62
     7
  0
LINE
  5
14E
  8
1
  6
CONTINUOUS
 62
     7
 10
374.055777686538
 20
406.869676746092
 30
0.0
 11
374.7534720505655
 21
393.5568752198251
 31
0.0
  0
LINE
  5
14F
  8
1
  6
CONTINUOUS
 62
     7
 10
202.4999999999999
 20
341.1499999999999
 30
0.0
 11
144.0013725114774
 21
341.1499999999999
 31
0.0
  0
LINE
  5
150
  8
1
  6
CONTINUOUS
 62
     7
 10
142.4999999999999
 20
341.15
 30
0.0
 11
144.139382686117
 21
372.4312851172956
 31
0.0
  0
LINE
  5
151
  8
1
  6
CONTINUOUS
 62
     7
 10
144.0013725114774
 20
341.15
 30
0.0
 11
142.4999999999999
 21
341.15
 31
0.0
  0
LINE
  5
152
  8
1
  6
CONTINUOUS
 62
     7
 10
144.139382686117
 20
372.4312851172956
 30
0.0
 11
144.5320187911554
 21
379.9232283060697
 31
0.0
  0
LINE
  5
153
  8
1
  6
CONTINUOUS
 62
     7
 10
144.5320187911554
 20
379.9232283060697
 30
0.0
 11
145.0776486200988
 21
390.3344656530397
 31
0.0
  0
LINE
  5
154
  8
1
  6
CONTINUOUS
 62
     7
 10
374.0212500166693
 20
407.5285039343647
 30
0.0
 11
374.055777686538
 21
406.8696767460923
 31
0.0
  0
LINE
  5
155
  8
1
  6
CONTINUOUS
 62
     7
 10
242.5
 20
408.95
 30
0.0
 11
242.5
 21
408.2430271168969
 31
0.0
  0
LINE
  5
156
  8
1
  6
CONTINUOUS
 62
     7
 10
202.4999999999999
 20
391.705602894088
 30
0.0
 11
202.4999999999999
 21
392.25
 31
0.0
  0
LINE
  5
157
  8
1
  6
CONTINUOUS
 62
     7
 10
202.4999999999999
 20
392.25
 30
0.0
 11
242.5
 21
408.95
 31
0.0
  0
LINE
  5
158
  8
1
  6
CONTINUOUS
 62
     7
 10
145.0776486200988
 20
390.3344656530398
 30
0.0
 11
145.1035400693039
 21
390.8285039343645
 31
0.0
  0
LINE
  5
159
  8
1
  6
CONTINUOUS
 62
     7
 10
277.4999999999999
 20
341.05
 30
0.0
 11
327.5000000000002
 21
341.05
 31
0.0
  0
ARC
  5
15A
  8
1
  6
CONTINUOUS
 62
     7
 10
372.5233057145375
 20
407.4500000000001
 30
0.0
 40
1.499999999999988
 50
3.000000000000045
 51
90.00000000000011
  0
LINE
  5
15B
  8
1
  6
CONTINUOUS
 62
     7
 10
372.5233057145375
 20
408.95
 30
0.0
 11
242.5000000000001
 21
408.95
 31
0.0
  0
ARC
  5
15C
  8
1
  6
CONTINUOUS
 62
     7
 10
146.6014843714357
 20
390.7500000000001
 30
0.0
 40
1.500000000000001
 50
89.99999999999999
 51
176.9999999999998
  0
LINE
  5
15D
  8
1
  6
CONTINUOUS
 62
     7
 10
202.5
 20
392.25
 30
0.0
 11
146.6014843714357
 21
392.25
 31
0.0
  0
ENDBLK
  8
0
  0
ENDSEC
  0
SECTION
  2
ENTITIES
  0
INSERT
  5
F4
  8
1
  6
CONTINUOUS
 62
     7
  2
D_FRAME_VIEW_1473
 10
0.0
 20
0.0
 30
0.0
  0
TEXT
  5
F5
  8
1
  6
CONTINUOUS
 62
     7
 10
251.3149868700763
 20
328.3284200325122
 30
0.0
 40
3.0
  1
RMSL-40-25
  0
INSERT
  5
139
  8
1
  6
CONTINUOUS
 62
     7
  2
D_FRAME_VIEW_4029
 10
0.0
 20
0.0
 30
0.0
  0
INSERT
  5
15E
  8
1
  6
CONTINUOUS
 62
     7
  2
D_FRAME_VIEW_1724
 10
0.0
 20
0.0
 30
0.0
  0
ENDSEC
  0
EOF
