  0
SECTION
  2
HEADER
  9
$ACADVER
  1
AC1006
  9
$DWGCODEPAGE
  3
ansi_932
  9
$INSBASE
 10
0.0
 20
0.0
 30
0.0
  9
$EXTMIN
 10
0.0
 20
0.0
  9
$EXTMAX
 10
1118.5
 20
340.146904515094
  9
$LIMMIN
 10
0.0
 20
0.0
  9
$LIMMAX
 10
12.0
 20
9.0
  9
$ORTHOMODE
 70
     0
  9
$REGENMODE
 70
     1
  9
$FILLMODE
 70
     1
  9
$QTEXTMODE
 70
     0
  9
$MIRRTEXT
 70
     1
  9
$DRAGMODE
 70
     2
  9
$LTSCALE
 40
1.0
  9
$OSMODE
 70
    37
  9
$ATTMODE
 70
     1
  9
$TEXTSIZE
 40
0.2
  9
$TRACEWID
 40
0.05
  9
$TEXTSTYLE
  7
STANDARD
  9
$CLAYER
  8
0
  9
$CELTYPE
  6
BYLAYER
  9
$CECOLOR
 62
   256
  9
$DIMSCALE
 40
1.0
  9
$DIMASZ
 40
3.0
  9
$DIMEXO
 40
0.0625
  9
$DIMDLI
 40
0.38
  9
$DIMRND
 40
0.0
  9
$DIMDLE
 40
0.0
  9
$DIMEXE
 40
1.5
  9
$DIMTP
 40
0.0
  9
$DIMTM
 40
0.0
  9
$DIMTXT
 40
3.0
  9
$DIMCEN
 40
0.09
  9
$DIMTSZ
 40
0.0
  9
$DIMTOL
 70
     0
  9
$DIMLIM
 70
     0
  9
$DIMTIH
 70
     1
  9
$DIMTOH
 70
     1
  9
$DIMSE1
 70
     0
  9
$DIMSE2
 70
     0
  9
$DIMTAD
 70
     1
  9
$DIMZIN
 70
     0
  9
$DIMBLK
  1

  9
$DIMASO
 70
     1
  9
$DIMSHO
 70
     1
  9
$DIMPOST
  1

  9
$DIMAPOST
  1

  9
$DIMALT
 70
     0
  9
$DIMALTD
 70
     2
  9
$DIMALTF
 40
25.4
  9
$DIMLFAC
 40
1.0
  9
$DIMTOFL
 70
     0
  9
$DIMTVP
 40
0.0
  9
$DIMTIX
 70
     0
  9
$DIMSOXD
 70
     0
  9
$DIMSAH
 70
     0
  9
$DIMBLK1
  1

  9
$DIMBLK2
  1

  9
$LUNITS
 70
     2
  9
$LUPREC
 70
     4
  9
$SKETCHINC
 40
0.1
  9
$FILLETRAD
 40
0.5
  9
$AUNITS
 70
     0
  9
$AUPREC
 70
     0
  9
$MENU
  1
.
  9
$ELEVATION
 40
0.0
  9
$THICKNESS
 40
0.0
  9
$LIMCHECK
 70
     0
  9
$CHAMFERA
 40
0.0
  9
$CHAMFERB
 40
0.0
  9
$SKPOLY
 70
     0
  9
$TDCREATE
 40
2460599.826548843
  9
$TDUPDATE
 40
2460599.826549271
  9
$TDINDWG
 40
0.0000000116
  9
$TDUSRTIMER
 40
0.0000000116
  9
$USRTIMER
 70
     1
  9
$ANGBASE
 50
0.0
  9
$ANGDIR
 70
     0
  9
$PDMODE
 70
     0
  9
$PDSIZE
 40
0.0
  9
$PLINEWID
 40
0.0
  9
$COORDS
 70
     1
  9
$SPLFRAME
 70
     0
  9
$SPLINETYPE
 70
     6
  9
$SPLINESEGS
 70
     8
  9
$ATTDIA
 70
     0
  9
$ATTREQ
 70
     1
  9
$HANDLING
 70
     1
  9
$HANDSEED
  5
65D
  9
$SURFTAB1
 70
     6
  9
$SURFTAB2
 70
     6
  9
$SURFTYPE
 70
     6
  9
$SURFU
 70
     6
  9
$SURFV
 70
     6
  9
$UCSNAME
  2

  9
$UCSORG
 10
0.0
 20
0.0
 30
0.0
  9
$UCSXDIR
 10
1.0
 20
0.0
 30
0.0
  9
$UCSYDIR
 10
0.0
 20
1.0
 30
0.0
  9
$USERI1
 70
     0
  9
$USERI2
 70
     0
  9
$USERI3
 70
     0
  9
$USERI4
 70
     0
  9
$USERI5
 70
     0
  9
$USERR1
 40
0.0
  9
$USERR2
 40
0.0
  9
$USERR3
 40
0.0
  9
$USERR4
 40
0.0
  9
$USERR5
 40
0.0
  9
$WORLDVIEW
 70
     1
  0
ENDSEC
  0
SECTION
  2
TABLES
  0
TABLE
  2
VPORT
 70
     1
  0
VPORT
  2
*ACTIVE
 70
     0
 10
0.0
 20
0.0
 11
1.0
 21
1.0
 12
559.25
 22
170.073452257547
 13
0.0
 23
0.0
 14
0.5
 24
0.5
 15
0.5
 25
0.5
 16
0.0
 26
0.0
 36
1.0
 17
0.0
 27
0.0
 37
0.0
 40
340.146904515094
 41
1.6
 42
50.0
 43
0.0
 44
0.0
 50
0.0
 51
0.0
 71
     0
 72
   100
 73
     1
 74
     3
 75
     0
 76
     0
 77
     0
 78
     0
  0
ENDTAB
  0
TABLE
  2
LTYPE
 70
     2
  0
LTYPE
  2
CONTINUOUS
 70
     0
  3
Solid line
 72
    65
 73
     0
 40
0.0
  0
LTYPE
  2
CENTER
 70
     0
  3

 72
    65
 73
     0
 40
0.0
  0
ENDTAB
  0
TABLE
  2
LAYER
 70
     1
  0
LAYER
  2
0
 70
     0
 62
     7
  6
CONTINUOUS
  0
ENDTAB
  0
TABLE
  2
STYLE
 70
     2
  0
STYLE
  2
STANDARD
 70
     0
 40
0.0
 41
1.0
 50
0.0
 71
     0
 42
0.2
  3
txt
  4

  0
STYLE
  2
ＭＳ_ゴシック
 70
     0
 40
0.0
 41
1.0
 50
0.0
 71
     0
 42
0.2
  3
ＭＳ ゴシック.shx
  4

  0
ENDTAB
  0
TABLE
  2
VIEW
 70
     0
  0
ENDTAB
  0
TABLE
  2
UCS
 70
     0
  0
ENDTAB
  0
ENDSEC
  0
SECTION
  2
BLOCKS
  0
BLOCK
  8
0
  2
D_FRAME_DRAWING_21
 70
     0
 10
0.0
 20
0.0
 30
0.0
  0
LINE
  5
71
  8
0
  6
CONTINUOUS
 62
     7
 10
0.0
 20
0.0
 30
0.0
 11
420.0
 21
0.0
 31
0.0
  0
LINE
  5
72
  8
0
  6
CONTINUOUS
 62
     7
 10
420.0
 20
0.0
 30
0.0
 11
420.0
 21
297.0
 31
0.0
  0
LINE
  5
73
  8
0
  6
CONTINUOUS
 62
     7
 10
420.0
 20
297.0
 30
0.0
 11
0.0
 21
297.0
 31
0.0
  0
LINE
  5
74
  8
0
  6
CONTINUOUS
 62
     7
 10
0.0
 20
297.0
 30
0.0
 11
0.0
 21
0.0
 31
0.0
  0
LINE
  5
75
  8
0
  6
CONTINUOUS
 62
     7
 10
10.0
 20
10.0
 30
0.0
 11
409.9999999999999
 21
10.0
 31
0.0
  0
LINE
  5
76
  8
0
  6
CONTINUOUS
 62
     7
 10
409.9999999999999
 20
10.0
 30
0.0
 11
409.9999999999999
 21
286.9999999999999
 31
0.0
  0
LINE
  5
77
  8
0
  6
CONTINUOUS
 62
     7
 10
409.9999999999999
 20
286.9999999999999
 30
0.0
 11
10.00000000000006
 21
286.9999999999999
 31
0.0
  0
LINE
  5
78
  8
0
  6
CONTINUOUS
 62
     7
 10
10.0
 20
286.9999999999999
 30
0.0
 11
10.0
 21
10.00000000000001
 31
0.0
  0
LINE
  5
79
  8
0
  6
CONTINUOUS
 62
     7
 10
210.0
 20
0.0
 30
0.0
 11
210.0
 21
10.0
 31
0.0
  0
LINE
  5
7A
  8
0
  6
CONTINUOUS
 62
     7
 10
420.0
 20
148.5
 30
0.0
 11
409.9999999999999
 21
148.5
 31
0.0
  0
LINE
  5
7B
  8
0
  6
CONTINUOUS
 62
     7
 10
210.0
 20
297.0
 30
0.0
 11
210.0
 21
286.9999999999999
 31
0.0
  0
LINE
  5
7C
  8
0
  6
CONTINUOUS
 62
     7
 10
0.0
 20
148.5
 30
0.0
 11
10.0
 21
148.5
 31
0.0
  0
POLYLINE
  5
7D
  8
0
  6
CONTINUOUS
 62
     7
 66
     1
 10
0.0
 20
0.0
 30
0.0
 70
     1
  0
VERTEX
  5
62E
  8
0
  6
CONTINUOUS
 62
     7
 10
11.0
 20
152.5
 30
0.0
  0
VERTEX
  5
62F
  8
0
  6
CONTINUOUS
 62
     7
 10
0.0
 20
148.5
 30
0.0
  0
VERTEX
  5
630
  8
0
  6
CONTINUOUS
 62
     7
 10
11.0
 20
144.5
 30
0.0
  0
VERTEX
  5
631
  8
0
  6
CONTINUOUS
 62
     7
 10
11.0
 20
152.5
 30
0.0
  0
SEQEND
  5
65B
  8
0
  6
CONTINUOUS
 62
     7
  0
INSERT
  5
7E
  8
0
 62
     7
  2
*U2
 10
0.0
 20
0.0
 30
0.0
  0
POLYLINE
  5
7F
  8
0
  6
CONTINUOUS
 62
     7
 66
     1
 10
0.0
 20
0.0
 30
0.0
 70
     1
  0
VERTEX
  5
634
  8
0
  6
CONTINUOUS
 62
     7
 10
206.0
 20
11.0
 30
0.0
  0
VERTEX
  5
635
  8
0
  6
CONTINUOUS
 62
     7
 10
210.0
 20
0.0
 30
0.0
  0
VERTEX
  5
636
  8
0
  6
CONTINUOUS
 62
     7
 10
214.0
 20
11.0
 30
0.0
  0
VERTEX
  5
637
  8
0
  6
CONTINUOUS
 62
     7
 10
206.0
 20
11.0
 30
0.0
  0
SEQEND
  5
65C
  8
0
  6
CONTINUOUS
 62
     7
  0
INSERT
  5
80
  8
0
 62
     7
  2
*U3
 10
0.0
 20
0.0
 30
0.0
  0
LINE
  5
81
  8
0
  6
CONTINUOUS
 62
     7
 10
367.5
 20
286.9999999999999
 30
0.0
 11
367.5
 21
292.0
 31
0.0
  0
TEXT
  5
82
  8
0
  6
CONTINUOUS
 62
     7
 10
391.6340909090909
 20
291.8324293485057
 30
0.0
 40
3.5
  1
A
 50
270.0
  0
LINE
  5
83
  8
0
  6
CONTINUOUS
 62
     7
 10
367.5
 20
10.0
 30
0.0
 11
367.5
 21
5.0
 31
0.0
  0
TEXT
  5
84
  8
0
  6
CONTINUOUS
 62
     7
 10
392.9868888333125
 20
4.602272727272727
 30
0.0
 40
3.5
  1
A
  0
LINE
  5
85
  8
0
  6
CONTINUOUS
 62
     7
 10
315.0
 20
286.9999999999999
 30
0.0
 11
315.0
 21
292.0
 31
0.0
  0
TEXT
  5
86
  8
0
  6
CONTINUOUS
 62
     7
 10
339.1340909090909
 20
291.9745607727899
 30
0.0
 40
3.5
  1
B
 50
270.0
  0
LINE
  5
87
  8
0
  6
CONTINUOUS
 62
     7
 10
315.0
 20
10.0
 30
0.0
 11
315.0
 21
5.0
 31
0.0
  0
TEXT
  5
88
  8
0
  6
CONTINUOUS
 62
     7
 10
340.3447574090284
 20
4.602272727272727
 30
0.0
 40
3.5
  1
B
  0
LINE
  5
89
  8
0
  6
CONTINUOUS
 62
     7
 10
262.5
 20
286.9999999999999
 30
0.0
 11
262.5
 21
292.0
 31
0.0
  0
TEXT
  5
8A
  8
0
  6
CONTINUOUS
 62
     7
 10
286.6327779167187
 20
291.9399305989747
 30
0.0
 40
3.5
  1
C
 50
270.0
  0
LINE
  5
8B
  8
0
  6
CONTINUOUS
 62
     7
 10
262.5
 20
10.0
 30
0.0
 11
262.5
 21
5.0
 31
0.0
  0
TEXT
  5
8C
  8
0
  6
CONTINUOUS
 62
     7
 10
287.8793875828435
 20
4.600959734900587
 30
0.0
 40
3.5
  1
C
  0
LINE
  5
8D
  8
0
  6
CONTINUOUS
 62
     7
 10
210.0
 20
286.9999999999999
 30
0.0
 11
210.0
 21
292.0
 31
0.0
  0
TEXT
  5
8E
  8
0
  6
CONTINUOUS
 62
     7
 10
234.1340909090909
 20
291.9745607727898
 30
0.0
 40
3.5
  1
D
 50
270.0
  0
LINE
  5
8F
  8
0
  6
CONTINUOUS
 62
     7
 10
157.5
 20
286.9999999999999
 30
0.0
 11
157.5
 21
292.0
 31
0.0
  0
TEXT
  5
90
  8
0
  6
CONTINUOUS
 62
     7
 10
181.6327779167188
 20
292.027463423784
 30
0.0
 40
3.5
  1
E
 50
270.0
  0
LINE
  5
91
  8
0
  6
CONTINUOUS
 62
     7
 10
157.5
 20
10.0
 30
0.0
 11
157.5
 21
5.0
 31
0.0
  0
LINE
  5
92
  8
0
  6
CONTINUOUS
 62
     7
 10
105.0
 20
286.9999999999999
 30
0.0
 11
105.0
 21
292.0
 31
0.0
  0
TEXT
  5
93
  8
0
  6
CONTINUOUS
 62
     7
 10
129.1327779167188
 20
291.9924502938602
 30
0.0
 40
3.5
  1
F
 50
270.0
  0
LINE
  5
94
  8
0
  6
CONTINUOUS
 62
     7
 10
105.0
 20
10.0
 30
0.0
 11
105.0
 21
5.0
 31
0.0
  0
TEXT
  5
95
  8
0
  6
CONTINUOUS
 62
     7
 10
130.326867887958
 20
4.600959734900587
 30
0.0
 40
3.5
  1
F
  0
LINE
  5
96
  8
0
  6
CONTINUOUS
 62
     7
 10
52.50000000000004
 20
286.9999999999999
 30
0.0
 11
52.50000000000004
 21
292.0
 31
0.0
  0
TEXT
  5
97
  8
0
  6
CONTINUOUS
 62
     7
 10
76.6327779167188
 20
291.9399305989746
 30
0.0
 40
3.5
  1
G
 50
270.0
  0
LINE
  5
98
  8
0
  6
CONTINUOUS
 62
     7
 10
52.50000000000004
 20
10.0
 30
0.0
 11
52.50000000000004
 21
5.0
 31
0.0
  0
TEXT
  5
99
  8
0
  6
CONTINUOUS
 62
     7
 10
77.8793875828436
 20
4.600959734900587
 30
0.0
 40
3.5
  1
G
  0
TEXT
  5
9A
  8
0
  6
CONTINUOUS
 62
     7
 10
24.13277791671879
 20
291.9749437288983
 30
0.0
 40
3.5
  1
H
 50
270.0
  0
TEXT
  5
9B
  8
0
  6
CONTINUOUS
 62
     7
 10
25.34437445291988
 20
4.600959734900587
 30
0.0
 40
3.5
  1
H
  0
LINE
  5
9C
  8
0
  6
CONTINUOUS
 62
     7
 10
409.9999999999999
 20
74.25
 30
0.0
 11
414.9999999999999
 21
74.25
 31
0.0
  0
TEXT
  5
9D
  8
0
  6
CONTINUOUS
 62
     7
 10
412.9326059772414
 20
35.00777791671877
 30
0.0
 40
3.5
  1
1
  0
LINE
  5
9E
  8
0
  6
CONTINUOUS
 62
     7
 10
10.0
 20
74.25
 30
0.0
 11
5.0
 21
74.25
 31
0.0
  0
TEXT
  5
9F
  8
0
  6
CONTINUOUS
 62
     7
 10
4.600959734900584
 20
38.26171220457671
 30
0.0
 40
3.5
  1
1
 50
270.0
  0
LINE
  5
A0
  8
0
  6
CONTINUOUS
 62
     7
 10
409.9999999999999
 20
148.5
 30
0.0
 11
414.9999999999999
 21
148.5
 31
0.0
  0
TEXT
  5
A1
  8
0
  6
CONTINUOUS
 62
     7
 10
413.163692634738
 20
109.2577779167188
 30
0.0
 40
3.5
  1
2
  0
LINE
  5
A2
  8
0
  6
CONTINUOUS
 62
     7
 10
10.0
 20
148.5
 30
0.0
 11
5.0
 21
148.5
 31
0.0
  0
TEXT
  5
A3
  8
0
  6
CONTINUOUS
 62
     7
 10
4.600959734900599
 20
112.2806255470802
 30
0.0
 40
3.5
  1
2
 50
270.0
  0
LINE
  5
A4
  8
0
  6
CONTINUOUS
 62
     7
 10
409.9999999999999
 20
222.75
 30
0.0
 11
414.9999999999999
 21
222.75
 31
0.0
  0
TEXT
  5
A5
  8
0
  6
CONTINUOUS
 62
     7
 10
413.1811991996998
 20
183.5077779167188
 30
0.0
 40
3.5
  1
3
  0
LINE
  5
A6
  8
0
  6
CONTINUOUS
 62
     7
 10
10.0
 20
222.75
 30
0.0
 11
5.0
 21
222.75
 31
0.0
  0
TEXT
  5
A7
  8
0
  6
CONTINUOUS
 62
     7
 10
4.600959734900584
 20
186.5131189821183
 30
0.0
 40
3.5
  1
3
 50
270.0
  0
TEXT
  5
A8
  8
0
  6
CONTINUOUS
 62
     7
 10
413.2351413029886
 20
257.7590909090909
 30
0.0
 40
3.5
  1
4
  0
TEXT
  5
A9
  8
0
  6
CONTINUOUS
 62
     7
 10
4.60227272727272
 20
260.7091768788295
 30
0.0
 40
3.5
  1
4
 50
270.0
  0
LINE
  5
AA
  8
0
  6
CONTINUOUS
 62
     7
 10
220.0
 20
10.0
 30
0.0
 11
220.0
 21
7.0
 31
0.0
  0
LINE
  5
AB
  8
0
  6
CONTINUOUS
 62
     7
 10
200.0
 20
10.0
 30
0.0
 11
200.0
 21
7.0
 31
0.0
  0
LINE
  5
AC
  8
0
  6
CONTINUOUS
 62
     7
 10
230.0
 20
10.0
 30
0.0
 11
230.0
 21
7.0
 31
0.0
  0
LINE
  5
AD
  8
0
  6
CONTINUOUS
 62
     7
 10
190.0
 20
10.0
 30
0.0
 11
190.0
 21
7.0
 31
0.0
  0
LINE
  5
AE
  8
0
  6
CONTINUOUS
 62
     7
 10
240.0
 20
10.0
 30
0.0
 11
240.0
 21
7.0
 31
0.0
  0
LINE
  5
AF
  8
0
  6
CONTINUOUS
 62
     7
 10
180.0
 20
10.0
 30
0.0
 11
180.0
 21
7.0
 31
0.0
  0
LINE
  5
B0
  8
0
  6
CONTINUOUS
 62
     7
 10
250.0
 20
10.0
 30
0.0
 11
250.0
 21
7.0
 31
0.0
  0
LINE
  5
B1
  8
0
  6
CONTINUOUS
 62
     7
 10
170.0
 20
10.0
 30
0.0
 11
170.0
 21
7.0
 31
0.0
  0
LINE
  5
B2
  8
0
  6
CONTINUOUS
 62
     7
 10
260.0
 20
10.0
 30
0.0
 11
260.0
 21
5.0
 31
0.0
  0
LINE
  5
B3
  8
0
  6
CONTINUOUS
 62
     7
 10
160.0
 20
10.0
 30
0.0
 11
160.0
 21
5.0
 31
0.0
  0
LINE
  5
B4
  8
0
  6
CONTINUOUS
 62
     7
 10
260.0
 20
10.0
 30
0.0
 11
160.0
 21
10.0
 31
0.0
  0
LINE
  5
B5
  8
0
  6
CONTINUOUS
 62
     7
 10
260.0
 20
7.0
 30
0.0
 11
160.0
 21
7.0
 31
0.0
  0
INSERT
  5
B6
  8
0
 62
     7
  2
*U4
 10
0.0
 20
0.0
 30
0.0
  0
INSERT
  5
B7
  8
0
 62
     7
  2
*U5
 10
0.0
 20
0.0
 30
0.0
  0
INSERT
  5
B8
  8
0
 62
     7
  2
*U6
 10
0.0
 20
0.0
 30
0.0
  0
INSERT
  5
B9
  8
0
 62
     7
  2
*U7
 10
0.0
 20
0.0
 30
0.0
  0
ENDBLK
  8
0
  0
BLOCK
  8
0
  2
*U2
 70
     1
 10
0.0
 20
0.0
 30
0.0
  0
SOLID
  5
633
  8
0
  6
CONTINUOUS
 62
     7
 10
11.0
 20
144.5
 30
0.0
 11
6.999999999999999
 21
148.5
 31
0.0
 12
11.0
 22
152.5
 32
0.0
 13
11.0
 23
152.5
 33
0.0
  0
ENDBLK
  8
0
  0
BLOCK
  8
0
  2
*U3
 70
     1
 10
0.0
 20
0.0
 30
0.0
  0
SOLID
  5
639
  8
0
  6
CONTINUOUS
 62
     7
 10
210.0
 20
6.999999999999999
 30
0.0
 11
206.0
 21
11.0
 31
0.0
 12
210.0
 22
11.0
 32
0.0
 13
210.0
 23
11.0
 33
0.0
  0
SOLID
  5
63A
  8
0
  6
CONTINUOUS
 62
     7
 10
210.0
 20
6.999999999999999
 30
0.0
 11
210.0
 21
11.0
 31
0.0
 12
214.0
 22
11.0
 32
0.0
 13
214.0
 23
11.0
 33
0.0
  0
ENDBLK
  8
0
  0
BLOCK
  8
0
  2
*U4
 70
     1
 10
0.0
 20
0.0
 30
0.0
  0
SOLID
  5
63C
  8
0
  6
CONTINUOUS
 62
     7
 10
0.0
 20
0.0
 30
0.0
 11
0.0
 21
10.0
 31
0.0
 12
2.0
 22
0.0
 32
0.0
 13
2.0
 23
0.0
 33
0.0
  0
SOLID
  5
63D
  8
0
  6
CONTINUOUS
 62
     7
 10
2.0
 20
0.0
 30
0.0
 11
0.0
 21
10.0
 31
0.0
 12
2.0
 22
10.0
 32
0.0
 13
2.0
 23
10.0
 33
0.0
  0
SOLID
  5
63E
  8
0
  6
CONTINUOUS
 62
     7
 10
2.0
 20
0.0
 30
0.0
 11
2.0
 21
2.0
 31
0.0
 12
10.0
 22
0.0
 32
0.0
 13
10.0
 23
0.0
 33
0.0
  0
SOLID
  5
63F
  8
0
  6
CONTINUOUS
 62
     7
 10
10.0
 20
0.0
 30
0.0
 11
2.0
 21
2.0
 31
0.0
 12
10.0
 22
2.0
 32
0.0
 13
10.0
 23
2.0
 33
0.0
  0
ENDBLK
  8
0
  0
BLOCK
  8
0
  2
*U5
 70
     1
 10
0.0
 20
0.0
 30
0.0
  0
SOLID
  5
641
  8
0
  6
CONTINUOUS
 62
     7
 10
409.9999999999999
 20
0.0
 30
0.0
 11
409.9999999999999
 21
2.0
 31
0.0
 12
418.0
 22
0.0
 32
0.0
 13
418.0
 23
0.0
 33
0.0
  0
SOLID
  5
642
  8
0
  6
CONTINUOUS
 62
     7
 10
418.0
 20
0.0
 30
0.0
 11
409.9999999999999
 21
2.0
 31
0.0
 12
418.0
 22
2.0
 32
0.0
 13
418.0
 23
2.0
 33
0.0
  0
SOLID
  5
643
  8
0
  6
CONTINUOUS
 62
     7
 10
418.0
 20
0.0
 30
0.0
 11
418.0
 21
10.0
 31
0.0
 12
420.0
 22
0.0
 32
0.0
 13
420.0
 23
0.0
 33
0.0
  0
SOLID
  5
644
  8
0
  6
CONTINUOUS
 62
     7
 10
420.0
 20
0.0
 30
0.0
 11
418.0
 21
10.0
 31
0.0
 12
420.0
 22
10.0
 32
0.0
 13
420.0
 23
10.0
 33
0.0
  0
ENDBLK
  8
0
  0
BLOCK
  8
0
  2
*U6
 70
     1
 10
0.0
 20
0.0
 30
0.0
  0
SOLID
  5
646
  8
0
  6
CONTINUOUS
 62
     7
 10
409.9999999999999
 20
295.0
 30
0.0
 11
409.9999999999999
 21
297.0
 31
0.0
 12
418.0
 22
295.0
 32
0.0
 13
418.0
 23
295.0
 33
0.0
  0
SOLID
  5
647
  8
0
  6
CONTINUOUS
 62
     7
 10
418.0
 20
295.0
 30
0.0
 11
409.9999999999999
 21
297.0
 31
0.0
 12
418.0
 22
297.0
 32
0.0
 13
418.0
 23
297.0
 33
0.0
  0
SOLID
  5
648
  8
0
  6
CONTINUOUS
 62
     7
 10
418.0
 20
286.9999999999999
 30
0.0
 11
418.0
 21
297.0
 31
0.0
 12
420.0
 22
286.9999999999999
 32
0.0
 13
420.0
 23
286.9999999999999
 33
0.0
  0
SOLID
  5
649
  8
0
  6
CONTINUOUS
 62
     7
 10
420.0
 20
286.9999999999999
 30
0.0
 11
418.0
 21
297.0
 31
0.0
 12
420.0
 22
297.0
 32
0.0
 13
420.0
 23
297.0
 33
0.0
  0
ENDBLK
  8
0
  0
BLOCK
  8
0
  2
*U7
 70
     1
 10
0.0
 20
0.0
 30
0.0
  0
SOLID
  5
64B
  8
0
  6
CONTINUOUS
 62
     7
 10
0.0
 20
286.9999999999999
 30
0.0
 11
0.0
 21
297.0
 31
0.0
 12
2.0
 22
286.9999999999999
 32
0.0
 13
2.0
 23
286.9999999999999
 33
0.0
  0
SOLID
  5
64C
  8
0
  6
CONTINUOUS
 62
     7
 10
2.0
 20
286.9999999999999
 30
0.0
 11
0.0
 21
297.0
 31
0.0
 12
2.0
 22
297.0
 32
0.0
 13
2.0
 23
297.0
 33
0.0
  0
SOLID
  5
64D
  8
0
  6
CONTINUOUS
 62
     7
 10
2.0
 20
295.0
 30
0.0
 11
2.0
 21
297.0
 31
0.0
 12
10.0
 22
295.0
 32
0.0
 13
10.0
 23
295.0
 33
0.0
  0
SOLID
  5
64E
  8
0
  6
CONTINUOUS
 62
     7
 10
10.0
 20
295.0
 30
0.0
 11
2.0
 21
297.0
 31
0.0
 12
10.0
 22
297.0
 32
0.0
 13
10.0
 23
297.0
 33
0.0
  0
ENDBLK
  8
0
  0
ENDSEC
  0
SECTION
  2
ENTITIES
  0
INSERT
  5
70
  8
0
 62
     7
  2
D_FRAME_DRAWING_21
 10
0.0
 20
0.0
 30
0.0
  0
LINE
  5
BA
  8
0
  6
CENTER
 62
     1
 10
840.0
 20
254.146904515094
 30
0.0
 11
840.0
 21
340.146904515094
 31
0.0
  0
LINE
  5
BC
  8
0
  6
CENTER
 62
     1
 10
796.9999999999999
 20
292.146904515094
 30
0.0
 11
883.0
 21
292.146904515094
 31
0.0
  0
LINE
  5
BD
  8
0
  6
CENTER
 62
     1
 10
839.9999999999999
 20
30.00000000000001
 30
0.0
 11
839.9999999999999
 21
226.9999999999999
 31
0.0
  0
TEXT
  5
BE
  8
0
  6
CONTINUOUS
 62
     7
 10
940.0436101037889
 20
221.8704764286608
 30
0.0
 40
3.0
  1
RMSL-40
  0
POINT
  5
BF
  8
0
 62
     7
 10
839.9999999999999
 20
183.0
 30
0.0
  0
LINE
  5
C0
  8
0
  6
CONTINUOUS
 62
     7
 10
840.0
 20
324.646904515094
 30
0.0
 11
840.0
 21
328.646904515094
 31
0.0
  0
ARC
  5
C1
  8
0
  6
CONTINUOUS
 62
     7
 10
840.103784824231
 20
289.647058391
 30
0.0
 40
35.00000000000014
 50
86.89433296233179
 51
90.16989831772477
  0
ARC
  5
C2
  8
0
  6
CONTINUOUS
 62
     7
 10
840.103784824231
 20
289.647058391
 30
0.0
 40
34.99999999999992
 50
33.74111933437911
 51
86.89433296233182
  0
LINE
  5
C3
  8
0
  6
CONTINUOUS
 62
     7
 10
872.132701083226
 20
311.0610718769148
 30
0.0
 11
869.2082348125982
 21
309.0875056820125
 31
0.0
  0
ARC
  5
C4
  8
0
  6
CONTINUOUS
 62
     7
 10
840.103784824231
 20
289.647058391
 30
0.0
 40
39.00000000000004
 50
48.62282828458569
 51
87.21312876260889
  0
ARC
  5
C5
  8
0
  6
CONTINUOUS
 62
     7
 10
839.8962151757688
 20
289.647058391
 30
0.0
 40
35.00000000000003
 50
89.83010168227541
 51
93.10566703766824
  0
LINE
  5
C6
  8
0
  6
CONTINUOUS
 62
     7
 10
807.867298916774
 20
311.0610718769148
 30
0.0
 11
810.7917651874019
 21
309.0875056820125
 31
0.0
  0
ARC
  5
C7
  8
0
  6
CONTINUOUS
 62
     7
 10
839.8962151757688
 20
289.647058391
 30
0.0
 40
39.00000000000004
 50
92.78687123739105
 51
131.377171715414
  0
ARC
  5
C8
  8
0
  6
CONTINUOUS
 62
     7
 10
839.8962151757688
 20
289.647058391
 30
0.0
 40
35.00000000000003
 50
93.1056670376682
 51
146.2588806656208
  0
LINE
  5
C9
  8
0
  6
CONTINUOUS
 62
     7
 10
875.9777162264551
 20
263.646904515094
 30
0.0
 11
874.4886165749706
 21
263.646904515094
 31
0.0
  0
LINE
  5
CA
  8
0
  6
CONTINUOUS
 62
     7
 10
804.0222837735449
 20
263.646904515094
 30
0.0
 11
805.5113834250294
 21
263.646904515094
 31
0.0
  0
ARC
  5
CB
  8
0
  6
CONTINUOUS
 62
     7
 10
861.0141335451607
 20
306.828197207479
 30
0.0
 40
11.89944807121879
 50
0.1559276503019192
 51
44.07896266581224
  0
LINE
  5
CC
  8
0
  6
CONTINUOUS
 62
     7
 10
857.0000000000001
 20
328.028566176845
 30
0.0
 11
869.5624800908366
 21
315.106037247892
 31
0.0
  0
LINE
  5
CD
  8
0
  6
CONTINUOUS
 62
     7
 10
840.0
 20
328.646904515094
 30
0.0
 11
847.1928314039778
 21
328.5363244966967
 31
0.0
  0
LINE
  5
CE
  8
0
  6
CONTINUOUS
 62
     7
 10
840.0
 20
328.646904515094
 30
0.0
 11
832.7583021977838
 21
328.5348167196166
 31
0.0
  0
LINE
  5
CF
  8
0
  6
CONTINUOUS
 62
     7
 10
822.9999999999999
 20
328.028566176845
 30
0.0
 11
810.4375199091634
 21
315.106037247892
 31
0.0
  0
ARC
  5
D0
  8
0
  6
CONTINUOUS
 62
     7
 10
818.9858664548393
 20
306.828197207479
 30
0.0
 40
11.8994480712189
 50
135.9210373341878
 51
179.8440723496979
  0
LINE
  5
D1
  8
0
  6
CONTINUOUS
 62
     7
 10
807.0864624490043
 20
306.8605809310808
 30
0.0
 11
806.9811103460436
 21
263.646904515094
 31
0.0
  0
LINE
  5
D2
  8
0
  6
CONTINUOUS
 62
     7
 10
872.9135375509956
 20
306.8605809310808
 30
0.0
 11
873.0188896539563
 21
263.646904515094
 31
0.0
  0
LINE
  5
D3
  8
0
  6
CONTINUOUS
 62
     7
 10
806.9811103460436
 20
263.646904515094
 30
0.0
 11
805.5113834250294
 21
263.646904515094
 31
0.0
  0
LINE
  5
D4
  8
0
  6
CONTINUOUS
 62
     7
 10
873.0188896539563
 20
263.646904515094
 30
0.0
 11
874.4886165749706
 21
263.646904515094
 31
0.0
  0
LINE
  5
D5
  8
0
  6
CONTINUOUS
 62
     7
 10
801.1810037265634
 20
263.646904515094
 30
0.0
 11
801.5562714132194
 21
306.6483221661493
 31
0.0
  0
LINE
  5
D6
  8
0
  6
CONTINUOUS
 62
     7
 10
801.5562714132195
 20
306.6483221661493
 30
0.0
 11
801.5564384605348
 21
306.6661852659257
 31
0.0
  0
LINE
  5
D7
  8
0
  6
CONTINUOUS
 62
     7
 10
801.1810037265634
 20
263.646904515094
 30
0.0
 11
804.0222837735448
 21
263.646904515094
 31
0.0
  0
LINE
  5
D8
  8
0
  6
CONTINUOUS
 62
     7
 10
878.4437285867805
 20
306.6483221661493
 30
0.0
 11
878.4435615394652
 21
306.6661852659257
 31
0.0
  0
LINE
  5
D9
  8
0
  6
CONTINUOUS
 62
     7
 10
878.8189962734365
 20
263.646904515094
 30
0.0
 11
878.4437285867805
 21
306.6483221661493
 31
0.0
  0
LINE
  5
DA
  8
0
  6
CONTINUOUS
 62
     7
 10
878.8189962734365
 20
263.646904515094
 30
0.0
 11
875.9777162264552
 21
263.646904515094
 31
0.0
  0
LINE
  5
DB
  8
0
  6
CONTINUOUS
 62
     7
 10
873.5852108307495
 20
317.2640582838887
 30
0.0
 11
873.5956933036779
 21
317.2548260083569
 31
0.0
  0
ARC
  5
DC
  8
0
  6
CONTINUOUS
 62
     7
 10
864.1432725775952
 20
306.5230746386248
 30
0.0
 40
14.30100503617227
 50
0.5733703181081182
 51
48.62671917207673
  0
ARC
  5
DD
  8
0
  6
CONTINUOUS
 62
     7
 10
815.8567274224047
 20
306.5230746386247
 30
0.0
 40
14.30100503617227
 50
131.3732808279234
 51
179.4266296818917
  0
LINE
  5
DE
  8
0
  6
CONTINUOUS
 62
     7
 10
806.4147891692505
 20
317.2640582838887
 30
0.0
 11
806.4043066963221
 21
317.2548260083569
 31
0.0
  0
LINE
  5
DF
  8
0
  6
CONTINUOUS
 62
     7
 10
854.4156421616029
 20
328.2024358158242
 30
0.0
 11
857.0000000000002
 21
328.0285661768449
 31
0.0
  0
LINE
  5
E0
  8
0
  6
CONTINUOUS
 62
     7
 10
847.1928314039778
 20
328.5363244966967
 30
0.0
 11
854.4156421616028
 21
328.2024358158243
 31
0.0
  0
LINE
  5
E1
  8
0
  6
CONTINUOUS
 62
     7
 10
825.5631934682135
 20
328.2011285134406
 30
0.0
 11
822.9999999999999
 21
328.0285661768449
 31
0.0
  0
LINE
  5
E2
  8
0
  6
CONTINUOUS
 62
     7
 10
832.7583021977838
 20
328.5348167196166
 30
0.0
 11
825.5631934682134
 21
328.2011285134406
 31
0.0
  0
LINE
  5
E3
  8
0
  6
CONTINUOUS
 62
     7
 10
834.3466723861317
 20
331.3794087040043
 30
0.0
 11
831.814565636903
 21
331.3053861383738
 31
0.0
  0
LINE
  5
E4
  8
0
  6
CONTINUOUS
 62
     7
 10
839.9999999999999
 20
331.446904515094
 30
0.0
 11
834.3466723861317
 21
331.3794087040043
 31
0.0
  0
LINE
  5
E5
  8
0
  6
CONTINUOUS
 62
     7
 10
845.6533276138682
 20
331.3794087040043
 30
0.0
 11
848.1037864536445
 21
331.3081958655561
 31
0.0
  0
LINE
  5
E6
  8
0
  6
CONTINUOUS
 62
     7
 10
840.0000000000001
 20
331.446904515094
 30
0.0
 11
845.6533276138682
 21
331.3794087040044
 31
0.0
  0
LINE
  5
E7
  8
0
  6
CONTINUOUS
 62
     7
 10
858.284217619002
 20
330.7399526678527
 30
0.0
 11
858.2844892403423
 21
330.7399316319909
 31
0.0
  0
LINE
  5
E8
  8
0
  6
CONTINUOUS
 62
     7
 10
821.7157823809979
 20
330.7399526678527
 30
0.0
 11
821.7155107596577
 21
330.7399316319909
 31
0.0
  0
LINE
  5
E9
  8
0
  6
CONTINUOUS
 62
     7
 10
806.4147891692505
 20
317.2640582838887
 30
0.0
 11
821.7155107596577
 21
330.7399316319909
 31
0.0
  0
LINE
  5
EA
  8
0
  6
CONTINUOUS
 62
     7
 10
873.5852108307495
 20
317.2640582838887
 30
0.0
 11
858.2844892403423
 21
330.7399316319909
 31
0.0
  0
LINE
  5
EB
  8
0
  6
CONTINUOUS
 62
     7
 10
855.0511553552602
 20
330.9680846946368
 30
0.0
 11
858.284217619002
 21
330.7399526678527
 31
0.0
  0
LINE
  5
EC
  8
0
  6
CONTINUOUS
 62
     7
 10
848.1037864536445
 20
331.3081958655561
 30
0.0
 11
855.0511553552602
 21
330.9680846946368
 31
0.0
  0
LINE
  5
ED
  8
0
  6
CONTINUOUS
 62
     7
 10
824.8745943953002
 20
330.9633439162057
 30
0.0
 11
821.7157823809978
 21
330.7399526678527
 31
0.0
  0
LINE
  5
EE
  8
0
  6
CONTINUOUS
 62
     7
 10
831.8145656369031
 20
331.3053861383738
 30
0.0
 11
824.8745943953003
 21
330.9633439162056
 31
0.0
  0
LINE
  5
EF
  8
0
  6
CONTINUOUS
 62
     7
 10
818.9999999999999
 20
292.146904515094
 30
0.0
 11
818.9999999999999
 21
276.664434407447
 31
0.0
  0
LINE
  5
F0
  8
0
  6
CONTINUOUS
 62
     7
 10
861.0
 20
292.146904515094
 30
0.0
 11
861.0
 21
276.664434407447
 31
0.0
  0
ARC
  5
F1
  8
0
  6
CONTINUOUS
 62
     7
 10
840.0
 20
292.146904515094
 30
0.0
 40
21.00000000000002
 50
0.0000000000000095
 51
180.0
  0
LINE
  5
F2
  8
0
  6
CONTINUOUS
 62
     7
 10
818.9999999999999
 20
276.664434407447
 30
0.0
 11
818.9826985750617
 21
274.6645105613187
 31
0.0
  0
LINE
  5
F3
  8
0
  6
CONTINUOUS
 62
     7
 10
861.0
 20
276.664434407447
 30
0.0
 11
861.0173014249384
 21
274.6645105613187
 31
0.0
  0
ARC
  5
F4
  8
0
  6
CONTINUOUS
 62
     7
 10
840.0
 20
292.146904515094
 30
0.0
 40
23.01749181324231
 50
119.5175724071335
 51
152.0159982758275
  0
ARC
  5
F5
  8
0
  6
CONTINUOUS
 62
     7
 10
840.0
 20
292.146904515094
 30
0.0
 40
23.01749181324231
 50
27.98400172417252
 51
60.48242759286654
  0
LINE
  5
F6
  8
0
  6
CONTINUOUS
 62
     7
 10
818.9737432413061
 20
274.6555552275632
 30
0.0
 11
818.9826985750616
 21
274.6645105613187
 31
0.0
  0
LINE
  5
F7
  8
0
  6
CONTINUOUS
 62
     7
 10
861.0262567586938
 20
274.6555552275632
 30
0.0
 11
861.0173014249384
 21
274.6645105613187
 31
0.0
  0
LINE
  5
F8
  8
0
  6
CONTINUOUS
 62
     7
 10
851.4888010336708
 20
313.1469300077736
 30
0.0
 11
851.6009919232632
 21
313.146904515094
 31
0.0
  0
LINE
  5
F9
  8
0
  6
CONTINUOUS
 62
     7
 10
851.4888010336708
 20
313.1469300077736
 30
0.0
 11
851.4684956317818
 21
313.1465283269799
 31
0.0
  0
LINE
  5
FA
  8
0
  6
CONTINUOUS
 62
     7
 10
851.4684956317818
 20
313.1465283269799
 30
0.0
 11
851.4482108468835
 21
313.1453091517137
 31
0.0
  0
LINE
  5
FB
  8
0
  6
CONTINUOUS
 62
     7
 10
851.4482108468835
 20
313.1453091517137
 30
0.0
 11
851.4279985881207
 21
313.1432788619286
 31
0.0
  0
LINE
  5
FC
  8
0
  6
CONTINUOUS
 62
     7
 10
851.4279985881207
 20
313.1432788619286
 30
0.0
 11
851.4079107646372
 21
313.1404438375782
 31
0.0
  0
LINE
  5
FD
  8
0
  6
CONTINUOUS
 62
     7
 10
851.4079107646372
 20
313.1404438375782
 30
0.0
 11
851.3873986235781
 21
313.1366909332026
 31
0.0
  0
LINE
  5
FE
  8
0
  6
CONTINUOUS
 62
     7
 10
851.3873986235781
 20
313.1366909332026
 30
0.0
 11
851.3670569239757
 21
313.1320998162371
 31
0.0
  0
LINE
  5
FF
  8
0
  6
CONTINUOUS
 62
     7
 10
851.3670569239757
 20
313.1320998162371
 30
0.0
 11
851.3469423799455
 21
313.1266895107653
 31
0.0
  0
LINE
  5
100
  8
0
  6
CONTINUOUS
 62
     7
 10
851.3469423799455
 20
313.1266895107653
 30
0.0
 11
851.3271117056033
 21
313.1204790408705
 31
0.0
  0
LINE
  5
101
  8
0
  6
CONTINUOUS
 62
     7
 10
851.3271117056033
 20
313.1204790408705
 30
0.0
 11
851.3081185462017
 21
313.1136807081742
 31
0.0
  0
LINE
  5
102
  8
0
  6
CONTINUOUS
 62
     7
 10
851.3081185462017
 20
313.1136807081742
 30
0.0
 11
851.289429708568
 21
313.1061506000678
 31
0.0
  0
LINE
  5
103
  8
0
  6
CONTINUOUS
 62
     7
 10
851.289429708568
 20
313.1061506000678
 30
0.0
 11
851.27109481844
 21
313.0979184036265
 31
0.0
  0
LINE
  5
104
  8
0
  6
CONTINUOUS
 62
     7
 10
851.2710948184399
 20
313.0979184036265
 30
0.0
 11
851.2531635015554
 21
313.0890138059256
 31
0.0
  0
LINE
  5
105
  8
0
  6
CONTINUOUS
 62
     7
 10
851.2531635015554
 20
313.0890138059256
 30
0.0
 11
851.2351322188973
 21
313.0791539005975
 31
0.0
  0
LINE
  5
106
  8
0
  6
CONTINUOUS
 62
     7
 10
851.2351322188974
 20
313.0791539005975
 30
0.0
 11
851.2175614661796
 21
313.0686214225919
 31
0.0
  0
LINE
  5
107
  8
0
  6
CONTINUOUS
 62
     7
 10
851.2175614661796
 20
313.0686214225919
 30
0.0
 11
851.200497625544
 21
313.0574610679853
 31
0.0
  0
LINE
  5
108
  8
0
  6
CONTINUOUS
 62
     7
 10
851.200497625544
 20
313.0574610679853
 30
0.0
 11
851.1839870791322
 21
313.0457175328539
 31
0.0
  0
LINE
  5
109
  8
0
  6
CONTINUOUS
 62
     7
 10
851.1839870791322
 20
313.0457175328539
 30
0.0
 11
851.1687676135895
 21
313.0339953482613
 31
0.0
  0
LINE
  5
10A
  8
0
  6
CONTINUOUS
 62
     7
 10
851.1687676135894
 20
313.0339953482613
 30
0.0
 11
851.1540689970134
 21
313.0217904055131
 31
0.0
  0
LINE
  5
10B
  8
0
  6
CONTINUOUS
 62
     7
 10
851.1540689970134
 20
313.0217904055131
 30
0.0
 11
851.1399201615151
 21
313.0091480003201
 31
0.0
  0
LINE
  5
10C
  8
0
  6
CONTINUOUS
 62
     7
 10
851.1399201615151
 20
313.0091480003201
 30
0.0
 11
851.1263500392052
 21
312.9961134283928
 31
0.0
  0
LINE
  5
10D
  8
0
  6
CONTINUOUS
 62
     7
 10
851.1263500392052
 20
312.9961134283928
 30
0.0
 11
851.1130193483431
 21
312.9823426152303
 31
0.0
  0
LINE
  5
10E
  8
0
  6
CONTINUOUS
 62
     7
 10
851.113019348343
 20
312.9823426152303
 30
0.0
 11
851.1003014085949
 21
312.9682119788831
 31
0.0
  0
LINE
  5
10F
  8
0
  6
CONTINUOUS
 62
     7
 10
851.1003014085949
 20
312.9682119788831
 30
0.0
 11
851.0882130579204
 21
312.9537710836575
 31
0.0
  0
LINE
  5
110
  8
0
  6
CONTINUOUS
 62
     7
 10
851.0882130579205
 20
312.9537710836575
 30
0.0
 11
851.0767711342781
 21
312.9390694938596
 31
0.0
  0
LINE
  5
111
  8
0
  6
CONTINUOUS
 62
     7
 10
851.0767711342781
 20
312.9390694938596
 30
0.0
 11
851.0623454376977
 21
312.9188588457404
 31
0.0
  0
LINE
  5
112
  8
0
  6
CONTINUOUS
 62
     7
 10
851.0623454376976
 20
312.9188588457404
 30
0.0
 11
851.0490734416767
 21
312.8982930067479
 31
0.0
  0
LINE
  5
113
  8
0
  6
CONTINUOUS
 62
     7
 10
851.0490734416767
 20
312.8982930067479
 30
0.0
 11
851.0369634856253
 21
312.8774803580666
 31
0.0
  0
LINE
  5
114
  8
0
  6
CONTINUOUS
 62
     7
 10
851.0369634856252
 20
312.8774803580666
 30
0.0
 11
851.025766976354
 21
312.8560203330959
 31
0.0
  0
LINE
  5
115
  8
0
  6
CONTINUOUS
 62
     7
 10
851.0257669763541
 20
312.8560203330959
 30
0.0
 11
851.0157321784264
 21
312.8344327493037
 31
0.0
  0
LINE
  5
116
  8
0
  6
CONTINUOUS
 62
     7
 10
851.0157321784264
 20
312.8344327493037
 30
0.0
 11
851.006842638349
 21
312.8128102090072
 31
0.0
  0
LINE
  5
117
  8
0
  6
CONTINUOUS
 62
     7
 10
851.0068426383489
 20
312.8128102090072
 30
0.0
 11
850.9986470006994
 21
312.7899522109458
 31
0.0
  0
LINE
  5
118
  8
0
  6
CONTINUOUS
 62
     7
 10
850.9986470006994
 20
312.7899522109458
 30
0.0
 11
850.9916460764375
 21
312.7671562299799
 31
0.0
  0
LINE
  5
119
  8
0
  6
CONTINUOUS
 62
     7
 10
850.9916460764375
 20
312.7671562299799
 30
0.0
 11
850.9858021612478
 21
312.7444981959864
 31
0.0
  0
LINE
  5
11A
  8
0
  6
CONTINUOUS
 62
     7
 10
850.9858021612478
 20
312.7444981959864
 30
0.0
 11
850.9810775508148
 21
312.7220540388422
 31
0.0
  0
LINE
  5
11B
  8
0
  6
CONTINUOUS
 62
     7
 10
850.9810775508148
 20
312.7220540388422
 30
0.0
 11
850.9763300639262
 21
312.6916735988954
 31
0.0
  0
LINE
  5
11C
  8
0
  6
CONTINUOUS
 62
     7
 10
850.9763300639263
 20
312.6916735988954
 30
0.0
 11
850.973474152329
 21
312.6618115199832
 31
0.0
  0
LINE
  5
11D
  8
0
  6
CONTINUOUS
 62
     7
 10
850.9734741523289
 20
312.6618115199832
 30
0.0
 11
850.9724012551131
 21
312.6325845652366
 31
0.0
  0
LINE
  5
11E
  8
0
  6
CONTINUOUS
 62
     7
 10
850.9724012551133
 20
312.6325845652366
 30
0.0
 11
850.9730187765489
 21
312.6037211983764
 31
0.0
  0
LINE
  5
11F
  8
0
  6
CONTINUOUS
 62
     7
 10
850.9730187765489
 20
312.6037211983764
 30
0.0
 11
850.975245946967
 21
312.5755800696443
 31
0.0
  0
LINE
  5
120
  8
0
  6
CONTINUOUS
 62
     7
 10
850.975245946967
 20
312.5755800696443
 30
0.0
 11
850.978984419843
 21
312.5482247623275
 31
0.0
  0
LINE
  5
121
  8
0
  6
CONTINUOUS
 62
     7
 10
850.978984419843
 20
312.5482247623275
 30
0.0
 11
850.984135848652
 21
312.5217188597128
 31
0.0
  0
LINE
  5
122
  8
0
  6
CONTINUOUS
 62
     7
 10
850.9841358486522
 20
312.5217188597128
 30
0.0
 11
850.99333942241
 21
312.4867834121811
 31
0.0
  0
LINE
  5
123
  8
0
  6
CONTINUOUS
 62
     7
 10
850.99333942241
 20
312.4867834121811
 30
0.0
 11
851.0048512273747
 21
312.453474254918
 31
0.0
  0
LINE
  5
124
  8
0
  6
CONTINUOUS
 62
     7
 10
851.0048512273747
 20
312.453474254918
 30
0.0
 11
851.0184769026798
 21
312.4218734952896
 31
0.0
  0
LINE
  5
125
  8
0
  6
CONTINUOUS
 62
     7
 10
851.0184769026798
 20
312.4218734952896
 30
0.0
 11
851.0342930821716
 21
312.3915850853106
 31
0.0
  0
LINE
  5
126
  8
0
  6
CONTINUOUS
 62
     7
 10
851.0342930821716
 20
312.3915850853106
 30
0.0
 11
851.0519920986528
 21
312.3630670214769
 31
0.0
  0
LINE
  5
127
  8
0
  6
CONTINUOUS
 62
     7
 10
851.0519920986528
 20
312.3630670214769
 30
0.0
 11
851.0714274866182
 21
312.3363704198287
 31
0.0
  0
LINE
  5
128
  8
0
  6
CONTINUOUS
 62
     7
 10
851.0714274866182
 20
312.3363704198287
 30
0.0
 11
851.0924527805635
 21
312.3115463964063
 31
0.0
  0
LINE
  5
129
  8
0
  6
CONTINUOUS
 62
     7
 10
851.0924527805635
 20
312.3115463964063
 30
0.0
 11
851.1156852746767
 21
312.2879229581243
 31
0.0
  0
LINE
  5
12A
  8
0
  6
CONTINUOUS
 62
     7
 10
851.1156852746768
 20
312.2879229581243
 30
0.0
 11
851.140421490842
 21
312.2662978579625
 31
0.0
  0
LINE
  5
12B
  8
0
  6
CONTINUOUS
 62
     7
 10
851.140421490842
 20
312.2662978579625
 30
0.0
 11
851.1665422749164
 21
312.2467246981464
 31
0.0
  0
LINE
  5
12C
  8
0
  6
CONTINUOUS
 62
     7
 10
851.1665422749164
 20
312.2467246981464
 30
0.0
 11
851.1939284727574
 21
312.2292570809019
 31
0.0
  0
LINE
  5
12D
  8
0
  6
CONTINUOUS
 62
     7
 10
851.1939284727574
 20
312.2292570809019
 30
0.0
 11
851.1969123603235
 21
312.2275244172902
 31
0.0
  0
LINE
  5
12E
  8
0
  6
CONTINUOUS
 62
     7
 10
828.511198966329
 20
313.1469300077736
 30
0.0
 11
828.531504368218
 21
313.1465283269799
 31
0.0
  0
LINE
  5
12F
  8
0
  6
CONTINUOUS
 62
     7
 10
828.5315043682181
 20
313.1465283269799
 30
0.0
 11
828.5517891531164
 21
313.1453091517137
 31
0.0
  0
LINE
  5
130
  8
0
  6
CONTINUOUS
 62
     7
 10
828.5517891531164
 20
313.1453091517137
 30
0.0
 11
828.5720014118792
 21
313.1432788619286
 31
0.0
  0
LINE
  5
131
  8
0
  6
CONTINUOUS
 62
     7
 10
828.5720014118792
 20
313.1432788619286
 30
0.0
 11
828.5920892353627
 21
313.1404438375782
 31
0.0
  0
LINE
  5
132
  8
0
  6
CONTINUOUS
 62
     7
 10
828.5920892353627
 20
313.1404438375782
 30
0.0
 11
828.6126013764219
 21
313.1366909332026
 31
0.0
  0
LINE
  5
133
  8
0
  6
CONTINUOUS
 62
     7
 10
828.6126013764219
 20
313.1366909332026
 30
0.0
 11
828.6329430760242
 21
313.1320998162371
 31
0.0
  0
LINE
  5
134
  8
0
  6
CONTINUOUS
 62
     7
 10
828.6329430760242
 20
313.1320998162371
 30
0.0
 11
828.6530576200543
 21
313.1266895107653
 31
0.0
  0
LINE
  5
135
  8
0
  6
CONTINUOUS
 62
     7
 10
828.6530576200544
 20
313.1266895107653
 30
0.0
 11
828.6728882943966
 21
313.1204790408705
 31
0.0
  0
LINE
  5
136
  8
0
  6
CONTINUOUS
 62
     7
 10
828.6728882943966
 20
313.1204790408705
 30
0.0
 11
828.6918814537981
 21
313.1136807081742
 31
0.0
  0
LINE
  5
137
  8
0
  6
CONTINUOUS
 62
     7
 10
828.691881453798
 20
313.1136807081742
 30
0.0
 11
828.7105702914318
 21
313.1061506000678
 31
0.0
  0
LINE
  5
138
  8
0
  6
CONTINUOUS
 62
     7
 10
828.710570291432
 20
313.1061506000678
 30
0.0
 11
828.7289051815601
 21
313.0979184036265
 31
0.0
  0
LINE
  5
139
  8
0
  6
CONTINUOUS
 62
     7
 10
828.7289051815601
 20
313.0979184036265
 30
0.0
 11
828.7468364984445
 21
313.0890138059256
 31
0.0
  0
LINE
  5
13A
  8
0
  6
CONTINUOUS
 62
     7
 10
828.7468364984445
 20
313.0890138059256
 30
0.0
 11
828.7648677811025
 21
313.0791539005975
 31
0.0
  0
LINE
  5
13B
  8
0
  6
CONTINUOUS
 62
     7
 10
828.7648677811025
 20
313.0791539005975
 30
0.0
 11
828.7824385338203
 21
313.0686214225919
 31
0.0
  0
LINE
  5
13C
  8
0
  6
CONTINUOUS
 62
     7
 10
828.7824385338203
 20
313.0686214225919
 30
0.0
 11
828.799502374456
 21
313.0574610679853
 31
0.0
  0
LINE
  5
13D
  8
0
  6
CONTINUOUS
 62
     7
 10
828.799502374456
 20
313.0574610679853
 30
0.0
 11
828.8160129208678
 21
313.0457175328539
 31
0.0
  0
LINE
  5
13E
  8
0
  6
CONTINUOUS
 62
     7
 10
828.8160129208678
 20
313.0457175328539
 30
0.0
 11
828.8312323864106
 21
313.0339953482613
 31
0.0
  0
LINE
  5
13F
  8
0
  6
CONTINUOUS
 62
     7
 10
828.8312323864106
 20
313.0339953482613
 30
0.0
 11
828.8459310029866
 21
313.0217904055131
 31
0.0
  0
LINE
  5
140
  8
0
  6
CONTINUOUS
 62
     7
 10
828.8459310029865
 20
313.0217904055131
 30
0.0
 11
828.8600798384848
 21
313.0091480003201
 31
0.0
  0
LINE
  5
141
  8
0
  6
CONTINUOUS
 62
     7
 10
828.8600798384848
 20
313.0091480003201
 30
0.0
 11
828.8736499607948
 21
312.9961134283928
 31
0.0
  0
LINE
  5
142
  8
0
  6
CONTINUOUS
 62
     7
 10
828.8736499607948
 20
312.9961134283928
 30
0.0
 11
828.886980651657
 21
312.9823426152303
 31
0.0
  0
LINE
  5
143
  8
0
  6
CONTINUOUS
 62
     7
 10
828.886980651657
 20
312.9823426152303
 30
0.0
 11
828.899698591405
 21
312.9682119788831
 31
0.0
  0
LINE
  5
144
  8
0
  6
CONTINUOUS
 62
     7
 10
828.8996985914049
 20
312.9682119788831
 30
0.0
 11
828.9117869420794
 21
312.9537710836575
 31
0.0
  0
LINE
  5
145
  8
0
  6
CONTINUOUS
 62
     7
 10
828.9117869420794
 20
312.9537710836575
 30
0.0
 11
828.9232288657217
 21
312.9390694938596
 31
0.0
  0
LINE
  5
146
  8
0
  6
CONTINUOUS
 62
     7
 10
828.9232288657217
 20
312.9390694938596
 30
0.0
 11
828.9376545623023
 21
312.9188588457404
 31
0.0
  0
LINE
  5
147
  8
0
  6
CONTINUOUS
 62
     7
 10
828.9376545623023
 20
312.9188588457404
 30
0.0
 11
828.9509265583232
 21
312.8982930067479
 31
0.0
  0
LINE
  5
148
  8
0
  6
CONTINUOUS
 62
     7
 10
828.9509265583232
 20
312.8982930067479
 30
0.0
 11
828.9630365143746
 21
312.8774803580666
 31
0.0
  0
LINE
  5
149
  8
0
  6
CONTINUOUS
 62
     7
 10
828.9630365143745
 20
312.8774803580666
 30
0.0
 11
828.9742330236458
 21
312.8560203330959
 31
0.0
  0
LINE
  5
14A
  8
0
  6
CONTINUOUS
 62
     7
 10
828.9742330236458
 20
312.8560203330959
 30
0.0
 11
828.9842678215736
 21
312.8344327493037
 31
0.0
  0
LINE
  5
14B
  8
0
  6
CONTINUOUS
 62
     7
 10
828.9842678215736
 20
312.8344327493037
 30
0.0
 11
828.993157361651
 21
312.8128102090072
 31
0.0
  0
LINE
  5
14C
  8
0
  6
CONTINUOUS
 62
     7
 10
828.9931573616511
 20
312.8128102090072
 30
0.0
 11
829.0013529993006
 21
312.7899522109458
 31
0.0
  0
LINE
  5
14D
  8
0
  6
CONTINUOUS
 62
     7
 10
829.0013529993006
 20
312.7899522109458
 30
0.0
 11
829.0083539235624
 21
312.7671562299799
 31
0.0
  0
LINE
  5
14E
  8
0
  6
CONTINUOUS
 62
     7
 10
829.0083539235624
 20
312.7671562299799
 30
0.0
 11
829.0141978387521
 21
312.7444981959864
 31
0.0
  0
LINE
  5
14F
  8
0
  6
CONTINUOUS
 62
     7
 10
829.0141978387521
 20
312.7444981959864
 30
0.0
 11
829.0189224491851
 21
312.7220540388422
 31
0.0
  0
LINE
  5
150
  8
0
  6
CONTINUOUS
 62
     7
 10
829.0189224491851
 20
312.7220540388422
 30
0.0
 11
829.0236699360736
 21
312.6916735988954
 31
0.0
  0
LINE
  5
151
  8
0
  6
CONTINUOUS
 62
     7
 10
829.0236699360736
 20
312.6916735988954
 30
0.0
 11
829.0265258476709
 21
312.6618115199832
 31
0.0
  0
LINE
  5
152
  8
0
  6
CONTINUOUS
 62
     7
 10
829.0265258476709
 20
312.6618115199832
 30
0.0
 11
829.0275987448867
 21
312.6325845652366
 31
0.0
  0
LINE
  5
153
  8
0
  6
CONTINUOUS
 62
     7
 10
829.0275987448867
 20
312.6325845652366
 30
0.0
 11
829.0269812234511
 21
312.6037211983764
 31
0.0
  0
LINE
  5
154
  8
0
  6
CONTINUOUS
 62
     7
 10
829.0269812234511
 20
312.6037211983764
 30
0.0
 11
829.0247540530328
 21
312.5755800696443
 31
0.0
  0
LINE
  5
155
  8
0
  6
CONTINUOUS
 62
     7
 10
829.0247540530328
 20
312.5755800696443
 30
0.0
 11
829.0210155801568
 21
312.5482247623275
 31
0.0
  0
LINE
  5
156
  8
0
  6
CONTINUOUS
 62
     7
 10
829.0210155801569
 20
312.5482247623275
 30
0.0
 11
829.0158641513478
 21
312.5217188597128
 31
0.0
  0
LINE
  5
157
  8
0
  6
CONTINUOUS
 62
     7
 10
829.0158641513477
 20
312.5217188597128
 30
0.0
 11
829.0066605775897
 21
312.4867834121811
 31
0.0
  0
LINE
  5
158
  8
0
  6
CONTINUOUS
 62
     7
 10
829.0066605775897
 20
312.4867834121811
 30
0.0
 11
828.995148772625
 21
312.453474254918
 31
0.0
  0
LINE
  5
159
  8
0
  6
CONTINUOUS
 62
     7
 10
828.995148772625
 20
312.453474254918
 30
0.0
 11
828.9815230973201
 21
312.4218734952896
 31
0.0
  0
LINE
  5
15A
  8
0
  6
CONTINUOUS
 62
     7
 10
828.9815230973201
 20
312.4218734952896
 30
0.0
 11
828.9657069178281
 21
312.3915850853106
 31
0.0
  0
LINE
  5
15B
  8
0
  6
CONTINUOUS
 62
     7
 10
828.9657069178282
 20
312.3915850853106
 30
0.0
 11
828.9480079013472
 21
312.3630670214769
 31
0.0
  0
LINE
  5
15C
  8
0
  6
CONTINUOUS
 62
     7
 10
828.9480079013472
 20
312.3630670214769
 30
0.0
 11
828.9285725133817
 21
312.3363704198287
 31
0.0
  0
LINE
  5
15D
  8
0
  6
CONTINUOUS
 62
     7
 10
828.9285725133816
 20
312.3363704198287
 30
0.0
 11
828.9075472194364
 21
312.3115463964063
 31
0.0
  0
LINE
  5
15E
  8
0
  6
CONTINUOUS
 62
     7
 10
828.9075472194364
 20
312.3115463964063
 30
0.0
 11
828.8843147253231
 21
312.2879229581243
 31
0.0
  0
LINE
  5
15F
  8
0
  6
CONTINUOUS
 62
     7
 10
828.8843147253231
 20
312.2879229581243
 30
0.0
 11
828.8595785091579
 21
312.2662978579625
 31
0.0
  0
LINE
  5
160
  8
0
  6
CONTINUOUS
 62
     7
 10
828.8595785091579
 20
312.2662978579625
 30
0.0
 11
828.8334577250836
 21
312.2467246981464
 31
0.0
  0
LINE
  5
161
  8
0
  6
CONTINUOUS
 62
     7
 10
828.8334577250836
 20
312.2467246981464
 30
0.0
 11
828.8060715272425
 21
312.2292570809019
 31
0.0
  0
LINE
  5
162
  8
0
  6
CONTINUOUS
 62
     7
 10
828.8060715272425
 20
312.2292570809019
 30
0.0
 11
828.8030876396765
 21
312.2275244172902
 31
0.0
  0
LINE
  5
163
  8
0
  6
CONTINUOUS
 62
     7
 10
828.511198966329
 20
313.1469300077736
 30
0.0
 11
828.3990080767367
 21
313.146904515094
 31
0.0
  0
LINE
  5
164
  8
0
  6
CONTINUOUS
 62
     7
 10
861.0262567586938
 20
274.6555552275632
 30
0.0
 11
861.0349074711629
 21
273.655593304499
 31
0.0
  0
LINE
  5
165
  8
0
  6
CONTINUOUS
 62
     7
 10
860.3239344729832
 20
302.8958500261256
 30
0.0
 11
860.3256573340111
 21
302.8927184075762
 31
0.0
  0
LINE
  5
166
  8
0
  6
CONTINUOUS
 62
     7
 10
860.3256573340111
 20
302.8927184075762
 30
0.0
 11
860.3379295138009
 21
302.8718657513501
 31
0.0
  0
LINE
  5
167
  8
0
  6
CONTINUOUS
 62
     7
 10
860.3379295138009
 20
302.8718657513501
 30
0.0
 11
860.3512754882341
 21
302.8516030059663
 31
0.0
  0
LINE
  5
168
  8
0
  6
CONTINUOUS
 62
     7
 10
860.3512754882341
 20
302.8516030059663
 30
0.0
 11
860.3768198877414
 21
302.8181003987015
 31
0.0
  0
LINE
  5
169
  8
0
  6
CONTINUOUS
 62
     7
 10
860.3768198877415
 20
302.8181003987015
 30
0.0
 11
860.4054667473728
 21
302.7866709522617
 31
0.0
  0
LINE
  5
16A
  8
0
  6
CONTINUOUS
 62
     7
 10
860.4054667473727
 20
302.7866709522617
 30
0.0
 11
860.4371318222923
 21
302.7575552541846
 31
0.0
  0
LINE
  5
16B
  8
0
  6
CONTINUOUS
 62
     7
 10
860.4371318222923
 20
302.7575552541846
 30
0.0
 11
860.4635539655509
 21
302.7368393400572
 31
0.0
  0
LINE
  5
16C
  8
0
  6
CONTINUOUS
 62
     7
 10
860.4635539655509
 20
302.7368393400572
 30
0.0
 11
860.491764309043
 21
302.7177111736945
 31
0.0
  0
LINE
  5
16D
  8
0
  6
CONTINUOUS
 62
     7
 10
860.491764309043
 20
302.7177111736945
 30
0.0
 11
860.5217178487708
 21
302.7003243479861
 31
0.0
  0
LINE
  5
16E
  8
0
  6
CONTINUOUS
 62
     7
 10
860.5217178487708
 20
302.7003243479861
 30
0.0
 11
860.5533695807359
 21
302.6848324558214
 31
0.0
  0
LINE
  5
16F
  8
0
  6
CONTINUOUS
 62
     7
 10
860.5533695807359
 20
302.6848324558214
 30
0.0
 11
860.5847789174148
 21
302.6720850648975
 31
0.0
  0
LINE
  5
170
  8
0
  6
CONTINUOUS
 62
     7
 10
860.5847789174148
 20
302.6720850648975
 30
0.0
 11
860.6176973864183
 21
302.6612950926547
 31
0.0
  0
LINE
  5
171
  8
0
  6
CONTINUOUS
 62
     7
 10
860.6176973864183
 20
302.6612950926547
 30
0.0
 11
860.6520532141036
 21
302.6526439001499
 31
0.0
  0
LINE
  5
172
  8
0
  6
CONTINUOUS
 62
     7
 10
860.6520532141035
 20
302.6526439001499
 30
0.0
 11
860.6794394708687
 21
302.6475565954123
 31
0.0
  0
LINE
  5
173
  8
0
  6
CONTINUOUS
 62
     7
 10
860.6794394708688
 20
302.6475565954123
 30
0.0
 11
860.7076622794798
 21
302.6439305396278
 31
0.0
  0
LINE
  5
174
  8
0
  6
CONTINUOUS
 62
     7
 10
860.7076622794798
 20
302.6439305396278
 30
0.0
 11
860.736652161617
 21
302.6418736114837
 31
0.0
  0
LINE
  5
175
  8
0
  6
CONTINUOUS
 62
     7
 10
860.7366521616169
 20
302.6418736114837
 30
0.0
 11
860.7663396389692
 21
302.6414936896674
 31
0.0
  0
LINE
  5
176
  8
0
  6
CONTINUOUS
 62
     7
 10
861.5715788389172
 20
302.646904515094
 30
0.0
 11
860.7663396389692
 21
302.6414936896674
 31
0.0
  0
LINE
  5
177
  8
0
  6
CONTINUOUS
 62
     7
 10
818.9737432413061
 20
274.6555552275632
 30
0.0
 11
818.965092528837
 21
273.655593304499
 31
0.0
  0
LINE
  5
178
  8
0
  6
CONTINUOUS
 62
     7
 10
819.6760655270167
 20
302.8958500261256
 30
0.0
 11
819.6743426659889
 21
302.8927184075762
 31
0.0
  0
LINE
  5
179
  8
0
  6
CONTINUOUS
 62
     7
 10
819.6743426659889
 20
302.8927184075762
 30
0.0
 11
819.662070486199
 21
302.8718657513501
 31
0.0
  0
LINE
  5
17A
  8
0
  6
CONTINUOUS
 62
     7
 10
819.662070486199
 20
302.8718657513501
 30
0.0
 11
819.6487245117656
 21
302.8516030059663
 31
0.0
  0
LINE
  5
17B
  8
0
  6
CONTINUOUS
 62
     7
 10
819.6487245117656
 20
302.8516030059663
 30
0.0
 11
819.6231801122584
 21
302.8181003987015
 31
0.0
  0
LINE
  5
17C
  8
0
  6
CONTINUOUS
 62
     7
 10
819.6231801122584
 20
302.8181003987015
 30
0.0
 11
819.5945332526272
 21
302.7866709522617
 31
0.0
  0
LINE
  5
17D
  8
0
  6
CONTINUOUS
 62
     7
 10
819.5945332526273
 20
302.7866709522617
 30
0.0
 11
819.5628681777077
 21
302.7575552541846
 31
0.0
  0
LINE
  5
17E
  8
0
  6
CONTINUOUS
 62
     7
 10
819.5628681777076
 20
302.7575552541846
 30
0.0
 11
819.536446034449
 21
302.7368393400572
 31
0.0
  0
LINE
  5
17F
  8
0
  6
CONTINUOUS
 62
     7
 10
819.5364460344491
 20
302.7368393400572
 30
0.0
 11
819.5082356909568
 21
302.7177111736945
 31
0.0
  0
LINE
  5
180
  8
0
  6
CONTINUOUS
 62
     7
 10
819.5082356909568
 20
302.7177111736945
 30
0.0
 11
819.4782821512292
 21
302.7003243479861
 31
0.0
  0
LINE
  5
181
  8
0
  6
CONTINUOUS
 62
     7
 10
819.4782821512292
 20
302.7003243479861
 30
0.0
 11
819.4466304192641
 21
302.6848324558214
 31
0.0
  0
LINE
  5
182
  8
0
  6
CONTINUOUS
 62
     7
 10
819.4466304192641
 20
302.6848324558214
 30
0.0
 11
819.4152210825852
 21
302.6720850648975
 31
0.0
  0
LINE
  5
183
  8
0
  6
CONTINUOUS
 62
     7
 10
819.4152210825852
 20
302.6720850648975
 30
0.0
 11
819.3823026135816
 21
302.6612950926547
 31
0.0
  0
LINE
  5
184
  8
0
  6
CONTINUOUS
 62
     7
 10
819.3823026135817
 20
302.6612950926547
 30
0.0
 11
819.3479467858963
 21
302.6526439001499
 31
0.0
  0
LINE
  5
185
  8
0
  6
CONTINUOUS
 62
     7
 10
819.3479467858963
 20
302.6526439001499
 30
0.0
 11
819.320560529131
 21
302.6475565954123
 31
0.0
  0
LINE
  5
186
  8
0
  6
CONTINUOUS
 62
     7
 10
819.320560529131
 20
302.6475565954123
 30
0.0
 11
819.2923377205201
 21
302.6439305396278
 31
0.0
  0
LINE
  5
187
  8
0
  6
CONTINUOUS
 62
     7
 10
819.2923377205201
 20
302.6439305396278
 30
0.0
 11
819.2633478383829
 21
302.6418736114837
 31
0.0
  0
LINE
  5
188
  8
0
  6
CONTINUOUS
 62
     7
 10
819.2633478383829
 20
302.6418736114837
 30
0.0
 11
819.2336603610307
 21
302.6414936896674
 31
0.0
  0
LINE
  5
189
  8
0
  6
CONTINUOUS
 62
     7
 10
818.4284211610828
 20
302.646904515094
 30
0.0
 11
819.2336603610308
 21
302.6414936896674
 31
0.0
  0
LINE
  5
18A
  8
0
  6
CONTINUOUS
 62
     7
 10
815.3422266296395
 20
302.646904515094
 30
0.0
 11
818.4284211610828
 21
302.646904515094
 31
0.0
  0
LINE
  5
18B
  8
0
  6
CONTINUOUS
 62
     7
 10
864.6577733703604
 20
302.646904515094
 30
0.0
 11
861.5715788389172
 21
302.646904515094
 31
0.0
  0
LINE
  5
18C
  8
0
  6
CONTINUOUS
 62
     7
 10
818.9645713553837
 20
270.3229233256778
 30
0.0
 11
818.965092528837
 21
270.6684862559741
 31
0.0
  0
LINE
  5
18D
  8
0
  6
CONTINUOUS
 62
     7
 10
861.0354286446162
 20
270.3229233256778
 30
0.0
 11
861.0349074711629
 21
270.6684862559741
 31
0.0
  0
LINE
  5
18E
  8
0
  6
CONTINUOUS
 62
     7
 10
828.3990080767367
 20
313.146904515094
 30
0.0
 11
813.9586510622307
 21
313.146904515094
 31
0.0
  0
LINE
  5
18F
  8
0
  6
CONTINUOUS
 62
     7
 10
851.6009919232632
 20
313.146904515094
 30
0.0
 11
866.041348937769
 21
313.146904515094
 31
0.0
  0
LINE
  5
190
  8
0
  6
CONTINUOUS
 62
     7
 10
815.3422266296395
 20
302.646904515094
 30
0.0
 11
814.9639734857227
 21
302.8198733736794
 31
0.0
  0
LINE
  5
191
  8
0
  6
CONTINUOUS
 62
     7
 10
814.9437743768617
 20
305.146904515094
 30
0.0
 11
814.9451834639757
 21
305.146904515094
 31
0.0
  0
LINE
  5
192
  8
0
  6
CONTINUOUS
 62
     7
 10
865.0562256231382
 20
305.146904515094
 30
0.0
 11
865.0548165360242
 21
305.146904515094
 31
0.0
  0
LINE
  5
193
  8
0
  6
CONTINUOUS
 62
     7
 10
867.4999999999999
 20
311.4288717692053
 30
0.0
 11
867.4999999999999
 21
306.646904515094
 31
0.0
  0
LINE
  5
194
  8
0
  6
CONTINUOUS
 62
     7
 10
864.6577733703604
 20
302.646904515094
 30
0.0
 11
865.0360265142771
 21
302.8198733736794
 31
0.0
  0
LINE
  5
195
  8
0
  6
CONTINUOUS
 62
     7
 10
812.4999999999999
 20
311.4288717692053
 30
0.0
 11
812.4999999999999
 21
306.646904515094
 31
0.0
  0
LINE
  5
196
  8
0
  6
CONTINUOUS
 62
     7
 10
818.965092528837
 20
273.655593304499
 30
0.0
 11
818.965092528837
 21
270.6684862559741
 31
0.0
  0
LINE
  5
197
  8
0
  6
CONTINUOUS
 62
     7
 10
861.0349074711629
 20
273.655593304499
 30
0.0
 11
861.0349074711629
 21
270.6684862559741
 31
0.0
  0
LINE
  5
198
  8
0
  6
CONTINUOUS
 62
     7
 10
864.077892683493
 20
315.146904515094
 30
0.0
 11
856.4999999999998
 21
315.146904515094
 31
0.0
  0
LINE
  5
199
  8
0
  6
CONTINUOUS
 62
     7
 10
869.4999999999999
 20
306.646904515094
 30
0.0
 11
869.4999999999999
 21
309.284402434247
 31
0.0
  0
LINE
  5
19A
  8
0
  6
CONTINUOUS
 62
     7
 10
815.9221073165069
 20
315.146904515094
 30
0.0
 11
823.4999999999999
 21
315.146904515094
 31
0.0
  0
LINE
  5
19B
  8
0
  6
CONTINUOUS
 62
     7
 10
810.4999999999999
 20
306.646904515094
 30
0.0
 11
810.4999999999999
 21
309.284402434247
 31
0.0
  0
ARC
  5
19C
  8
0
  6
CONTINUOUS
 62
     7
 10
840.0
 20
293.146904515094
 30
0.0
 40
27.49999999999997
 50
53.13010235415595
 51
126.869897645844
  0
LINE
  5
19D
  8
0
  6
CONTINUOUS
 62
     7
 10
827.9999999999999
 20
263.646904515094
 30
0.0
 11
824.9999999999998
 21
263.646904515094
 31
0.0
  0
LINE
  5
19E
  8
0
  6
CONTINUOUS
 62
     7
 10
824.9999999999999
 20
265.646904515094
 30
0.0
 11
827.9999999999999
 21
265.646904515094
 31
0.0
  0
LINE
  5
19F
  8
0
  6
CONTINUOUS
 62
     7
 10
828.9999999999999
 20
265.646904515094
 30
0.0
 11
827.9999999999999
 21
265.646904515094
 31
0.0
  0
LINE
  5
1A0
  8
0
  6
CONTINUOUS
 62
     7
 10
827.9999999999999
 20
263.646904515094
 30
0.0
 11
828.9999999999998
 21
263.646904515094
 31
0.0
  0
LINE
  5
1A1
  8
0
  6
CONTINUOUS
 62
     7
 10
851.0
 20
265.646904515094
 30
0.0
 11
852.0
 21
265.646904515094
 31
0.0
  0
LINE
  5
1A2
  8
0
  6
CONTINUOUS
 62
     7
 10
852.0
 20
263.646904515094
 30
0.0
 11
851.0
 21
263.646904515094
 31
0.0
  0
LINE
  5
1A3
  8
0
  6
CONTINUOUS
 62
     7
 10
823.9999999999998
 20
263.646904515094
 30
0.0
 11
824.9999999999998
 21
263.646904515094
 31
0.0
  0
LINE
  5
1A4
  8
0
  6
CONTINUOUS
 62
     7
 10
824.9999999999999
 20
265.646904515094
 30
0.0
 11
823.9999999999999
 21
265.646904515094
 31
0.0
  0
LINE
  5
1A5
  8
0
  6
CONTINUOUS
 62
     7
 10
856.0
 20
263.646904515094
 30
0.0
 11
855.0
 21
263.646904515094
 31
0.0
  0
LINE
  5
1A6
  8
0
  6
CONTINUOUS
 62
     7
 10
855.0
 20
265.646904515094
 30
0.0
 11
856.0
 21
265.646904515094
 31
0.0
  0
LINE
  5
1A7
  8
0
  6
CONTINUOUS
 62
     7
 10
852.0
 20
263.646904515094
 30
0.0
 11
855.0
 21
263.646904515094
 31
0.0
  0
LINE
  5
1A8
  8
0
  6
CONTINUOUS
 62
     7
 10
855.0
 20
265.646904515094
 30
0.0
 11
852.0
 21
265.646904515094
 31
0.0
  0
LINE
  5
1A9
  8
0
  6
CONTINUOUS
 62
     7
 10
851.0349048128744
 20
267.6465999054068
 30
0.0
 11
855.9650951871254
 21
267.6465999054068
 31
0.0
  0
LINE
  5
1AA
  8
0
  6
CONTINUOUS
 62
     7
 10
851.0174537355814
 20
265.646904515094
 30
0.0
 11
851.0349048128744
 21
267.6465999054068
 31
0.0
  0
LINE
  5
1AB
  8
0
  6
CONTINUOUS
 62
     7
 10
855.9650951871254
 20
267.6465999054068
 30
0.0
 11
855.9825462644184
 21
265.646904515094
 31
0.0
  0
LINE
  5
1AC
  8
0
  6
CONTINUOUS
 62
     7
 10
828.9650951871255
 20
267.6465999054068
 30
0.0
 11
824.0349048128745
 21
267.6465999054068
 31
0.0
  0
LINE
  5
1AD
  8
0
  6
CONTINUOUS
 62
     7
 10
828.9825462644185
 20
265.646904515094
 30
0.0
 11
828.9650951871255
 21
267.6465999054068
 31
0.0
  0
LINE
  5
1AE
  8
0
  6
CONTINUOUS
 62
     7
 10
824.0349048128745
 20
267.6465999054068
 30
0.0
 11
824.0174537355815
 21
265.646904515094
 31
0.0
  0
LINE
  5
1AF
  8
0
  6
CONTINUOUS
 62
     7
 10
862.0
 20
263.646904515094
 30
0.0
 11
861.9737432413061
 21
266.6556310505924
 31
0.0
  0
ARC
  5
1B0
  8
0
  6
CONTINUOUS
 62
     7
 10
860.973781318242
 20
266.646904515094
 30
0.0
 40
1.000000000000001
 50
0.5000000000001136
 51
90.0
  0
LINE
  5
1B1
  8
0
  6
CONTINUOUS
 62
     7
 10
859.026218681758
 20
267.646904515094
 30
0.0
 11
860.973781318242
 21
267.646904515094
 31
0.0
  0
ARC
  5
1B2
  8
0
  6
CONTINUOUS
 62
     7
 10
859.026218681758
 20
266.646904515094
 30
0.0
 40
1.000000000000001
 50
90.0
 51
179.4999999999999
  0
LINE
  5
1B3
  8
0
  6
CONTINUOUS
 62
     7
 10
858.0
 20
263.646904515094
 30
0.0
 11
858.0262567586938
 21
266.6556310505924
 31
0.0
  0
LINE
  5
1B4
  8
0
  6
CONTINUOUS
 62
     7
 10
821.9999999999998
 20
263.646904515094
 30
0.0
 11
821.9737432413061
 21
266.6556310505924
 31
0.0
  0
ARC
  5
1B5
  8
0
  6
CONTINUOUS
 62
     7
 10
820.9737813182418
 20
266.646904515094
 30
0.0
 40
1.000000000000112
 50
0.499999999999884
 51
90.0
  0
LINE
  5
1B6
  8
0
  6
CONTINUOUS
 62
     7
 10
820.9737813182418
 20
267.646904515094
 30
0.0
 11
819.0262186817579
 21
267.646904515094
 31
0.0
  0
ARC
  5
1B7
  8
0
  6
CONTINUOUS
 62
     7
 10
819.0262186817579
 20
266.646904515094
 30
0.0
 40
1.000000000000001
 50
90.0
 51
179.5000000000001
  0
LINE
  5
1B8
  8
0
  6
CONTINUOUS
 62
     7
 10
817.9999999999998
 20
263.646904515094
 30
0.0
 11
818.0262567586936
 21
266.6556310505924
 31
0.0
  0
LINE
  5
1B9
  8
0
  6
CONTINUOUS
 62
     7
 10
817.9999999999998
 20
263.646904515094
 30
0.0
 11
806.9811403460434
 21
263.646904515094
 31
0.0
  0
LINE
  5
1BA
  8
0
  6
CONTINUOUS
 62
     7
 10
807.0859415199457
 20
306.646904515094
 30
0.0
 11
813.9393728645805
 21
306.646904515094
 31
0.0
  0
ARC
  5
1BB
  8
0
  6
CONTINUOUS
 62
     7
 10
813.9393728645807
 20
305.646904515094
 30
0.0
 40
1.000000000000001
 50
0.4999999999997159
 51
89.99999999999982
  0
LINE
  5
1BC
  8
0
  6
CONTINUOUS
 62
     7
 10
814.9393347876447
 20
305.6556310505923
 30
0.0
 11
815.1052214309908
 21
286.646904515094
 31
0.0
  0
ARC
  5
1BD
  8
0
  6
CONTINUOUS
 62
     7
 10
840.0
 20
294.146904515094
 30
0.0
 40
26.00000000000002
 50
196.7658729726719
 51
212.9805962011789
  0
ARC
  5
1BE
  8
0
  6
CONTINUOUS
 62
     7
 10
816.5120609128016
 20
278.9049650900712
 30
0.0
 40
2.000000000000002
 50
3.0
 51
32.98059620117914
  0
LINE
  5
1BF
  8
0
  6
CONTINUOUS
 62
     7
 10
818.97516751598
 20
270.1207365369726
 30
0.0
 11
818.5093199823108
 21
279.0096370025571
 31
0.0
  0
LINE
  5
1C0
  8
0
  6
CONTINUOUS
 62
     7
 10
818.97516751598
 20
270.1207365369726
 30
0.0
 11
818.9769707761732
 21
270.0970818272973
 31
0.0
  0
LINE
  5
1C1
  8
0
  6
CONTINUOUS
 62
     7
 10
818.9769707761732
 20
270.0970818272973
 30
0.0
 11
818.979894028375
 21
270.0735392778663
 31
0.0
  0
LINE
  5
1C2
  8
0
  6
CONTINUOUS
 62
     7
 10
818.979894028375
 20
270.0735392778663
 30
0.0
 11
818.983930691795
 21
270.050161887388
 31
0.0
  0
LINE
  5
1C3
  8
0
  6
CONTINUOUS
 62
     7
 10
818.983930691795
 20
270.050161887388
 30
0.0
 11
818.9890716791439
 21
270.0270022827665
 31
0.0
  0
LINE
  5
1C4
  8
0
  6
CONTINUOUS
 62
     7
 10
818.9890716791439
 20
270.0270022827665
 30
0.0
 11
818.9953054170924
 21
270.0041126006295
 31
0.0
  0
LINE
  5
1C5
  8
0
  6
CONTINUOUS
 62
     7
 10
818.9953054170924
 20
270.0041126006295
 30
0.0
 11
819.0026178723232
 21
269.981544369958
 31
0.0
  0
LINE
  5
1C6
  8
0
  6
CONTINUOUS
 62
     7
 10
819.0026178723232
 20
269.981544369958
 30
0.0
 11
819.0109925831239
 21
269.9593483960855
 31
0.0
  0
LINE
  5
1C7
  8
0
  6
CONTINUOUS
 62
     7
 10
819.0109925831239
 20
269.9593483960855
 30
0.0
 11
819.0204106964449
 21
269.9375746463253
 31
0.0
  0
LINE
  5
1C8
  8
0
  6
CONTINUOUS
 62
     7
 10
819.020410696445
 20
269.9375746463253
 30
0.0
 11
819.0308510103408
 21
269.9162721374847
 31
0.0
  0
LINE
  5
1C9
  8
0
  6
CONTINUOUS
 62
     7
 10
819.0308510103408
 20
269.9162721374847
 30
0.0
 11
819.0422900217009
 21
269.8954888255195
 31
0.0
  0
LINE
  5
1CA
  8
0
  6
CONTINUOUS
 62
     7
 10
819.0422900217009
 20
269.8954888255195
 30
0.0
 11
819.0547019791583
 21
269.8752714975749
 31
0.0
  0
LINE
  5
1CB
  8
0
  6
CONTINUOUS
 62
     7
 10
819.0547019791583
 20
269.8752714975749
 30
0.0
 11
819.0680589410615
 21
269.8556656666601
 31
0.0
  0
LINE
  5
1CC
  8
0
  6
CONTINUOUS
 62
     7
 10
819.0680589410616
 20
269.8556656666601
 30
0.0
 11
819.0823308383763
 21
269.8367154691893
 31
0.0
  0
LINE
  5
1CD
  8
0
  6
CONTINUOUS
 62
     7
 10
819.0823308383763
 20
269.8367154691893
 30
0.0
 11
819.0974855423765
 21
269.8184635656225
 31
0.0
  0
LINE
  5
1CE
  8
0
  6
CONTINUOUS
 62
     7
 10
819.0974855423765
 20
269.8184635656225
 30
0.0
 11
819.113488936972
 21
269.8009510444286
 31
0.0
  0
LINE
  5
1CF
  8
0
  6
CONTINUOUS
 62
     7
 10
819.113488936972
 20
269.8009510444286
 30
0.0
 11
819.1303049955105
 21
269.7842173295878
 31
0.0
  0
LINE
  5
1D0
  8
0
  6
CONTINUOUS
 62
     7
 10
819.1303049955105
 20
269.7842173295878
 30
0.0
 11
819.1478958618806
 21
269.7683000918408
 31
0.0
  0
LINE
  5
1D1
  8
0
  6
CONTINUOUS
 62
     7
 10
819.1478958618806
 20
269.7683000918408
 30
0.0
 11
819.1662219357319
 21
269.7532351638843
 31
0.0
  0
LINE
  5
1D2
  8
0
  6
CONTINUOUS
 62
     7
 10
819.166221935732
 20
269.7532351638843
 30
0.0
 11
819.1852419616248
 21
269.7390564597057
 31
0.0
  0
LINE
  5
1D3
  8
0
  6
CONTINUOUS
 62
     7
 10
819.1852419616248
 20
269.7390564597057
 30
0.0
 11
819.2049131219019
 21
269.7257958982358
 31
0.0
  0
LINE
  5
1D4
  8
0
  6
CONTINUOUS
 62
     7
 10
819.2049131219019
 20
269.7257958982358
 30
0.0
 11
819.2251911330806
 21
269.7134833314935
 31
0.0
  0
LINE
  5
1D5
  8
0
  6
CONTINUOUS
 62
     7
 10
819.2251911330806
 20
269.7134833314935
 30
0.0
 11
819.2460303455422
 21
269.7021464773831
 31
0.0
  0
LINE
  5
1D6
  8
0
  6
CONTINUOUS
 62
     7
 10
819.2460303455422
 20
269.7021464773831
 30
0.0
 11
819.2673838462989
 21
269.6918108572961
 31
0.0
  0
LINE
  5
1D7
  8
0
  6
CONTINUOUS
 62
     7
 10
819.2673838462989
 20
269.6918108572961
 30
0.0
 11
819.2892035646024
 21
269.6824997386581
 31
0.0
  0
LINE
  5
1D8
  8
0
  6
CONTINUOUS
 62
     7
 10
819.2892035646024
 20
269.6824997386581
 30
0.0
 11
819.311440380162
 21
269.6742340825489
 31
0.0
  0
LINE
  5
1D9
  8
0
  6
CONTINUOUS
 62
     7
 10
819.311440380162
 20
269.6742340825489
 30
0.0
 11
819.3340442337218
 21
269.6670324965156
 31
0.0
  0
LINE
  5
1DA
  8
0
  6
CONTINUOUS
 62
     7
 10
819.3340442337218
 20
269.6670324965156
 30
0.0
 11
819.3569642397546
 21
269.6609111926834
 31
0.0
  0
LINE
  5
1DB
  8
0
  6
CONTINUOUS
 62
     7
 10
819.3569642397545
 20
269.6609111926834
 30
0.0
 11
819.380148801014
 21
269.6558839512588
 31
0.0
  0
LINE
  5
1DC
  8
0
  6
CONTINUOUS
 62
     7
 10
819.3801488010141
 20
269.6558839512588
 30
0.0
 11
819.4035457246913
 21
269.6519620895083
 31
0.0
  0
LINE
  5
1DD
  8
0
  6
CONTINUOUS
 62
     7
 10
819.4035457246913
 20
269.6519620895083
 30
0.0
 11
819.4271023399086
 21
269.6491544362806
 31
0.0
  0
LINE
  5
1DE
  8
0
  6
CONTINUOUS
 62
     7
 10
819.4271023399085
 20
269.6491544362806
 30
0.0
 11
819.450765616293
 21
269.6474673121311
 31
0.0
  0
LINE
  5
1DF
  8
0
  6
CONTINUOUS
 62
     7
 10
819.450765616293
 20
269.6474673121311
 30
0.0
 11
819.4744822833572
 21
269.646904515094
 31
0.0
  0
LINE
  5
1E0
  8
0
  6
CONTINUOUS
 62
     7
 10
823.5255177166425
 20
269.646904515094
 30
0.0
 11
819.4744822833574
 21
269.646904515094
 31
0.0
  0
LINE
  5
1E1
  8
0
  6
CONTINUOUS
 62
     7
 10
823.5255177166425
 20
269.646904515094
 30
0.0
 11
823.5492343837068
 21
269.6474673121311
 31
0.0
  0
LINE
  5
1E2
  8
0
  6
CONTINUOUS
 62
     7
 10
823.5492343837068
 20
269.6474673121311
 30
0.0
 11
823.5728976600914
 21
269.6491544362806
 31
0.0
  0
LINE
  5
1E3
  8
0
  6
CONTINUOUS
 62
     7
 10
823.5728976600914
 20
269.6491544362806
 30
0.0
 11
823.5964542753085
 21
269.6519620895083
 31
0.0
  0
LINE
  5
1E4
  8
0
  6
CONTINUOUS
 62
     7
 10
823.5964542753086
 20
269.6519620895083
 30
0.0
 11
823.6198511989858
 21
269.6558839512588
 31
0.0
  0
LINE
  5
1E5
  8
0
  6
CONTINUOUS
 62
     7
 10
823.6198511989858
 20
269.6558839512588
 30
0.0
 11
823.6430357602454
 21
269.6609111926834
 31
0.0
  0
LINE
  5
1E6
  8
0
  6
CONTINUOUS
 62
     7
 10
823.6430357602454
 20
269.6609111926834
 30
0.0
 11
823.6659557662782
 21
269.6670324965156
 31
0.0
  0
LINE
  5
1E7
  8
0
  6
CONTINUOUS
 62
     7
 10
823.6659557662782
 20
269.6670324965156
 30
0.0
 11
823.6885596198379
 21
269.6742340825488
 31
0.0
  0
LINE
  5
1E8
  8
0
  6
CONTINUOUS
 62
     7
 10
823.6885596198379
 20
269.6742340825488
 30
0.0
 11
823.7107964353976
 21
269.6824997386581
 31
0.0
  0
LINE
  5
1E9
  8
0
  6
CONTINUOUS
 62
     7
 10
823.7107964353976
 20
269.6824997386581
 30
0.0
 11
823.7326161537011
 21
269.6918108572961
 31
0.0
  0
LINE
  5
1EA
  8
0
  6
CONTINUOUS
 62
     7
 10
823.7326161537011
 20
269.6918108572961
 30
0.0
 11
823.7539696544578
 21
269.7021464773831
 31
0.0
  0
LINE
  5
1EB
  8
0
  6
CONTINUOUS
 62
     7
 10
823.7539696544578
 20
269.7021464773831
 30
0.0
 11
823.7748088669194
 21
269.7134833314935
 31
0.0
  0
LINE
  5
1EC
  8
0
  6
CONTINUOUS
 62
     7
 10
823.7748088669194
 20
269.7134833314935
 30
0.0
 11
823.7950868780981
 21
269.7257958982358
 31
0.0
  0
LINE
  5
1ED
  8
0
  6
CONTINUOUS
 62
     7
 10
823.7950868780981
 20
269.7257958982358
 30
0.0
 11
823.8147580383752
 21
269.7390564597057
 31
0.0
  0
LINE
  5
1EE
  8
0
  6
CONTINUOUS
 62
     7
 10
823.8147580383752
 20
269.7390564597057
 30
0.0
 11
823.833778064268
 21
269.7532351638843
 31
0.0
  0
LINE
  5
1EF
  8
0
  6
CONTINUOUS
 62
     7
 10
823.8337780642679
 20
269.7532351638843
 30
0.0
 11
823.8521041381192
 21
269.7683000918408
 31
0.0
  0
LINE
  5
1F0
  8
0
  6
CONTINUOUS
 62
     7
 10
823.8521041381193
 20
269.7683000918408
 30
0.0
 11
823.8696950044895
 21
269.7842173295878
 31
0.0
  0
LINE
  5
1F1
  8
0
  6
CONTINUOUS
 62
     7
 10
823.8696950044895
 20
269.7842173295878
 30
0.0
 11
823.886511063028
 21
269.8009510444286
 31
0.0
  0
LINE
  5
1F2
  8
0
  6
CONTINUOUS
 62
     7
 10
823.886511063028
 20
269.8009510444286
 30
0.0
 11
823.9025144576235
 21
269.8184635656225
 31
0.0
  0
LINE
  5
1F3
  8
0
  6
CONTINUOUS
 62
     7
 10
823.9025144576235
 20
269.8184635656225
 30
0.0
 11
823.9176691616236
 21
269.8367154691893
 31
0.0
  0
LINE
  5
1F4
  8
0
  6
CONTINUOUS
 62
     7
 10
823.9176691616236
 20
269.8367154691893
 30
0.0
 11
823.9319410589384
 21
269.8556656666601
 31
0.0
  0
LINE
  5
1F5
  8
0
  6
CONTINUOUS
 62
     7
 10
823.9319410589383
 20
269.8556656666601
 30
0.0
 11
823.9452980208415
 21
269.8752714975749
 31
0.0
  0
LINE
  5
1F6
  8
0
  6
CONTINUOUS
 62
     7
 10
823.9452980208416
 20
269.8752714975749
 30
0.0
 11
823.9577099782989
 21
269.8954888255195
 31
0.0
  0
LINE
  5
1F7
  8
0
  6
CONTINUOUS
 62
     7
 10
823.957709978299
 20
269.8954888255195
 30
0.0
 11
823.9691489896592
 21
269.9162721374847
 31
0.0
  0
LINE
  5
1F8
  8
0
  6
CONTINUOUS
 62
     7
 10
823.9691489896591
 20
269.9162721374847
 30
0.0
 11
823.979589303555
 21
269.9375746463253
 31
0.0
  0
LINE
  5
1F9
  8
0
  6
CONTINUOUS
 62
     7
 10
823.979589303555
 20
269.9375746463253
 30
0.0
 11
823.989007416876
 21
269.9593483960855
 31
0.0
  0
LINE
  5
1FA
  8
0
  6
CONTINUOUS
 62
     7
 10
823.989007416876
 20
269.9593483960855
 30
0.0
 11
823.9973821276766
 21
269.981544369958
 31
0.0
  0
LINE
  5
1FB
  8
0
  6
CONTINUOUS
 62
     7
 10
823.9973821276766
 20
269.981544369958
 30
0.0
 11
824.0046945829075
 21
270.0041126006295
 31
0.0
  0
LINE
  5
1FC
  8
0
  6
CONTINUOUS
 62
     7
 10
824.0046945829076
 20
270.0041126006295
 30
0.0
 11
824.0109283208561
 21
270.0270022827665
 31
0.0
  0
LINE
  5
1FD
  8
0
  6
CONTINUOUS
 62
     7
 10
824.010928320856
 20
270.0270022827665
 30
0.0
 11
824.016069308205
 21
270.050161887388
 31
0.0
  0
LINE
  5
1FE
  8
0
  6
CONTINUOUS
 62
     7
 10
824.016069308205
 20
270.050161887388
 30
0.0
 11
824.020105971625
 21
270.0735392778663
 31
0.0
  0
LINE
  5
1FF
  8
0
  6
CONTINUOUS
 62
     7
 10
824.0201059716248
 20
270.0735392778663
 30
0.0
 11
824.0230292238268
 21
270.0970818272973
 31
0.0
  0
LINE
  5
200
  8
0
  6
CONTINUOUS
 62
     7
 10
824.0230292238268
 20
270.0970818272973
 30
0.0
 11
824.0248324840198
 21
270.1207365369726
 31
0.0
  0
LINE
  5
201
  8
0
  6
CONTINUOUS
 62
     7
 10
824.1065183809895
 20
271.6793963025124
 30
0.0
 11
824.0248324840198
 21
270.1207365369726
 31
0.0
  0
ARC
  5
202
  8
0
  6
CONTINUOUS
 62
     7
 10
825.1051479157443
 20
271.6270603462694
 30
0.0
 40
0.9999999999998899
 50
56.51894776850888
 51
176.9999999999997
  0
ARC
  5
203
  8
0
  6
CONTINUOUS
 62
     7
 10
840.0
 20
294.146904515094
 30
0.0
 40
26.00000000000002
 50
236.5189477685093
 51
250.4427862645755
  0
LINE
  5
204
  8
0
  6
CONTINUOUS
 62
     7
 10
831.2965524072354
 20
269.646904515094
 30
0.0
 11
839.4999999999999
 21
269.646904515094
 31
0.0
  0
LINE
  5
205
  8
0
  6
CONTINUOUS
 62
     7
 10
839.4999999999999
 20
269.646904515094
 30
0.0
 11
839.9999999999999
 21
269.146904515094
 31
0.0
  0
LINE
  5
206
  8
0
  6
CONTINUOUS
 62
     7
 10
840.5
 20
269.646904515094
 30
0.0
 11
840.0000000000001
 21
269.146904515094
 31
0.0
  0
LINE
  5
207
  8
0
  6
CONTINUOUS
 62
     7
 10
848.7034475927646
 20
269.646904515094
 30
0.0
 11
840.5
 21
269.646904515094
 31
0.0
  0
ARC
  5
208
  8
0
  6
CONTINUOUS
 62
     7
 10
840.0
 20
294.146904515094
 30
0.0
 40
26.00000000000002
 50
289.5572137354246
 51
303.4810522314908
  0
ARC
  5
209
  8
0
  6
CONTINUOUS
 62
     7
 10
854.8948520842557
 20
271.6270603462694
 30
0.0
 40
1.000000000000001
 50
3.000000000000045
 51
123.4810522314909
  0
LINE
  5
20A
  8
0
  6
CONTINUOUS
 62
     7
 10
855.8934816190102
 20
271.6793963025124
 30
0.0
 11
855.9751675159802
 21
270.1207365369726
 31
0.0
  0
LINE
  5
20B
  8
0
  6
CONTINUOUS
 62
     7
 10
856.4744822833574
 20
269.646904515094
 30
0.0
 11
856.4507656162931
 21
269.6474673121311
 31
0.0
  0
LINE
  5
20C
  8
0
  6
CONTINUOUS
 62
     7
 10
856.4507656162931
 20
269.6474673121311
 30
0.0
 11
856.4271023399086
 21
269.6491544362806
 31
0.0
  0
LINE
  5
20D
  8
0
  6
CONTINUOUS
 62
     7
 10
856.4271023399086
 20
269.6491544362806
 30
0.0
 11
856.4035457246913
 21
269.6519620895083
 31
0.0
  0
LINE
  5
20E
  8
0
  6
CONTINUOUS
 62
     7
 10
856.4035457246912
 20
269.6519620895083
 30
0.0
 11
856.3801488010141
 21
269.6558839512588
 31
0.0
  0
LINE
  5
20F
  8
0
  6
CONTINUOUS
 62
     7
 10
856.3801488010141
 20
269.6558839512588
 30
0.0
 11
856.3569642397543
 21
269.6609111926834
 31
0.0
  0
LINE
  5
210
  8
0
  6
CONTINUOUS
 62
     7
 10
856.3569642397545
 20
269.6609111926834
 30
0.0
 11
856.3340442337217
 21
269.6670324965156
 31
0.0
  0
LINE
  5
211
  8
0
  6
CONTINUOUS
 62
     7
 10
856.3340442337217
 20
269.6670324965156
 30
0.0
 11
856.3114403801619
 21
269.6742340825488
 31
0.0
  0
LINE
  5
212
  8
0
  6
CONTINUOUS
 62
     7
 10
856.311440380162
 20
269.6742340825488
 30
0.0
 11
856.2892035646024
 21
269.6824997386581
 31
0.0
  0
LINE
  5
213
  8
0
  6
CONTINUOUS
 62
     7
 10
856.2892035646024
 20
269.6824997386581
 30
0.0
 11
856.2673838462988
 21
269.6918108572961
 31
0.0
  0
LINE
  5
214
  8
0
  6
CONTINUOUS
 62
     7
 10
856.2673838462988
 20
269.6918108572961
 30
0.0
 11
856.2460303455422
 21
269.7021464773831
 31
0.0
  0
LINE
  5
215
  8
0
  6
CONTINUOUS
 62
     7
 10
856.2460303455421
 20
269.7021464773831
 30
0.0
 11
856.2251911330804
 21
269.7134833314935
 31
0.0
  0
LINE
  5
216
  8
0
  6
CONTINUOUS
 62
     7
 10
856.2251911330806
 20
269.7134833314935
 30
0.0
 11
856.2049131219018
 21
269.7257958982358
 31
0.0
  0
LINE
  5
217
  8
0
  6
CONTINUOUS
 62
     7
 10
856.2049131219018
 20
269.7257958982358
 30
0.0
 11
856.1852419616247
 21
269.7390564597057
 31
0.0
  0
LINE
  5
218
  8
0
  6
CONTINUOUS
 62
     7
 10
856.1852419616247
 20
269.7390564597057
 30
0.0
 11
856.166221935732
 21
269.7532351638843
 31
0.0
  0
LINE
  5
219
  8
0
  6
CONTINUOUS
 62
     7
 10
856.166221935732
 20
269.7532351638843
 30
0.0
 11
856.1478958618804
 21
269.7683000918408
 31
0.0
  0
LINE
  5
21A
  8
0
  6
CONTINUOUS
 62
     7
 10
856.1478958618804
 20
269.7683000918408
 30
0.0
 11
856.1303049955104
 21
269.7842173295878
 31
0.0
  0
LINE
  5
21B
  8
0
  6
CONTINUOUS
 62
     7
 10
856.1303049955104
 20
269.7842173295878
 30
0.0
 11
856.1134889369719
 21
269.8009510444286
 31
0.0
  0
LINE
  5
21C
  8
0
  6
CONTINUOUS
 62
     7
 10
856.1134889369719
 20
269.8009510444286
 30
0.0
 11
856.0974855423764
 21
269.8184635656225
 31
0.0
  0
LINE
  5
21D
  8
0
  6
CONTINUOUS
 62
     7
 10
856.0974855423764
 20
269.8184635656225
 30
0.0
 11
856.0823308383763
 21
269.8367154691893
 31
0.0
  0
LINE
  5
21E
  8
0
  6
CONTINUOUS
 62
     7
 10
856.0823308383764
 20
269.8367154691893
 30
0.0
 11
856.0680589410616
 21
269.8556656666601
 31
0.0
  0
LINE
  5
21F
  8
0
  6
CONTINUOUS
 62
     7
 10
856.0680589410616
 20
269.8556656666601
 30
0.0
 11
856.0547019791583
 21
269.8752714975749
 31
0.0
  0
LINE
  5
220
  8
0
  6
CONTINUOUS
 62
     7
 10
856.0547019791583
 20
269.8752714975749
 30
0.0
 11
856.042290021701
 21
269.8954888255195
 31
0.0
  0
LINE
  5
221
  8
0
  6
CONTINUOUS
 62
     7
 10
856.0422900217009
 20
269.8954888255195
 30
0.0
 11
856.0308510103407
 21
269.9162721374847
 31
0.0
  0
LINE
  5
222
  8
0
  6
CONTINUOUS
 62
     7
 10
856.0308510103408
 20
269.9162721374847
 30
0.0
 11
856.0204106964449
 21
269.9375746463253
 31
0.0
  0
LINE
  5
223
  8
0
  6
CONTINUOUS
 62
     7
 10
856.0204106964449
 20
269.9375746463253
 30
0.0
 11
856.0109925831239
 21
269.9593483960855
 31
0.0
  0
LINE
  5
224
  8
0
  6
CONTINUOUS
 62
     7
 10
856.010992583124
 20
269.9593483960855
 30
0.0
 11
856.0026178723232
 21
269.981544369958
 31
0.0
  0
LINE
  5
225
  8
0
  6
CONTINUOUS
 62
     7
 10
856.0026178723232
 20
269.981544369958
 30
0.0
 11
855.9953054170924
 21
270.0041126006295
 31
0.0
  0
LINE
  5
226
  8
0
  6
CONTINUOUS
 62
     7
 10
855.9953054170924
 20
270.0041126006295
 30
0.0
 11
855.9890716791439
 21
270.0270022827665
 31
0.0
  0
LINE
  5
227
  8
0
  6
CONTINUOUS
 62
     7
 10
855.989071679144
 20
270.0270022827665
 30
0.0
 11
855.9839306917949
 21
270.050161887388
 31
0.0
  0
LINE
  5
228
  8
0
  6
CONTINUOUS
 62
     7
 10
855.9839306917949
 20
270.050161887388
 30
0.0
 11
855.9798940283749
 21
270.0735392778663
 31
0.0
  0
LINE
  5
229
  8
0
  6
CONTINUOUS
 62
     7
 10
855.9798940283749
 20
270.0735392778663
 30
0.0
 11
855.9769707761731
 21
270.0970818272972
 31
0.0
  0
LINE
  5
22A
  8
0
  6
CONTINUOUS
 62
     7
 10
855.9769707761732
 20
270.0970818272972
 30
0.0
 11
855.9751675159802
 21
270.1207365369726
 31
0.0
  0
LINE
  5
22B
  8
0
  6
CONTINUOUS
 62
     7
 10
856.4744822833574
 20
269.646904515094
 30
0.0
 11
860.5255177166425
 21
269.646904515094
 31
0.0
  0
LINE
  5
22C
  8
0
  6
CONTINUOUS
 62
     7
 10
861.0248324840197
 20
270.1207365369726
 30
0.0
 11
861.0230292238267
 21
270.0970818272973
 31
0.0
  0
LINE
  5
22D
  8
0
  6
CONTINUOUS
 62
     7
 10
861.0230292238267
 20
270.0970818272973
 30
0.0
 11
861.020105971625
 21
270.0735392778663
 31
0.0
  0
LINE
  5
22E
  8
0
  6
CONTINUOUS
 62
     7
 10
861.020105971625
 20
270.0735392778663
 30
0.0
 11
861.0160693082049
 21
270.050161887388
 31
0.0
  0
LINE
  5
22F
  8
0
  6
CONTINUOUS
 62
     7
 10
861.016069308205
 20
270.050161887388
 30
0.0
 11
861.010928320856
 21
270.0270022827665
 31
0.0
  0
LINE
  5
230
  8
0
  6
CONTINUOUS
 62
     7
 10
861.010928320856
 20
270.0270022827665
 30
0.0
 11
861.0046945829075
 21
270.0041126006295
 31
0.0
  0
LINE
  5
231
  8
0
  6
CONTINUOUS
 62
     7
 10
861.0046945829075
 20
270.0041126006295
 30
0.0
 11
860.9973821276766
 21
269.981544369958
 31
0.0
  0
LINE
  5
232
  8
0
  6
CONTINUOUS
 62
     7
 10
860.9973821276766
 20
269.981544369958
 30
0.0
 11
860.9890074168759
 21
269.9593483960855
 31
0.0
  0
LINE
  5
233
  8
0
  6
CONTINUOUS
 62
     7
 10
860.9890074168759
 20
269.9593483960855
 30
0.0
 11
860.979589303555
 21
269.9375746463253
 31
0.0
  0
LINE
  5
234
  8
0
  6
CONTINUOUS
 62
     7
 10
860.979589303555
 20
269.9375746463253
 30
0.0
 11
860.9691489896592
 21
269.9162721374847
 31
0.0
  0
LINE
  5
235
  8
0
  6
CONTINUOUS
 62
     7
 10
860.9691489896592
 20
269.9162721374847
 30
0.0
 11
860.957709978299
 21
269.8954888255195
 31
0.0
  0
LINE
  5
236
  8
0
  6
CONTINUOUS
 62
     7
 10
860.957709978299
 20
269.8954888255195
 30
0.0
 11
860.9452980208416
 21
269.8752714975749
 31
0.0
  0
LINE
  5
237
  8
0
  6
CONTINUOUS
 62
     7
 10
860.9452980208416
 20
269.8752714975749
 30
0.0
 11
860.9319410589383
 21
269.8556656666601
 31
0.0
  0
LINE
  5
238
  8
0
  6
CONTINUOUS
 62
     7
 10
860.9319410589383
 20
269.8556656666601
 30
0.0
 11
860.9176691616236
 21
269.8367154691893
 31
0.0
  0
LINE
  5
239
  8
0
  6
CONTINUOUS
 62
     7
 10
860.9176691616236
 20
269.8367154691893
 30
0.0
 11
860.9025144576234
 21
269.8184635656225
 31
0.0
  0
LINE
  5
23A
  8
0
  6
CONTINUOUS
 62
     7
 10
860.9025144576234
 20
269.8184635656225
 30
0.0
 11
860.8865110630279
 21
269.8009510444286
 31
0.0
  0
LINE
  5
23B
  8
0
  6
CONTINUOUS
 62
     7
 10
860.8865110630279
 20
269.8009510444286
 30
0.0
 11
860.8696950044894
 21
269.7842173295878
 31
0.0
  0
LINE
  5
23C
  8
0
  6
CONTINUOUS
 62
     7
 10
860.8696950044894
 20
269.7842173295878
 30
0.0
 11
860.8521041381194
 21
269.7683000918408
 31
0.0
  0
LINE
  5
23D
  8
0
  6
CONTINUOUS
 62
     7
 10
860.8521041381194
 20
269.7683000918408
 30
0.0
 11
860.8337780642679
 21
269.7532351638843
 31
0.0
  0
LINE
  5
23E
  8
0
  6
CONTINUOUS
 62
     7
 10
860.8337780642678
 20
269.7532351638843
 30
0.0
 11
860.814758038375
 21
269.7390564597057
 31
0.0
  0
LINE
  5
23F
  8
0
  6
CONTINUOUS
 62
     7
 10
860.8147580383751
 20
269.7390564597057
 30
0.0
 11
860.7950868780981
 21
269.7257958982358
 31
0.0
  0
LINE
  5
240
  8
0
  6
CONTINUOUS
 62
     7
 10
860.795086878098
 20
269.7257958982358
 30
0.0
 11
860.7748088669193
 21
269.7134833314935
 31
0.0
  0
LINE
  5
241
  8
0
  6
CONTINUOUS
 62
     7
 10
860.7748088669193
 20
269.7134833314935
 30
0.0
 11
860.7539696544577
 21
269.7021464773831
 31
0.0
  0
LINE
  5
242
  8
0
  6
CONTINUOUS
 62
     7
 10
860.7539696544577
 20
269.7021464773831
 30
0.0
 11
860.732616153701
 21
269.6918108572961
 31
0.0
  0
LINE
  5
243
  8
0
  6
CONTINUOUS
 62
     7
 10
860.732616153701
 20
269.6918108572961
 30
0.0
 11
860.7107964353975
 21
269.6824997386581
 31
0.0
  0
LINE
  5
244
  8
0
  6
CONTINUOUS
 62
     7
 10
860.7107964353975
 20
269.6824997386581
 30
0.0
 11
860.6885596198379
 21
269.6742340825488
 31
0.0
  0
LINE
  5
245
  8
0
  6
CONTINUOUS
 62
     7
 10
860.6885596198379
 20
269.6742340825488
 30
0.0
 11
860.6659557662781
 21
269.6670324965156
 31
0.0
  0
LINE
  5
246
  8
0
  6
CONTINUOUS
 62
     7
 10
860.6659557662781
 20
269.6670324965156
 30
0.0
 11
860.6430357602454
 21
269.6609111926834
 31
0.0
  0
LINE
  5
247
  8
0
  6
CONTINUOUS
 62
     7
 10
860.6430357602454
 20
269.6609111926834
 30
0.0
 11
860.6198511989858
 21
269.6558839512588
 31
0.0
  0
LINE
  5
248
  8
0
  6
CONTINUOUS
 62
     7
 10
860.6198511989858
 20
269.6558839512588
 30
0.0
 11
860.5964542753086
 21
269.6519620895083
 31
0.0
  0
LINE
  5
249
  8
0
  6
CONTINUOUS
 62
     7
 10
860.5964542753086
 20
269.6519620895083
 30
0.0
 11
860.5728976600913
 21
269.6491544362806
 31
0.0
  0
LINE
  5
24A
  8
0
  6
CONTINUOUS
 62
     7
 10
860.5728976600913
 20
269.6491544362806
 30
0.0
 11
860.5492343837067
 21
269.6474673121311
 31
0.0
  0
LINE
  5
24B
  8
0
  6
CONTINUOUS
 62
     7
 10
860.5492343837068
 20
269.6474673121311
 30
0.0
 11
860.5255177166425
 21
269.646904515094
 31
0.0
  0
LINE
  5
24C
  8
0
  6
CONTINUOUS
 62
     7
 10
861.0248324840197
 20
270.1207365369726
 30
0.0
 11
861.4906800176891
 21
279.0096370025571
 31
0.0
  0
ARC
  5
24D
  8
0
  6
CONTINUOUS
 62
     7
 10
863.4879390871981
 20
278.9049650900712
 30
0.0
 40
2.000000000000002
 50
147.0194037988209
 51
177.0000000000002
  0
ARC
  5
24E
  8
0
  6
CONTINUOUS
 62
     7
 10
840.0
 20
294.146904515094
 30
0.0
 40
26.00000000000002
 50
327.0194037988213
 51
343.2341270273282
  0
LINE
  5
24F
  8
0
  6
CONTINUOUS
 62
     7
 10
865.0606652123552
 20
305.6556310505923
 30
0.0
 11
864.8947785690091
 21
286.646904515094
 31
0.0
  0
ARC
  5
250
  8
0
  6
CONTINUOUS
 62
     7
 10
866.0606271354192
 20
305.646904515094
 30
0.0
 40
1.000000000000112
 50
90.0
 51
179.5000000000004
  0
LINE
  5
251
  8
0
  6
CONTINUOUS
 62
     7
 10
872.9140584800543
 20
306.646904515094
 30
0.0
 11
866.0606271354194
 21
306.646904515094
 31
0.0
  0
LINE
  5
252
  8
0
  6
CONTINUOUS
 62
     7
 10
862.0
 20
263.646904515094
 30
0.0
 11
873.0188596539563
 21
263.646904515094
 31
0.0
  0
LINE
  5
253
  8
0
  6
CONTINUOUS
 62
     7
 10
823.9999999999998
 20
263.646904515094
 30
0.0
 11
821.9999999999998
 21
263.646904515094
 31
0.0
  0
LINE
  5
254
  8
0
  6
CONTINUOUS
 62
     7
 10
828.9999999999999
 20
263.646904515094
 30
0.0
 11
851.0
 21
263.646904515094
 31
0.0
  0
LINE
  5
255
  8
0
  6
CONTINUOUS
 62
     7
 10
856.0
 20
263.646904515094
 30
0.0
 11
858.0
 21
263.646904515094
 31
0.0
  0
LINE
  5
256
  8
0
  6
CONTINUOUS
 62
     7
 10
857.0999999999999
 20
263.646904515094
 30
0.0
 11
857.0999999999999
 21
263.546904515094
 31
0.0
  0
ARC
  5
257
  8
0
  6
CONTINUOUS
 62
     7
 10
857.0
 20
263.546904515094
 30
0.0
 40
0.099999999999989
 50
270.0
 51
0.0000000000063096
  0
LINE
  5
258
  8
0
  6
CONTINUOUS
 62
     7
 10
848.1043625518008
 20
331.3081761391055
 30
0.0
 11
849.3283000637487
 21
331.2630937708454
 31
0.0
  0
LINE
  5
259
  8
0
  6
CONTINUOUS
 62
     7
 10
854.0634289273656
 20
331.0289218097682
 30
0.0
 11
855.0455164605219
 21
330.9684437737507
 31
0.0
  0
LINE
  5
25A
  8
0
  6
CONTINUOUS
 62
     7
 10
824.8755120439168
 20
330.9634026498306
 30
0.0
 11
825.9531714409048
 21
331.0299083794991
 31
0.0
  0
LINE
  5
25B
  8
0
  6
CONTINUOUS
 62
     7
 10
830.671869765094
 20
331.2631009702531
 30
0.0
 11
831.8055184565567
 21
331.3050730638926
 31
0.0
  0
LINE
  5
25C
  8
0
  6
CONTINUOUS
 62
     7
 10
828.9999999999999
 20
263.646904515094
 30
0.0
 11
828.9999999999999
 21
265.646904515094
 31
0.0
  0
LINE
  5
25D
  8
0
  6
CONTINUOUS
 62
     7
 10
851.0
 20
265.646904515094
 30
0.0
 11
851.0
 21
263.646904515094
 31
0.0
  0
LINE
  5
25E
  8
0
  6
CONTINUOUS
 62
     7
 10
823.9999999999998
 20
265.646904515094
 30
0.0
 11
823.9999999999998
 21
263.646904515094
 31
0.0
  0
LINE
  5
25F
  8
0
  6
CONTINUOUS
 62
     7
 10
856.0
 20
263.646904515094
 30
0.0
 11
856.0
 21
265.646904515094
 31
0.0
  0
LINE
  5
260
  8
0
  6
CONTINUOUS
 62
     7
 10
956.5
 20
306.6483221661493
 30
0.0
 11
956.4999070132898
 21
306.6661852659257
 31
0.0
  0
LINE
  5
261
  8
0
  6
CONTINUOUS
 62
     7
 10
956.5
 20
263.646904515094
 30
0.0
 11
956.5
 21
306.6483221661493
 31
0.0
  0
LINE
  5
262
  8
0
  6
CONTINUOUS
 62
     7
 10
956.4999999999999
 20
263.6469045150939
 30
0.0
 11
932.8226662751555
 21
263.6469045150939
 31
0.0
  0
LINE
  5
263
  8
0
  6
CONTINUOUS
 62
     7
 10
1093.5
 20
263.646904515094
 30
0.0
 11
1093.5
 21
306.6483221661493
 31
0.0
  0
LINE
  5
264
  8
0
  6
CONTINUOUS
 62
     7
 10
1093.5
 20
263.646904515094
 30
0.0
 11
956.5000000000001
 21
263.646904515094
 31
0.0
  0
LINE
  5
265
  8
0
  6
CONTINUOUS
 62
     7
 10
1093.5
 20
263.6469045150939
 30
0.0
 11
1117.177333724844
 21
263.6469045150939
 31
0.0
  0
LINE
  5
266
  8
0
  6
CONTINUOUS
 62
     7
 10
1093.5
 20
306.6483221661493
 30
0.0
 11
1093.50009298671
 21
306.6661852659258
 31
0.0
  0
LINE
  5
267
  8
0
  6
CONTINUOUS
 62
     7
 10
956.5
 20
317.2640582838887
 30
0.0
 11
956.5001025217
 21
317.2548260083569
 31
0.0
  0
LINE
  5
268
  8
0
  6
CONTINUOUS
 62
     7
 10
956.5001025216999
 20
317.2548260083569
 30
0.0
 11
956.4999070132897
 21
306.6661852659257
 31
0.0
  0
LINE
  5
269
  8
0
  6
CONTINUOUS
 62
     7
 10
1093.4998974783
 20
317.2548260083569
 30
0.0
 11
1093.50009298671
 21
306.6661852659258
 31
0.0
  0
LINE
  5
26A
  8
0
  6
CONTINUOUS
 62
     7
 10
1093.5
 20
317.2640582838887
 30
0.0
 11
1093.4998974783
 21
317.2548260083569
 31
0.0
  0
LINE
  5
26B
  8
0
  6
CONTINUOUS
 62
     7
 10
933.7793529987008
 20
307.1395506428892
 30
0.0
 11
934.2425778009832
 21
315.9784064123824
 31
0.0
  0
LINE
  5
26C
  8
0
  6
CONTINUOUS
 62
     7
 10
1116.220647001299
 20
307.1395506428892
 30
0.0
 11
1115.757422199017
 21
315.9784064123824
 31
0.0
  0
LINE
  5
26D
  8
0
  6
CONTINUOUS
 62
     7
 10
931.5
 20
263.646904515094
 30
0.0
 11
933.7793529987008
 21
307.1395506428892
 31
0.0
  0
LINE
  5
26E
  8
0
  6
CONTINUOUS
 62
     7
 10
932.8226662751555
 20
263.646904515094
 30
0.0
 11
931.5
 21
263.646904515094
 31
0.0
  0
LINE
  5
26F
  8
0
  6
CONTINUOUS
 62
     7
 10
1118.5
 20
263.646904515094
 30
0.0
 11
1116.220647001299
 21
307.1395506428892
 31
0.0
  0
LINE
  5
270
  8
0
  6
CONTINUOUS
 62
     7
 10
1117.177333724844
 20
263.646904515094
 30
0.0
 11
1118.5
 21
263.646904515094
 31
0.0
  0
LINE
  5
271
  8
0
  6
CONTINUOUS
 62
     7
 10
956.5
 20
317.2640582838887
 30
0.0
 11
956.5
 21
330.7399316319908
 31
0.0
  0
LINE
  5
272
  8
0
  6
CONTINUOUS
 62
     7
 10
1093.5
 20
317.2640582838887
 30
0.0
 11
1093.5
 21
330.7399316319908
 31
0.0
  0
LINE
  5
273
  8
0
  6
CONTINUOUS
 62
     7
 10
934.2425778009832
 20
315.9784064123824
 30
0.0
 11
934.9183161627428
 21
328.8722624582605
 31
0.0
  0
LINE
  5
274
  8
0
  6
CONTINUOUS
 62
     7
 10
1115.757422199017
 20
315.9784064123824
 30
0.0
 11
1115.081683837257
 21
328.8722624582605
 31
0.0
  0
LINE
  5
275
  8
0
  6
CONTINUOUS
 62
     7
 10
934.9183161627428
 20
328.8722624582605
 30
0.0
 11
934.9441621069718
 21
329.3654324529162
 31
0.0
  0
LINE
  5
276
  8
0
  6
CONTINUOUS
 62
     7
 10
1113.560120800617
 20
330.7399526678527
 30
0.0
 11
1113.536970390005
 21
330.7399316319908
 31
0.0
  0
LINE
  5
277
  8
0
  6
CONTINUOUS
 62
     7
 10
1115.081683837257
 20
328.8722624582605
 30
0.0
 11
1115.055837893028
 21
329.3654324529162
 31
0.0
  0
ARC
  5
278
  8
0
  6
CONTINUOUS
 62
     7
 10
936.4766942854625
 20
329.946904515094
 30
0.0
 40
1.500000000000057
 50
90.00000000000227
 51
177.000000000002
  0
LINE
  5
279
  8
0
  6
CONTINUOUS
 62
     7
 10
934.9441621069718
 20
329.3654324529162
 30
0.0
 11
934.9787499833308
 21
330.0254084494584
 31
0.0
  0
ARC
  5
27A
  8
0
  6
CONTINUOUS
 62
     7
 10
1113.523305714537
 20
329.946904515094
 30
0.0
 40
1.500000000000057
 50
2.9999999999981
 51
89.99999999999775
  0
LINE
  5
27B
  8
0
  6
CONTINUOUS
 62
     7
 10
1115.055837893028
 20
329.3654324529162
 30
0.0
 11
1115.021250016669
 21
330.0254084494584
 31
0.0
  0
LINE
  5
27C
  8
0
  6
CONTINUOUS
 62
     7
 10
956.4999999999999
 20
331.4469045150939
 30
0.0
 11
936.4766942854625
 21
331.4469045150939
 31
0.0
  0
LINE
  5
27D
  8
0
  6
CONTINUOUS
 62
     7
 10
1093.5
 20
331.4469045150939
 30
0.0
 11
1113.523305714537
 21
331.4469045150939
 31
0.0
  0
LINE
  5
27E
  8
0
  6
CONTINUOUS
 62
     7
 10
1093.501877664773
 20
331.446904515094
 30
0.0
 11
956.4981223352269
 21
331.446904515094
 31
0.0
  0
LINE
  5
27F
  8
0
  6
CONTINUOUS
 62
     7
 10
840.0
 20
180.7517302736884
 30
0.0
 11
840.0
 21
183.0
 31
0.0
  0
LINE
  5
280
  8
0
  6
CONTINUOUS
 62
     7
 10
876.0188896539564
 20
196.0
 30
0.0
 11
873.0188896539564
 21
221.0
 31
0.0
  0
LINE
  5
281
  8
0
  6
CONTINUOUS
 62
     7
 10
873.0188896539563
 20
221.0
 30
0.0
 11
874.4886165749706
 21
221.0
 31
0.0
  0
ARC
  5
282
  8
0
  6
CONTINUOUS
 62
     7
 10
874.48773342266
 20
219.4994347683755
 30
0.0
 40
1.500565491512562
 50
6.808692351651747
 51
89.96627877737929
  0
LINE
  5
283
  8
0
  6
CONTINUOUS
 62
     7
 10
878.8189962734364
 20
195.9999999999999
 30
0.0
 11
875.9777162264551
 21
219.6773337248444
 31
0.0
  0
ARC
  5
284
  8
0
  6
CONTINUOUS
 62
     7
 10
805.51226657734
 20
219.4994347683755
 30
0.0
 40
1.500565491512562
 50
90.03372122262066
 51
173.1913076483482
  0
LINE
  5
285
  8
0
  6
CONTINUOUS
 62
     7
 10
806.9811103460436
 20
221.0
 30
0.0
 11
805.5113834250294
 21
221.0
 31
0.0
  0
LINE
  5
286
  8
0
  6
CONTINUOUS
 62
     7
 10
803.9811103460435
 20
196.0
 30
0.0
 11
806.9811103460435
 21
221.0
 31
0.0
  0
LINE
  5
287
  8
0
  6
CONTINUOUS
 62
     7
 10
801.1810037265634
 20
195.9999999999999
 30
0.0
 11
804.0222837735447
 21
219.6773337248444
 31
0.0
  0
ARC
  5
288
  8
0
  6
CONTINUOUS
 62
     7
 10
874.48773342266
 20
35.50056523162447
 30
0.0
 40
1.500565491512562
 50
270.0337212226207
 51
353.1913076483472
  0
LINE
  5
289
  8
0
  6
CONTINUOUS
 62
     7
 10
873.0188896539563
 20
34.0
 30
0.0
 11
874.4886165749706
 21
34.0
 31
0.0
  0
LINE
  5
28A
  8
0
  6
CONTINUOUS
 62
     7
 10
876.0188896539564
 20
58.99999999999999
 30
0.0
 11
873.0188896539564
 21
34.00000000000001
 31
0.0
  0
LINE
  5
28B
  8
0
  6
CONTINUOUS
 62
     7
 10
878.8189962734364
 20
58.99999999999996
 30
0.0
 11
875.9777162264551
 21
35.32266627515546
 31
0.0
  0
LINE
  5
28C
  8
0
  6
CONTINUOUS
 62
     7
 10
803.9811103460435
 20
58.99999999999999
 30
0.0
 11
806.9811103460435
 21
34.00000000000001
 31
0.0
  0
LINE
  5
28D
  8
0
  6
CONTINUOUS
 62
     7
 10
806.9811103460436
 20
34.0
 30
0.0
 11
805.5113834250294
 21
34.0
 31
0.0
  0
ARC
  5
28E
  8
0
  6
CONTINUOUS
 62
     7
 10
805.51226657734
 20
35.50056523162447
 30
0.0
 40
1.500565491512562
 50
186.8086923516528
 51
269.9662787773793
  0
LINE
  5
28F
  8
0
  6
CONTINUOUS
 62
     7
 10
801.1810037265634
 20
58.99999999999996
 30
0.0
 11
804.0222837735447
 21
35.32266627515546
 31
0.0
  0
LINE
  5
290
  8
0
  6
CONTINUOUS
 62
     7
 10
872.9135375509956
 20
218.7352671843822
 30
0.0
 11
873.0188896539563
 21
221.0
 31
0.0
  0
LINE
  5
291
  8
0
  6
CONTINUOUS
 62
     7
 10
875.6467644393733
 20
196.0
 30
0.0
 11
876.0188896539564
 21
196.0
 31
0.0
  0
LINE
  5
292
  8
0
  6
CONTINUOUS
 62
     7
 10
875.6466606340996
 20
196.0000442372634
 30
0.0
 11
875.6467644393733
 21
196.0
 31
0.0
  0
LINE
  5
293
  8
0
  6
CONTINUOUS
 62
     7
 10
876.0188896539564
 20
58.99999999999999
 30
0.0
 11
876.0188896539564
 21
196.0
 31
0.0
  0
LINE
  5
294
  8
0
  6
CONTINUOUS
 62
     7
 10
878.8189962734365
 20
58.99999999999999
 30
0.0
 11
878.8189962734365
 21
196.0
 31
0.0
  0
LINE
  5
295
  8
0
  6
CONTINUOUS
 62
     7
 10
875.971738086306
 20
157.4209709642782
 30
0.0
 11
875.9899796012729
 21
157.4027294493112
 31
0.0
  0
LINE
  5
296
  8
0
  6
CONTINUOUS
 62
     7
 10
875.971738086306
 20
190.3790290357219
 30
0.0
 11
875.989979601273
 21
190.3972705506888
 31
0.0
  0
LINE
  5
297
  8
0
  6
CONTINUOUS
 62
     7
 10
875.9899796012729
 20
191.9027294493112
 30
0.0
 11
875.952375431854
 21
191.9403336187301
 31
0.0
  0
LINE
  5
298
  8
0
  6
CONTINUOUS
 62
     7
 10
875.9523754318541
 20
155.8596663812699
 30
0.0
 11
875.989979601273
 21
155.8972705506888
 31
0.0
  0
LINE
  5
299
  8
0
  6
CONTINUOUS
 62
     7
 10
875.6467644393733
 20
58.99999999999999
 30
0.0
 11
876.0188896539564
 21
58.99999999999999
 31
0.0
  0
LINE
  5
29A
  8
0
  6
CONTINUOUS
 62
     7
 10
875.9899796012729
 20
63.0972705506888
 30
0.0
 11
875.952375431854
 21
63.05966638126992
 31
0.0
  0
LINE
  5
29B
  8
0
  6
CONTINUOUS
 62
     7
 10
875.971738086306
 20
64.62097096427813
 30
0.0
 11
875.9899796012729
 21
64.60272944931117
 31
0.0
  0
LINE
  5
29C
  8
0
  6
CONTINUOUS
 62
     7
 10
875.971738086306
 20
97.57902903572189
 30
0.0
 11
875.989979601273
 21
97.5972705506888
 31
0.0
  0
LINE
  5
29D
  8
0
  6
CONTINUOUS
 62
     7
 10
875.9523754318541
 20
99.1403336187301
 30
0.0
 11
875.989979601273
 21
99.1027294493112
 31
0.0
  0
LINE
  5
29E
  8
0
  6
CONTINUOUS
 62
     7
 10
804.3533393659003
 20
196.0000442372634
 30
0.0
 11
804.3532355606266
 21
196.0
 31
0.0
  0
LINE
  5
29F
  8
0
  6
CONTINUOUS
 62
     7
 10
804.3532355606267
 20
196.0
 30
0.0
 11
803.9811103460437
 21
196.0
 31
0.0
  0
LINE
  5
2A0
  8
0
  6
CONTINUOUS
 62
     7
 10
807.0864624490043
 20
218.7352671843822
 30
0.0
 11
806.9811103460435
 21
221.0
 31
0.0
  0
LINE
  5
2A1
  8
0
  6
CONTINUOUS
 62
     7
 10
804.0100203987271
 20
191.9027294493112
 30
0.0
 11
804.047624568146
 21
191.9403336187301
 31
0.0
  0
LINE
  5
2A2
  8
0
  6
CONTINUOUS
 62
     7
 10
804.0282619136938
 20
190.3790290357219
 30
0.0
 11
804.010020398727
 21
190.3972705506888
 31
0.0
  0
LINE
  5
2A3
  8
0
  6
CONTINUOUS
 62
     7
 10
803.9811103460435
 20
58.99999999999999
 30
0.0
 11
803.9811103460435
 21
196.0
 31
0.0
  0
LINE
  5
2A4
  8
0
  6
CONTINUOUS
 62
     7
 10
804.3532355606267
 20
58.99999999999999
 30
0.0
 11
803.9811103460437
 21
58.99999999999999
 31
0.0
  0
LINE
  5
2A5
  8
0
  6
CONTINUOUS
 62
     7
 10
804.0282619136938
 20
97.57902903572189
 30
0.0
 11
804.010020398727
 21
97.5972705506888
 31
0.0
  0
LINE
  5
2A6
  8
0
  6
CONTINUOUS
 62
     7
 10
804.0282619136938
 20
64.62097096427813
 30
0.0
 11
804.010020398727
 21
64.60272944931117
 31
0.0
  0
LINE
  5
2A7
  8
0
  6
CONTINUOUS
 62
     7
 10
804.0100203987271
 20
63.0972705506888
 30
0.0
 11
804.0476245681459
 21
63.05966638126992
 31
0.0
  0
LINE
  5
2A8
  8
0
  6
CONTINUOUS
 62
     7
 10
804.0476245681459
 20
99.1403336187301
 30
0.0
 11
804.0100203987271
 21
99.1027294493112
 31
0.0
  0
LINE
  5
2A9
  8
0
  6
CONTINUOUS
 62
     7
 10
801.1810037265634
 20
58.99999999999999
 30
0.0
 11
801.1810037265634
 21
196.0
 31
0.0
  0
LINE
  5
2AA
  8
0
  6
CONTINUOUS
 62
     7
 10
875.6466606340996
 20
58.99995576273656
 30
0.0
 11
875.6467644393733
 21
58.99999999999999
 31
0.0
  0
LINE
  5
2AB
  8
0
  6
CONTINUOUS
 62
     7
 10
872.9135375509956
 20
36.26473281561782
 30
0.0
 11
873.0188896539563
 21
34.0
 31
0.0
  0
LINE
  5
2AC
  8
0
  6
CONTINUOUS
 62
     7
 10
807.0864624490043
 20
36.26473281561782
 30
0.0
 11
806.9811103460435
 21
34.0
 31
0.0
  0
LINE
  5
2AD
  8
0
  6
CONTINUOUS
 62
     7
 10
804.3533393659003
 20
58.99995576273656
 30
0.0
 11
804.3532355606266
 21
58.99999999999999
 31
0.0
  0
LINE
  5
2AE
  8
0
  6
CONTINUOUS
 62
     7
 10
873.6999999999999
 20
191.4165620096096
 30
0.0
 11
873.6999999999999
 21
190.8834379903904
 31
0.0
  0
LINE
  5
2AF
  8
0
  6
CONTINUOUS
 62
     7
 10
873.7000095191432
 20
191.419647340234
 30
0.0
 11
873.6999999999999
 21
191.4165620096096
 31
0.0
  0
LINE
  5
2B0
  8
0
  6
CONTINUOUS
 62
     7
 10
873.6999999999999
 20
190.8834379903904
 30
0.0
 11
873.7000095191431
 21
190.8803526597661
 31
0.0
  0
LINE
  5
2B1
  8
0
  6
CONTINUOUS
 62
     7
 10
873.6999999999999
 20
156.3834379903904
 30
0.0
 11
873.7000095191431
 21
156.380352659766
 31
0.0
  0
LINE
  5
2B2
  8
0
  6
CONTINUOUS
 62
     7
 10
873.6999999999999
 20
156.9165620096096
 30
0.0
 11
873.6999999999999
 21
156.3834379903904
 31
0.0
  0
LINE
  5
2B3
  8
0
  6
CONTINUOUS
 62
     7
 10
873.7000095191432
 20
156.919647340234
 30
0.0
 11
873.6999999999999
 21
156.9165620096096
 31
0.0
  0
LINE
  5
2B4
  8
0
  6
CONTINUOUS
 62
     7
 10
806.2999904808565
 20
191.419647340234
 30
0.0
 11
806.3
 21
191.4165620096096
 31
0.0
  0
LINE
  5
2B5
  8
0
  6
CONTINUOUS
 62
     7
 10
806.3
 20
191.4165620096096
 30
0.0
 11
806.3
 21
190.8834379903904
 31
0.0
  0
LINE
  5
2B6
  8
0
  6
CONTINUOUS
 62
     7
 10
806.3
 20
190.8834379903904
 30
0.0
 11
806.2999904808565
 21
190.8803526597661
 31
0.0
  0
LINE
  5
2B7
  8
0
  6
CONTINUOUS
 62
     7
 10
806.2999904808565
 20
156.919647340234
 30
0.0
 11
806.3
 21
156.9165620096096
 31
0.0
  0
LINE
  5
2B8
  8
0
  6
CONTINUOUS
 62
     7
 10
806.3
 20
156.9165620096096
 30
0.0
 11
806.3
 21
156.3834379903904
 31
0.0
  0
LINE
  5
2B9
  8
0
  6
CONTINUOUS
 62
     7
 10
806.3
 20
156.3834379903904
 30
0.0
 11
806.2999904808565
 21
156.380352659766
 31
0.0
  0
LINE
  5
2BA
  8
0
  6
CONTINUOUS
 62
     7
 10
873.7000095191432
 20
98.0803526597661
 30
0.0
 11
873.6999999999999
 21
98.0834379903904
 31
0.0
  0
LINE
  5
2BB
  8
0
  6
CONTINUOUS
 62
     7
 10
873.6999999999999
 20
98.0834379903904
 30
0.0
 11
873.6999999999999
 21
98.6165620096096
 31
0.0
  0
LINE
  5
2BC
  8
0
  6
CONTINUOUS
 62
     7
 10
873.6999999999999
 20
98.6165620096096
 30
0.0
 11
873.7000095191431
 21
98.619647340234
 31
0.0
  0
LINE
  5
2BD
  8
0
  6
CONTINUOUS
 62
     7
 10
806.3
 20
98.6165620096096
 30
0.0
 11
806.2999904808565
 21
98.619647340234
 31
0.0
  0
LINE
  5
2BE
  8
0
  6
CONTINUOUS
 62
     7
 10
806.3
 20
98.0834379903904
 30
0.0
 11
806.3
 21
98.6165620096096
 31
0.0
  0
LINE
  5
2BF
  8
0
  6
CONTINUOUS
 62
     7
 10
806.2999904808565
 20
98.0803526597661
 30
0.0
 11
806.3
 21
98.0834379903904
 31
0.0
  0
LINE
  5
2C0
  8
0
  6
CONTINUOUS
 62
     7
 10
873.7000095191432
 20
63.58035265976603
 30
0.0
 11
873.6999999999999
 21
63.58343799039043
 31
0.0
  0
LINE
  5
2C1
  8
0
  6
CONTINUOUS
 62
     7
 10
873.6999999999999
 20
63.58343799039043
 30
0.0
 11
873.6999999999999
 21
64.11656200960958
 31
0.0
  0
LINE
  5
2C2
  8
0
  6
CONTINUOUS
 62
     7
 10
873.6999999999999
 20
64.11656200960958
 30
0.0
 11
873.7000095191431
 21
64.11964734023395
 31
0.0
  0
LINE
  5
2C3
  8
0
  6
CONTINUOUS
 62
     7
 10
806.3
 20
63.58343799039043
 30
0.0
 11
806.3
 21
64.11656200960958
 31
0.0
  0
LINE
  5
2C4
  8
0
  6
CONTINUOUS
 62
     7
 10
806.2999904808565
 20
63.58035265976603
 30
0.0
 11
806.3
 21
63.58343799039043
 31
0.0
  0
LINE
  5
2C5
  8
0
  6
CONTINUOUS
 62
     7
 10
806.3
 20
64.11656200960958
 30
0.0
 11
806.2999904808565
 21
64.11964734023395
 31
0.0
  0
LINE
  5
2C6
  8
0
  6
CONTINUOUS
 62
     7
 10
874.1999999999999
 20
190.3790290357219
 30
0.0
 11
875.971738086306
 21
190.3790290357219
 31
0.0
  0
LINE
  5
2C7
  8
0
  6
CONTINUOUS
 62
     7
 10
875.9447991859801
 20
191.9402950585481
 30
0.0
 11
874.1999999999999
 21
191.9315039585694
 31
0.0
  0
LINE
  5
2C8
  8
0
  6
CONTINUOUS
 62
     7
 10
875.9523754318541
 20
191.9403336187301
 30
0.0
 11
875.9447991859801
 21
191.9402950585481
 31
0.0
  0
LINE
  5
2C9
  8
0
  6
CONTINUOUS
 62
     7
 10
875.9447991859801
 20
155.859704941452
 30
0.0
 11
875.9523754318541
 21
155.8596663812699
 31
0.0
  0
LINE
  5
2CA
  8
0
  6
CONTINUOUS
 62
     7
 10
874.1999999999999
 20
155.8684960414306
 30
0.0
 11
875.9447991859801
 21
155.859704941452
 31
0.0
  0
LINE
  5
2CB
  8
0
  6
CONTINUOUS
 62
     7
 10
874.1999999999999
 20
157.4209709642782
 30
0.0
 11
875.971738086306
 21
157.4209709642782
 31
0.0
  0
LINE
  5
2CC
  8
0
  6
CONTINUOUS
 62
     7
 10
805.8000000000001
 20
190.3790290357219
 30
0.0
 11
804.0282619136939
 21
190.3790290357219
 31
0.0
  0
LINE
  5
2CD
  8
0
  6
CONTINUOUS
 62
     7
 10
804.0476245681459
 20
191.9403336187301
 30
0.0
 11
804.0552008140198
 21
191.9402950585481
 31
0.0
  0
LINE
  5
2CE
  8
0
  6
CONTINUOUS
 62
     7
 10
804.0552008140198
 20
191.9402950585481
 30
0.0
 11
805.8
 21
191.9315039585694
 31
0.0
  0
LINE
  5
2CF
  8
0
  6
CONTINUOUS
 62
     7
 10
805.8000000000001
 20
155.8684960414306
 30
0.0
 11
804.0552008140199
 21
155.859704941452
 31
0.0
  0
LINE
  5
2D0
  8
0
  6
CONTINUOUS
 62
     7
 10
804.0552008140198
 20
155.859704941452
 30
0.0
 11
804.0476245681459
 21
155.8596663812699
 31
0.0
  0
LINE
  5
2D1
  8
0
  6
CONTINUOUS
 62
     7
 10
805.8000000000001
 20
157.4209709642782
 30
0.0
 11
804.0282619136939
 21
157.4209709642782
 31
0.0
  0
LINE
  5
2D2
  8
0
  6
CONTINUOUS
 62
     7
 10
874.1999999999999
 20
99.1315039585694
 30
0.0
 11
875.9447991859801
 21
99.1402950585481
 31
0.0
  0
LINE
  5
2D3
  8
0
  6
CONTINUOUS
 62
     7
 10
875.9447991859801
 20
99.1402950585481
 30
0.0
 11
875.9523754318541
 21
99.1403336187301
 31
0.0
  0
LINE
  5
2D4
  8
0
  6
CONTINUOUS
 62
     7
 10
874.1999999999999
 20
97.57902903572189
 30
0.0
 11
875.971738086306
 21
97.57902903572189
 31
0.0
  0
LINE
  5
2D5
  8
0
  6
CONTINUOUS
 62
     7
 10
804.0552008140198
 20
99.1402950585481
 30
0.0
 11
804.0476245681459
 21
99.1403336187301
 31
0.0
  0
LINE
  5
2D6
  8
0
  6
CONTINUOUS
 62
     7
 10
805.8000000000001
 20
99.1315039585694
 30
0.0
 11
804.0552008140198
 21
99.1402950585481
 31
0.0
  0
LINE
  5
2D7
  8
0
  6
CONTINUOUS
 62
     7
 10
805.8000000000001
 20
97.57902903572189
 30
0.0
 11
804.0282619136939
 21
97.57902903572189
 31
0.0
  0
LINE
  5
2D8
  8
0
  6
CONTINUOUS
 62
     7
 10
874.1999999999999
 20
64.62097096427813
 30
0.0
 11
875.971738086306
 21
64.62097096427813
 31
0.0
  0
LINE
  5
2D9
  8
0
  6
CONTINUOUS
 62
     7
 10
875.9523754318541
 20
63.05966638126992
 30
0.0
 11
875.9447991859801
 21
63.05970494145194
 31
0.0
  0
LINE
  5
2DA
  8
0
  6
CONTINUOUS
 62
     7
 10
875.9447991859801
 20
63.05970494145194
 30
0.0
 11
874.1999999999999
 21
63.06849604143061
 31
0.0
  0
LINE
  5
2DB
  8
0
  6
CONTINUOUS
 62
     7
 10
805.8000000000001
 20
64.62097096427813
 30
0.0
 11
804.0282619136939
 21
64.62097096427813
 31
0.0
  0
LINE
  5
2DC
  8
0
  6
CONTINUOUS
 62
     7
 10
804.0552008140198
 20
63.05970494145194
 30
0.0
 11
805.8
 21
63.06849604143061
 31
0.0
  0
LINE
  5
2DD
  8
0
  6
CONTINUOUS
 62
     7
 10
804.0476245681459
 20
63.05966638126992
 30
0.0
 11
804.0552008140198
 21
63.05970494145194
 31
0.0
  0
LINE
  5
2DE
  8
0
  6
CONTINUOUS
 62
     7
 10
873.6999999999999
 20
190.8790480749147
 30
0.0
 11
873.6999999999999
 21
190.8834379903904
 31
0.0
  0
LINE
  5
2DF
  8
0
  6
CONTINUOUS
 62
     7
 10
873.6999999999999
 20
190.8790480749147
 30
0.0
 11
873.7096073597983
 21
190.7814991995444
 31
0.0
  0
LINE
  5
2E0
  8
0
  6
CONTINUOUS
 62
     7
 10
873.7096073597983
 20
190.7814991995444
 30
0.0
 11
873.7380602337444
 21
190.6876990727485
 31
0.0
  0
LINE
  5
2E1
  8
0
  6
CONTINUOUS
 62
     7
 10
873.7380602337444
 20
190.6876990727485
 30
0.0
 11
873.7842651938487
 21
190.6012523807961
 31
0.0
  0
LINE
  5
2E2
  8
0
  6
CONTINUOUS
 62
     7
 10
873.7842651938487
 20
190.6012523807961
 30
0.0
 11
873.8464466094067
 21
190.525481221579
 31
0.0
  0
LINE
  5
2E3
  8
0
  6
CONTINUOUS
 62
     7
 10
873.8464466094067
 20
190.525481221579
 30
0.0
 11
873.9222148834901
 21
190.4632974382531
 31
0.0
  0
LINE
  5
2E4
  8
0
  6
CONTINUOUS
 62
     7
 10
873.9222148834901
 20
190.4632974382531
 30
0.0
 11
874.0086582838176
 21
190.4170907187385
 31
0.0
  0
LINE
  5
2E5
  8
0
  6
CONTINUOUS
 62
     7
 10
874.0086582838176
 20
190.4170907187385
 30
0.0
 11
874.1024548389919
 21
190.388636761353
 31
0.0
  0
LINE
  5
2E6
  8
0
  6
CONTINUOUS
 62
     7
 10
874.1024548389919
 20
190.388636761353
 30
0.0
 11
874.2
 21
190.3790290357218
 31
0.0
  0
LINE
  5
2E7
  8
0
  6
CONTINUOUS
 62
     7
 10
874.1999999999999
 20
191.9315039585694
 30
0.0
 11
874.1754661628362
 21
191.9310253152887
 31
0.0
  0
LINE
  5
2E8
  8
0
  6
CONTINUOUS
 62
     7
 10
874.1754661628362
 20
191.9310253152887
 30
0.0
 11
874.1509914298352
 21
191.929343327172
 31
0.0
  0
LINE
  5
2E9
  8
0
  6
CONTINUOUS
 62
     7
 10
874.1509914298351
 20
191.929343327172
 30
0.0
 11
874.1266347627723
 21
191.9264620462761
 31
0.0
  0
LINE
  5
2EA
  8
0
  6
CONTINUOUS
 62
     7
 10
874.1266347627723
 20
191.9264620462761
 30
0.0
 11
874.1024548389919
 21
191.9223884138591
 31
0.0
  0
LINE
  5
2EB
  8
0
  6
CONTINUOUS
 62
     7
 10
874.1024548389919
 20
191.9223884138591
 30
0.0
 11
874.0785099100484
 21
191.9171322436582
 31
0.0
  0
LINE
  5
2EC
  8
0
  6
CONTINUOUS
 62
     7
 10
874.0785099100483
 20
191.9171322436582
 30
0.0
 11
874.0548576613728
 21
191.9107061982479
 31
0.0
  0
LINE
  5
2ED
  8
0
  6
CONTINUOUS
 62
     7
 10
874.0548576613728
 20
191.9107061982479
 30
0.0
 11
874.0315550733038
 21
191.9031257585343
 31
0.0
  0
LINE
  5
2EE
  8
0
  6
CONTINUOUS
 62
     7
 10
874.0315550733038
 20
191.9031257585343
 30
0.0
 11
874.0086582838173
 21
191.8944091864608
 31
0.0
  0
LINE
  5
2EF
  8
0
  6
CONTINUOUS
 62
     7
 10
874.0086582838173
 20
191.8944091864608
 30
0.0
 11
873.9862224532848
 21
191.8845774810129
 31
0.0
  0
LINE
  5
2F0
  8
0
  6
CONTINUOUS
 62
     7
 10
873.9862224532848
 20
191.8845774810129
 30
0.0
 11
873.9643016315869
 21
191.8736543276303
 31
0.0
  0
LINE
  5
2F1
  8
0
  6
CONTINUOUS
 62
     7
 10
873.964301631587
 20
191.8736543276303
 30
0.0
 11
873.9429486279033
 21
191.8616660411461
 31
0.0
  0
LINE
  5
2F2
  8
0
  6
CONTINUOUS
 62
     7
 10
873.9429486279033
 20
191.8616660411461
 30
0.0
 11
873.92221488349
 21
191.8486415023926
 31
0.0
  0
LINE
  5
2F3
  8
0
  6
CONTINUOUS
 62
     7
 10
873.92221488349
 20
191.8486415023926
 30
0.0
 11
873.9021503477537
 21
191.8346120886244
 31
0.0
  0
LINE
  5
2F4
  8
0
  6
CONTINUOUS
 62
     7
 10
873.9021503477537
 20
191.8346120886244
 30
0.0
 11
873.882803357918
 21
191.8196115979281
 31
0.0
  0
LINE
  5
2F5
  8
0
  6
CONTINUOUS
 62
     7
 10
873.882803357918
 20
191.8196115979281
 30
0.0
 11
873.8642205225764
 21
191.8036761677998
 31
0.0
  0
LINE
  5
2F6
  8
0
  6
CONTINUOUS
 62
     7
 10
873.8642205225764
 20
191.8036761677998
 30
0.0
 11
873.8464466094067
 21
191.7868441880863
 31
0.0
  0
LINE
  5
2F7
  8
0
  6
CONTINUOUS
 62
     7
 10
873.8464466094067
 20
191.7868441880863
 30
0.0
 11
873.8295244373224
 21
191.7691562085012
 31
0.0
  0
LINE
  5
2F8
  8
0
  6
CONTINUOUS
 62
     7
 10
873.8295244373224
 20
191.7691562085012
 30
0.0
 11
873.8134947733184
 21
191.7506548409363
 31
0.0
  0
LINE
  5
2F9
  8
0
  6
CONTINUOUS
 62
     7
 10
873.8134947733186
 20
191.7506548409363
 30
0.0
 11
873.7983962342597
 21
191.7313846568069
 31
0.0
  0
LINE
  5
2FA
  8
0
  6
CONTINUOUS
 62
     7
 10
873.7983962342597
 20
191.7313846568069
 30
0.0
 11
873.7842651938487
 21
191.7113920796744
 31
0.0
  0
LINE
  5
2FB
  8
0
  6
CONTINUOUS
 62
     7
 10
873.7842651938487
 20
191.7113920796744
 30
0.0
 11
873.7711356949998
 21
191.6907252734082
 31
0.0
  0
LINE
  5
2FC
  8
0
  6
CONTINUOUS
 62
     7
 10
873.7711356949998
 20
191.6907252734082
 30
0.0
 11
873.7590393678257
 21
191.6694340261547
 31
0.0
  0
LINE
  5
2FD
  8
0
  6
CONTINUOUS
 62
     7
 10
873.7590393678258
 20
191.6694340261547
 30
0.0
 11
873.7480053534383
 21
191.6475696303935
 31
0.0
  0
LINE
  5
2FE
  8
0
  6
CONTINUOUS
 62
     7
 10
873.7480053534382
 20
191.6475696303935
 30
0.0
 11
873.7380602337444
 21
191.6251847593692
 31
0.0
  0
LINE
  5
2FF
  8
0
  6
CONTINUOUS
 62
     7
 10
873.7380602337444
 20
191.6251847593692
 30
0.0
 11
873.7292279674085
 21
191.6023333401965
 31
0.0
  0
LINE
  5
300
  8
0
  6
CONTINUOUS
 62
     7
 10
873.7292279674085
 20
191.6023333401965
 30
0.0
 11
873.7215298321339
 21
191.5790704239461
 31
0.0
  0
LINE
  5
301
  8
0
  6
CONTINUOUS
 62
     7
 10
873.7215298321339
 20
191.5790704239461
 30
0.0
 11
873.7149843734027
 21
191.5554520530206
 31
0.0
  0
LINE
  5
302
  8
0
  6
CONTINUOUS
 62
     7
 10
873.7149843734027
 20
191.5554520530206
 30
0.0
 11
873.7096073597983
 21
191.5315351261443
 31
0.0
  0
LINE
  5
303
  8
0
  6
CONTINUOUS
 62
     7
 10
873.7096073597983
 20
191.5315351261443
 30
0.0
 11
873.7054117450176
 21
191.5073772612889
 31
0.0
  0
LINE
  5
304
  8
0
  6
CONTINUOUS
 62
     7
 10
873.7054117450176
 20
191.5073772612889
 30
0.0
 11
873.7024076366637
 21
191.483036656867
 31
0.0
  0
LINE
  5
305
  8
0
  6
CONTINUOUS
 62
     7
 10
873.7024076366637
 20
191.483036656867
 30
0.0
 11
873.7006022718974
 21
191.4585719515264
 31
0.0
  0
LINE
  5
306
  8
0
  6
CONTINUOUS
 62
     7
 10
873.7006022718974
 20
191.4585719515264
 30
0.0
 11
873.6999999999999
 21
191.4340420828853
 31
0.0
  0
LINE
  5
307
  8
0
  6
CONTINUOUS
 62
     7
 10
873.6999999999999
 20
191.4165620096096
 30
0.0
 11
873.6999999999999
 21
191.4340420828853
 31
0.0
  0
LINE
  5
308
  8
0
  6
CONTINUOUS
 62
     7
 10
806.3
 20
190.8790480749147
 30
0.0
 11
806.3
 21
190.8834379903904
 31
0.0
  0
LINE
  5
309
  8
0
  6
CONTINUOUS
 62
     7
 10
805.8000000000001
 20
190.3790290357218
 30
0.0
 11
805.897545161008
 21
190.388636761353
 31
0.0
  0
LINE
  5
30A
  8
0
  6
CONTINUOUS
 62
     7
 10
805.897545161008
 20
190.388636761353
 30
0.0
 11
805.9913417161824
 21
190.4170907187385
 31
0.0
  0
LINE
  5
30B
  8
0
  6
CONTINUOUS
 62
     7
 10
805.9913417161824
 20
190.4170907187385
 30
0.0
 11
806.0777851165097
 21
190.4632974382531
 31
0.0
  0
LINE
  5
30C
  8
0
  6
CONTINUOUS
 62
     7
 10
806.0777851165097
 20
190.4632974382531
 30
0.0
 11
806.1535533905932
 21
190.525481221579
 31
0.0
  0
LINE
  5
30D
  8
0
  6
CONTINUOUS
 62
     7
 10
806.1535533905932
 20
190.525481221579
 30
0.0
 11
806.2157348061511
 21
190.6012523807961
 31
0.0
  0
LINE
  5
30E
  8
0
  6
CONTINUOUS
 62
     7
 10
806.2157348061511
 20
190.6012523807961
 30
0.0
 11
806.2619397662555
 21
190.6876990727485
 31
0.0
  0
LINE
  5
30F
  8
0
  6
CONTINUOUS
 62
     7
 10
806.2619397662556
 20
190.6876990727485
 30
0.0
 11
806.2903926402016
 21
190.7814991995444
 31
0.0
  0
LINE
  5
310
  8
0
  6
CONTINUOUS
 62
     7
 10
806.2903926402016
 20
190.7814991995444
 30
0.0
 11
806.3
 21
190.8790480749147
 31
0.0
  0
LINE
  5
311
  8
0
  6
CONTINUOUS
 62
     7
 10
873.6999999999999
 20
156.3659579171147
 30
0.0
 11
873.6999999999999
 21
156.3834379903904
 31
0.0
  0
LINE
  5
312
  8
0
  6
CONTINUOUS
 62
     7
 10
873.6999999999999
 20
156.3659579171147
 30
0.0
 11
873.7006022718973
 21
156.3414280484736
 31
0.0
  0
LINE
  5
313
  8
0
  6
CONTINUOUS
 62
     7
 10
873.7006022718974
 20
156.3414280484736
 30
0.0
 11
873.7024076366637
 21
156.316963343133
 31
0.0
  0
LINE
  5
314
  8
0
  6
CONTINUOUS
 62
     7
 10
873.7024076366637
 20
156.316963343133
 30
0.0
 11
873.7054117450176
 21
156.2926227387111
 31
0.0
  0
LINE
  5
315
  8
0
  6
CONTINUOUS
 62
     7
 10
873.7054117450176
 20
156.2926227387111
 30
0.0
 11
873.7096073597984
 21
156.2684648738557
 31
0.0
  0
LINE
  5
316
  8
0
  6
CONTINUOUS
 62
     7
 10
873.7096073597983
 20
156.2684648738557
 30
0.0
 11
873.7149843734027
 21
156.2445479469795
 31
0.0
  0
LINE
  5
317
  8
0
  6
CONTINUOUS
 62
     7
 10
873.7149843734027
 20
156.2445479469795
 30
0.0
 11
873.7215298321339
 21
156.2209295760539
 31
0.0
  0
LINE
  5
318
  8
0
  6
CONTINUOUS
 62
     7
 10
873.7215298321339
 20
156.2209295760539
 30
0.0
 11
873.7292279674085
 21
156.1976666598034
 31
0.0
  0
LINE
  5
319
  8
0
  6
CONTINUOUS
 62
     7
 10
873.7292279674085
 20
156.1976666598034
 30
0.0
 11
873.7380602337444
 21
156.1748152406308
 31
0.0
  0
LINE
  5
31A
  8
0
  6
CONTINUOUS
 62
     7
 10
873.7380602337444
 20
156.1748152406308
 30
0.0
 11
873.7480053534383
 21
156.1524303696065
 31
0.0
  0
LINE
  5
31B
  8
0
  6
CONTINUOUS
 62
     7
 10
873.7480053534383
 20
156.1524303696065
 30
0.0
 11
873.7590393678258
 21
156.1305659738453
 31
0.0
  0
LINE
  5
31C
  8
0
  6
CONTINUOUS
 62
     7
 10
873.7590393678258
 20
156.1305659738453
 30
0.0
 11
873.7711356949999
 21
156.1092747265918
 31
0.0
  0
LINE
  5
31D
  8
0
  6
CONTINUOUS
 62
     7
 10
873.7711356949998
 20
156.1092747265918
 30
0.0
 11
873.7842651938487
 21
156.0886079203256
 31
0.0
  0
LINE
  5
31E
  8
0
  6
CONTINUOUS
 62
     7
 10
873.7842651938487
 20
156.0886079203256
 30
0.0
 11
873.7983962342597
 21
156.068615343193
 31
0.0
  0
LINE
  5
31F
  8
0
  6
CONTINUOUS
 62
     7
 10
873.7983962342597
 20
156.068615343193
 30
0.0
 11
873.8134947733186
 21
156.0493451590636
 31
0.0
  0
LINE
  5
320
  8
0
  6
CONTINUOUS
 62
     7
 10
873.8134947733186
 20
156.0493451590636
 30
0.0
 11
873.8295244373224
 21
156.0308437914989
 31
0.0
  0
LINE
  5
321
  8
0
  6
CONTINUOUS
 62
     7
 10
873.8295244373224
 20
156.0308437914989
 30
0.0
 11
873.8464466094066
 21
156.0131558119137
 31
0.0
  0
LINE
  5
322
  8
0
  6
CONTINUOUS
 62
     7
 10
873.8464466094067
 20
156.0131558119137
 30
0.0
 11
873.8642205225765
 21
155.9963238322002
 31
0.0
  0
LINE
  5
323
  8
0
  6
CONTINUOUS
 62
     7
 10
873.8642205225764
 20
155.9963238322002
 30
0.0
 11
873.882803357918
 21
155.9803884020719
 31
0.0
  0
LINE
  5
324
  8
0
  6
CONTINUOUS
 62
     7
 10
873.882803357918
 20
155.9803884020719
 30
0.0
 11
873.9021503477537
 21
155.9653879113756
 31
0.0
  0
LINE
  5
325
  8
0
  6
CONTINUOUS
 62
     7
 10
873.9021503477537
 20
155.9653879113756
 30
0.0
 11
873.9222148834901
 21
155.9513584976074
 31
0.0
  0
LINE
  5
326
  8
0
  6
CONTINUOUS
 62
     7
 10
873.9222148834901
 20
155.9513584976074
 30
0.0
 11
873.9429486279033
 21
155.9383339588539
 31
0.0
  0
LINE
  5
327
  8
0
  6
CONTINUOUS
 62
     7
 10
873.9429486279033
 20
155.9383339588539
 30
0.0
 11
873.964301631587
 21
155.9263456723697
 31
0.0
  0
LINE
  5
328
  8
0
  6
CONTINUOUS
 62
     7
 10
873.964301631587
 20
155.9263456723697
 30
0.0
 11
873.9862224532848
 21
155.915422518987
 31
0.0
  0
LINE
  5
329
  8
0
  6
CONTINUOUS
 62
     7
 10
873.9862224532848
 20
155.915422518987
 30
0.0
 11
874.0086582838173
 21
155.9055908135392
 31
0.0
  0
LINE
  5
32A
  8
0
  6
CONTINUOUS
 62
     7
 10
874.0086582838173
 20
155.9055908135392
 30
0.0
 11
874.0315550733038
 21
155.8968742414656
 31
0.0
  0
LINE
  5
32B
  8
0
  6
CONTINUOUS
 62
     7
 10
874.0315550733038
 20
155.8968742414656
 30
0.0
 11
874.0548576613728
 21
155.8892938017522
 31
0.0
  0
LINE
  5
32C
  8
0
  6
CONTINUOUS
 62
     7
 10
874.0548576613728
 20
155.8892938017522
 30
0.0
 11
874.0785099100483
 21
155.8828677563418
 31
0.0
  0
LINE
  5
32D
  8
0
  6
CONTINUOUS
 62
     7
 10
874.0785099100483
 20
155.8828677563418
 30
0.0
 11
874.1024548389918
 21
155.8776115861409
 31
0.0
  0
LINE
  5
32E
  8
0
  6
CONTINUOUS
 62
     7
 10
874.1024548389919
 20
155.8776115861409
 30
0.0
 11
874.1266347627723
 21
155.8735379537239
 31
0.0
  0
LINE
  5
32F
  8
0
  6
CONTINUOUS
 62
     7
 10
874.1266347627723
 20
155.8735379537239
 30
0.0
 11
874.1509914298351
 21
155.870656672828
 31
0.0
  0
LINE
  5
330
  8
0
  6
CONTINUOUS
 62
     7
 10
874.1509914298351
 20
155.870656672828
 30
0.0
 11
874.1754661628361
 21
155.8689746847114
 31
0.0
  0
LINE
  5
331
  8
0
  6
CONTINUOUS
 62
     7
 10
874.1754661628362
 20
155.8689746847114
 30
0.0
 11
874.2
 21
155.8684960414306
 31
0.0
  0
LINE
  5
332
  8
0
  6
CONTINUOUS
 62
     7
 10
874.1999999999999
 20
157.4209709642782
 30
0.0
 11
874.1024548389919
 21
157.411363238647
 31
0.0
  0
LINE
  5
333
  8
0
  6
CONTINUOUS
 62
     7
 10
874.1024548389919
 20
157.411363238647
 30
0.0
 11
874.0086582838176
 21
157.3829092812615
 31
0.0
  0
LINE
  5
334
  8
0
  6
CONTINUOUS
 62
     7
 10
874.0086582838176
 20
157.3829092812615
 30
0.0
 11
873.9222148834901
 21
157.3367025617469
 31
0.0
  0
LINE
  5
335
  8
0
  6
CONTINUOUS
 62
     7
 10
873.9222148834901
 20
157.3367025617469
 30
0.0
 11
873.8464466094067
 21
157.2745187784209
 31
0.0
  0
LINE
  5
336
  8
0
  6
CONTINUOUS
 62
     7
 10
873.8464466094067
 20
157.2745187784209
 30
0.0
 11
873.7842651938487
 21
157.1987476192039
 31
0.0
  0
LINE
  5
337
  8
0
  6
CONTINUOUS
 62
     7
 10
873.7842651938487
 20
157.1987476192039
 30
0.0
 11
873.7380602337444
 21
157.1123009272515
 31
0.0
  0
LINE
  5
338
  8
0
  6
CONTINUOUS
 62
     7
 10
873.7380602337444
 20
157.1123009272515
 30
0.0
 11
873.7096073597983
 21
157.0185008004556
 31
0.0
  0
LINE
  5
339
  8
0
  6
CONTINUOUS
 62
     7
 10
873.7096073597983
 20
157.0185008004556
 30
0.0
 11
873.6999999999999
 21
156.9209519250853
 31
0.0
  0
LINE
  5
33A
  8
0
  6
CONTINUOUS
 62
     7
 10
873.6999999999999
 20
156.9165620096096
 30
0.0
 11
873.6999999999999
 21
156.9209519250853
 31
0.0
  0
LINE
  5
33B
  8
0
  6
CONTINUOUS
 62
     7
 10
805.8000000000001
 20
191.9315039585694
 30
0.0
 11
805.8245338371637
 21
191.9310253152887
 31
0.0
  0
LINE
  5
33C
  8
0
  6
CONTINUOUS
 62
     7
 10
805.8245338371637
 20
191.9310253152887
 30
0.0
 11
805.8490085701649
 21
191.929343327172
 31
0.0
  0
LINE
  5
33D
  8
0
  6
CONTINUOUS
 62
     7
 10
805.8490085701649
 20
191.929343327172
 30
0.0
 11
805.8733652372276
 21
191.9264620462761
 31
0.0
  0
LINE
  5
33E
  8
0
  6
CONTINUOUS
 62
     7
 10
805.8733652372276
 20
191.9264620462761
 30
0.0
 11
805.8975451610082
 21
191.9223884138591
 31
0.0
  0
LINE
  5
33F
  8
0
  6
CONTINUOUS
 62
     7
 10
805.8975451610081
 20
191.9223884138591
 30
0.0
 11
805.9214900899516
 21
191.9171322436582
 31
0.0
  0
LINE
  5
340
  8
0
  6
CONTINUOUS
 62
     7
 10
805.9214900899516
 20
191.9171322436582
 30
0.0
 11
805.9451423386272
 21
191.9107061982479
 31
0.0
  0
LINE
  5
341
  8
0
  6
CONTINUOUS
 62
     7
 10
805.9451423386272
 20
191.9107061982479
 30
0.0
 11
805.9684449266962
 21
191.9031257585343
 31
0.0
  0
LINE
  5
342
  8
0
  6
CONTINUOUS
 62
     7
 10
805.9684449266962
 20
191.9031257585343
 30
0.0
 11
805.9913417161825
 21
191.8944091864608
 31
0.0
  0
LINE
  5
343
  8
0
  6
CONTINUOUS
 62
     7
 10
805.9913417161824
 20
191.8944091864608
 30
0.0
 11
806.0137775467151
 21
191.8845774810129
 31
0.0
  0
LINE
  5
344
  8
0
  6
CONTINUOUS
 62
     7
 10
806.0137775467151
 20
191.8845774810129
 30
0.0
 11
806.035698368413
 21
191.8736543276303
 31
0.0
  0
LINE
  5
345
  8
0
  6
CONTINUOUS
 62
     7
 10
806.0356983684129
 20
191.8736543276303
 30
0.0
 11
806.0570513720966
 21
191.8616660411461
 31
0.0
  0
LINE
  5
346
  8
0
  6
CONTINUOUS
 62
     7
 10
806.0570513720966
 20
191.8616660411461
 30
0.0
 11
806.0777851165099
 21
191.8486415023926
 31
0.0
  0
LINE
  5
347
  8
0
  6
CONTINUOUS
 62
     7
 10
806.0777851165097
 20
191.8486415023926
 30
0.0
 11
806.0978496522462
 21
191.8346120886244
 31
0.0
  0
LINE
  5
348
  8
0
  6
CONTINUOUS
 62
     7
 10
806.0978496522462
 20
191.8346120886244
 30
0.0
 11
806.1171966420817
 21
191.8196115979281
 31
0.0
  0
LINE
  5
349
  8
0
  6
CONTINUOUS
 62
     7
 10
806.1171966420818
 20
191.8196115979281
 30
0.0
 11
806.1357794774235
 21
191.8036761677998
 31
0.0
  0
LINE
  5
34A
  8
0
  6
CONTINUOUS
 62
     7
 10
806.1357794774235
 20
191.8036761677998
 30
0.0
 11
806.1535533905932
 21
191.7868441880863
 31
0.0
  0
LINE
  5
34B
  8
0
  6
CONTINUOUS
 62
     7
 10
806.1535533905932
 20
191.7868441880863
 30
0.0
 11
806.1704755626776
 21
191.7691562085012
 31
0.0
  0
LINE
  5
34C
  8
0
  6
CONTINUOUS
 62
     7
 10
806.1704755626776
 20
191.7691562085012
 30
0.0
 11
806.1865052266813
 21
191.7506548409363
 31
0.0
  0
LINE
  5
34D
  8
0
  6
CONTINUOUS
 62
     7
 10
806.1865052266812
 20
191.7506548409363
 30
0.0
 11
806.2016037657402
 21
191.7313846568069
 31
0.0
  0
LINE
  5
34E
  8
0
  6
CONTINUOUS
 62
     7
 10
806.2016037657402
 20
191.7313846568069
 30
0.0
 11
806.2157348061511
 21
191.7113920796744
 31
0.0
  0
LINE
  5
34F
  8
0
  6
CONTINUOUS
 62
     7
 10
806.2157348061511
 20
191.7113920796744
 30
0.0
 11
806.228864305
 21
191.6907252734082
 31
0.0
  0
LINE
  5
350
  8
0
  6
CONTINUOUS
 62
     7
 10
806.2288643050001
 20
191.6907252734082
 30
0.0
 11
806.2409606321743
 21
191.6694340261547
 31
0.0
  0
LINE
  5
351
  8
0
  6
CONTINUOUS
 62
     7
 10
806.2409606321742
 20
191.6694340261547
 30
0.0
 11
806.2519946465616
 21
191.6475696303935
 31
0.0
  0
LINE
  5
352
  8
0
  6
CONTINUOUS
 62
     7
 10
806.2519946465616
 20
191.6475696303935
 30
0.0
 11
806.2619397662555
 21
191.6251847593692
 31
0.0
  0
LINE
  5
353
  8
0
  6
CONTINUOUS
 62
     7
 10
806.2619397662556
 20
191.6251847593692
 30
0.0
 11
806.2707720325915
 21
191.6023333401965
 31
0.0
  0
LINE
  5
354
  8
0
  6
CONTINUOUS
 62
     7
 10
806.2707720325915
 20
191.6023333401965
 30
0.0
 11
806.278470167866
 21
191.5790704239461
 31
0.0
  0
LINE
  5
355
  8
0
  6
CONTINUOUS
 62
     7
 10
806.278470167866
 20
191.5790704239461
 30
0.0
 11
806.2850156265972
 21
191.5554520530206
 31
0.0
  0
LINE
  5
356
  8
0
  6
CONTINUOUS
 62
     7
 10
806.2850156265972
 20
191.5554520530206
 30
0.0
 11
806.2903926402015
 21
191.5315351261443
 31
0.0
  0
LINE
  5
357
  8
0
  6
CONTINUOUS
 62
     7
 10
806.2903926402016
 20
191.5315351261443
 30
0.0
 11
806.2945882549824
 21
191.5073772612889
 31
0.0
  0
LINE
  5
358
  8
0
  6
CONTINUOUS
 62
     7
 10
806.2945882549824
 20
191.5073772612889
 30
0.0
 11
806.297592363336
 21
191.483036656867
 31
0.0
  0
LINE
  5
359
  8
0
  6
CONTINUOUS
 62
     7
 10
806.2975923633361
 20
191.483036656867
 30
0.0
 11
806.2993977281026
 21
191.4585719515264
 31
0.0
  0
LINE
  5
35A
  8
0
  6
CONTINUOUS
 62
     7
 10
806.2993977281026
 20
191.4585719515264
 30
0.0
 11
806.3
 21
191.4340420828853
 31
0.0
  0
LINE
  5
35B
  8
0
  6
CONTINUOUS
 62
     7
 10
806.3
 20
191.4165620096096
 30
0.0
 11
806.3
 21
191.4340420828853
 31
0.0
  0
LINE
  5
35C
  8
0
  6
CONTINUOUS
 62
     7
 10
806.3
 20
156.3659579171147
 30
0.0
 11
806.3
 21
156.3834379903904
 31
0.0
  0
LINE
  5
35D
  8
0
  6
CONTINUOUS
 62
     7
 10
806.3
 20
156.3659579171147
 30
0.0
 11
806.2993977281026
 21
156.3414280484736
 31
0.0
  0
LINE
  5
35E
  8
0
  6
CONTINUOUS
 62
     7
 10
806.2993977281026
 20
156.3414280484736
 30
0.0
 11
806.2975923633361
 21
156.316963343133
 31
0.0
  0
LINE
  5
35F
  8
0
  6
CONTINUOUS
 62
     7
 10
806.2975923633361
 20
156.316963343133
 30
0.0
 11
806.2945882549824
 21
156.2926227387111
 31
0.0
  0
LINE
  5
360
  8
0
  6
CONTINUOUS
 62
     7
 10
806.2945882549824
 20
156.2926227387111
 30
0.0
 11
806.2903926402015
 21
156.2684648738557
 31
0.0
  0
LINE
  5
361
  8
0
  6
CONTINUOUS
 62
     7
 10
806.2903926402016
 20
156.2684648738557
 30
0.0
 11
806.2850156265973
 21
156.2445479469795
 31
0.0
  0
LINE
  5
362
  8
0
  6
CONTINUOUS
 62
     7
 10
806.2850156265972
 20
156.2445479469795
 30
0.0
 11
806.278470167866
 21
156.2209295760539
 31
0.0
  0
LINE
  5
363
  8
0
  6
CONTINUOUS
 62
     7
 10
806.278470167866
 20
156.2209295760539
 30
0.0
 11
806.2707720325915
 21
156.1976666598034
 31
0.0
  0
LINE
  5
364
  8
0
  6
CONTINUOUS
 62
     7
 10
806.2707720325915
 20
156.1976666598034
 30
0.0
 11
806.2619397662556
 21
156.1748152406308
 31
0.0
  0
LINE
  5
365
  8
0
  6
CONTINUOUS
 62
     7
 10
806.2619397662556
 20
156.1748152406308
 30
0.0
 11
806.2519946465617
 21
156.1524303696065
 31
0.0
  0
LINE
  5
366
  8
0
  6
CONTINUOUS
 62
     7
 10
806.2519946465616
 20
156.1524303696065
 30
0.0
 11
806.240960632174
 21
156.1305659738453
 31
0.0
  0
LINE
  5
367
  8
0
  6
CONTINUOUS
 62
     7
 10
806.2409606321742
 20
156.1305659738453
 30
0.0
 11
806.2288643050001
 21
156.1092747265918
 31
0.0
  0
LINE
  5
368
  8
0
  6
CONTINUOUS
 62
     7
 10
806.2288643050001
 20
156.1092747265918
 30
0.0
 11
806.2157348061512
 21
156.0886079203256
 31
0.0
  0
LINE
  5
369
  8
0
  6
CONTINUOUS
 62
     7
 10
806.2157348061511
 20
156.0886079203256
 30
0.0
 11
806.2016037657402
 21
156.068615343193
 31
0.0
  0
LINE
  5
36A
  8
0
  6
CONTINUOUS
 62
     7
 10
806.2016037657402
 20
156.068615343193
 30
0.0
 11
806.1865052266812
 21
156.0493451590636
 31
0.0
  0
LINE
  5
36B
  8
0
  6
CONTINUOUS
 62
     7
 10
806.1865052266812
 20
156.0493451590636
 30
0.0
 11
806.1704755626774
 21
156.0308437914989
 31
0.0
  0
LINE
  5
36C
  8
0
  6
CONTINUOUS
 62
     7
 10
806.1704755626776
 20
156.0308437914989
 30
0.0
 11
806.1535533905932
 21
156.0131558119137
 31
0.0
  0
LINE
  5
36D
  8
0
  6
CONTINUOUS
 62
     7
 10
806.1535533905932
 20
156.0131558119137
 30
0.0
 11
806.1357794774235
 21
155.9963238322002
 31
0.0
  0
LINE
  5
36E
  8
0
  6
CONTINUOUS
 62
     7
 10
806.1357794774235
 20
155.9963238322002
 30
0.0
 11
806.1171966420818
 21
155.9803884020718
 31
0.0
  0
LINE
  5
36F
  8
0
  6
CONTINUOUS
 62
     7
 10
806.1171966420818
 20
155.9803884020718
 30
0.0
 11
806.0978496522462
 21
155.9653879113756
 31
0.0
  0
LINE
  5
370
  8
0
  6
CONTINUOUS
 62
     7
 10
806.0978496522462
 20
155.9653879113756
 30
0.0
 11
806.0777851165096
 21
155.9513584976074
 31
0.0
  0
LINE
  5
371
  8
0
  6
CONTINUOUS
 62
     7
 10
806.0777851165097
 20
155.9513584976074
 30
0.0
 11
806.0570513720966
 21
155.9383339588539
 31
0.0
  0
LINE
  5
372
  8
0
  6
CONTINUOUS
 62
     7
 10
806.0570513720966
 20
155.9383339588539
 30
0.0
 11
806.0356983684129
 21
155.9263456723697
 31
0.0
  0
LINE
  5
373
  8
0
  6
CONTINUOUS
 62
     7
 10
806.0356983684129
 20
155.9263456723697
 30
0.0
 11
806.0137775467151
 21
155.915422518987
 31
0.0
  0
LINE
  5
374
  8
0
  6
CONTINUOUS
 62
     7
 10
806.0137775467151
 20
155.915422518987
 30
0.0
 11
805.9913417161824
 21
155.9055908135392
 31
0.0
  0
LINE
  5
375
  8
0
  6
CONTINUOUS
 62
     7
 10
805.9913417161824
 20
155.9055908135392
 30
0.0
 11
805.9684449266962
 21
155.8968742414656
 31
0.0
  0
LINE
  5
376
  8
0
  6
CONTINUOUS
 62
     7
 10
805.9684449266962
 20
155.8968742414656
 30
0.0
 11
805.9451423386272
 21
155.8892938017522
 31
0.0
  0
LINE
  5
377
  8
0
  6
CONTINUOUS
 62
     7
 10
805.9451423386272
 20
155.8892938017522
 30
0.0
 11
805.9214900899516
 21
155.8828677563418
 31
0.0
  0
LINE
  5
378
  8
0
  6
CONTINUOUS
 62
     7
 10
805.9214900899516
 20
155.8828677563418
 30
0.0
 11
805.8975451610082
 21
155.8776115861409
 31
0.0
  0
LINE
  5
379
  8
0
  6
CONTINUOUS
 62
     7
 10
805.8975451610081
 20
155.8776115861409
 30
0.0
 11
805.8733652372276
 21
155.8735379537239
 31
0.0
  0
LINE
  5
37A
  8
0
  6
CONTINUOUS
 62
     7
 10
805.8733652372276
 20
155.8735379537239
 30
0.0
 11
805.8490085701649
 21
155.870656672828
 31
0.0
  0
LINE
  5
37B
  8
0
  6
CONTINUOUS
 62
     7
 10
805.8490085701649
 20
155.870656672828
 30
0.0
 11
805.8245338371637
 21
155.8689746847114
 31
0.0
  0
LINE
  5
37C
  8
0
  6
CONTINUOUS
 62
     7
 10
805.8245338371637
 20
155.8689746847114
 30
0.0
 11
805.8000000000001
 21
155.8684960414306
 31
0.0
  0
LINE
  5
37D
  8
0
  6
CONTINUOUS
 62
     7
 10
873.6999999999999
 20
98.6340420828853
 30
0.0
 11
873.6999999999999
 21
98.6165620096096
 31
0.0
  0
LINE
  5
37E
  8
0
  6
CONTINUOUS
 62
     7
 10
873.6999999999999
 20
98.6340420828853
 30
0.0
 11
873.7006022718974
 21
98.6585719515264
 31
0.0
  0
LINE
  5
37F
  8
0
  6
CONTINUOUS
 62
     7
 10
873.7006022718974
 20
98.6585719515264
 30
0.0
 11
873.7024076366637
 21
98.683036656867
 31
0.0
  0
LINE
  5
380
  8
0
  6
CONTINUOUS
 62
     7
 10
873.7024076366637
 20
98.683036656867
 30
0.0
 11
873.7054117450176
 21
98.707377261289
 31
0.0
  0
LINE
  5
381
  8
0
  6
CONTINUOUS
 62
     7
 10
873.7054117450176
 20
98.707377261289
 30
0.0
 11
873.7096073597983
 21
98.7315351261443
 31
0.0
  0
LINE
  5
382
  8
0
  6
CONTINUOUS
 62
     7
 10
873.7096073597983
 20
98.7315351261443
 30
0.0
 11
873.7149843734027
 21
98.7554520530206
 31
0.0
  0
LINE
  5
383
  8
0
  6
CONTINUOUS
 62
     7
 10
873.7149843734027
 20
98.7554520530206
 30
0.0
 11
873.7215298321339
 21
98.7790704239461
 31
0.0
  0
LINE
  5
384
  8
0
  6
CONTINUOUS
 62
     7
 10
873.7215298321339
 20
98.7790704239461
 30
0.0
 11
873.7292279674085
 21
98.8023333401966
 31
0.0
  0
LINE
  5
385
  8
0
  6
CONTINUOUS
 62
     7
 10
873.7292279674085
 20
98.8023333401966
 30
0.0
 11
873.7380602337444
 21
98.8251847593692
 31
0.0
  0
LINE
  5
386
  8
0
  6
CONTINUOUS
 62
     7
 10
873.7380602337444
 20
98.8251847593692
 30
0.0
 11
873.7480053534383
 21
98.8475696303935
 31
0.0
  0
LINE
  5
387
  8
0
  6
CONTINUOUS
 62
     7
 10
873.7480053534383
 20
98.8475696303935
 30
0.0
 11
873.7590393678258
 21
98.8694340261547
 31
0.0
  0
LINE
  5
388
  8
0
  6
CONTINUOUS
 62
     7
 10
873.7590393678258
 20
98.8694340261547
 30
0.0
 11
873.7711356949999
 21
98.8907252734081
 31
0.0
  0
LINE
  5
389
  8
0
  6
CONTINUOUS
 62
     7
 10
873.7711356949998
 20
98.8907252734081
 30
0.0
 11
873.7842651938486
 21
98.91139207967439
 31
0.0
  0
LINE
  5
38A
  8
0
  6
CONTINUOUS
 62
     7
 10
873.7842651938487
 20
98.91139207967439
 30
0.0
 11
873.7983962342597
 21
98.931384656807
 31
0.0
  0
LINE
  5
38B
  8
0
  6
CONTINUOUS
 62
     7
 10
873.7983962342597
 20
98.931384656807
 30
0.0
 11
873.8134947733186
 21
98.9506548409363
 31
0.0
  0
LINE
  5
38C
  8
0
  6
CONTINUOUS
 62
     7
 10
873.8134947733186
 20
98.9506548409363
 30
0.0
 11
873.8295244373224
 21
98.9691562085011
 31
0.0
  0
LINE
  5
38D
  8
0
  6
CONTINUOUS
 62
     7
 10
873.8295244373224
 20
98.9691562085011
 30
0.0
 11
873.8464466094067
 21
98.9868441880863
 31
0.0
  0
LINE
  5
38E
  8
0
  6
CONTINUOUS
 62
     7
 10
873.8464466094067
 20
98.9868441880863
 30
0.0
 11
873.8642205225764
 21
99.0036761677998
 31
0.0
  0
LINE
  5
38F
  8
0
  6
CONTINUOUS
 62
     7
 10
873.8642205225764
 20
99.0036761677998
 30
0.0
 11
873.882803357918
 21
99.0196115979281
 31
0.0
  0
LINE
  5
390
  8
0
  6
CONTINUOUS
 62
     7
 10
873.882803357918
 20
99.0196115979281
 30
0.0
 11
873.9021503477537
 21
99.03461208862439
 31
0.0
  0
LINE
  5
391
  8
0
  6
CONTINUOUS
 62
     7
 10
873.9021503477537
 20
99.03461208862439
 30
0.0
 11
873.9222148834901
 21
99.04864150239258
 31
0.0
  0
LINE
  5
392
  8
0
  6
CONTINUOUS
 62
     7
 10
873.9222148834901
 20
99.04864150239258
 30
0.0
 11
873.9429486279033
 21
99.0616660411461
 31
0.0
  0
LINE
  5
393
  8
0
  6
CONTINUOUS
 62
     7
 10
873.9429486279033
 20
99.0616660411461
 30
0.0
 11
873.964301631587
 21
99.0736543276303
 31
0.0
  0
LINE
  5
394
  8
0
  6
CONTINUOUS
 62
     7
 10
873.964301631587
 20
99.0736543276303
 30
0.0
 11
873.9862224532848
 21
99.084577481013
 31
0.0
  0
LINE
  5
395
  8
0
  6
CONTINUOUS
 62
     7
 10
873.9862224532848
 20
99.084577481013
 30
0.0
 11
874.0086582838173
 21
99.0944091864608
 31
0.0
  0
LINE
  5
396
  8
0
  6
CONTINUOUS
 62
     7
 10
874.0086582838173
 20
99.0944091864608
 30
0.0
 11
874.0315550733037
 21
99.1031257585343
 31
0.0
  0
LINE
  5
397
  8
0
  6
CONTINUOUS
 62
     7
 10
874.0315550733038
 20
99.1031257585343
 30
0.0
 11
874.0548576613728
 21
99.1107061982479
 31
0.0
  0
LINE
  5
398
  8
0
  6
CONTINUOUS
 62
     7
 10
874.0548576613728
 20
99.1107061982479
 30
0.0
 11
874.0785099100484
 21
99.1171322436582
 31
0.0
  0
LINE
  5
399
  8
0
  6
CONTINUOUS
 62
     7
 10
874.0785099100483
 20
99.1171322436582
 30
0.0
 11
874.1024548389918
 21
99.1223884138591
 31
0.0
  0
LINE
  5
39A
  8
0
  6
CONTINUOUS
 62
     7
 10
874.1024548389919
 20
99.1223884138591
 30
0.0
 11
874.1266347627723
 21
99.1264620462761
 31
0.0
  0
LINE
  5
39B
  8
0
  6
CONTINUOUS
 62
     7
 10
874.1266347627723
 20
99.1264620462761
 30
0.0
 11
874.1509914298351
 21
99.129343327172
 31
0.0
  0
LINE
  5
39C
  8
0
  6
CONTINUOUS
 62
     7
 10
874.1509914298351
 20
99.129343327172
 30
0.0
 11
874.1754661628361
 21
99.1310253152886
 31
0.0
  0
LINE
  5
39D
  8
0
  6
CONTINUOUS
 62
     7
 10
874.1754661628362
 20
99.1310253152886
 30
0.0
 11
874.2
 21
99.1315039585694
 31
0.0
  0
LINE
  5
39E
  8
0
  6
CONTINUOUS
 62
     7
 10
806.3
 20
156.9209519250853
 30
0.0
 11
806.2903926402016
 21
157.0185008004556
 31
0.0
  0
LINE
  5
39F
  8
0
  6
CONTINUOUS
 62
     7
 10
806.2903926402016
 20
157.0185008004556
 30
0.0
 11
806.2619397662556
 21
157.1123009272515
 31
0.0
  0
LINE
  5
3A0
  8
0
  6
CONTINUOUS
 62
     7
 10
806.2619397662556
 20
157.1123009272515
 30
0.0
 11
806.2157348061512
 21
157.1987476192039
 31
0.0
  0
LINE
  5
3A1
  8
0
  6
CONTINUOUS
 62
     7
 10
806.2157348061511
 20
157.1987476192039
 30
0.0
 11
806.1535533905931
 21
157.2745187784209
 31
0.0
  0
LINE
  5
3A2
  8
0
  6
CONTINUOUS
 62
     7
 10
806.1535533905932
 20
157.2745187784209
 30
0.0
 11
806.0777851165097
 21
157.3367025617469
 31
0.0
  0
LINE
  5
3A3
  8
0
  6
CONTINUOUS
 62
     7
 10
806.0777851165097
 20
157.3367025617469
 30
0.0
 11
805.9913417161825
 21
157.3829092812615
 31
0.0
  0
LINE
  5
3A4
  8
0
  6
CONTINUOUS
 62
     7
 10
805.9913417161824
 20
157.3829092812615
 30
0.0
 11
805.897545161008
 21
157.411363238647
 31
0.0
  0
LINE
  5
3A5
  8
0
  6
CONTINUOUS
 62
     7
 10
805.897545161008
 20
157.411363238647
 30
0.0
 11
805.8000000000001
 21
157.4209709642782
 31
0.0
  0
LINE
  5
3A6
  8
0
  6
CONTINUOUS
 62
     7
 10
806.3
 20
156.9165620096096
 30
0.0
 11
806.3
 21
156.9209519250853
 31
0.0
  0
LINE
  5
3A7
  8
0
  6
CONTINUOUS
 62
     7
 10
873.6999999999999
 20
98.0790480749147
 30
0.0
 11
873.7096073597983
 21
97.9814991995444
 31
0.0
  0
LINE
  5
3A8
  8
0
  6
CONTINUOUS
 62
     7
 10
873.7096073597983
 20
97.9814991995444
 30
0.0
 11
873.7380602337444
 21
97.8876990727485
 31
0.0
  0
LINE
  5
3A9
  8
0
  6
CONTINUOUS
 62
     7
 10
873.7380602337444
 20
97.8876990727485
 30
0.0
 11
873.7842651938486
 21
97.80125238079609
 31
0.0
  0
LINE
  5
3AA
  8
0
  6
CONTINUOUS
 62
     7
 10
873.7842651938487
 20
97.80125238079609
 30
0.0
 11
873.8464466094067
 21
97.7254812215791
 31
0.0
  0
LINE
  5
3AB
  8
0
  6
CONTINUOUS
 62
     7
 10
873.8464466094067
 20
97.7254812215791
 30
0.0
 11
873.9222148834901
 21
97.6632974382531
 31
0.0
  0
LINE
  5
3AC
  8
0
  6
CONTINUOUS
 62
     7
 10
873.9222148834901
 20
97.6632974382531
 30
0.0
 11
874.0086582838176
 21
97.61709071873848
 31
0.0
  0
LINE
  5
3AD
  8
0
  6
CONTINUOUS
 62
     7
 10
874.0086582838176
 20
97.61709071873848
 30
0.0
 11
874.1024548389919
 21
97.588636761353
 31
0.0
  0
LINE
  5
3AE
  8
0
  6
CONTINUOUS
 62
     7
 10
874.1024548389919
 20
97.588636761353
 30
0.0
 11
874.2
 21
97.5790290357218
 31
0.0
  0
LINE
  5
3AF
  8
0
  6
CONTINUOUS
 62
     7
 10
873.6999999999999
 20
98.0834379903904
 30
0.0
 11
873.6999999999999
 21
98.0790480749147
 31
0.0
  0
LINE
  5
3B0
  8
0
  6
CONTINUOUS
 62
     7
 10
806.3
 20
98.6340420828853
 30
0.0
 11
806.3
 21
98.6165620096096
 31
0.0
  0
LINE
  5
3B1
  8
0
  6
CONTINUOUS
 62
     7
 10
806.3
 20
98.6340420828853
 30
0.0
 11
806.2993977281026
 21
98.6585719515264
 31
0.0
  0
LINE
  5
3B2
  8
0
  6
CONTINUOUS
 62
     7
 10
806.2993977281026
 20
98.6585719515264
 30
0.0
 11
806.2975923633361
 21
98.683036656867
 31
0.0
  0
LINE
  5
3B3
  8
0
  6
CONTINUOUS
 62
     7
 10
806.2975923633361
 20
98.683036656867
 30
0.0
 11
806.2945882549824
 21
98.707377261289
 31
0.0
  0
LINE
  5
3B4
  8
0
  6
CONTINUOUS
 62
     7
 10
806.2945882549824
 20
98.707377261289
 30
0.0
 11
806.2903926402015
 21
98.7315351261443
 31
0.0
  0
LINE
  5
3B5
  8
0
  6
CONTINUOUS
 62
     7
 10
806.2903926402016
 20
98.7315351261443
 30
0.0
 11
806.2850156265973
 21
98.7554520530206
 31
0.0
  0
LINE
  5
3B6
  8
0
  6
CONTINUOUS
 62
     7
 10
806.2850156265972
 20
98.7554520530206
 30
0.0
 11
806.278470167866
 21
98.7790704239461
 31
0.0
  0
LINE
  5
3B7
  8
0
  6
CONTINUOUS
 62
     7
 10
806.278470167866
 20
98.7790704239461
 30
0.0
 11
806.2707720325915
 21
98.8023333401966
 31
0.0
  0
LINE
  5
3B8
  8
0
  6
CONTINUOUS
 62
     7
 10
806.2707720325915
 20
98.8023333401966
 30
0.0
 11
806.2619397662556
 21
98.8251847593692
 31
0.0
  0
LINE
  5
3B9
  8
0
  6
CONTINUOUS
 62
     7
 10
806.2619397662556
 20
98.8251847593692
 30
0.0
 11
806.2519946465617
 21
98.8475696303935
 31
0.0
  0
LINE
  5
3BA
  8
0
  6
CONTINUOUS
 62
     7
 10
806.2519946465616
 20
98.8475696303935
 30
0.0
 11
806.240960632174
 21
98.8694340261547
 31
0.0
  0
LINE
  5
3BB
  8
0
  6
CONTINUOUS
 62
     7
 10
806.2409606321742
 20
98.8694340261547
 30
0.0
 11
806.2288643050001
 21
98.8907252734081
 31
0.0
  0
LINE
  5
3BC
  8
0
  6
CONTINUOUS
 62
     7
 10
806.2288643050001
 20
98.8907252734081
 30
0.0
 11
806.2157348061512
 21
98.91139207967439
 31
0.0
  0
LINE
  5
3BD
  8
0
  6
CONTINUOUS
 62
     7
 10
806.2157348061511
 20
98.91139207967439
 30
0.0
 11
806.2016037657402
 21
98.931384656807
 31
0.0
  0
LINE
  5
3BE
  8
0
  6
CONTINUOUS
 62
     7
 10
806.2016037657402
 20
98.931384656807
 30
0.0
 11
806.1865052266812
 21
98.9506548409363
 31
0.0
  0
LINE
  5
3BF
  8
0
  6
CONTINUOUS
 62
     7
 10
806.1865052266812
 20
98.9506548409363
 30
0.0
 11
806.1704755626774
 21
98.9691562085011
 31
0.0
  0
LINE
  5
3C0
  8
0
  6
CONTINUOUS
 62
     7
 10
806.1704755626776
 20
98.9691562085011
 30
0.0
 11
806.1535533905932
 21
98.9868441880863
 31
0.0
  0
LINE
  5
3C1
  8
0
  6
CONTINUOUS
 62
     7
 10
806.1535533905932
 20
98.9868441880863
 30
0.0
 11
806.1357794774235
 21
99.0036761677998
 31
0.0
  0
LINE
  5
3C2
  8
0
  6
CONTINUOUS
 62
     7
 10
806.1357794774235
 20
99.0036761677998
 30
0.0
 11
806.1171966420819
 21
99.0196115979281
 31
0.0
  0
LINE
  5
3C3
  8
0
  6
CONTINUOUS
 62
     7
 10
806.1171966420818
 20
99.0196115979281
 30
0.0
 11
806.0978496522462
 21
99.03461208862439
 31
0.0
  0
LINE
  5
3C4
  8
0
  6
CONTINUOUS
 62
     7
 10
806.0978496522462
 20
99.03461208862439
 30
0.0
 11
806.0777851165096
 21
99.04864150239258
 31
0.0
  0
LINE
  5
3C5
  8
0
  6
CONTINUOUS
 62
     7
 10
806.0777851165097
 20
99.04864150239258
 30
0.0
 11
806.0570513720966
 21
99.0616660411461
 31
0.0
  0
LINE
  5
3C6
  8
0
  6
CONTINUOUS
 62
     7
 10
806.0570513720966
 20
99.0616660411461
 30
0.0
 11
806.0356983684129
 21
99.0736543276303
 31
0.0
  0
LINE
  5
3C7
  8
0
  6
CONTINUOUS
 62
     7
 10
806.0356983684129
 20
99.0736543276303
 30
0.0
 11
806.0137775467151
 21
99.084577481013
 31
0.0
  0
LINE
  5
3C8
  8
0
  6
CONTINUOUS
 62
     7
 10
806.0137775467151
 20
99.084577481013
 30
0.0
 11
805.9913417161824
 21
99.0944091864608
 31
0.0
  0
LINE
  5
3C9
  8
0
  6
CONTINUOUS
 62
     7
 10
805.9913417161824
 20
99.0944091864608
 30
0.0
 11
805.9684449266962
 21
99.1031257585343
 31
0.0
  0
LINE
  5
3CA
  8
0
  6
CONTINUOUS
 62
     7
 10
805.9684449266962
 20
99.1031257585343
 30
0.0
 11
805.9451423386272
 21
99.1107061982479
 31
0.0
  0
LINE
  5
3CB
  8
0
  6
CONTINUOUS
 62
     7
 10
805.9451423386272
 20
99.1107061982479
 30
0.0
 11
805.9214900899516
 21
99.1171322436582
 31
0.0
  0
LINE
  5
3CC
  8
0
  6
CONTINUOUS
 62
     7
 10
805.9214900899516
 20
99.1171322436582
 30
0.0
 11
805.8975451610082
 21
99.1223884138591
 31
0.0
  0
LINE
  5
3CD
  8
0
  6
CONTINUOUS
 62
     7
 10
805.8975451610081
 20
99.1223884138591
 30
0.0
 11
805.8733652372276
 21
99.1264620462761
 31
0.0
  0
LINE
  5
3CE
  8
0
  6
CONTINUOUS
 62
     7
 10
805.8733652372276
 20
99.1264620462761
 30
0.0
 11
805.8490085701649
 21
99.129343327172
 31
0.0
  0
LINE
  5
3CF
  8
0
  6
CONTINUOUS
 62
     7
 10
805.8490085701649
 20
99.129343327172
 30
0.0
 11
805.8245338371638
 21
99.1310253152886
 31
0.0
  0
LINE
  5
3D0
  8
0
  6
CONTINUOUS
 62
     7
 10
805.8245338371637
 20
99.1310253152886
 30
0.0
 11
805.8000000000001
 21
99.1315039585694
 31
0.0
  0
LINE
  5
3D1
  8
0
  6
CONTINUOUS
 62
     7
 10
873.6999999999999
 20
64.12095192508527
 30
0.0
 11
873.6999999999999
 21
64.11656200960958
 31
0.0
  0
LINE
  5
3D2
  8
0
  6
CONTINUOUS
 62
     7
 10
874.1999999999999
 20
64.62097096427816
 30
0.0
 11
874.1024548389919
 21
64.611363238647
 31
0.0
  0
LINE
  5
3D3
  8
0
  6
CONTINUOUS
 62
     7
 10
874.1024548389919
 20
64.611363238647
 30
0.0
 11
874.0086582838176
 21
64.58290928126154
 31
0.0
  0
LINE
  5
3D4
  8
0
  6
CONTINUOUS
 62
     7
 10
874.0086582838176
 20
64.58290928126154
 30
0.0
 11
873.9222148834901
 21
64.53670256174686
 31
0.0
  0
LINE
  5
3D5
  8
0
  6
CONTINUOUS
 62
     7
 10
873.9222148834901
 20
64.53670256174686
 30
0.0
 11
873.8464466094067
 21
64.47451877842094
 31
0.0
  0
LINE
  5
3D6
  8
0
  6
CONTINUOUS
 62
     7
 10
873.8464466094067
 20
64.47451877842094
 30
0.0
 11
873.7842651938487
 21
64.3987476192039
 31
0.0
  0
LINE
  5
3D7
  8
0
  6
CONTINUOUS
 62
     7
 10
873.7842651938487
 20
64.3987476192039
 30
0.0
 11
873.7380602337444
 21
64.3123009272515
 31
0.0
  0
LINE
  5
3D8
  8
0
  6
CONTINUOUS
 62
     7
 10
873.7380602337444
 20
64.3123009272515
 30
0.0
 11
873.7096073597983
 21
64.2185008004556
 31
0.0
  0
LINE
  5
3D9
  8
0
  6
CONTINUOUS
 62
     7
 10
873.7096073597983
 20
64.2185008004556
 30
0.0
 11
873.6999999999999
 21
64.12095192508527
 31
0.0
  0
LINE
  5
3DA
  8
0
  6
CONTINUOUS
 62
     7
 10
874.1999999999999
 20
63.06849604143061
 30
0.0
 11
874.1754661628362
 21
63.06897468471134
 31
0.0
  0
LINE
  5
3DB
  8
0
  6
CONTINUOUS
 62
     7
 10
874.1754661628362
 20
63.06897468471134
 30
0.0
 11
874.1509914298352
 21
63.07065667282802
 31
0.0
  0
LINE
  5
3DC
  8
0
  6
CONTINUOUS
 62
     7
 10
874.1509914298351
 20
63.07065667282802
 30
0.0
 11
874.1266347627723
 21
63.07353795372389
 31
0.0
  0
LINE
  5
3DD
  8
0
  6
CONTINUOUS
 62
     7
 10
874.1266347627723
 20
63.07353795372389
 30
0.0
 11
874.1024548389919
 21
63.07761158614089
 31
0.0
  0
LINE
  5
3DE
  8
0
  6
CONTINUOUS
 62
     7
 10
874.1024548389919
 20
63.07761158614089
 30
0.0
 11
874.0785099100484
 21
63.08286775634176
 31
0.0
  0
LINE
  5
3DF
  8
0
  6
CONTINUOUS
 62
     7
 10
874.0785099100483
 20
63.08286775634176
 30
0.0
 11
874.0548576613727
 21
63.0892938017521
 31
0.0
  0
LINE
  5
3E0
  8
0
  6
CONTINUOUS
 62
     7
 10
874.0548576613728
 20
63.0892938017521
 30
0.0
 11
874.0315550733038
 21
63.09687424146565
 31
0.0
  0
LINE
  5
3E1
  8
0
  6
CONTINUOUS
 62
     7
 10
874.0315550733038
 20
63.09687424146565
 30
0.0
 11
874.0086582838173
 21
63.10559081353917
 31
0.0
  0
LINE
  5
3E2
  8
0
  6
CONTINUOUS
 62
     7
 10
874.0086582838173
 20
63.10559081353917
 30
0.0
 11
873.9862224532848
 21
63.11542251898704
 31
0.0
  0
LINE
  5
3E3
  8
0
  6
CONTINUOUS
 62
     7
 10
873.9862224532848
 20
63.11542251898704
 30
0.0
 11
873.964301631587
 21
63.12634567236969
 31
0.0
  0
LINE
  5
3E4
  8
0
  6
CONTINUOUS
 62
     7
 10
873.964301631587
 20
63.12634567236969
 30
0.0
 11
873.9429486279033
 21
63.13833395885388
 31
0.0
  0
LINE
  5
3E5
  8
0
  6
CONTINUOUS
 62
     7
 10
873.9429486279033
 20
63.13833395885388
 30
0.0
 11
873.92221488349
 21
63.15135849760739
 31
0.0
  0
LINE
  5
3E6
  8
0
  6
CONTINUOUS
 62
     7
 10
873.92221488349
 20
63.15135849760739
 30
0.0
 11
873.9021503477537
 21
63.1653879113756
 31
0.0
  0
LINE
  5
3E7
  8
0
  6
CONTINUOUS
 62
     7
 10
873.9021503477537
 20
63.1653879113756
 30
0.0
 11
873.882803357918
 21
63.18038840207185
 31
0.0
  0
LINE
  5
3E8
  8
0
  6
CONTINUOUS
 62
     7
 10
873.882803357918
 20
63.18038840207185
 30
0.0
 11
873.8642205225764
 21
63.19632383220019
 31
0.0
  0
LINE
  5
3E9
  8
0
  6
CONTINUOUS
 62
     7
 10
873.8642205225764
 20
63.19632383220019
 30
0.0
 11
873.8464466094067
 21
63.21315581191369
 31
0.0
  0
LINE
  5
3EA
  8
0
  6
CONTINUOUS
 62
     7
 10
873.8464466094067
 20
63.21315581191369
 30
0.0
 11
873.8295244373226
 21
63.23084379149888
 31
0.0
  0
LINE
  5
3EB
  8
0
  6
CONTINUOUS
 62
     7
 10
873.8295244373224
 20
63.23084379149888
 30
0.0
 11
873.8134947733184
 21
63.24934515906367
 31
0.0
  0
LINE
  5
3EC
  8
0
  6
CONTINUOUS
 62
     7
 10
873.8134947733186
 20
63.24934515906367
 30
0.0
 11
873.7983962342597
 21
63.26861534319305
 31
0.0
  0
LINE
  5
3ED
  8
0
  6
CONTINUOUS
 62
     7
 10
873.7983962342597
 20
63.26861534319305
 30
0.0
 11
873.7842651938487
 21
63.28860792032559
 31
0.0
  0
LINE
  5
3EE
  8
0
  6
CONTINUOUS
 62
     7
 10
873.7842651938487
 20
63.28860792032559
 30
0.0
 11
873.7711356949998
 21
63.30927472659184
 31
0.0
  0
LINE
  5
3EF
  8
0
  6
CONTINUOUS
 62
     7
 10
873.7711356949998
 20
63.30927472659184
 30
0.0
 11
873.7590393678257
 21
63.33056597384532
 31
0.0
  0
LINE
  5
3F0
  8
0
  6
CONTINUOUS
 62
     7
 10
873.7590393678258
 20
63.33056597384532
 30
0.0
 11
873.7480053534383
 21
63.35243036960647
 31
0.0
  0
LINE
  5
3F1
  8
0
  6
CONTINUOUS
 62
     7
 10
873.7480053534382
 20
63.35243036960647
 30
0.0
 11
873.7380602337444
 21
63.37481524063082
 31
0.0
  0
LINE
  5
3F2
  8
0
  6
CONTINUOUS
 62
     7
 10
873.7380602337444
 20
63.37481524063082
 30
0.0
 11
873.7292279674085
 21
63.39766665980343
 31
0.0
  0
LINE
  5
3F3
  8
0
  6
CONTINUOUS
 62
     7
 10
873.7292279674085
 20
63.39766665980343
 30
0.0
 11
873.7215298321339
 21
63.42092957605389
 31
0.0
  0
LINE
  5
3F4
  8
0
  6
CONTINUOUS
 62
     7
 10
873.7215298321339
 20
63.42092957605389
 30
0.0
 11
873.7149843734027
 21
63.4445479469794
 31
0.0
  0
LINE
  5
3F5
  8
0
  6
CONTINUOUS
 62
     7
 10
873.7149843734027
 20
63.4445479469794
 30
0.0
 11
873.7096073597983
 21
63.46846487385571
 31
0.0
  0
LINE
  5
3F6
  8
0
  6
CONTINUOUS
 62
     7
 10
873.7096073597983
 20
63.46846487385571
 30
0.0
 11
873.7054117450176
 21
63.49262273871106
 31
0.0
  0
LINE
  5
3F7
  8
0
  6
CONTINUOUS
 62
     7
 10
873.7054117450176
 20
63.49262273871106
 30
0.0
 11
873.7024076366637
 21
63.51696334313303
 31
0.0
  0
LINE
  5
3F8
  8
0
  6
CONTINUOUS
 62
     7
 10
873.7024076366637
 20
63.51696334313303
 30
0.0
 11
873.7006022718973
 21
63.54142804847357
 31
0.0
  0
LINE
  5
3F9
  8
0
  6
CONTINUOUS
 62
     7
 10
873.7006022718974
 20
63.54142804847357
 30
0.0
 11
873.6999999999999
 21
63.56595791711472
 31
0.0
  0
LINE
  5
3FA
  8
0
  6
CONTINUOUS
 62
     7
 10
873.6999999999999
 20
63.58343799039043
 30
0.0
 11
873.6999999999999
 21
63.56595791711472
 31
0.0
  0
LINE
  5
3FB
  8
0
  6
CONTINUOUS
 62
     7
 10
805.8000000000001
 20
97.5790290357218
 30
0.0
 11
805.897545161008
 21
97.588636761353
 31
0.0
  0
LINE
  5
3FC
  8
0
  6
CONTINUOUS
 62
     7
 10
805.897545161008
 20
97.588636761353
 30
0.0
 11
805.9913417161824
 21
97.61709071873848
 31
0.0
  0
LINE
  5
3FD
  8
0
  6
CONTINUOUS
 62
     7
 10
805.9913417161824
 20
97.61709071873848
 30
0.0
 11
806.0777851165097
 21
97.6632974382531
 31
0.0
  0
LINE
  5
3FE
  8
0
  6
CONTINUOUS
 62
     7
 10
806.0777851165097
 20
97.6632974382531
 30
0.0
 11
806.1535533905932
 21
97.7254812215791
 31
0.0
  0
LINE
  5
3FF
  8
0
  6
CONTINUOUS
 62
     7
 10
806.1535533905932
 20
97.7254812215791
 30
0.0
 11
806.2157348061511
 21
97.80125238079609
 31
0.0
  0
LINE
  5
400
  8
0
  6
CONTINUOUS
 62
     7
 10
806.2157348061511
 20
97.80125238079609
 30
0.0
 11
806.2619397662555
 21
97.8876990727485
 31
0.0
  0
LINE
  5
401
  8
0
  6
CONTINUOUS
 62
     7
 10
806.2619397662556
 20
97.8876990727485
 30
0.0
 11
806.2903926402016
 21
97.9814991995444
 31
0.0
  0
LINE
  5
402
  8
0
  6
CONTINUOUS
 62
     7
 10
806.2903926402016
 20
97.9814991995444
 30
0.0
 11
806.3
 21
98.0790480749147
 31
0.0
  0
LINE
  5
403
  8
0
  6
CONTINUOUS
 62
     7
 10
806.3
 20
98.0834379903904
 30
0.0
 11
806.3
 21
98.0790480749147
 31
0.0
  0
LINE
  5
404
  8
0
  6
CONTINUOUS
 62
     7
 10
806.3
 20
64.12095192508527
 30
0.0
 11
806.3
 21
64.11656200960958
 31
0.0
  0
LINE
  5
405
  8
0
  6
CONTINUOUS
 62
     7
 10
806.3
 20
64.12095192508527
 30
0.0
 11
806.2903926402015
 21
64.2185008004556
 31
0.0
  0
LINE
  5
406
  8
0
  6
CONTINUOUS
 62
     7
 10
806.2903926402016
 20
64.2185008004556
 30
0.0
 11
806.2619397662556
 21
64.3123009272515
 31
0.0
  0
LINE
  5
407
  8
0
  6
CONTINUOUS
 62
     7
 10
806.2619397662556
 20
64.3123009272515
 30
0.0
 11
806.2157348061512
 21
64.3987476192039
 31
0.0
  0
LINE
  5
408
  8
0
  6
CONTINUOUS
 62
     7
 10
806.2157348061511
 20
64.3987476192039
 30
0.0
 11
806.1535533905931
 21
64.47451877842094
 31
0.0
  0
LINE
  5
409
  8
0
  6
CONTINUOUS
 62
     7
 10
806.1535533905932
 20
64.47451877842094
 30
0.0
 11
806.0777851165097
 21
64.53670256174686
 31
0.0
  0
LINE
  5
40A
  8
0
  6
CONTINUOUS
 62
     7
 10
806.0777851165097
 20
64.53670256174686
 30
0.0
 11
805.9913417161825
 21
64.58290928126154
 31
0.0
  0
LINE
  5
40B
  8
0
  6
CONTINUOUS
 62
     7
 10
805.9913417161824
 20
64.58290928126154
 30
0.0
 11
805.897545161008
 21
64.611363238647
 31
0.0
  0
LINE
  5
40C
  8
0
  6
CONTINUOUS
 62
     7
 10
805.897545161008
 20
64.611363238647
 30
0.0
 11
805.8000000000001
 21
64.62097096427816
 31
0.0
  0
LINE
  5
40D
  8
0
  6
CONTINUOUS
 62
     7
 10
805.8000000000001
 20
63.06849604143061
 30
0.0
 11
805.8245338371638
 21
63.06897468471134
 31
0.0
  0
LINE
  5
40E
  8
0
  6
CONTINUOUS
 62
     7
 10
805.8245338371637
 20
63.06897468471134
 30
0.0
 11
805.8490085701649
 21
63.07065667282802
 31
0.0
  0
LINE
  5
40F
  8
0
  6
CONTINUOUS
 62
     7
 10
805.8490085701649
 20
63.07065667282802
 30
0.0
 11
805.8733652372276
 21
63.07353795372389
 31
0.0
  0
LINE
  5
410
  8
0
  6
CONTINUOUS
 62
     7
 10
805.8733652372276
 20
63.07353795372389
 30
0.0
 11
805.8975451610081
 21
63.07761158614089
 31
0.0
  0
LINE
  5
411
  8
0
  6
CONTINUOUS
 62
     7
 10
805.8975451610081
 20
63.07761158614089
 30
0.0
 11
805.9214900899516
 21
63.08286775634176
 31
0.0
  0
LINE
  5
412
  8
0
  6
CONTINUOUS
 62
     7
 10
805.9214900899516
 20
63.08286775634176
 30
0.0
 11
805.9451423386272
 21
63.0892938017521
 31
0.0
  0
LINE
  5
413
  8
0
  6
CONTINUOUS
 62
     7
 10
805.9451423386272
 20
63.0892938017521
 30
0.0
 11
805.9684449266962
 21
63.09687424146565
 31
0.0
  0
LINE
  5
414
  8
0
  6
CONTINUOUS
 62
     7
 10
805.9684449266962
 20
63.09687424146565
 30
0.0
 11
805.9913417161825
 21
63.10559081353917
 31
0.0
  0
LINE
  5
415
  8
0
  6
CONTINUOUS
 62
     7
 10
805.9913417161824
 20
63.10559081353917
 30
0.0
 11
806.0137775467151
 21
63.11542251898704
 31
0.0
  0
LINE
  5
416
  8
0
  6
CONTINUOUS
 62
     7
 10
806.0137775467151
 20
63.11542251898704
 30
0.0
 11
806.0356983684129
 21
63.12634567236969
 31
0.0
  0
LINE
  5
417
  8
0
  6
CONTINUOUS
 62
     7
 10
806.0356983684129
 20
63.12634567236969
 30
0.0
 11
806.0570513720966
 21
63.13833395885388
 31
0.0
  0
LINE
  5
418
  8
0
  6
CONTINUOUS
 62
     7
 10
806.0570513720966
 20
63.13833395885388
 30
0.0
 11
806.0777851165097
 21
63.15135849760739
 31
0.0
  0
LINE
  5
419
  8
0
  6
CONTINUOUS
 62
     7
 10
806.0777851165097
 20
63.15135849760739
 30
0.0
 11
806.0978496522462
 21
63.1653879113756
 31
0.0
  0
LINE
  5
41A
  8
0
  6
CONTINUOUS
 62
     7
 10
806.0978496522462
 20
63.1653879113756
 30
0.0
 11
806.1171966420817
 21
63.18038840207185
 31
0.0
  0
LINE
  5
41B
  8
0
  6
CONTINUOUS
 62
     7
 10
806.1171966420818
 20
63.18038840207185
 30
0.0
 11
806.1357794774235
 21
63.19632383220019
 31
0.0
  0
LINE
  5
41C
  8
0
  6
CONTINUOUS
 62
     7
 10
806.1357794774235
 20
63.19632383220019
 30
0.0
 11
806.1535533905932
 21
63.21315581191369
 31
0.0
  0
LINE
  5
41D
  8
0
  6
CONTINUOUS
 62
     7
 10
806.1535533905932
 20
63.21315581191369
 30
0.0
 11
806.1704755626776
 21
63.23084379149888
 31
0.0
  0
LINE
  5
41E
  8
0
  6
CONTINUOUS
 62
     7
 10
806.1704755626776
 20
63.23084379149888
 30
0.0
 11
806.1865052266813
 21
63.24934515906367
 31
0.0
  0
LINE
  5
41F
  8
0
  6
CONTINUOUS
 62
     7
 10
806.1865052266812
 20
63.24934515906367
 30
0.0
 11
806.2016037657402
 21
63.26861534319305
 31
0.0
  0
LINE
  5
420
  8
0
  6
CONTINUOUS
 62
     7
 10
806.2016037657402
 20
63.26861534319305
 30
0.0
 11
806.2157348061511
 21
63.28860792032559
 31
0.0
  0
LINE
  5
421
  8
0
  6
CONTINUOUS
 62
     7
 10
806.2157348061511
 20
63.28860792032559
 30
0.0
 11
806.228864305
 21
63.30927472659184
 31
0.0
  0
LINE
  5
422
  8
0
  6
CONTINUOUS
 62
     7
 10
806.2288643050001
 20
63.30927472659184
 30
0.0
 11
806.2409606321743
 21
63.33056597384532
 31
0.0
  0
LINE
  5
423
  8
0
  6
CONTINUOUS
 62
     7
 10
806.2409606321742
 20
63.33056597384532
 30
0.0
 11
806.2519946465616
 21
63.35243036960647
 31
0.0
  0
LINE
  5
424
  8
0
  6
CONTINUOUS
 62
     7
 10
806.2519946465616
 20
63.35243036960647
 30
0.0
 11
806.2619397662555
 21
63.37481524063082
 31
0.0
  0
LINE
  5
425
  8
0
  6
CONTINUOUS
 62
     7
 10
806.2619397662556
 20
63.37481524063082
 30
0.0
 11
806.2707720325915
 21
63.39766665980343
 31
0.0
  0
LINE
  5
426
  8
0
  6
CONTINUOUS
 62
     7
 10
806.2707720325915
 20
63.39766665980343
 30
0.0
 11
806.278470167866
 21
63.42092957605389
 31
0.0
  0
LINE
  5
427
  8
0
  6
CONTINUOUS
 62
     7
 10
806.278470167866
 20
63.42092957605389
 30
0.0
 11
806.2850156265972
 21
63.4445479469794
 31
0.0
  0
LINE
  5
428
  8
0
  6
CONTINUOUS
 62
     7
 10
806.2850156265972
 20
63.4445479469794
 30
0.0
 11
806.2903926402015
 21
63.46846487385571
 31
0.0
  0
LINE
  5
429
  8
0
  6
CONTINUOUS
 62
     7
 10
806.2903926402016
 20
63.46846487385571
 30
0.0
 11
806.2945882549824
 21
63.49262273871106
 31
0.0
  0
LINE
  5
42A
  8
0
  6
CONTINUOUS
 62
     7
 10
806.2945882549824
 20
63.49262273871106
 30
0.0
 11
806.297592363336
 21
63.51696334313303
 31
0.0
  0
LINE
  5
42B
  8
0
  6
CONTINUOUS
 62
     7
 10
806.2975923633361
 20
63.51696334313303
 30
0.0
 11
806.2993977281026
 21
63.54142804847357
 31
0.0
  0
LINE
  5
42C
  8
0
  6
CONTINUOUS
 62
     7
 10
806.2993977281026
 20
63.54142804847357
 30
0.0
 11
806.3
 21
63.56595791711472
 31
0.0
  0
LINE
  5
42D
  8
0
  6
CONTINUOUS
 62
     7
 10
806.3
 20
63.58343799039043
 30
0.0
 11
806.3
 21
63.56595791711472
 31
0.0
  0
LINE
  5
42E
  8
0
  6
CONTINUOUS
 62
     7
 10
875.6466606340996
 20
196.0000442372634
 30
0.0
 11
875.0154793884466
 21
196.0032896492431
 31
0.0
  0
LINE
  5
42F
  8
0
  6
CONTINUOUS
 62
     7
 10
875.0154793884466
 20
196.0032896492431
 30
0.0
 11
874.8018207020805
 21
196.0000341743627
 31
0.0
  0
LINE
  5
430
  8
0
  6
CONTINUOUS
 62
     7
 10
875.6466606340996
 20
58.99995576273656
 30
0.0
 11
875.0154793884466
 21
58.9967103507571
 31
0.0
  0
LINE
  5
431
  8
0
  6
CONTINUOUS
 62
     7
 10
875.0154793884466
 20
58.9967103507571
 30
0.0
 11
874.8018207020716
 21
58.99996582563755
 31
0.0
  0
LINE
  5
432
  8
0
  6
CONTINUOUS
 62
     7
 10
804.3533393659003
 20
196.0000442372634
 30
0.0
 11
804.9845206115533
 21
196.0032896492432
 31
0.0
  0
LINE
  5
433
  8
0
  6
CONTINUOUS
 62
     7
 10
804.9845206115533
 20
196.0032896492432
 30
0.0
 11
805.1981792979196
 21
196.0000341743626
 31
0.0
  0
LINE
  5
434
  8
0
  6
CONTINUOUS
 62
     7
 10
804.3533393659003
 20
58.99995576273656
 30
0.0
 11
804.9845206115533
 21
58.99671035075688
 31
0.0
  0
LINE
  5
435
  8
0
  6
CONTINUOUS
 62
     7
 10
804.9845206115533
 20
58.99671035075688
 30
0.0
 11
805.1981792979187
 21
58.99996582563733
 31
0.0
  0
ARC
  5
436
  8
0
  6
CONTINUOUS
 62
     7
 10
869.1431362962983
 20
238.0453959191581
 30
0.0
 40
19.74670791276756
 50
271.2168324948331
 51
280.4498124245196
  0
LINE
  5
437
  8
0
  6
CONTINUOUS
 62
     7
 10
872.7246793489263
 20
218.6262037950164
 30
0.0
 11
872.8626492330902
 21
218.6791843889905
 31
0.0
  0
LINE
  5
438
  8
0
  6
CONTINUOUS
 62
     7
 10
872.8626492330902
 20
218.6791843889905
 30
0.0
 11
872.9135375509956
 21
218.7352671843822
 31
0.0
  0
ARC
  5
439
  8
0
  6
CONTINUOUS
 62
     7
 10
810.8568637037017
 20
238.0453959191582
 30
0.0
 40
19.74670791276767
 50
259.5501875754804
 51
268.7831675051666
  0
LINE
  5
43A
  8
0
  6
CONTINUOUS
 62
     7
 10
807.2753206510738
 20
218.6262037950164
 30
0.0
 11
807.1373507669097
 21
218.6791843889905
 31
0.0
  0
LINE
  5
43B
  8
0
  6
CONTINUOUS
 62
     7
 10
807.1373507669097
 20
218.6791843889905
 30
0.0
 11
807.0864624490043
 21
218.7352671843822
 31
0.0
  0
ARC
  5
43C
  8
0
  6
CONTINUOUS
 62
     7
 10
869.1431362962983
 20
16.95460408084192
 30
0.0
 40
19.74670791276756
 50
79.55018757548038
 51
88.78316750516687
  0
LINE
  5
43D
  8
0
  6
CONTINUOUS
 62
     7
 10
872.7246793489263
 20
36.37379620498366
 30
0.0
 11
872.8626492330902
 21
36.3208156110095
 31
0.0
  0
LINE
  5
43E
  8
0
  6
CONTINUOUS
 62
     7
 10
872.8626492330902
 20
36.3208156110095
 30
0.0
 11
872.9135375509956
 21
36.26473281561782
 31
0.0
  0
ARC
  5
43F
  8
0
  6
CONTINUOUS
 62
     7
 10
810.8568637037015
 20
16.95460408084415
 30
0.0
 40
19.74670791276534
 50
91.21683249483276
 51
100.4498124245201
  0
LINE
  5
440
  8
0
  6
CONTINUOUS
 62
     7
 10
807.2753206510738
 20
36.37379620498366
 30
0.0
 11
807.1373507669097
 21
36.3208156110095
 31
0.0
  0
LINE
  5
441
  8
0
  6
CONTINUOUS
 62
     7
 10
807.1373507669097
 20
36.3208156110095
 30
0.0
 11
807.0864624490043
 21
36.26473281561782
 31
0.0
  0
LINE
  5
442
  8
0
  6
CONTINUOUS
 62
     7
 10
857.0000000000001
 20
196.0
 30
0.0
 11
857.0000000000001
 21
217.6259000857555
 31
0.0
  0
LINE
  5
443
  8
0
  6
CONTINUOUS
 62
     7
 10
858.0
 20
196.0
 30
0.0
 11
862.0
 21
196.0
 31
0.0
  0
LINE
  5
444
  8
0
  6
CONTINUOUS
 62
     7
 10
857.0000000000001
 20
217.6259000857555
 30
0.0
 11
869.5624800908366
 21
218.3031411296428
 31
0.0
  0
LINE
  5
445
  8
0
  6
CONTINUOUS
 62
     7
 10
822.9999999999999
 20
196.0
 30
0.0
 11
822.9999999999999
 21
217.6259000857555
 31
0.0
  0
LINE
  5
446
  8
0
  6
CONTINUOUS
 62
     7
 10
821.9999999999998
 20
196.0
 30
0.0
 11
817.9999999999998
 21
196.0
 31
0.0
  0
LINE
  5
447
  8
0
  6
CONTINUOUS
 62
     7
 10
822.9999999999999
 20
217.6259000857555
 30
0.0
 11
810.4375199091634
 21
218.3031411296428
 31
0.0
  0
LINE
  5
448
  8
0
  6
CONTINUOUS
 62
     7
 10
857.0000000000001
 20
59.00000000000002
 30
0.0
 11
857.0000000000001
 21
37.37409991424449
 31
0.0
  0
LINE
  5
449
  8
0
  6
CONTINUOUS
 62
     7
 10
858.0
 20
58.99999999999999
 30
0.0
 11
862.0
 21
58.99999999999999
 31
0.0
  0
LINE
  5
44A
  8
0
  6
CONTINUOUS
 62
     7
 10
857.0000000000001
 20
37.37409991424448
 30
0.0
 11
869.5624800908366
 21
36.69685887035718
 31
0.0
  0
LINE
  5
44B
  8
0
  6
CONTINUOUS
 62
     7
 10
822.9999999999999
 20
59.00000000000002
 30
0.0
 11
822.9999999999999
 21
37.37409991424449
 31
0.0
  0
LINE
  5
44C
  8
0
  6
CONTINUOUS
 62
     7
 10
821.9999999999998
 20
58.99999999999999
 30
0.0
 11
817.9999999999998
 21
58.99999999999999
 31
0.0
  0
LINE
  5
44D
  8
0
  6
CONTINUOUS
 62
     7
 10
822.9999999999999
 20
37.37409991424448
 30
0.0
 11
810.4375199091634
 21
36.69685887035718
 31
0.0
  0
LINE
  5
44E
  8
0
  6
CONTINUOUS
 62
     7
 10
840.0
 20
217.5934943466023
 30
0.0
 11
857.0000000000001
 21
217.6259000857555
 31
0.0
  0
LINE
  5
44F
  8
0
  6
CONTINUOUS
 62
     7
 10
840.0
 20
217.5934943466023
 30
0.0
 11
822.9999999999999
 21
217.6259000857555
 31
0.0
  0
LINE
  5
450
  8
0
  6
CONTINUOUS
 62
     7
 10
840.0
 20
37.40650565339767
 30
0.0
 11
857.0000000000001
 21
37.37409991424448
 31
0.0
  0
LINE
  5
451
  8
0
  6
CONTINUOUS
 62
     7
 10
840.0
 20
37.40650565339767
 30
0.0
 11
822.9999999999999
 21
37.37409991424448
 31
0.0
  0
LINE
  5
452
  8
0
  6
CONTINUOUS
 62
     7
 10
837.7517302736883
 20
183.0
 30
0.0
 11
842.2482697263114
 21
183.0
 31
0.0
  0
LINE
  5
453
  8
0
  6
CONTINUOUS
 62
     7
 10
822.9
 20
110.5
 30
0.0
 11
822.9
 21
144.5
 31
0.0
  0
ARC
  5
454
  8
0
  6
CONTINUOUS
 62
     7
 10
857.0
 20
144.5
 30
0.0
 40
0.099999999999989
 50
0.0
 51
90.0
  0
ARC
  5
455
  8
0
  6
CONTINUOUS
 62
     7
 10
822.9999999999999
 20
144.5
 30
0.0
 40
0.099999999999989
 50
90.0
 51
180.0
  0
LINE
  5
456
  8
0
  6
CONTINUOUS
 62
     7
 10
822.9999999999999
 20
144.6
 30
0.0
 11
857.0
 21
144.6
 31
0.0
  0
LINE
  5
457
  8
0
  6
CONTINUOUS
 62
     7
 10
857.0999999999999
 20
144.5
 30
0.0
 11
857.0999999999999
 21
110.5
 31
0.0
  0
LINE
  5
458
  8
0
  6
CONTINUOUS
 62
     7
 10
857.0
 20
110.4
 30
0.0
 11
822.9999999999999
 21
110.4
 31
0.0
  0
ARC
  5
459
  8
0
  6
CONTINUOUS
 62
     7
 10
822.9999999999999
 20
110.5
 30
0.0
 40
0.099999999999989
 50
180.0
 51
270.0
  0
ARC
  5
45A
  8
0
  6
CONTINUOUS
 62
     7
 10
857.0
 20
110.5
 30
0.0
 40
0.099999999999989
 50
270.0
 51
0.0
  0
LINE
  5
45B
  8
0
  6
CONTINUOUS
 62
     7
 10
823.9999999999998
 20
196.0
 30
0.0
 11
821.9999999999998
 21
196.0
 31
0.0
  0
LINE
  5
45C
  8
0
  6
CONTINUOUS
 62
     7
 10
823.9999999999998
 20
196.0
 30
0.0
 11
823.9999999999998
 21
210.0
 31
0.0
  0
ARC
  5
45D
  8
0
  6
CONTINUOUS
 62
     7
 10
824.9999999999999
 20
210.0
 30
0.0
 40
0.9999999999998899
 50
90.0
 51
180.0
  0
LINE
  5
45E
  8
0
  6
CONTINUOUS
 62
     7
 10
827.9999999999999
 20
211.0
 30
0.0
 11
824.9999999999998
 21
211.0
 31
0.0
  0
ARC
  5
45F
  8
0
  6
CONTINUOUS
 62
     7
 10
827.9999999999999
 20
210.0
 30
0.0
 40
1.000000000000112
 50
0.0
 51
90.0
  0
LINE
  5
460
  8
0
  6
CONTINUOUS
 62
     7
 10
828.9999999999999
 20
196.0
 30
0.0
 11
828.9999999999999
 21
210.0
 31
0.0
  0
LINE
  5
461
  8
0
  6
CONTINUOUS
 62
     7
 10
828.9999999999999
 20
196.0
 30
0.0
 11
851.0
 21
196.0
 31
0.0
  0
LINE
  5
462
  8
0
  6
CONTINUOUS
 62
     7
 10
851.0
 20
196.0
 30
0.0
 11
851.0
 21
210.0
 31
0.0
  0
ARC
  5
463
  8
0
  6
CONTINUOUS
 62
     7
 10
852.0
 20
210.0
 30
0.0
 40
1.000000000000001
 50
90.0
 51
180.0
  0
LINE
  5
464
  8
0
  6
CONTINUOUS
 62
     7
 10
852.0
 20
211.0
 30
0.0
 11
855.0
 21
211.0
 31
0.0
  0
ARC
  5
465
  8
0
  6
CONTINUOUS
 62
     7
 10
855.0
 20
210.0
 30
0.0
 40
1.000000000000001
 50
0.0
 51
90.0
  0
LINE
  5
466
  8
0
  6
CONTINUOUS
 62
     7
 10
856.0
 20
196.0
 30
0.0
 11
856.0
 21
210.0
 31
0.0
  0
LINE
  5
467
  8
0
  6
CONTINUOUS
 62
     7
 10
856.0
 20
196.0
 30
0.0
 11
858.0
 21
196.0
 31
0.0
  0
LINE
  5
468
  8
0
  6
CONTINUOUS
 62
     7
 10
858.0
 20
58.99999999999999
 30
0.0
 11
858.0
 21
196.0
 31
0.0
  0
LINE
  5
469
  8
0
  6
CONTINUOUS
 62
     7
 10
856.0
 20
58.99999999999999
 30
0.0
 11
858.0
 21
58.99999999999999
 31
0.0
  0
LINE
  5
46A
  8
0
  6
CONTINUOUS
 62
     7
 10
856.0
 20
58.99999999999999
 30
0.0
 11
856.0
 21
44.99999999999999
 31
0.0
  0
ARC
  5
46B
  8
0
  6
CONTINUOUS
 62
     7
 10
855.0
 20
44.99999999999999
 30
0.0
 40
1.000000000000001
 50
270.0
 51
0.0
  0
LINE
  5
46C
  8
0
  6
CONTINUOUS
 62
     7
 10
852.0
 20
43.99999999999999
 30
0.0
 11
855.0
 21
43.99999999999999
 31
0.0
  0
ARC
  5
46D
  8
0
  6
CONTINUOUS
 62
     7
 10
852.0
 20
44.99999999999999
 30
0.0
 40
1.000000000000001
 50
180.0
 51
270.0
  0
LINE
  5
46E
  8
0
  6
CONTINUOUS
 62
     7
 10
851.0
 20
58.99999999999999
 30
0.0
 11
851.0
 21
44.99999999999999
 31
0.0
  0
LINE
  5
46F
  8
0
  6
CONTINUOUS
 62
     7
 10
828.9999999999999
 20
58.99999999999999
 30
0.0
 11
851.0
 21
58.99999999999999
 31
0.0
  0
LINE
  5
470
  8
0
  6
CONTINUOUS
 62
     7
 10
828.9999999999999
 20
58.99999999999999
 30
0.0
 11
828.9999999999999
 21
44.99999999999999
 31
0.0
  0
ARC
  5
471
  8
0
  6
CONTINUOUS
 62
     7
 10
827.9999999999999
 20
44.99999999999999
 30
0.0
 40
1.000000000000112
 50
270.0
 51
0.0
  0
LINE
  5
472
  8
0
  6
CONTINUOUS
 62
     7
 10
827.9999999999999
 20
43.99999999999999
 30
0.0
 11
824.9999999999998
 21
43.99999999999999
 31
0.0
  0
ARC
  5
473
  8
0
  6
CONTINUOUS
 62
     7
 10
824.9999999999999
 20
44.99999999999999
 30
0.0
 40
0.9999999999998899
 50
180.0
 51
270.0
  0
LINE
  5
474
  8
0
  6
CONTINUOUS
 62
     7
 10
823.9999999999998
 20
58.99999999999999
 30
0.0
 11
823.9999999999998
 21
44.99999999999999
 31
0.0
  0
LINE
  5
475
  8
0
  6
CONTINUOUS
 62
     7
 10
823.9999999999998
 20
58.99999999999999
 30
0.0
 11
821.9999999999998
 21
58.99999999999999
 31
0.0
  0
LINE
  5
476
  8
0
  6
CONTINUOUS
 62
     7
 10
821.9999999999998
 20
58.99999999999999
 30
0.0
 11
821.9999999999998
 21
196.0
 31
0.0
  0
CIRCLE
  5
477
  8
0
  6
CONTINUOUS
 62
     7
 10
840.0
 20
183.0
 30
0.0
 40
2.249999999999974
  0
CIRCLE
  5
478
  8
0
  6
CONTINUOUS
 62
     7
 10
840.0
 20
72.0
 30
0.0
 40
2.249999999999974
  0
LINE
  5
479
  8
0
  6
CONTINUOUS
 62
     7
 10
858.0
 20
58.99999999999999
 30
0.0
 11
858.0262567586938
 21
59.05251751702839
 31
0.0
  0
LINE
  5
47A
  8
0
  6
CONTINUOUS
 62
     7
 10
858.0
 20
196.0
 30
0.0
 11
858.0262567586938
 21
195.9474824829716
 31
0.0
  0
LINE
  5
47B
  8
0
  6
CONTINUOUS
 62
     7
 10
862.0
 20
196.0
 30
0.0
 11
862.0
 21
58.99999999999999
 31
0.0
  0
LINE
  5
47C
  8
0
  6
CONTINUOUS
 62
     7
 10
862.0
 20
58.99999999999999
 30
0.0
 11
861.9737432413061
 21
59.05251751702839
 31
0.0
  0
LINE
  5
47D
  8
0
  6
CONTINUOUS
 62
     7
 10
862.0
 20
196.0
 30
0.0
 11
861.9737432413061
 21
195.9474824829716
 31
0.0
  0
LINE
  5
47E
  8
0
  6
CONTINUOUS
 62
     7
 10
867.1256405246976
 20
63.62109921028935
 30
0.0
 11
871.1789198281786
 21
63.62109921028935
 31
0.0
  0
LINE
  5
47F
  8
0
  6
CONTINUOUS
 62
     7
 10
871.1789198281786
 20
63.62109921028941
 30
0.0
 11
871.2764633034295
 21
63.63070600736987
 31
0.0
  0
LINE
  5
480
  8
0
  6
CONTINUOUS
 62
     7
 10
871.2764633034295
 20
63.63070600736987
 30
0.0
 11
871.3702571367505
 21
63.65915725046725
 31
0.0
  0
LINE
  5
481
  8
0
  6
CONTINUOUS
 62
     7
 10
871.3702571367504
 20
63.65915725046725
 30
0.0
 11
871.4566972320828
 21
63.70535967993462
 31
0.0
  0
LINE
  5
482
  8
0
  6
CONTINUOUS
 62
     7
 10
871.4566972320828
 20
63.70535967993462
 30
0.0
 11
871.5324620660831
 21
63.76753793391683
 31
0.0
  0
LINE
  5
483
  8
0
  6
CONTINUOUS
 62
     7
 10
871.5324620660831
 20
63.76753793391683
 30
0.0
 11
871.5946403200654
 21
63.84330276791712
 31
0.0
  0
LINE
  5
484
  8
0
  6
CONTINUOUS
 62
     7
 10
871.5946403200653
 20
63.84330276791712
 30
0.0
 11
871.6408427495327
 21
63.92974286324952
 31
0.0
  0
LINE
  5
485
  8
0
  6
CONTINUOUS
 62
     7
 10
871.6408427495327
 20
63.92974286324952
 30
0.0
 11
871.6692939926301
 21
64.02353669657042
 31
0.0
  0
LINE
  5
486
  8
0
  6
CONTINUOUS
 62
     7
 10
871.6692939926301
 20
64.02353669657042
 30
0.0
 11
871.6789007897105
 21
64.12108017182148
 31
0.0
  0
LINE
  5
487
  8
0
  6
CONTINUOUS
 62
     7
 10
871.6789007897105
 20
64.12108017182145
 30
0.0
 11
871.6789007897105
 21
72.07891982817837
 31
0.0
  0
LINE
  5
488
  8
0
  6
CONTINUOUS
 62
     7
 10
871.6789007897105
 20
72.07891982817839
 30
0.0
 11
871.6692939926301
 21
72.17646330342946
 31
0.0
  0
LINE
  5
489
  8
0
  6
CONTINUOUS
 62
     7
 10
871.6692939926301
 20
72.17646330342946
 30
0.0
 11
871.6408427495326
 21
72.27025713675033
 31
0.0
  0
LINE
  5
48A
  8
0
  6
CONTINUOUS
 62
     7
 10
871.6408427495327
 20
72.27025713675033
 30
0.0
 11
871.5946403200654
 21
72.35669723208275
 31
0.0
  0
LINE
  5
48B
  8
0
  6
CONTINUOUS
 62
     7
 10
871.5946403200654
 20
72.35669723208275
 30
0.0
 11
871.5324620660831
 21
72.43246206608305
 31
0.0
  0
LINE
  5
48C
  8
0
  6
CONTINUOUS
 62
     7
 10
871.5324620660831
 20
72.43246206608305
 30
0.0
 11
871.4566972320828
 21
72.49464032006523
 31
0.0
  0
LINE
  5
48D
  8
0
  6
CONTINUOUS
 62
     7
 10
871.4566972320828
 20
72.49464032006523
 30
0.0
 11
871.3702571367504
 21
72.54084274953262
 31
0.0
  0
LINE
  5
48E
  8
0
  6
CONTINUOUS
 62
     7
 10
871.3702571367504
 20
72.54084274953262
 30
0.0
 11
871.2764633034295
 21
72.56929399263
 31
0.0
  0
LINE
  5
48F
  8
0
  6
CONTINUOUS
 62
     7
 10
871.2764633034295
 20
72.56929399263
 30
0.0
 11
871.1789198281786
 21
72.57890078971045
 31
0.0
  0
LINE
  5
490
  8
0
  6
CONTINUOUS
 62
     7
 10
871.1789198281786
 20
72.57890078971046
 30
0.0
 11
867.1256405246976
 21
72.57890078971046
 31
0.0
  0
LINE
  5
491
  8
0
  6
CONTINUOUS
 62
     7
 10
867.1256405246976
 20
72.57890078971046
 30
0.0
 11
867.1256405246976
 21
63.62109921028935
 31
0.0
  0
LINE
  5
492
  8
0
  6
CONTINUOUS
 62
     7
 10
867.1256405246976
 20
76.22109921028935
 30
0.0
 11
871.1789198281786
 21
76.22109921028935
 31
0.0
  0
LINE
  5
493
  8
0
  6
CONTINUOUS
 62
     7
 10
871.1789198281786
 20
76.2210992102894
 30
0.0
 11
871.2764633034295
 21
76.23070600736986
 31
0.0
  0
LINE
  5
494
  8
0
  6
CONTINUOUS
 62
     7
 10
871.2764633034295
 20
76.23070600736986
 30
0.0
 11
871.3702571367505
 21
76.25915725046724
 31
0.0
  0
LINE
  5
495
  8
0
  6
CONTINUOUS
 62
     7
 10
871.3702571367504
 20
76.25915725046724
 30
0.0
 11
871.4566972320828
 21
76.3053596799346
 31
0.0
  0
LINE
  5
496
  8
0
  6
CONTINUOUS
 62
     7
 10
871.4566972320828
 20
76.3053596799346
 30
0.0
 11
871.5324620660831
 21
76.36753793391681
 31
0.0
  0
LINE
  5
497
  8
0
  6
CONTINUOUS
 62
     7
 10
871.5324620660831
 20
76.36753793391681
 30
0.0
 11
871.5946403200654
 21
76.4433027679171
 31
0.0
  0
LINE
  5
498
  8
0
  6
CONTINUOUS
 62
     7
 10
871.5946403200654
 20
76.4433027679171
 30
0.0
 11
871.6408427495327
 21
76.52974286324952
 31
0.0
  0
LINE
  5
499
  8
0
  6
CONTINUOUS
 62
     7
 10
871.6408427495327
 20
76.52974286324952
 30
0.0
 11
871.6692939926301
 21
76.62353669657038
 31
0.0
  0
LINE
  5
49A
  8
0
  6
CONTINUOUS
 62
     7
 10
871.6692939926301
 20
76.62353669657038
 30
0.0
 11
871.6789007897105
 21
76.72108017182146
 31
0.0
  0
LINE
  5
49B
  8
0
  6
CONTINUOUS
 62
     7
 10
871.6789007897105
 20
76.72108017182147
 30
0.0
 11
871.6789007897105
 21
84.67891982817838
 31
0.0
  0
LINE
  5
49C
  8
0
  6
CONTINUOUS
 62
     7
 10
871.6789007897105
 20
84.6789198281784
 30
0.0
 11
871.6692939926301
 21
84.77646330342944
 31
0.0
  0
LINE
  5
49D
  8
0
  6
CONTINUOUS
 62
     7
 10
871.6692939926301
 20
84.77646330342944
 30
0.0
 11
871.6408427495326
 21
84.87025713675034
 31
0.0
  0
LINE
  5
49E
  8
0
  6
CONTINUOUS
 62
     7
 10
871.6408427495327
 20
84.87025713675034
 30
0.0
 11
871.5946403200654
 21
84.95669723208273
 31
0.0
  0
LINE
  5
49F
  8
0
  6
CONTINUOUS
 62
     7
 10
871.5946403200654
 20
84.95669723208273
 30
0.0
 11
871.5324620660831
 21
85.03246206608304
 31
0.0
  0
LINE
  5
4A0
  8
0
  6
CONTINUOUS
 62
     7
 10
871.5324620660831
 20
85.03246206608304
 30
0.0
 11
871.4566972320828
 21
85.09464032006524
 31
0.0
  0
LINE
  5
4A1
  8
0
  6
CONTINUOUS
 62
     7
 10
871.4566972320828
 20
85.09464032006524
 30
0.0
 11
871.3702571367504
 21
85.14084274953261
 31
0.0
  0
LINE
  5
4A2
  8
0
  6
CONTINUOUS
 62
     7
 10
871.3702571367504
 20
85.14084274953261
 30
0.0
 11
871.2764633034295
 21
85.16929399262999
 31
0.0
  0
LINE
  5
4A3
  8
0
  6
CONTINUOUS
 62
     7
 10
871.2764633034295
 20
85.16929399262999
 30
0.0
 11
871.1789198281786
 21
85.17890078971044
 31
0.0
  0
LINE
  5
4A4
  8
0
  6
CONTINUOUS
 62
     7
 10
871.1789198281786
 20
85.17890078971047
 30
0.0
 11
867.1256405246976
 21
85.17890078971047
 31
0.0
  0
LINE
  5
4A5
  8
0
  6
CONTINUOUS
 62
     7
 10
867.1256405246976
 20
85.17890078971047
 30
0.0
 11
867.1256405246976
 21
76.22109921028935
 31
0.0
  0
LINE
  5
4A6
  8
0
  6
CONTINUOUS
 62
     7
 10
867.1256405246976
 20
88.82109921028935
 30
0.0
 11
871.1789198281786
 21
88.82109921028935
 31
0.0
  0
LINE
  5
4A7
  8
0
  6
CONTINUOUS
 62
     7
 10
871.1789198281786
 20
88.82109921028938
 30
0.0
 11
871.2764633034295
 21
88.83070600736986
 31
0.0
  0
LINE
  5
4A8
  8
0
  6
CONTINUOUS
 62
     7
 10
871.2764633034295
 20
88.83070600736986
 30
0.0
 11
871.3702571367504
 21
88.85915725046723
 31
0.0
  0
LINE
  5
4A9
  8
0
  6
CONTINUOUS
 62
     7
 10
871.3702571367504
 20
88.85915725046723
 30
0.0
 11
871.4566972320828
 21
88.90535967993458
 31
0.0
  0
LINE
  5
4AA
  8
0
  6
CONTINUOUS
 62
     7
 10
871.4566972320828
 20
88.90535967993458
 30
0.0
 11
871.5324620660831
 21
88.9675379339168
 31
0.0
  0
LINE
  5
4AB
  8
0
  6
CONTINUOUS
 62
     7
 10
871.5324620660831
 20
88.9675379339168
 30
0.0
 11
871.5946403200654
 21
89.0433027679171
 31
0.0
  0
LINE
  5
4AC
  8
0
  6
CONTINUOUS
 62
     7
 10
871.5946403200654
 20
89.0433027679171
 30
0.0
 11
871.6408427495327
 21
89.1297428632495
 31
0.0
  0
LINE
  5
4AD
  8
0
  6
CONTINUOUS
 62
     7
 10
871.6408427495327
 20
89.1297428632495
 30
0.0
 11
871.6692939926301
 21
89.22353669657039
 31
0.0
  0
LINE
  5
4AE
  8
0
  6
CONTINUOUS
 62
     7
 10
871.6692939926301
 20
89.22353669657039
 30
0.0
 11
871.6789007897105
 21
89.32108017182144
 31
0.0
  0
LINE
  5
4AF
  8
0
  6
CONTINUOUS
 62
     7
 10
871.6789007897105
 20
89.32108017182148
 30
0.0
 11
871.6789007897105
 21
97.27891982817837
 31
0.0
  0
LINE
  5
4B0
  8
0
  6
CONTINUOUS
 62
     7
 10
871.6789007897105
 20
97.27891982817839
 30
0.0
 11
871.6692939926301
 21
97.37646330342945
 31
0.0
  0
LINE
  5
4B1
  8
0
  6
CONTINUOUS
 62
     7
 10
871.6692939926301
 20
97.37646330342945
 30
0.0
 11
871.6408427495326
 21
97.47025713675033
 31
0.0
  0
LINE
  5
4B2
  8
0
  6
CONTINUOUS
 62
     7
 10
871.6408427495327
 20
97.47025713675033
 30
0.0
 11
871.5946403200654
 21
97.5566972320827
 31
0.0
  0
LINE
  5
4B3
  8
0
  6
CONTINUOUS
 62
     7
 10
871.5946403200654
 20
97.5566972320827
 30
0.0
 11
871.5324620660831
 21
97.632462066083
 31
0.0
  0
LINE
  5
4B4
  8
0
  6
CONTINUOUS
 62
     7
 10
871.5324620660831
 20
97.632462066083
 30
0.0
 11
871.4566972320828
 21
97.6946403200652
 31
0.0
  0
LINE
  5
4B5
  8
0
  6
CONTINUOUS
 62
     7
 10
871.4566972320828
 20
97.6946403200652
 30
0.0
 11
871.3702571367504
 21
97.74084274953259
 31
0.0
  0
LINE
  5
4B6
  8
0
  6
CONTINUOUS
 62
     7
 10
871.3702571367504
 20
97.74084274953259
 30
0.0
 11
871.2764633034295
 21
97.76929399263
 31
0.0
  0
LINE
  5
4B7
  8
0
  6
CONTINUOUS
 62
     7
 10
871.2764633034295
 20
97.76929399263
 30
0.0
 11
871.1789198281786
 21
97.7789007897104
 31
0.0
  0
LINE
  5
4B8
  8
0
  6
CONTINUOUS
 62
     7
 10
871.1789198281786
 20
97.7789007897105
 30
0.0
 11
867.1256405246976
 21
97.7789007897105
 31
0.0
  0
LINE
  5
4B9
  8
0
  6
CONTINUOUS
 62
     7
 10
867.1256405246976
 20
97.7789007897105
 30
0.0
 11
867.1256405246976
 21
88.82109921028935
 31
0.0
  0
LINE
  5
4BA
  8
0
  6
CONTINUOUS
 62
     7
 10
867.1256405246976
 20
101.4210992102894
 30
0.0
 11
871.1789198281786
 21
101.4210992102894
 31
0.0
  0
LINE
  5
4BB
  8
0
  6
CONTINUOUS
 62
     7
 10
871.1789198281786
 20
101.4210992102894
 30
0.0
 11
871.2764633034295
 21
101.4307060073699
 31
0.0
  0
LINE
  5
4BC
  8
0
  6
CONTINUOUS
 62
     7
 10
871.2764633034295
 20
101.4307060073699
 30
0.0
 11
871.3702571367504
 21
101.4591572504673
 31
0.0
  0
LINE
  5
4BD
  8
0
  6
CONTINUOUS
 62
     7
 10
871.3702571367504
 20
101.4591572504673
 30
0.0
 11
871.4566972320828
 21
101.5053596799346
 31
0.0
  0
LINE
  5
4BE
  8
0
  6
CONTINUOUS
 62
     7
 10
871.4566972320828
 20
101.5053596799346
 30
0.0
 11
871.5324620660831
 21
101.5675379339168
 31
0.0
  0
LINE
  5
4BF
  8
0
  6
CONTINUOUS
 62
     7
 10
871.5324620660831
 20
101.5675379339168
 30
0.0
 11
871.5946403200654
 21
101.6433027679171
 31
0.0
  0
LINE
  5
4C0
  8
0
  6
CONTINUOUS
 62
     7
 10
871.5946403200653
 20
101.6433027679171
 30
0.0
 11
871.6408427495327
 21
101.7297428632495
 31
0.0
  0
LINE
  5
4C1
  8
0
  6
CONTINUOUS
 62
     7
 10
871.6408427495327
 20
101.7297428632495
 30
0.0
 11
871.6692939926301
 21
101.8235366965704
 31
0.0
  0
LINE
  5
4C2
  8
0
  6
CONTINUOUS
 62
     7
 10
871.6692939926301
 20
101.8235366965704
 30
0.0
 11
871.6789007897105
 21
101.9210801718214
 31
0.0
  0
LINE
  5
4C3
  8
0
  6
CONTINUOUS
 62
     7
 10
871.6789007897105
 20
101.9210801718214
 30
0.0
 11
871.6789007897105
 21
109.8789198281784
 31
0.0
  0
LINE
  5
4C4
  8
0
  6
CONTINUOUS
 62
     7
 10
871.6789007897105
 20
109.8789198281784
 30
0.0
 11
871.6692939926301
 21
109.9764633034295
 31
0.0
  0
LINE
  5
4C5
  8
0
  6
CONTINUOUS
 62
     7
 10
871.6692939926301
 20
109.9764633034295
 30
0.0
 11
871.6408427495326
 21
110.0702571367503
 31
0.0
  0
LINE
  5
4C6
  8
0
  6
CONTINUOUS
 62
     7
 10
871.6408427495327
 20
110.0702571367503
 30
0.0
 11
871.5946403200654
 21
110.1566972320827
 31
0.0
  0
LINE
  5
4C7
  8
0
  6
CONTINUOUS
 62
     7
 10
871.5946403200654
 20
110.1566972320827
 30
0.0
 11
871.5324620660831
 21
110.232462066083
 31
0.0
  0
LINE
  5
4C8
  8
0
  6
CONTINUOUS
 62
     7
 10
871.5324620660831
 20
110.232462066083
 30
0.0
 11
871.4566972320828
 21
110.2946403200652
 31
0.0
  0
LINE
  5
4C9
  8
0
  6
CONTINUOUS
 62
     7
 10
871.4566972320828
 20
110.2946403200652
 30
0.0
 11
871.3702571367504
 21
110.3408427495326
 31
0.0
  0
LINE
  5
4CA
  8
0
  6
CONTINUOUS
 62
     7
 10
871.3702571367504
 20
110.3408427495326
 30
0.0
 11
871.2764633034295
 21
110.36929399263
 31
0.0
  0
LINE
  5
4CB
  8
0
  6
CONTINUOUS
 62
     7
 10
871.2764633034295
 20
110.36929399263
 30
0.0
 11
871.1789198281786
 21
110.3789007897104
 31
0.0
  0
LINE
  5
4CC
  8
0
  6
CONTINUOUS
 62
     7
 10
871.1789198281786
 20
110.3789007897105
 30
0.0
 11
867.1256405246976
 21
110.3789007897105
 31
0.0
  0
LINE
  5
4CD
  8
0
  6
CONTINUOUS
 62
     7
 10
867.1256405246976
 20
110.3789007897105
 30
0.0
 11
867.1256405246976
 21
101.4210992102894
 31
0.0
  0
LINE
  5
4CE
  8
0
  6
CONTINUOUS
 62
     7
 10
874.9999428831463
 20
193.0000000000001
 30
0.0
 11
875.0974971582029
 21
193.0096086542263
 31
0.0
  0
LINE
  5
4CF
  8
0
  6
CONTINUOUS
 62
     7
 10
875.0974971582028
 20
193.0096086542263
 30
0.0
 11
875.1913035782827
 21
193.0380653260229
 31
0.0
  0
LINE
  5
4D0
  8
0
  6
CONTINUOUS
 62
     7
 10
875.1913035782827
 20
193.0380653260229
 30
0.0
 11
875.27775686685
 21
193.0842763357564
 31
0.0
  0
LINE
  5
4D1
  8
0
  6
CONTINUOUS
 62
     7
 10
875.2777568668499
 20
193.0842763357564
 30
0.0
 11
875.3535343514004
 21
193.1464656485996
 31
0.0
  0
LINE
  5
4D2
  8
0
  6
CONTINUOUS
 62
     7
 10
874.9999428831463
 20
193.0
 30
0.0
 11
873.4999999999999
 21
193.0
 31
0.0
  0
LINE
  5
4D3
  8
0
  6
CONTINUOUS
 62
     7
 10
873.4999999999999
 20
62.0
 30
0.0
 11
873.4999999999999
 21
193.0
 31
0.0
  0
LINE
  5
4D4
  8
0
  6
CONTINUOUS
 62
     7
 10
874.9999428831463
 20
62.0
 30
0.0
 11
873.4999999999999
 21
62.0
 31
0.0
  0
LINE
  5
4D5
  8
0
  6
CONTINUOUS
 62
     7
 10
875.3535343514004
 20
61.85353435140038
 30
0.0
 11
875.2777568668499
 21
61.91572366424356
 31
0.0
  0
LINE
  5
4D6
  8
0
  6
CONTINUOUS
 62
     7
 10
875.2777568668499
 20
61.91572366424356
 30
0.0
 11
875.1913035782827
 21
61.96193467397715
 31
0.0
  0
LINE
  5
4D7
  8
0
  6
CONTINUOUS
 62
     7
 10
875.1913035782827
 20
61.96193467397715
 30
0.0
 11
875.0974971582029
 21
61.99039134577373
 31
0.0
  0
LINE
  5
4D8
  8
0
  6
CONTINUOUS
 62
     7
 10
875.0974971582028
 20
61.99039134577373
 30
0.0
 11
874.9999428831462
 21
61.99999999999997
 31
0.0
  0
LINE
  5
4D9
  8
0
  6
CONTINUOUS
 62
     7
 10
875.4999999999999
 20
59.50000000290007
 30
0.0
 11
875.4999999999999
 21
61.49994288314636
 31
0.0
  0
LINE
  5
4DA
  8
0
  6
CONTINUOUS
 62
     7
 10
875.0000571132288
 20
58.99999999999997
 30
0.0
 11
875.0975951883388
 21
59.00960696607033
 31
0.0
  0
LINE
  5
4DB
  8
0
  6
CONTINUOUS
 62
     7
 10
875.0975951883388
 20
59.00960696607033
 30
0.0
 11
875.1913827284731
 21
59.03805874532026
 31
0.0
  0
LINE
  5
4DC
  8
0
  6
CONTINUOUS
 62
     7
 10
875.1913827284732
 20
59.03805874532026
 30
0.0
 11
875.2778162276828
 21
59.08426216315934
 31
0.0
  0
LINE
  5
4DD
  8
0
  6
CONTINUOUS
 62
     7
 10
875.2778162276828
 20
59.08426216315934
 30
0.0
 11
875.3535747370647
 21
59.14644199133455
 31
0.0
  0
LINE
  5
4DE
  8
0
  6
CONTINUOUS
 62
     7
 10
875.3535747370646
 20
59.14644199133455
 30
0.0
 11
875.4157474622978
 21
59.22220915577071
 31
0.0
  0
LINE
  5
4DF
  8
0
  6
CONTINUOUS
 62
     7
 10
875.4157474622979
 20
59.22220915577071
 30
0.0
 11
875.4619456022161
 21
59.30865252960213
 31
0.0
  0
LINE
  5
4E0
  8
0
  6
CONTINUOUS
 62
     7
 10
875.4619456022161
 20
59.30865252960213
 30
0.0
 11
875.4903941313552
 21
59.40245078452266
 31
0.0
  0
LINE
  5
4E1
  8
0
  6
CONTINUOUS
 62
     7
 10
875.4903941313551
 20
59.40245078452266
 30
0.0
 11
875.5000000000001
 21
59.50000000290007
 31
0.0
  0
LINE
  5
4E2
  8
0
  6
CONTINUOUS
 62
     7
 10
862.0
 20
58.99999999999999
 30
0.0
 11
875.0000571132288
 21
58.99999999999999
 31
0.0
  0
LINE
  5
4E3
  8
0
  6
CONTINUOUS
 62
     7
 10
875.4999999999999
 20
195.4999999970999
 30
0.0
 11
875.4999999999999
 21
193.5000571168536
 31
0.0
  0
LINE
  5
4E4
  8
0
  6
CONTINUOUS
 62
     7
 10
871.1789198281786
 20
182.4210992102895
 30
0.0
 11
867.1256405246976
 21
182.4210992102895
 31
0.0
  0
LINE
  5
4E5
  8
0
  6
CONTINUOUS
 62
     7
 10
871.1789198281786
 20
182.4210992102895
 30
0.0
 11
871.2764633034295
 21
182.43070600737
 31
0.0
  0
LINE
  5
4E6
  8
0
  6
CONTINUOUS
 62
     7
 10
871.2764633034295
 20
182.43070600737
 30
0.0
 11
871.3702571367505
 21
182.4591572504673
 31
0.0
  0
LINE
  5
4E7
  8
0
  6
CONTINUOUS
 62
     7
 10
871.3702571367504
 20
182.4591572504673
 30
0.0
 11
871.4566972320828
 21
182.5053596799347
 31
0.0
  0
LINE
  5
4E8
  8
0
  6
CONTINUOUS
 62
     7
 10
871.4566972320828
 20
182.5053596799347
 30
0.0
 11
871.5324620660831
 21
182.5675379339169
 31
0.0
  0
LINE
  5
4E9
  8
0
  6
CONTINUOUS
 62
     7
 10
871.5324620660831
 20
182.5675379339169
 30
0.0
 11
871.5946403200654
 21
182.6433027679172
 31
0.0
  0
LINE
  5
4EA
  8
0
  6
CONTINUOUS
 62
     7
 10
871.5946403200654
 20
182.6433027679172
 30
0.0
 11
871.6408427495327
 21
182.7297428632496
 31
0.0
  0
LINE
  5
4EB
  8
0
  6
CONTINUOUS
 62
     7
 10
871.6408427495327
 20
182.7297428632496
 30
0.0
 11
871.6692939926301
 21
182.8235366965705
 31
0.0
  0
LINE
  5
4EC
  8
0
  6
CONTINUOUS
 62
     7
 10
871.6692939926301
 20
182.8235366965705
 30
0.0
 11
871.6789007897105
 21
182.9210801718216
 31
0.0
  0
LINE
  5
4ED
  8
0
  6
CONTINUOUS
 62
     7
 10
871.6789007897105
 20
190.8789198281786
 30
0.0
 11
871.6789007897105
 21
182.9210801718216
 31
0.0
  0
LINE
  5
4EE
  8
0
  6
CONTINUOUS
 62
     7
 10
871.6789007897105
 20
190.8789198281785
 30
0.0
 11
871.6692939926301
 21
190.9764633034296
 31
0.0
  0
LINE
  5
4EF
  8
0
  6
CONTINUOUS
 62
     7
 10
871.6692939926301
 20
190.9764633034296
 30
0.0
 11
871.6408427495326
 21
191.0702571367505
 31
0.0
  0
LINE
  5
4F0
  8
0
  6
CONTINUOUS
 62
     7
 10
871.6408427495327
 20
191.0702571367505
 30
0.0
 11
871.5946403200653
 21
191.1566972320829
 31
0.0
  0
LINE
  5
4F1
  8
0
  6
CONTINUOUS
 62
     7
 10
871.5946403200653
 20
191.1566972320829
 30
0.0
 11
871.532462066083
 21
191.2324620660832
 31
0.0
  0
LINE
  5
4F2
  8
0
  6
CONTINUOUS
 62
     7
 10
871.5324620660831
 20
191.2324620660832
 30
0.0
 11
871.4566972320828
 21
191.2946403200654
 31
0.0
  0
LINE
  5
4F3
  8
0
  6
CONTINUOUS
 62
     7
 10
871.4566972320828
 20
191.2946403200654
 30
0.0
 11
871.3702571367504
 21
191.3408427495328
 31
0.0
  0
LINE
  5
4F4
  8
0
  6
CONTINUOUS
 62
     7
 10
871.3702571367504
 20
191.3408427495328
 30
0.0
 11
871.2764633034295
 21
191.3692939926301
 31
0.0
  0
LINE
  5
4F5
  8
0
  6
CONTINUOUS
 62
     7
 10
871.2764633034295
 20
191.3692939926301
 30
0.0
 11
871.1789198281786
 21
191.3789007897106
 31
0.0
  0
LINE
  5
4F6
  8
0
  6
CONTINUOUS
 62
     7
 10
867.1256405246976
 20
191.3789007897107
 30
0.0
 11
871.1789198281786
 21
191.3789007897107
 31
0.0
  0
LINE
  5
4F7
  8
0
  6
CONTINUOUS
 62
     7
 10
867.1256405246976
 20
182.4210992102895
 30
0.0
 11
867.1256405246976
 21
191.3789007897107
 31
0.0
  0
LINE
  5
4F8
  8
0
  6
CONTINUOUS
 62
     7
 10
871.1789198281786
 20
169.8210992102895
 30
0.0
 11
867.1256405246976
 21
169.8210992102895
 31
0.0
  0
LINE
  5
4F9
  8
0
  6
CONTINUOUS
 62
     7
 10
871.1789198281786
 20
169.8210992102895
 30
0.0
 11
871.2764633034295
 21
169.83070600737
 31
0.0
  0
LINE
  5
4FA
  8
0
  6
CONTINUOUS
 62
     7
 10
871.2764633034295
 20
169.83070600737
 30
0.0
 11
871.3702571367505
 21
169.8591572504673
 31
0.0
  0
LINE
  5
4FB
  8
0
  6
CONTINUOUS
 62
     7
 10
871.3702571367504
 20
169.8591572504673
 30
0.0
 11
871.4566972320828
 21
169.9053596799347
 31
0.0
  0
LINE
  5
4FC
  8
0
  6
CONTINUOUS
 62
     7
 10
871.4566972320828
 20
169.9053596799347
 30
0.0
 11
871.5324620660831
 21
169.9675379339169
 31
0.0
  0
LINE
  5
4FD
  8
0
  6
CONTINUOUS
 62
     7
 10
871.5324620660831
 20
169.9675379339169
 30
0.0
 11
871.5946403200654
 21
170.0433027679172
 31
0.0
  0
LINE
  5
4FE
  8
0
  6
CONTINUOUS
 62
     7
 10
871.5946403200654
 20
170.0433027679172
 30
0.0
 11
871.6408427495327
 21
170.1297428632496
 31
0.0
  0
LINE
  5
4FF
  8
0
  6
CONTINUOUS
 62
     7
 10
871.6408427495327
 20
170.1297428632496
 30
0.0
 11
871.6692939926301
 21
170.2235366965705
 31
0.0
  0
LINE
  5
500
  8
0
  6
CONTINUOUS
 62
     7
 10
871.6692939926301
 20
170.2235366965705
 30
0.0
 11
871.6789007897105
 21
170.3210801718216
 31
0.0
  0
LINE
  5
501
  8
0
  6
CONTINUOUS
 62
     7
 10
871.6789007897105
 20
178.2789198281786
 30
0.0
 11
871.6789007897105
 21
170.3210801718216
 31
0.0
  0
LINE
  5
502
  8
0
  6
CONTINUOUS
 62
     7
 10
871.6789007897105
 20
178.2789198281785
 30
0.0
 11
871.6692939926301
 21
178.3764633034296
 31
0.0
  0
LINE
  5
503
  8
0
  6
CONTINUOUS
 62
     7
 10
871.6692939926301
 20
178.3764633034296
 30
0.0
 11
871.6408427495326
 21
178.4702571367505
 31
0.0
  0
LINE
  5
504
  8
0
  6
CONTINUOUS
 62
     7
 10
871.6408427495327
 20
178.4702571367505
 30
0.0
 11
871.5946403200653
 21
178.5566972320829
 31
0.0
  0
LINE
  5
505
  8
0
  6
CONTINUOUS
 62
     7
 10
871.5946403200653
 20
178.5566972320829
 30
0.0
 11
871.5324620660831
 21
178.6324620660832
 31
0.0
  0
LINE
  5
506
  8
0
  6
CONTINUOUS
 62
     7
 10
871.5324620660831
 20
178.6324620660832
 30
0.0
 11
871.4566972320828
 21
178.6946403200654
 31
0.0
  0
LINE
  5
507
  8
0
  6
CONTINUOUS
 62
     7
 10
871.4566972320828
 20
178.6946403200654
 30
0.0
 11
871.3702571367504
 21
178.7408427495328
 31
0.0
  0
LINE
  5
508
  8
0
  6
CONTINUOUS
 62
     7
 10
871.3702571367504
 20
178.7408427495328
 30
0.0
 11
871.2764633034294
 21
178.7692939926301
 31
0.0
  0
LINE
  5
509
  8
0
  6
CONTINUOUS
 62
     7
 10
871.2764633034295
 20
178.7692939926301
 30
0.0
 11
871.1789198281786
 21
178.7789007897106
 31
0.0
  0
LINE
  5
50A
  8
0
  6
CONTINUOUS
 62
     7
 10
867.1256405246976
 20
178.7789007897106
 30
0.0
 11
871.1789198281786
 21
178.7789007897106
 31
0.0
  0
LINE
  5
50B
  8
0
  6
CONTINUOUS
 62
     7
 10
867.1256405246976
 20
169.8210992102895
 30
0.0
 11
867.1256405246976
 21
178.7789007897106
 31
0.0
  0
LINE
  5
50C
  8
0
  6
CONTINUOUS
 62
     7
 10
871.1789198281786
 20
157.2210992102895
 30
0.0
 11
867.1256405246976
 21
157.2210992102895
 31
0.0
  0
LINE
  5
50D
  8
0
  6
CONTINUOUS
 62
     7
 10
871.1789198281786
 20
157.2210992102895
 30
0.0
 11
871.2764633034295
 21
157.23070600737
 31
0.0
  0
LINE
  5
50E
  8
0
  6
CONTINUOUS
 62
     7
 10
871.2764633034295
 20
157.23070600737
 30
0.0
 11
871.3702571367505
 21
157.2591572504674
 31
0.0
  0
LINE
  5
50F
  8
0
  6
CONTINUOUS
 62
     7
 10
871.3702571367504
 20
157.2591572504674
 30
0.0
 11
871.4566972320828
 21
157.3053596799347
 31
0.0
  0
LINE
  5
510
  8
0
  6
CONTINUOUS
 62
     7
 10
871.4566972320828
 20
157.3053596799347
 30
0.0
 11
871.5324620660831
 21
157.3675379339169
 31
0.0
  0
LINE
  5
511
  8
0
  6
CONTINUOUS
 62
     7
 10
871.5324620660831
 20
157.3675379339169
 30
0.0
 11
871.5946403200654
 21
157.4433027679172
 31
0.0
  0
LINE
  5
512
  8
0
  6
CONTINUOUS
 62
     7
 10
871.5946403200654
 20
157.4433027679172
 30
0.0
 11
871.6408427495327
 21
157.5297428632496
 31
0.0
  0
LINE
  5
513
  8
0
  6
CONTINUOUS
 62
     7
 10
871.6408427495327
 20
157.5297428632496
 30
0.0
 11
871.6692939926301
 21
157.6235366965705
 31
0.0
  0
LINE
  5
514
  8
0
  6
CONTINUOUS
 62
     7
 10
871.6692939926301
 20
157.6235366965705
 30
0.0
 11
871.6789007897105
 21
157.7210801718216
 31
0.0
  0
LINE
  5
515
  8
0
  6
CONTINUOUS
 62
     7
 10
871.6789007897105
 20
165.6789198281786
 30
0.0
 11
871.6789007897105
 21
157.7210801718216
 31
0.0
  0
LINE
  5
516
  8
0
  6
CONTINUOUS
 62
     7
 10
871.6789007897105
 20
165.6789198281785
 30
0.0
 11
871.6692939926301
 21
165.7764633034296
 31
0.0
  0
LINE
  5
517
  8
0
  6
CONTINUOUS
 62
     7
 10
871.6692939926301
 20
165.7764633034296
 30
0.0
 11
871.6408427495326
 21
165.8702571367505
 31
0.0
  0
LINE
  5
518
  8
0
  6
CONTINUOUS
 62
     7
 10
871.6408427495327
 20
165.8702571367505
 30
0.0
 11
871.5946403200653
 21
165.9566972320829
 31
0.0
  0
LINE
  5
519
  8
0
  6
CONTINUOUS
 62
     7
 10
871.5946403200653
 20
165.9566972320829
 30
0.0
 11
871.532462066083
 21
166.0324620660832
 31
0.0
  0
LINE
  5
51A
  8
0
  6
CONTINUOUS
 62
     7
 10
871.5324620660831
 20
166.0324620660832
 30
0.0
 11
871.4566972320828
 21
166.0946403200654
 31
0.0
  0
LINE
  5
51B
  8
0
  6
CONTINUOUS
 62
     7
 10
871.4566972320828
 20
166.0946403200654
 30
0.0
 11
871.3702571367504
 21
166.1408427495327
 31
0.0
  0
LINE
  5
51C
  8
0
  6
CONTINUOUS
 62
     7
 10
871.3702571367504
 20
166.1408427495327
 30
0.0
 11
871.2764633034295
 21
166.1692939926301
 31
0.0
  0
LINE
  5
51D
  8
0
  6
CONTINUOUS
 62
     7
 10
871.2764633034295
 20
166.1692939926301
 30
0.0
 11
871.1789198281786
 21
166.1789007897106
 31
0.0
  0
LINE
  5
51E
  8
0
  6
CONTINUOUS
 62
     7
 10
867.1256405246976
 20
166.1789007897106
 30
0.0
 11
871.1789198281786
 21
166.1789007897106
 31
0.0
  0
LINE
  5
51F
  8
0
  6
CONTINUOUS
 62
     7
 10
867.1256405246976
 20
157.2210992102895
 30
0.0
 11
867.1256405246976
 21
166.1789007897106
 31
0.0
  0
LINE
  5
520
  8
0
  6
CONTINUOUS
 62
     7
 10
871.1789198281786
 20
144.6210992102895
 30
0.0
 11
867.1256405246976
 21
144.6210992102895
 31
0.0
  0
LINE
  5
521
  8
0
  6
CONTINUOUS
 62
     7
 10
871.1789198281786
 20
144.6210992102895
 30
0.0
 11
871.2764633034295
 21
144.63070600737
 31
0.0
  0
LINE
  5
522
  8
0
  6
CONTINUOUS
 62
     7
 10
871.2764633034295
 20
144.63070600737
 30
0.0
 11
871.3702571367505
 21
144.6591572504674
 31
0.0
  0
LINE
  5
523
  8
0
  6
CONTINUOUS
 62
     7
 10
871.3702571367504
 20
144.6591572504674
 30
0.0
 11
871.4566972320828
 21
144.7053596799347
 31
0.0
  0
LINE
  5
524
  8
0
  6
CONTINUOUS
 62
     7
 10
871.4566972320828
 20
144.7053596799347
 30
0.0
 11
871.5324620660831
 21
144.7675379339169
 31
0.0
  0
LINE
  5
525
  8
0
  6
CONTINUOUS
 62
     7
 10
871.5324620660831
 20
144.7675379339169
 30
0.0
 11
871.5946403200654
 21
144.8433027679172
 31
0.0
  0
LINE
  5
526
  8
0
  6
CONTINUOUS
 62
     7
 10
871.5946403200654
 20
144.8433027679172
 30
0.0
 11
871.6408427495327
 21
144.9297428632496
 31
0.0
  0
LINE
  5
527
  8
0
  6
CONTINUOUS
 62
     7
 10
871.6408427495327
 20
144.9297428632496
 30
0.0
 11
871.6692939926301
 21
145.0235366965705
 31
0.0
  0
LINE
  5
528
  8
0
  6
CONTINUOUS
 62
     7
 10
871.6692939926301
 20
145.0235366965705
 30
0.0
 11
871.6789007897105
 21
145.1210801718216
 31
0.0
  0
LINE
  5
529
  8
0
  6
CONTINUOUS
 62
     7
 10
871.6789007897105
 20
153.0789198281786
 30
0.0
 11
871.6789007897105
 21
145.1210801718216
 31
0.0
  0
LINE
  5
52A
  8
0
  6
CONTINUOUS
 62
     7
 10
871.6789007897105
 20
153.0789198281785
 30
0.0
 11
871.6692939926301
 21
153.1764633034296
 31
0.0
  0
LINE
  5
52B
  8
0
  6
CONTINUOUS
 62
     7
 10
871.6692939926301
 20
153.1764633034296
 30
0.0
 11
871.6408427495326
 21
153.2702571367505
 31
0.0
  0
LINE
  5
52C
  8
0
  6
CONTINUOUS
 62
     7
 10
871.6408427495327
 20
153.2702571367505
 30
0.0
 11
871.5946403200653
 21
153.3566972320829
 31
0.0
  0
LINE
  5
52D
  8
0
  6
CONTINUOUS
 62
     7
 10
871.5946403200653
 20
153.3566972320829
 30
0.0
 11
871.5324620660831
 21
153.4324620660832
 31
0.0
  0
LINE
  5
52E
  8
0
  6
CONTINUOUS
 62
     7
 10
871.5324620660831
 20
153.4324620660832
 30
0.0
 11
871.4566972320828
 21
153.4946403200654
 31
0.0
  0
LINE
  5
52F
  8
0
  6
CONTINUOUS
 62
     7
 10
871.4566972320828
 20
153.4946403200654
 30
0.0
 11
871.3702571367504
 21
153.5408427495327
 31
0.0
  0
LINE
  5
530
  8
0
  6
CONTINUOUS
 62
     7
 10
871.3702571367504
 20
153.5408427495327
 30
0.0
 11
871.2764633034295
 21
153.5692939926301
 31
0.0
  0
LINE
  5
531
  8
0
  6
CONTINUOUS
 62
     7
 10
871.2764633034295
 20
153.5692939926301
 30
0.0
 11
871.1789198281786
 21
153.5789007897106
 31
0.0
  0
LINE
  5
532
  8
0
  6
CONTINUOUS
 62
     7
 10
867.1256405246976
 20
153.5789007897106
 30
0.0
 11
871.1789198281786
 21
153.5789007897106
 31
0.0
  0
LINE
  5
533
  8
0
  6
CONTINUOUS
 62
     7
 10
867.1256405246976
 20
144.6210992102895
 30
0.0
 11
867.1256405246976
 21
153.5789007897106
 31
0.0
  0
LINE
  5
534
  8
0
  6
CONTINUOUS
 62
     7
 10
875.5000000000001
 20
195.4999999971
 30
0.0
 11
875.4903941313552
 21
195.5975492154774
 31
0.0
  0
LINE
  5
535
  8
0
  6
CONTINUOUS
 62
     7
 10
875.4903941313551
 20
195.5975492154774
 30
0.0
 11
875.4619456022161
 21
195.6913474703979
 31
0.0
  0
LINE
  5
536
  8
0
  6
CONTINUOUS
 62
     7
 10
875.4619456022161
 20
195.6913474703979
 30
0.0
 11
875.4157474622979
 21
195.7777908442293
 31
0.0
  0
LINE
  5
537
  8
0
  6
CONTINUOUS
 62
     7
 10
875.4157474622979
 20
195.7777908442293
 30
0.0
 11
875.3535747370647
 21
195.8535580086655
 31
0.0
  0
LINE
  5
538
  8
0
  6
CONTINUOUS
 62
     7
 10
875.3535747370646
 20
195.8535580086655
 30
0.0
 11
875.2778162276827
 21
195.9157378368407
 31
0.0
  0
LINE
  5
539
  8
0
  6
CONTINUOUS
 62
     7
 10
875.2778162276828
 20
195.9157378368407
 30
0.0
 11
875.1913827284732
 21
195.9619412546798
 31
0.0
  0
LINE
  5
53A
  8
0
  6
CONTINUOUS
 62
     7
 10
875.1913827284732
 20
195.9619412546798
 30
0.0
 11
875.0975951883389
 21
195.9903930339297
 31
0.0
  0
LINE
  5
53B
  8
0
  6
CONTINUOUS
 62
     7
 10
875.0975951883388
 20
195.9903930339297
 30
0.0
 11
875.0000571132289
 21
196.0000000000001
 31
0.0
  0
LINE
  5
53C
  8
0
  6
CONTINUOUS
 62
     7
 10
862.0
 20
196.0
 30
0.0
 11
875.0000571132288
 21
196.0
 31
0.0
  0
LINE
  5
53D
  8
0
  6
CONTINUOUS
 62
     7
 10
875.3535343514004
 20
193.1464656485996
 30
0.0
 11
875.4157236642436
 21
193.2222431331501
 31
0.0
  0
LINE
  5
53E
  8
0
  6
CONTINUOUS
 62
     7
 10
875.4157236642436
 20
193.2222431331501
 30
0.0
 11
875.4619346739772
 21
193.3086964217174
 31
0.0
  0
LINE
  5
53F
  8
0
  6
CONTINUOUS
 62
     7
 10
875.4619346739771
 20
193.3086964217174
 30
0.0
 11
875.4903913457736
 21
193.4025028417972
 31
0.0
  0
LINE
  5
540
  8
0
  6
CONTINUOUS
 62
     7
 10
875.4903913457737
 20
193.4025028417972
 30
0.0
 11
875.4999999999999
 21
193.5000571168537
 31
0.0
  0
CIRCLE
  5
541
  8
0
  6
CONTINUOUS
 62
     7
 10
840.0
 20
183.0
 30
0.0
 40
2.248269726311647
  0
LINE
  5
542
  8
0
  6
CONTINUOUS
 62
     7
 10
821.9999999999998
 20
58.99999999999999
 30
0.0
 11
821.9737432413061
 21
59.05251751702839
 31
0.0
  0
LINE
  5
543
  8
0
  6
CONTINUOUS
 62
     7
 10
821.9999999999998
 20
196.0
 30
0.0
 11
821.973743241306
 21
195.9474824829716
 31
0.0
  0
LINE
  5
544
  8
0
  6
CONTINUOUS
 62
     7
 10
808.8210801718214
 20
72.57890078971046
 30
0.0
 11
812.8743594753023
 21
72.57890078971046
 31
0.0
  0
LINE
  5
545
  8
0
  6
CONTINUOUS
 62
     7
 10
808.8210801718214
 20
72.57890078971045
 30
0.0
 11
808.7235366965704
 21
72.56929399263
 31
0.0
  0
LINE
  5
546
  8
0
  6
CONTINUOUS
 62
     7
 10
808.7235366965705
 20
72.56929399263
 30
0.0
 11
808.6297428632496
 21
72.54084274953262
 31
0.0
  0
LINE
  5
547
  8
0
  6
CONTINUOUS
 62
     7
 10
808.6297428632496
 20
72.54084274953262
 30
0.0
 11
808.5433027679172
 21
72.49464032006523
 31
0.0
  0
LINE
  5
548
  8
0
  6
CONTINUOUS
 62
     7
 10
808.5433027679172
 20
72.49464032006523
 30
0.0
 11
808.4675379339168
 21
72.43246206608305
 31
0.0
  0
LINE
  5
549
  8
0
  6
CONTINUOUS
 62
     7
 10
808.4675379339168
 20
72.43246206608305
 30
0.0
 11
808.4053596799346
 21
72.35669723208275
 31
0.0
  0
LINE
  5
54A
  8
0
  6
CONTINUOUS
 62
     7
 10
808.4053596799346
 20
72.35669723208275
 30
0.0
 11
808.3591572504672
 21
72.27025713675033
 31
0.0
  0
LINE
  5
54B
  8
0
  6
CONTINUOUS
 62
     7
 10
808.3591572504673
 20
72.27025713675033
 30
0.0
 11
808.3307060073698
 21
72.17646330342946
 31
0.0
  0
LINE
  5
54C
  8
0
  6
CONTINUOUS
 62
     7
 10
808.3307060073698
 20
72.17646330342946
 30
0.0
 11
808.3210992102894
 21
72.07891982817841
 31
0.0
  0
LINE
  5
54D
  8
0
  6
CONTINUOUS
 62
     7
 10
808.3210992102894
 20
64.12108017182145
 30
0.0
 11
808.3210992102894
 21
72.07891982817837
 31
0.0
  0
LINE
  5
54E
  8
0
  6
CONTINUOUS
 62
     7
 10
808.3210992102894
 20
64.12108017182148
 30
0.0
 11
808.3307060073698
 21
64.02353669657042
 31
0.0
  0
LINE
  5
54F
  8
0
  6
CONTINUOUS
 62
     7
 10
808.3307060073698
 20
64.02353669657042
 30
0.0
 11
808.3591572504673
 21
63.92974286324952
 31
0.0
  0
LINE
  5
550
  8
0
  6
CONTINUOUS
 62
     7
 10
808.3591572504673
 20
63.92974286324952
 30
0.0
 11
808.4053596799348
 21
63.84330276791712
 31
0.0
  0
LINE
  5
551
  8
0
  6
CONTINUOUS
 62
     7
 10
808.4053596799347
 20
63.84330276791712
 30
0.0
 11
808.4675379339169
 21
63.76753793391683
 31
0.0
  0
LINE
  5
552
  8
0
  6
CONTINUOUS
 62
     7
 10
808.4675379339169
 20
63.76753793391683
 30
0.0
 11
808.5433027679172
 21
63.70535967993462
 31
0.0
  0
LINE
  5
553
  8
0
  6
CONTINUOUS
 62
     7
 10
808.5433027679172
 20
63.70535967993462
 30
0.0
 11
808.6297428632496
 21
63.65915725046725
 31
0.0
  0
LINE
  5
554
  8
0
  6
CONTINUOUS
 62
     7
 10
808.6297428632496
 20
63.65915725046725
 30
0.0
 11
808.7235366965706
 21
63.63070600736987
 31
0.0
  0
LINE
  5
555
  8
0
  6
CONTINUOUS
 62
     7
 10
808.7235366965705
 20
63.63070600736987
 30
0.0
 11
808.8210801718216
 21
63.62109921028941
 31
0.0
  0
LINE
  5
556
  8
0
  6
CONTINUOUS
 62
     7
 10
812.8743594753023
 20
63.62109921028935
 30
0.0
 11
808.8210801718214
 21
63.62109921028935
 31
0.0
  0
LINE
  5
557
  8
0
  6
CONTINUOUS
 62
     7
 10
812.8743594753023
 20
72.57890078971046
 30
0.0
 11
812.8743594753023
 21
63.62109921028935
 31
0.0
  0
LINE
  5
558
  8
0
  6
CONTINUOUS
 62
     7
 10
808.8210801718214
 20
85.17890078971047
 30
0.0
 11
812.8743594753023
 21
85.17890078971047
 31
0.0
  0
LINE
  5
559
  8
0
  6
CONTINUOUS
 62
     7
 10
808.8210801718214
 20
85.17890078971044
 30
0.0
 11
808.7235366965704
 21
85.16929399262999
 31
0.0
  0
LINE
  5
55A
  8
0
  6
CONTINUOUS
 62
     7
 10
808.7235366965705
 20
85.16929399262999
 30
0.0
 11
808.6297428632496
 21
85.14084274953261
 31
0.0
  0
LINE
  5
55B
  8
0
  6
CONTINUOUS
 62
     7
 10
808.6297428632496
 20
85.14084274953261
 30
0.0
 11
808.5433027679172
 21
85.09464032006524
 31
0.0
  0
LINE
  5
55C
  8
0
  6
CONTINUOUS
 62
     7
 10
808.5433027679172
 20
85.09464032006524
 30
0.0
 11
808.4675379339168
 21
85.03246206608304
 31
0.0
  0
LINE
  5
55D
  8
0
  6
CONTINUOUS
 62
     7
 10
808.4675379339168
 20
85.03246206608304
 30
0.0
 11
808.4053596799346
 21
84.95669723208273
 31
0.0
  0
LINE
  5
55E
  8
0
  6
CONTINUOUS
 62
     7
 10
808.4053596799346
 20
84.95669723208273
 30
0.0
 11
808.3591572504673
 21
84.87025713675034
 31
0.0
  0
LINE
  5
55F
  8
0
  6
CONTINUOUS
 62
     7
 10
808.3591572504673
 20
84.87025713675034
 30
0.0
 11
808.3307060073698
 21
84.77646330342944
 31
0.0
  0
LINE
  5
560
  8
0
  6
CONTINUOUS
 62
     7
 10
808.3307060073698
 20
84.77646330342944
 30
0.0
 11
808.3210992102894
 21
84.67891982817841
 31
0.0
  0
LINE
  5
561
  8
0
  6
CONTINUOUS
 62
     7
 10
808.3210992102894
 20
76.72108017182147
 30
0.0
 11
808.3210992102894
 21
84.67891982817838
 31
0.0
  0
LINE
  5
562
  8
0
  6
CONTINUOUS
 62
     7
 10
808.3210992102894
 20
76.72108017182146
 30
0.0
 11
808.3307060073698
 21
76.62353669657038
 31
0.0
  0
LINE
  5
563
  8
0
  6
CONTINUOUS
 62
     7
 10
808.3307060073698
 20
76.62353669657038
 30
0.0
 11
808.3591572504673
 21
76.52974286324952
 31
0.0
  0
LINE
  5
564
  8
0
  6
CONTINUOUS
 62
     7
 10
808.3591572504673
 20
76.52974286324952
 30
0.0
 11
808.4053596799347
 21
76.4433027679171
 31
0.0
  0
LINE
  5
565
  8
0
  6
CONTINUOUS
 62
     7
 10
808.4053596799346
 20
76.4433027679171
 30
0.0
 11
808.4675379339168
 21
76.36753793391681
 31
0.0
  0
LINE
  5
566
  8
0
  6
CONTINUOUS
 62
     7
 10
808.4675379339168
 20
76.36753793391681
 30
0.0
 11
808.5433027679172
 21
76.3053596799346
 31
0.0
  0
LINE
  5
567
  8
0
  6
CONTINUOUS
 62
     7
 10
808.5433027679172
 20
76.3053596799346
 30
0.0
 11
808.6297428632496
 21
76.25915725046724
 31
0.0
  0
LINE
  5
568
  8
0
  6
CONTINUOUS
 62
     7
 10
808.6297428632496
 20
76.25915725046724
 30
0.0
 11
808.7235366965706
 21
76.23070600736986
 31
0.0
  0
LINE
  5
569
  8
0
  6
CONTINUOUS
 62
     7
 10
808.7235366965705
 20
76.23070600736986
 30
0.0
 11
808.8210801718216
 21
76.2210992102894
 31
0.0
  0
LINE
  5
56A
  8
0
  6
CONTINUOUS
 62
     7
 10
812.8743594753023
 20
76.22109921028935
 30
0.0
 11
808.8210801718214
 21
76.22109921028935
 31
0.0
  0
LINE
  5
56B
  8
0
  6
CONTINUOUS
 62
     7
 10
812.8743594753023
 20
85.17890078971047
 30
0.0
 11
812.8743594753023
 21
76.22109921028935
 31
0.0
  0
LINE
  5
56C
  8
0
  6
CONTINUOUS
 62
     7
 10
808.8210801718214
 20
97.7789007897105
 30
0.0
 11
812.8743594753023
 21
97.7789007897105
 31
0.0
  0
LINE
  5
56D
  8
0
  6
CONTINUOUS
 62
     7
 10
808.8210801718214
 20
97.7789007897104
 30
0.0
 11
808.7235366965704
 21
97.76929399263
 31
0.0
  0
LINE
  5
56E
  8
0
  6
CONTINUOUS
 62
     7
 10
808.7235366965705
 20
97.76929399263
 30
0.0
 11
808.6297428632496
 21
97.74084274953259
 31
0.0
  0
LINE
  5
56F
  8
0
  6
CONTINUOUS
 62
     7
 10
808.6297428632496
 20
97.74084274953259
 30
0.0
 11
808.5433027679172
 21
97.6946403200652
 31
0.0
  0
LINE
  5
570
  8
0
  6
CONTINUOUS
 62
     7
 10
808.5433027679172
 20
97.6946403200652
 30
0.0
 11
808.4675379339168
 21
97.632462066083
 31
0.0
  0
LINE
  5
571
  8
0
  6
CONTINUOUS
 62
     7
 10
808.4675379339168
 20
97.632462066083
 30
0.0
 11
808.4053596799346
 21
97.5566972320827
 31
0.0
  0
LINE
  5
572
  8
0
  6
CONTINUOUS
 62
     7
 10
808.4053596799346
 20
97.5566972320827
 30
0.0
 11
808.3591572504673
 21
97.47025713675033
 31
0.0
  0
LINE
  5
573
  8
0
  6
CONTINUOUS
 62
     7
 10
808.3591572504673
 20
97.47025713675033
 30
0.0
 11
808.3307060073698
 21
97.37646330342945
 31
0.0
  0
LINE
  5
574
  8
0
  6
CONTINUOUS
 62
     7
 10
808.3307060073698
 20
97.37646330342945
 30
0.0
 11
808.3210992102894
 21
97.2789198281784
 31
0.0
  0
LINE
  5
575
  8
0
  6
CONTINUOUS
 62
     7
 10
808.3210992102894
 20
89.32108017182148
 30
0.0
 11
808.3210992102894
 21
97.27891982817837
 31
0.0
  0
LINE
  5
576
  8
0
  6
CONTINUOUS
 62
     7
 10
808.3210992102894
 20
89.32108017182144
 30
0.0
 11
808.3307060073698
 21
89.22353669657039
 31
0.0
  0
LINE
  5
577
  8
0
  6
CONTINUOUS
 62
     7
 10
808.3307060073698
 20
89.22353669657039
 30
0.0
 11
808.3591572504673
 21
89.1297428632495
 31
0.0
  0
LINE
  5
578
  8
0
  6
CONTINUOUS
 62
     7
 10
808.3591572504673
 20
89.1297428632495
 30
0.0
 11
808.4053596799347
 21
89.0433027679171
 31
0.0
  0
LINE
  5
579
  8
0
  6
CONTINUOUS
 62
     7
 10
808.4053596799346
 20
89.0433027679171
 30
0.0
 11
808.4675379339168
 21
88.9675379339168
 31
0.0
  0
LINE
  5
57A
  8
0
  6
CONTINUOUS
 62
     7
 10
808.4675379339168
 20
88.9675379339168
 30
0.0
 11
808.5433027679172
 21
88.90535967993458
 31
0.0
  0
LINE
  5
57B
  8
0
  6
CONTINUOUS
 62
     7
 10
808.5433027679172
 20
88.90535967993458
 30
0.0
 11
808.6297428632495
 21
88.85915725046723
 31
0.0
  0
LINE
  5
57C
  8
0
  6
CONTINUOUS
 62
     7
 10
808.6297428632496
 20
88.85915725046723
 30
0.0
 11
808.7235366965705
 21
88.83070600736986
 31
0.0
  0
LINE
  5
57D
  8
0
  6
CONTINUOUS
 62
     7
 10
808.7235366965705
 20
88.83070600736986
 30
0.0
 11
808.8210801718216
 21
88.82109921028938
 31
0.0
  0
LINE
  5
57E
  8
0
  6
CONTINUOUS
 62
     7
 10
812.8743594753023
 20
88.82109921028935
 30
0.0
 11
808.8210801718214
 21
88.82109921028935
 31
0.0
  0
LINE
  5
57F
  8
0
  6
CONTINUOUS
 62
     7
 10
812.8743594753023
 20
97.7789007897105
 30
0.0
 11
812.8743594753023
 21
88.82109921028935
 31
0.0
  0
LINE
  5
580
  8
0
  6
CONTINUOUS
 62
     7
 10
808.8210801718214
 20
110.3789007897105
 30
0.0
 11
812.8743594753023
 21
110.3789007897105
 31
0.0
  0
LINE
  5
581
  8
0
  6
CONTINUOUS
 62
     7
 10
808.8210801718214
 20
110.3789007897104
 30
0.0
 11
808.7235366965704
 21
110.36929399263
 31
0.0
  0
LINE
  5
582
  8
0
  6
CONTINUOUS
 62
     7
 10
808.7235366965705
 20
110.36929399263
 30
0.0
 11
808.6297428632496
 21
110.3408427495326
 31
0.0
  0
LINE
  5
583
  8
0
  6
CONTINUOUS
 62
     7
 10
808.6297428632496
 20
110.3408427495326
 30
0.0
 11
808.5433027679172
 21
110.2946403200652
 31
0.0
  0
LINE
  5
584
  8
0
  6
CONTINUOUS
 62
     7
 10
808.5433027679172
 20
110.2946403200652
 30
0.0
 11
808.4675379339168
 21
110.232462066083
 31
0.0
  0
LINE
  5
585
  8
0
  6
CONTINUOUS
 62
     7
 10
808.4675379339168
 20
110.232462066083
 30
0.0
 11
808.4053596799346
 21
110.1566972320827
 31
0.0
  0
LINE
  5
586
  8
0
  6
CONTINUOUS
 62
     7
 10
808.4053596799346
 20
110.1566972320827
 30
0.0
 11
808.3591572504672
 21
110.0702571367503
 31
0.0
  0
LINE
  5
587
  8
0
  6
CONTINUOUS
 62
     7
 10
808.3591572504673
 20
110.0702571367503
 30
0.0
 11
808.3307060073698
 21
109.9764633034295
 31
0.0
  0
LINE
  5
588
  8
0
  6
CONTINUOUS
 62
     7
 10
808.3307060073698
 20
109.9764633034295
 30
0.0
 11
808.3210992102894
 21
109.8789198281784
 31
0.0
  0
LINE
  5
589
  8
0
  6
CONTINUOUS
 62
     7
 10
808.3210992102894
 20
101.9210801718214
 30
0.0
 11
808.3210992102894
 21
109.8789198281784
 31
0.0
  0
LINE
  5
58A
  8
0
  6
CONTINUOUS
 62
     7
 10
808.3210992102894
 20
101.9210801718214
 30
0.0
 11
808.3307060073698
 21
101.8235366965704
 31
0.0
  0
LINE
  5
58B
  8
0
  6
CONTINUOUS
 62
     7
 10
808.3307060073698
 20
101.8235366965704
 30
0.0
 11
808.3591572504672
 21
101.7297428632495
 31
0.0
  0
LINE
  5
58C
  8
0
  6
CONTINUOUS
 62
     7
 10
808.3591572504673
 20
101.7297428632495
 30
0.0
 11
808.4053596799348
 21
101.6433027679171
 31
0.0
  0
LINE
  5
58D
  8
0
  6
CONTINUOUS
 62
     7
 10
808.4053596799347
 20
101.6433027679171
 30
0.0
 11
808.4675379339169
 21
101.5675379339168
 31
0.0
  0
LINE
  5
58E
  8
0
  6
CONTINUOUS
 62
     7
 10
808.4675379339169
 20
101.5675379339168
 30
0.0
 11
808.5433027679172
 21
101.5053596799346
 31
0.0
  0
LINE
  5
58F
  8
0
  6
CONTINUOUS
 62
     7
 10
808.5433027679172
 20
101.5053596799346
 30
0.0
 11
808.6297428632496
 21
101.4591572504673
 31
0.0
  0
LINE
  5
590
  8
0
  6
CONTINUOUS
 62
     7
 10
808.6297428632496
 20
101.4591572504673
 30
0.0
 11
808.7235366965705
 21
101.4307060073699
 31
0.0
  0
LINE
  5
591
  8
0
  6
CONTINUOUS
 62
     7
 10
808.7235366965705
 20
101.4307060073699
 30
0.0
 11
808.8210801718214
 21
101.4210992102894
 31
0.0
  0
LINE
  5
592
  8
0
  6
CONTINUOUS
 62
     7
 10
812.8743594753023
 20
101.4210992102894
 30
0.0
 11
808.8210801718214
 21
101.4210992102894
 31
0.0
  0
LINE
  5
593
  8
0
  6
CONTINUOUS
 62
     7
 10
812.8743594753023
 20
110.3789007897105
 30
0.0
 11
812.8743594753023
 21
101.4210992102894
 31
0.0
  0
LINE
  5
594
  8
0
  6
CONTINUOUS
 62
     7
 10
804.999942886771
 20
196.0000000000001
 30
0.0
 11
804.9024048116611
 21
195.9903930339297
 31
0.0
  0
LINE
  5
595
  8
0
  6
CONTINUOUS
 62
     7
 10
804.9024048116611
 20
195.9903930339297
 30
0.0
 11
804.8086172715268
 21
195.9619412546798
 31
0.0
  0
LINE
  5
596
  8
0
  6
CONTINUOUS
 62
     7
 10
804.8086172715268
 20
195.9619412546798
 30
0.0
 11
804.7221837723172
 21
195.9157378368407
 31
0.0
  0
LINE
  5
597
  8
0
  6
CONTINUOUS
 62
     7
 10
804.7221837723172
 20
195.9157378368407
 30
0.0
 11
804.6464252629353
 21
195.8535580086655
 31
0.0
  0
LINE
  5
598
  8
0
  6
CONTINUOUS
 62
     7
 10
804.6464252629353
 20
195.8535580086655
 30
0.0
 11
804.5842525377021
 21
195.7777908442293
 31
0.0
  0
LINE
  5
599
  8
0
  6
CONTINUOUS
 62
     7
 10
804.5842525377021
 20
195.7777908442293
 30
0.0
 11
804.5380543977839
 21
195.6913474703979
 31
0.0
  0
LINE
  5
59A
  8
0
  6
CONTINUOUS
 62
     7
 10
804.5380543977839
 20
195.6913474703979
 30
0.0
 11
804.5096058686449
 21
195.5975492154774
 31
0.0
  0
LINE
  5
59B
  8
0
  6
CONTINUOUS
 62
     7
 10
804.5096058686449
 20
195.5975492154774
 30
0.0
 11
804.5
 21
195.4999999971
 31
0.0
  0
LINE
  5
59C
  8
0
  6
CONTINUOUS
 62
     7
 10
817.9999999999998
 20
196.0
 30
0.0
 11
817.9999999999998
 21
58.99999999999999
 31
0.0
  0
LINE
  5
59D
  8
0
  6
CONTINUOUS
 62
     7
 10
817.9999999999998
 20
58.99999999999999
 30
0.0
 11
804.999942886771
 21
58.99999999999999
 31
0.0
  0
LINE
  5
59E
  8
0
  6
CONTINUOUS
 62
     7
 10
804.4999999999999
 20
59.50000000290007
 30
0.0
 11
804.5096058686449
 21
59.40245078452266
 31
0.0
  0
LINE
  5
59F
  8
0
  6
CONTINUOUS
 62
     7
 10
804.5096058686449
 20
59.40245078452266
 30
0.0
 11
804.538054397784
 21
59.30865252960213
 31
0.0
  0
LINE
  5
5A0
  8
0
  6
CONTINUOUS
 62
     7
 10
804.5380543977839
 20
59.30865252960213
 30
0.0
 11
804.5842525377021
 21
59.22220915577071
 31
0.0
  0
LINE
  5
5A1
  8
0
  6
CONTINUOUS
 62
     7
 10
804.5842525377021
 20
59.22220915577071
 30
0.0
 11
804.6464252629353
 21
59.14644199133455
 31
0.0
  0
LINE
  5
5A2
  8
0
  6
CONTINUOUS
 62
     7
 10
804.6464252629353
 20
59.14644199133455
 30
0.0
 11
804.7221837723172
 21
59.08426216315934
 31
0.0
  0
LINE
  5
5A3
  8
0
  6
CONTINUOUS
 62
     7
 10
804.7221837723172
 20
59.08426216315934
 30
0.0
 11
804.8086172715268
 21
59.03805874532026
 31
0.0
  0
LINE
  5
5A4
  8
0
  6
CONTINUOUS
 62
     7
 10
804.8086172715268
 20
59.03805874532026
 30
0.0
 11
804.9024048116611
 21
59.00960696607033
 31
0.0
  0
LINE
  5
5A5
  8
0
  6
CONTINUOUS
 62
     7
 10
804.9024048116611
 20
59.00960696607033
 30
0.0
 11
804.9999428867711
 21
58.99999999999997
 31
0.0
  0
LINE
  5
5A6
  8
0
  6
CONTINUOUS
 62
     7
 10
804.5
 20
59.50000000290007
 30
0.0
 11
804.5
 21
61.49994288314636
 31
0.0
  0
LINE
  5
5A7
  8
0
  6
CONTINUOUS
 62
     7
 10
805.0000571168537
 20
61.99999999999997
 30
0.0
 11
804.9025028417971
 21
61.99039134577373
 31
0.0
  0
LINE
  5
5A8
  8
0
  6
CONTINUOUS
 62
     7
 10
804.9025028417971
 20
61.99039134577373
 30
0.0
 11
804.8086964217173
 21
61.96193467397715
 31
0.0
  0
LINE
  5
5A9
  8
0
  6
CONTINUOUS
 62
     7
 10
804.8086964217173
 20
61.96193467397715
 30
0.0
 11
804.72224313315
 21
61.91572366424358
 31
0.0
  0
LINE
  5
5AA
  8
0
  6
CONTINUOUS
 62
     7
 10
804.72224313315
 20
61.91572366424358
 30
0.0
 11
804.6464656485995
 21
61.85353435140038
 31
0.0
  0
LINE
  5
5AB
  8
0
  6
CONTINUOUS
 62
     7
 10
805.0000571168537
 20
62.0
 30
0.0
 11
806.5
 21
62.0
 31
0.0
  0
LINE
  5
5AC
  8
0
  6
CONTINUOUS
 62
     7
 10
806.5
 20
62.0
 30
0.0
 11
806.5
 21
193.0
 31
0.0
  0
LINE
  5
5AD
  8
0
  6
CONTINUOUS
 62
     7
 10
805.0000571168537
 20
193.0
 30
0.0
 11
806.5
 21
193.0
 31
0.0
  0
LINE
  5
5AE
  8
0
  6
CONTINUOUS
 62
     7
 10
804.6464656485996
 20
193.1464656485996
 30
0.0
 11
804.7222431331501
 21
193.0842763357564
 31
0.0
  0
LINE
  5
5AF
  8
0
  6
CONTINUOUS
 62
     7
 10
804.72224313315
 20
193.0842763357564
 30
0.0
 11
804.8086964217173
 21
193.0380653260229
 31
0.0
  0
LINE
  5
5B0
  8
0
  6
CONTINUOUS
 62
     7
 10
804.8086964217173
 20
193.0380653260229
 30
0.0
 11
804.9025028417971
 21
193.0096086542263
 31
0.0
  0
LINE
  5
5B1
  8
0
  6
CONTINUOUS
 62
     7
 10
804.9025028417971
 20
193.0096086542263
 30
0.0
 11
805.0000571168537
 21
193.0000000000001
 31
0.0
  0
LINE
  5
5B2
  8
0
  6
CONTINUOUS
 62
     7
 10
804.5
 20
195.4999999970999
 30
0.0
 11
804.5
 21
193.5000571168536
 31
0.0
  0
LINE
  5
5B3
  8
0
  6
CONTINUOUS
 62
     7
 10
812.8743594753023
 20
191.3789007897107
 30
0.0
 11
808.8210801718214
 21
191.3789007897107
 31
0.0
  0
LINE
  5
5B4
  8
0
  6
CONTINUOUS
 62
     7
 10
808.8210801718214
 20
191.3789007897106
 30
0.0
 11
808.7235366965704
 21
191.3692939926301
 31
0.0
  0
LINE
  5
5B5
  8
0
  6
CONTINUOUS
 62
     7
 10
808.7235366965705
 20
191.3692939926301
 30
0.0
 11
808.6297428632496
 21
191.3408427495328
 31
0.0
  0
LINE
  5
5B6
  8
0
  6
CONTINUOUS
 62
     7
 10
808.6297428632496
 20
191.3408427495328
 30
0.0
 11
808.5433027679172
 21
191.2946403200654
 31
0.0
  0
LINE
  5
5B7
  8
0
  6
CONTINUOUS
 62
     7
 10
808.5433027679172
 20
191.2946403200654
 30
0.0
 11
808.4675379339169
 21
191.2324620660832
 31
0.0
  0
LINE
  5
5B8
  8
0
  6
CONTINUOUS
 62
     7
 10
808.4675379339169
 20
191.2324620660832
 30
0.0
 11
808.4053596799347
 21
191.1566972320829
 31
0.0
  0
LINE
  5
5B9
  8
0
  6
CONTINUOUS
 62
     7
 10
808.4053596799347
 20
191.1566972320829
 30
0.0
 11
808.3591572504673
 21
191.0702571367505
 31
0.0
  0
LINE
  5
5BA
  8
0
  6
CONTINUOUS
 62
     7
 10
808.3591572504673
 20
191.0702571367505
 30
0.0
 11
808.3307060073698
 21
190.9764633034296
 31
0.0
  0
LINE
  5
5BB
  8
0
  6
CONTINUOUS
 62
     7
 10
808.3307060073698
 20
190.9764633034296
 30
0.0
 11
808.3210992102894
 21
190.8789198281785
 31
0.0
  0
LINE
  5
5BC
  8
0
  6
CONTINUOUS
 62
     7
 10
808.3210992102894
 20
190.8789198281786
 30
0.0
 11
808.3210992102894
 21
182.9210801718216
 31
0.0
  0
LINE
  5
5BD
  8
0
  6
CONTINUOUS
 62
     7
 10
808.3210992102894
 20
182.9210801718216
 30
0.0
 11
808.3307060073698
 21
182.8235366965705
 31
0.0
  0
LINE
  5
5BE
  8
0
  6
CONTINUOUS
 62
     7
 10
808.3307060073698
 20
182.8235366965705
 30
0.0
 11
808.3591572504673
 21
182.7297428632496
 31
0.0
  0
LINE
  5
5BF
  8
0
  6
CONTINUOUS
 62
     7
 10
808.3591572504673
 20
182.7297428632496
 30
0.0
 11
808.4053596799346
 21
182.6433027679172
 31
0.0
  0
LINE
  5
5C0
  8
0
  6
CONTINUOUS
 62
     7
 10
808.4053596799346
 20
182.6433027679172
 30
0.0
 11
808.4675379339168
 21
182.5675379339169
 31
0.0
  0
LINE
  5
5C1
  8
0
  6
CONTINUOUS
 62
     7
 10
808.4675379339168
 20
182.5675379339169
 30
0.0
 11
808.5433027679172
 21
182.5053596799347
 31
0.0
  0
LINE
  5
5C2
  8
0
  6
CONTINUOUS
 62
     7
 10
808.5433027679172
 20
182.5053596799347
 30
0.0
 11
808.6297428632496
 21
182.4591572504673
 31
0.0
  0
LINE
  5
5C3
  8
0
  6
CONTINUOUS
 62
     7
 10
808.6297428632496
 20
182.4591572504673
 30
0.0
 11
808.7235366965706
 21
182.43070600737
 31
0.0
  0
LINE
  5
5C4
  8
0
  6
CONTINUOUS
 62
     7
 10
808.7235366965705
 20
182.43070600737
 30
0.0
 11
808.8210801718214
 21
182.4210992102895
 31
0.0
  0
LINE
  5
5C5
  8
0
  6
CONTINUOUS
 62
     7
 10
808.8210801718214
 20
182.4210992102895
 30
0.0
 11
812.8743594753023
 21
182.4210992102895
 31
0.0
  0
LINE
  5
5C6
  8
0
  6
CONTINUOUS
 62
     7
 10
812.8743594753023
 20
182.4210992102895
 30
0.0
 11
812.8743594753023
 21
191.3789007897107
 31
0.0
  0
LINE
  5
5C7
  8
0
  6
CONTINUOUS
 62
     7
 10
812.8743594753023
 20
178.7789007897106
 30
0.0
 11
808.8210801718214
 21
178.7789007897106
 31
0.0
  0
LINE
  5
5C8
  8
0
  6
CONTINUOUS
 62
     7
 10
808.8210801718214
 20
178.7789007897106
 30
0.0
 11
808.7235366965704
 21
178.7692939926301
 31
0.0
  0
LINE
  5
5C9
  8
0
  6
CONTINUOUS
 62
     7
 10
808.7235366965705
 20
178.7692939926301
 30
0.0
 11
808.6297428632495
 21
178.7408427495328
 31
0.0
  0
LINE
  5
5CA
  8
0
  6
CONTINUOUS
 62
     7
 10
808.6297428632496
 20
178.7408427495328
 30
0.0
 11
808.5433027679172
 21
178.6946403200654
 31
0.0
  0
LINE
  5
5CB
  8
0
  6
CONTINUOUS
 62
     7
 10
808.5433027679172
 20
178.6946403200654
 30
0.0
 11
808.4675379339169
 21
178.6324620660832
 31
0.0
  0
LINE
  5
5CC
  8
0
  6
CONTINUOUS
 62
     7
 10
808.4675379339169
 20
178.6324620660832
 30
0.0
 11
808.4053596799347
 21
178.5566972320829
 31
0.0
  0
LINE
  5
5CD
  8
0
  6
CONTINUOUS
 62
     7
 10
808.4053596799347
 20
178.5566972320829
 30
0.0
 11
808.3591572504673
 21
178.4702571367505
 31
0.0
  0
LINE
  5
5CE
  8
0
  6
CONTINUOUS
 62
     7
 10
808.3591572504673
 20
178.4702571367505
 30
0.0
 11
808.3307060073698
 21
178.3764633034296
 31
0.0
  0
LINE
  5
5CF
  8
0
  6
CONTINUOUS
 62
     7
 10
808.3307060073698
 20
178.3764633034296
 30
0.0
 11
808.3210992102894
 21
178.2789198281785
 31
0.0
  0
LINE
  5
5D0
  8
0
  6
CONTINUOUS
 62
     7
 10
808.3210992102894
 20
178.2789198281786
 30
0.0
 11
808.3210992102894
 21
170.3210801718216
 31
0.0
  0
LINE
  5
5D1
  8
0
  6
CONTINUOUS
 62
     7
 10
808.3210992102894
 20
170.3210801718216
 30
0.0
 11
808.3307060073698
 21
170.2235366965705
 31
0.0
  0
LINE
  5
5D2
  8
0
  6
CONTINUOUS
 62
     7
 10
808.3307060073698
 20
170.2235366965705
 30
0.0
 11
808.3591572504673
 21
170.1297428632496
 31
0.0
  0
LINE
  5
5D3
  8
0
  6
CONTINUOUS
 62
     7
 10
808.3591572504673
 20
170.1297428632496
 30
0.0
 11
808.4053596799346
 21
170.0433027679172
 31
0.0
  0
LINE
  5
5D4
  8
0
  6
CONTINUOUS
 62
     7
 10
808.4053596799346
 20
170.0433027679172
 30
0.0
 11
808.4675379339168
 21
169.9675379339169
 31
0.0
  0
LINE
  5
5D5
  8
0
  6
CONTINUOUS
 62
     7
 10
808.4675379339168
 20
169.9675379339169
 30
0.0
 11
808.5433027679172
 21
169.9053596799347
 31
0.0
  0
LINE
  5
5D6
  8
0
  6
CONTINUOUS
 62
     7
 10
808.5433027679172
 20
169.9053596799347
 30
0.0
 11
808.6297428632496
 21
169.8591572504673
 31
0.0
  0
LINE
  5
5D7
  8
0
  6
CONTINUOUS
 62
     7
 10
808.6297428632496
 20
169.8591572504673
 30
0.0
 11
808.7235366965706
 21
169.83070600737
 31
0.0
  0
LINE
  5
5D8
  8
0
  6
CONTINUOUS
 62
     7
 10
808.7235366965705
 20
169.83070600737
 30
0.0
 11
808.8210801718214
 21
169.8210992102895
 31
0.0
  0
LINE
  5
5D9
  8
0
  6
CONTINUOUS
 62
     7
 10
808.8210801718214
 20
169.8210992102895
 30
0.0
 11
812.8743594753023
 21
169.8210992102895
 31
0.0
  0
LINE
  5
5DA
  8
0
  6
CONTINUOUS
 62
     7
 10
812.8743594753023
 20
169.8210992102895
 30
0.0
 11
812.8743594753023
 21
178.7789007897106
 31
0.0
  0
LINE
  5
5DB
  8
0
  6
CONTINUOUS
 62
     7
 10
812.8743594753023
 20
166.1789007897106
 30
0.0
 11
808.8210801718214
 21
166.1789007897106
 31
0.0
  0
LINE
  5
5DC
  8
0
  6
CONTINUOUS
 62
     7
 10
808.8210801718214
 20
166.1789007897106
 30
0.0
 11
808.7235366965704
 21
166.1692939926301
 31
0.0
  0
LINE
  5
5DD
  8
0
  6
CONTINUOUS
 62
     7
 10
808.7235366965705
 20
166.1692939926301
 30
0.0
 11
808.6297428632496
 21
166.1408427495327
 31
0.0
  0
LINE
  5
5DE
  8
0
  6
CONTINUOUS
 62
     7
 10
808.6297428632496
 20
166.1408427495327
 30
0.0
 11
808.5433027679172
 21
166.0946403200654
 31
0.0
  0
LINE
  5
5DF
  8
0
  6
CONTINUOUS
 62
     7
 10
808.5433027679172
 20
166.0946403200654
 30
0.0
 11
808.4675379339169
 21
166.0324620660832
 31
0.0
  0
LINE
  5
5E0
  8
0
  6
CONTINUOUS
 62
     7
 10
808.4675379339169
 20
166.0324620660832
 30
0.0
 11
808.4053596799347
 21
165.9566972320829
 31
0.0
  0
LINE
  5
5E1
  8
0
  6
CONTINUOUS
 62
     7
 10
808.4053596799347
 20
165.9566972320829
 30
0.0
 11
808.3591572504673
 21
165.8702571367505
 31
0.0
  0
LINE
  5
5E2
  8
0
  6
CONTINUOUS
 62
     7
 10
808.3591572504673
 20
165.8702571367505
 30
0.0
 11
808.3307060073698
 21
165.7764633034296
 31
0.0
  0
LINE
  5
5E3
  8
0
  6
CONTINUOUS
 62
     7
 10
808.3307060073698
 20
165.7764633034296
 30
0.0
 11
808.3210992102894
 21
165.6789198281785
 31
0.0
  0
LINE
  5
5E4
  8
0
  6
CONTINUOUS
 62
     7
 10
808.3210992102894
 20
165.6789198281786
 30
0.0
 11
808.3210992102894
 21
157.7210801718216
 31
0.0
  0
LINE
  5
5E5
  8
0
  6
CONTINUOUS
 62
     7
 10
808.3210992102894
 20
157.7210801718216
 30
0.0
 11
808.3307060073698
 21
157.6235366965705
 31
0.0
  0
LINE
  5
5E6
  8
0
  6
CONTINUOUS
 62
     7
 10
808.3307060073698
 20
157.6235366965705
 30
0.0
 11
808.3591572504673
 21
157.5297428632496
 31
0.0
  0
LINE
  5
5E7
  8
0
  6
CONTINUOUS
 62
     7
 10
808.3591572504673
 20
157.5297428632496
 30
0.0
 11
808.4053596799346
 21
157.4433027679172
 31
0.0
  0
LINE
  5
5E8
  8
0
  6
CONTINUOUS
 62
     7
 10
808.4053596799346
 20
157.4433027679172
 30
0.0
 11
808.4675379339168
 21
157.3675379339169
 31
0.0
  0
LINE
  5
5E9
  8
0
  6
CONTINUOUS
 62
     7
 10
808.4675379339168
 20
157.3675379339169
 30
0.0
 11
808.5433027679172
 21
157.3053596799347
 31
0.0
  0
LINE
  5
5EA
  8
0
  6
CONTINUOUS
 62
     7
 10
808.5433027679172
 20
157.3053596799347
 30
0.0
 11
808.6297428632496
 21
157.2591572504674
 31
0.0
  0
LINE
  5
5EB
  8
0
  6
CONTINUOUS
 62
     7
 10
808.6297428632496
 20
157.2591572504674
 30
0.0
 11
808.7235366965706
 21
157.23070600737
 31
0.0
  0
LINE
  5
5EC
  8
0
  6
CONTINUOUS
 62
     7
 10
808.7235366965705
 20
157.23070600737
 30
0.0
 11
808.8210801718214
 21
157.2210992102895
 31
0.0
  0
LINE
  5
5ED
  8
0
  6
CONTINUOUS
 62
     7
 10
808.8210801718214
 20
157.2210992102895
 30
0.0
 11
812.8743594753023
 21
157.2210992102895
 31
0.0
  0
LINE
  5
5EE
  8
0
  6
CONTINUOUS
 62
     7
 10
812.8743594753023
 20
157.2210992102895
 30
0.0
 11
812.8743594753023
 21
166.1789007897106
 31
0.0
  0
LINE
  5
5EF
  8
0
  6
CONTINUOUS
 62
     7
 10
812.8743594753023
 20
153.5789007897106
 30
0.0
 11
808.8210801718214
 21
153.5789007897106
 31
0.0
  0
LINE
  5
5F0
  8
0
  6
CONTINUOUS
 62
     7
 10
808.8210801718214
 20
153.5789007897106
 30
0.0
 11
808.7235366965704
 21
153.5692939926301
 31
0.0
  0
LINE
  5
5F1
  8
0
  6
CONTINUOUS
 62
     7
 10
808.7235366965705
 20
153.5692939926301
 30
0.0
 11
808.6297428632496
 21
153.5408427495327
 31
0.0
  0
LINE
  5
5F2
  8
0
  6
CONTINUOUS
 62
     7
 10
808.6297428632496
 20
153.5408427495327
 30
0.0
 11
808.5433027679172
 21
153.4946403200654
 31
0.0
  0
LINE
  5
5F3
  8
0
  6
CONTINUOUS
 62
     7
 10
808.5433027679172
 20
153.4946403200654
 30
0.0
 11
808.4675379339169
 21
153.4324620660832
 31
0.0
  0
LINE
  5
5F4
  8
0
  6
CONTINUOUS
 62
     7
 10
808.4675379339169
 20
153.4324620660832
 30
0.0
 11
808.4053596799347
 21
153.3566972320829
 31
0.0
  0
LINE
  5
5F5
  8
0
  6
CONTINUOUS
 62
     7
 10
808.4053596799347
 20
153.3566972320829
 30
0.0
 11
808.3591572504673
 21
153.2702571367505
 31
0.0
  0
LINE
  5
5F6
  8
0
  6
CONTINUOUS
 62
     7
 10
808.3591572504673
 20
153.2702571367505
 30
0.0
 11
808.3307060073698
 21
153.1764633034296
 31
0.0
  0
LINE
  5
5F7
  8
0
  6
CONTINUOUS
 62
     7
 10
808.3307060073698
 20
153.1764633034296
 30
0.0
 11
808.3210992102894
 21
153.0789198281785
 31
0.0
  0
LINE
  5
5F8
  8
0
  6
CONTINUOUS
 62
     7
 10
808.3210992102894
 20
153.0789198281786
 30
0.0
 11
808.3210992102894
 21
145.1210801718216
 31
0.0
  0
LINE
  5
5F9
  8
0
  6
CONTINUOUS
 62
     7
 10
808.3210992102894
 20
145.1210801718216
 30
0.0
 11
808.3307060073698
 21
145.0235366965705
 31
0.0
  0
LINE
  5
5FA
  8
0
  6
CONTINUOUS
 62
     7
 10
808.3307060073698
 20
145.0235366965705
 30
0.0
 11
808.3591572504673
 21
144.9297428632496
 31
0.0
  0
LINE
  5
5FB
  8
0
  6
CONTINUOUS
 62
     7
 10
808.3591572504673
 20
144.9297428632496
 30
0.0
 11
808.4053596799346
 21
144.8433027679172
 31
0.0
  0
LINE
  5
5FC
  8
0
  6
CONTINUOUS
 62
     7
 10
808.4053596799346
 20
144.8433027679172
 30
0.0
 11
808.4675379339168
 21
144.7675379339169
 31
0.0
  0
LINE
  5
5FD
  8
0
  6
CONTINUOUS
 62
     7
 10
808.4675379339168
 20
144.7675379339169
 30
0.0
 11
808.5433027679172
 21
144.7053596799347
 31
0.0
  0
LINE
  5
5FE
  8
0
  6
CONTINUOUS
 62
     7
 10
808.5433027679172
 20
144.7053596799347
 30
0.0
 11
808.6297428632496
 21
144.6591572504674
 31
0.0
  0
LINE
  5
5FF
  8
0
  6
CONTINUOUS
 62
     7
 10
808.6297428632496
 20
144.6591572504674
 30
0.0
 11
808.7235366965706
 21
144.63070600737
 31
0.0
  0
LINE
  5
600
  8
0
  6
CONTINUOUS
 62
     7
 10
808.7235366965705
 20
144.63070600737
 30
0.0
 11
808.8210801718214
 21
144.6210992102895
 31
0.0
  0
LINE
  5
601
  8
0
  6
CONTINUOUS
 62
     7
 10
808.8210801718214
 20
144.6210992102895
 30
0.0
 11
812.8743594753023
 21
144.6210992102895
 31
0.0
  0
LINE
  5
602
  8
0
  6
CONTINUOUS
 62
     7
 10
812.8743594753023
 20
144.6210992102895
 30
0.0
 11
812.8743594753023
 21
153.5789007897106
 31
0.0
  0
LINE
  5
603
  8
0
  6
CONTINUOUS
 62
     7
 10
817.9999999999998
 20
196.0
 30
0.0
 11
804.999942886771
 21
196.0
 31
0.0
  0
LINE
  5
604
  8
0
  6
CONTINUOUS
 62
     7
 10
817.9999999999998
 20
196.0
 30
0.0
 11
818.0262567586939
 21
195.9474824829716
 31
0.0
  0
LINE
  5
605
  8
0
  6
CONTINUOUS
 62
     7
 10
804.5
 20
193.5000571168537
 30
0.0
 11
804.5096086542262
 21
193.4025028417972
 31
0.0
  0
LINE
  5
606
  8
0
  6
CONTINUOUS
 62
     7
 10
804.5096086542262
 20
193.4025028417972
 30
0.0
 11
804.5380653260227
 21
193.3086964217174
 31
0.0
  0
LINE
  5
607
  8
0
  6
CONTINUOUS
 62
     7
 10
804.5380653260228
 20
193.3086964217174
 30
0.0
 11
804.5842763357564
 21
193.2222431331501
 31
0.0
  0
LINE
  5
608
  8
0
  6
CONTINUOUS
 62
     7
 10
804.5842763357564
 20
193.2222431331501
 30
0.0
 11
804.6464656485996
 21
193.1464656485996
 31
0.0
  0
CIRCLE
  5
609
  8
0
  6
CONTINUOUS
 62
     7
 10
840.0
 20
72.0
 30
0.0
 40
2.248269726311647
  0
LINE
  5
60A
  8
0
  6
CONTINUOUS
 62
     7
 10
875.4999999999999
 20
61.49994288314635
 30
0.0
 11
875.4903913457737
 21
61.59749715820284
 31
0.0
  0
LINE
  5
60B
  8
0
  6
CONTINUOUS
 62
     7
 10
875.4903913457737
 20
61.59749715820284
 30
0.0
 11
875.4619346739772
 21
61.69130357828266
 31
0.0
  0
LINE
  5
60C
  8
0
  6
CONTINUOUS
 62
     7
 10
875.4619346739771
 20
61.69130357828266
 30
0.0
 11
875.4157236642435
 21
61.77775686684993
 31
0.0
  0
LINE
  5
60D
  8
0
  6
CONTINUOUS
 62
     7
 10
875.4157236642436
 20
61.77775686684993
 30
0.0
 11
875.3535343514004
 21
61.85353435140038
 31
0.0
  0
LINE
  5
60E
  8
0
  6
CONTINUOUS
 62
     7
 10
804.6464656485996
 20
61.85353435140038
 30
0.0
 11
804.5842763357565
 21
61.77775686684993
 31
0.0
  0
LINE
  5
60F
  8
0
  6
CONTINUOUS
 62
     7
 10
804.5842763357564
 20
61.77775686684993
 30
0.0
 11
804.5380653260228
 21
61.69130357828266
 31
0.0
  0
LINE
  5
610
  8
0
  6
CONTINUOUS
 62
     7
 10
804.5380653260228
 20
61.69130357828266
 30
0.0
 11
804.5096086542263
 21
61.59749715820284
 31
0.0
  0
LINE
  5
611
  8
0
  6
CONTINUOUS
 62
     7
 10
804.5096086542262
 20
61.59749715820284
 30
0.0
 11
804.5
 21
61.49994288314635
 31
0.0
  0
LINE
  5
612
  8
0
  6
CONTINUOUS
 62
     7
 10
860.973781318242
 20
59.06982025971286
 30
0.0
 11
861.9737432413061
 21
59.05251751702839
 31
0.0
  0
LINE
  5
613
  8
0
  6
CONTINUOUS
 62
     7
 10
860.973781318242
 20
195.9301797402871
 30
0.0
 11
861.9737432413061
 21
195.9474824829716
 31
0.0
  0
LINE
  5
614
  8
0
  6
CONTINUOUS
 62
     7
 10
858.0262567586938
 20
59.05251751702839
 30
0.0
 11
859.026218681758
 21
59.06982025971286
 31
0.0
  0
LINE
  5
615
  8
0
  6
CONTINUOUS
 62
     7
 10
858.0262567586938
 20
195.9474824829716
 30
0.0
 11
859.026218681758
 21
195.9301797402871
 31
0.0
  0
LINE
  5
616
  8
0
  6
CONTINUOUS
 62
     7
 10
821.9737432413061
 20
195.9474824829716
 30
0.0
 11
820.9737813182418
 21
195.9301797402871
 31
0.0
  0
LINE
  5
617
  8
0
  6
CONTINUOUS
 62
     7
 10
819.0262186817579
 20
195.9301797402871
 30
0.0
 11
818.0262567586939
 21
195.9474824829716
 31
0.0
  0
LINE
  5
618
  8
0
  6
CONTINUOUS
 62
     7
 10
859.026218681758
 20
59.06982025971286
 30
0.0
 11
860.973781318242
 21
59.06982025971286
 31
0.0
  0
LINE
  5
619
  8
0
  6
CONTINUOUS
 62
     7
 10
859.026218681758
 20
195.9301797402871
 30
0.0
 11
860.973781318242
 21
195.9301797402871
 31
0.0
  0
LINE
  5
61A
  8
0
  6
CONTINUOUS
 62
     7
 10
820.9737813182418
 20
195.9301797402871
 30
0.0
 11
819.0262186817579
 21
195.9301797402871
 31
0.0
  0
LINE
  5
61B
  8
0
  6
CONTINUOUS
 62
     7
 10
875.4305350539888
 20
147.5
 30
0.0
 11
874.5735599426456
 21
147.5
 31
0.0
  0
LINE
  5
61C
  8
0
  6
CONTINUOUS
 62
     7
 10
874.5735599426456
 20
107.5
 30
0.0
 11
874.5735599426456
 21
147.5
 31
0.0
  0
LINE
  5
61D
  8
0
  6
CONTINUOUS
 62
     7
 10
875.4305350539888
 20
107.5
 30
0.0
 11
874.5735599426456
 21
107.5
 31
0.0
  0
LINE
  5
61E
  8
0
  6
CONTINUOUS
 62
     7
 10
875.4305350539888
 20
107.5
 30
0.0
 11
875.4305350539888
 21
99.1377039595631
 31
0.0
  0
LINE
  5
61F
  8
0
  6
CONTINUOUS
 62
     7
 10
875.4305350539888
 20
147.5
 30
0.0
 11
875.4305350539888
 21
155.8622960404369
 31
0.0
  0
LINE
  5
620
  8
0
  6
CONTINUOUS
 62
     7
 10
804.5694649460111
 20
147.5
 30
0.0
 11
805.4264400573543
 21
147.5
 31
0.0
  0
LINE
  5
621
  8
0
  6
CONTINUOUS
 62
     7
 10
804.5694649460111
 20
107.5
 30
0.0
 11
805.4264400573543
 21
107.5
 31
0.0
  0
LINE
  5
622
  8
0
  6
CONTINUOUS
 62
     7
 10
805.4264400573543
 20
107.5
 30
0.0
 11
805.4264400573543
 21
147.5
 31
0.0
  0
LINE
  5
623
  8
0
  6
CONTINUOUS
 62
     7
 10
804.5694649460111
 20
107.5
 30
0.0
 11
804.5694649460111
 21
99.1377039595631
 31
0.0
  0
LINE
  5
624
  8
0
  6
CONTINUOUS
 62
     7
 10
804.5694649460111
 20
147.5
 30
0.0
 11
804.5694649460111
 21
155.8622960404369
 31
0.0
  0
ENDSEC
  0
EOF
