  0
SECTION
  2
HEADER
  9
$ACADVER
  1
AC1006
  9
$DWGCODEPAGE
  3
ansi_932
  9
$INSBASE
 10
0.0
 20
0.0
 30
0.0
  9
$EXTMIN
 10
35.99999999999999
 20
238.6704545454545
  9
$EXTMAX
 10
195.0
 20
360.0
  9
$LIMMIN
 10
0.0
 20
0.0
  9
$LIMMAX
 10
12.0
 20
9.0
  9
$ORTHOMODE
 70
     0
  9
$REGENMODE
 70
     1
  9
$FILLMODE
 70
     1
  9
$QTEXTMODE
 70
     0
  9
$MIRRTEXT
 70
     1
  9
$DRAGMODE
 70
     2
  9
$LTSCALE
 40
1.0
  9
$OSMODE
 70
    37
  9
$ATTMODE
 70
     1
  9
$TEXTSIZE
 40
0.2
  9
$TRACEWID
 40
0.05
  9
$TEXTSTYLE
  7
STANDARD
  9
$CLAYER
  8
0
  9
$CELTYPE
  6
BYLAYER
  9
$CECOLOR
 62
   256
  9
$DIMSCALE
 40
1.0
  9
$DIMASZ
 40
3.0
  9
$DIMEXO
 40
0.0625
  9
$DIMDLI
 40
0.38
  9
$DIMRND
 40
0.0
  9
$DIMDLE
 40
0.0
  9
$DIMEXE
 40
1.5
  9
$DIMTP
 40
0.0
  9
$DIMTM
 40
0.0
  9
$DIMTXT
 40
3.0
  9
$DIMCEN
 40
0.09
  9
$DIMTSZ
 40
0.0
  9
$DIMTOL
 70
     0
  9
$DIMLIM
 70
     0
  9
$DIMTIH
 70
     1
  9
$DIMTOH
 70
     1
  9
$DIMSE1
 70
     0
  9
$DIMSE2
 70
     0
  9
$DIMTAD
 70
     1
  9
$DIMZIN
 70
     0
  9
$DIMBLK
  1

  9
$DIMASO
 70
     1
  9
$DIMSHO
 70
     1
  9
$DIMPOST
  1

  9
$DIMAPOST
  1

  9
$DIMALT
 70
     0
  9
$DIMALTD
 70
     2
  9
$DIMALTF
 40
25.4
  9
$DIMLFAC
 40
1.0
  9
$DIMTOFL
 70
     0
  9
$DIMTVP
 40
0.0
  9
$DIMTIX
 70
     0
  9
$DIMSOXD
 70
     0
  9
$DIMSAH
 70
     0
  9
$DIMBLK1
  1

  9
$DIMBLK2
  1

  9
$LUNITS
 70
     2
  9
$LUPREC
 70
     4
  9
$SKETCHINC
 40
0.1
  9
$FILLETRAD
 40
0.5
  9
$AUNITS
 70
     0
  9
$AUPREC
 70
     0
  9
$MENU
  1
.
  9
$ELEVATION
 40
0.0
  9
$THICKNESS
 40
0.0
  9
$LIMCHECK
 70
     0
  9
$CHAMFERA
 40
0.0
  9
$CHAMFERB
 40
0.0
  9
$SKPOLY
 70
     0
  9
$TDCREATE
 40
2459332.448106539
  9
$TDUPDATE
 40
2459332.448106725
  9
$TDINDWG
 40
0.0000000116
  9
$TDUSRTIMER
 40
0.0000000116
  9
$USRTIMER
 70
     1
  9
$ANGBASE
 50
0.0
  9
$ANGDIR
 70
     0
  9
$PDMODE
 70
     0
  9
$PDSIZE
 40
0.0
  9
$PLINEWID
 40
0.0
  9
$COORDS
 70
     1
  9
$SPLFRAME
 70
     0
  9
$SPLINETYPE
 70
     6
  9
$SPLINESEGS
 70
     8
  9
$ATTDIA
 70
     0
  9
$ATTREQ
 70
     1
  9
$HANDLING
 70
     1
  9
$HANDSEED
  5
239
  9
$SURFTAB1
 70
     6
  9
$SURFTAB2
 70
     6
  9
$SURFTYPE
 70
     6
  9
$SURFU
 70
     6
  9
$SURFV
 70
     6
  9
$UCSNAME
  2

  9
$UCSORG
 10
0.0
 20
0.0
 30
0.0
  9
$UCSXDIR
 10
1.0
 20
0.0
 30
0.0
  9
$UCSYDIR
 10
0.0
 20
1.0
 30
0.0
  9
$USERI1
 70
     0
  9
$USERI2
 70
     0
  9
$USERI3
 70
     0
  9
$USERI4
 70
     0
  9
$USERI5
 70
     0
  9
$USERR1
 40
0.0
  9
$USERR2
 40
0.0
  9
$USERR3
 40
0.0
  9
$USERR4
 40
0.0
  9
$USERR5
 40
0.0
  9
$WORLDVIEW
 70
     1
  0
ENDSEC
  0
SECTION
  2
TABLES
  0
TABLE
  2
VPORT
 70
     1
  0
VPORT
  2
*ACTIVE
 70
     0
 10
0.0
 20
0.0
 11
1.0
 21
1.0
 12
115.5
 22
299.3352272727273
 13
0.0
 23
0.0
 14
0.5
 24
0.5
 15
0.5
 25
0.5
 16
0.0
 26
0.0
 36
1.0
 17
0.0
 27
0.0
 37
0.0
 40
121.3295454545455
 41
1.6
 42
50.0
 43
0.0
 44
0.0
 50
0.0
 51
0.0
 71
     0
 72
   100
 73
     1
 74
     3
 75
     0
 76
     0
 77
     0
 78
     0
  0
ENDTAB
  0
TABLE
  2
LTYPE
 70
     1
  0
LTYPE
  2
CONTINUOUS
 70
     0
  3
Solid line
 72
    65
 73
     0
 40
0.0
  0
ENDTAB
  0
TABLE
  2
LAYER
 70
     2
  0
LAYER
  2
0
 70
     0
 62
     7
  6
CONTINUOUS
  0
LAYER
  2
1
 70
     0
 62
     7
  6
CONTINUOUS
  0
ENDTAB
  0
TABLE
  2
STYLE
 70
     2
  0
STYLE
  2
STANDARD
 70
     0
 40
0.0
 41
1.0
 50
0.0
 71
     0
 42
0.2
  3
txt
  4

  0
STYLE
  2
ＭＳ_ゴシック
 70
     0
 40
0.0
 41
1.0
 50
0.0
 71
     0
 42
0.2
  3
ＭＳ ゴシック.shx
  4

  0
ENDTAB
  0
TABLE
  2
VIEW
 70
     0
  0
ENDTAB
  0
TABLE
  2
UCS
 70
     0
  0
ENDTAB
  0
ENDSEC
  0
SECTION
  2
BLOCKS
  0
BLOCK
  8
0
  2
D_FRAME_VIEW_1473
 70
     0
 10
0.0
 20
0.0
 30
0.0
  0
LINE
  5
71
  8
1
  6
CONTINUOUS
 62
     7
 10
41.01733950622393
 20
252.6577722290947
 30
0.0
 11
52.56585408014794
 21
252.6577722290947
 31
0.0
  0
LINE
  5
72
  8
1
  6
CONTINUOUS
 62
     7
 10
138.9826604937761
 20
252.6577722290947
 30
0.0
 11
127.4341459198521
 21
252.6577722290947
 31
0.0
  0
LINE
  5
73
  8
1
  6
CONTINUOUS
 62
     7
 10
139.0001903846791
 20
249.6577722290947
 30
0.0
 11
125.1515120751464
 21
249.6577722290947
 31
0.0
  0
ARC
  5
74
  8
1
  6
CONTINUOUS
 62
     7
 10
125.1515120751464
 20
251.6577722290947
 30
0.0
 40
2.0
 50
180.5000000000004
 51
270.0
  0
LINE
  5
75
  8
1
  6
CONTINUOUS
 62
     7
 10
123.151588229018
 20
251.640319158098
 30
0.0
 11
122.7921350842093
 21
292.8295698064653
 31
0.0
  0
ARC
  5
76
  8
1
  6
CONTINUOUS
 62
     7
 10
110.7925920074393
 20
292.7248513804848
 30
0.0
 40
12.0
 50
0.4999999999996853
 51
44.33630831140975
  0
LINE
  5
77
  8
1
  6
CONTINUOUS
 62
     7
 10
119.3755920621371
 20
301.1112755327119
 30
0.0
 11
107.25
 21
313.5210887550646
 31
0.0
  0
ARC
  5
78
  8
1
  6
CONTINUOUS
 62
     7
 10
89.99999999999999
 20
80.15777222909476
 30
0.0
 40
234.0
 50
85.77243775302999
 51
94.22756224696995
  0
LINE
  5
79
  8
1
  6
CONTINUOUS
 62
     7
 10
60.62440793786293
 20
301.1112755327119
 30
0.0
 11
72.74999999999999
 21
313.5210887550646
 31
0.0
  0
ARC
  5
7A
  8
1
  6
CONTINUOUS
 62
     7
 10
69.20740799256073
 20
292.7248513804848
 30
0.0
 40
12.0
 50
135.6636916885902
 51
179.5000000000004
  0
LINE
  5
7B
  8
1
  6
CONTINUOUS
 62
     7
 10
56.84841177098197
 20
251.640319158098
 30
0.0
 11
57.20786491579069
 21
292.8295698064653
 31
0.0
  0
ARC
  5
7C
  8
1
  6
CONTINUOUS
 62
     7
 10
54.84848792485362
 20
251.6577722290947
 30
0.0
 40
2.0
 50
270.0
 51
359.4999999999995
  0
LINE
  5
7D
  8
1
  6
CONTINUOUS
 62
     7
 10
40.99980961532085
 20
249.6577722290947
 30
0.0
 11
54.84848792485362
 21
249.6577722290947
 31
0.0
  0
LINE
  5
7E
  8
1
  6
CONTINUOUS
 62
     7
 10
126.4341839967879
 20
253.6490456935963
 30
0.0
 11
126.0882295298236
 21
293.2915010692401
 31
0.0
  0
LINE
  5
7F
  8
1
  6
CONTINUOUS
 62
     7
 10
53.56581600321212
 20
253.6490456935963
 30
0.0
 11
53.91177047017641
 21
293.2915010692401
 31
0.0
  0
POLYLINE
  5
80
  8
1
  6
CONTINUOUS
 62
     7
 66
     1
 10
0.0
 20
0.0
 30
0.0
  0
VERTEX
  5
109
  8
1
  6
CONTINUOUS
 62
     7
 10
127.4341459198521
 20
252.6577722290947
 30
0.0
  0
VERTEX
  5
10A
  8
1
  6
CONTINUOUS
 62
     7
 10
127.3985409675289
 20
252.6584062864241
 30
0.0
  0
VERTEX
  5
10B
  8
1
  6
CONTINUOUS
 62
     7
 10
127.3634249398746
 20
252.6602760922646
 30
0.0
  0
VERTEX
  5
10C
  8
1
  6
CONTINUOUS
 62
     7
 10
127.3288387783292
 20
252.6633324843418
 30
0.0
  0
VERTEX
  5
10D
  8
1
  6
CONTINUOUS
 62
     7
 10
127.2948201106236
 20
252.667525634108
 30
0.0
  0
VERTEX
  5
10E
  8
1
  6
CONTINUOUS
 62
     7
 10
127.2614033194269
 20
252.6728052276179
 30
0.0
  0
VERTEX
  5
10F
  8
1
  6
CONTINUOUS
 62
     7
 10
127.2286196181496
 20
252.679120636694
 30
0.0
  0
VERTEX
  5
110
  8
1
  6
CONTINUOUS
 62
     7
 10
127.2015912261213
 20
252.6851889090528
 30
0.0
  0
VERTEX
  5
111
  8
1
  6
CONTINUOUS
 62
     7
 10
127.1750444712972
 20
252.6919221168326
 30
0.0
  0
VERTEX
  5
112
  8
1
  6
CONTINUOUS
 62
     7
 10
127.1489929299953
 20
252.6992902144613
 30
0.0
  0
VERTEX
  5
113
  8
1
  6
CONTINUOUS
 62
     7
 10
127.1234487638773
 20
252.7072632721305
 30
0.0
  0
VERTEX
  5
114
  8
1
  6
CONTINUOUS
 62
     7
 10
127.1076570183042
 20
252.7125711937768
 30
0.0
  0
VERTEX
  5
115
  8
1
  6
CONTINUOUS
 62
     7
 10
127.0920724353202
 20
252.7180990246347
 30
0.0
  0
VERTEX
  5
116
  8
1
  6
CONTINUOUS
 62
     7
 10
127.0766972200191
 20
252.723839454754
 30
0.0
  0
VERTEX
  5
117
  8
1
  6
CONTINUOUS
 62
     7
 10
127.0615333783109
 20
252.7297852173935
 30
0.0
  0
VERTEX
  5
118
  8
1
  6
CONTINUOUS
 62
     7
 10
127.0465827212709
 20
252.7359290932492
 30
0.0
  0
VERTEX
  5
119
  8
1
  6
CONTINUOUS
 62
     7
 10
127.0345334379341
 20
252.7410880608583
 30
0.0
  0
VERTEX
  5
11A
  8
1
  6
CONTINUOUS
 62
     7
 10
127.0202568888902
 20
252.7474448868439
 30
0.0
  0
VERTEX
  5
11B
  8
1
  6
CONTINUOUS
 62
     7
 10
127.0038047627683
 20
252.7551059072904
 30
0.0
  0
VERTEX
  5
11C
  8
1
  6
CONTINUOUS
 62
     7
 10
126.9852405606637
 20
252.7641929217627
 30
0.0
  0
VERTEX
  5
11D
  8
1
  6
CONTINUOUS
 62
     7
 10
126.9646410955638
 20
252.7748423224939
 30
0.0
  0
VERTEX
  5
11E
  8
1
  6
CONTINUOUS
 62
     7
 10
126.9420981564407
 20
252.7872040246892
 30
0.0
  0
VERTEX
  5
11F
  8
1
  6
CONTINUOUS
 62
     7
 10
126.9126354094338
 20
252.8045273712004
 30
0.0
  0
VERTEX
  5
120
  8
1
  6
CONTINUOUS
 62
     7
 10
126.8807549544126
 20
252.8248506005065
 30
0.0
  0
VERTEX
  5
121
  8
1
  6
CONTINUOUS
 62
     7
 10
126.8467241879305
 20
252.8484912464525
 30
0.0
  0
VERTEX
  5
122
  8
1
  6
CONTINUOUS
 62
     7
 10
126.8108594909542
 20
252.8757786053664
 30
0.0
  0
VERTEX
  5
123
  8
1
  6
CONTINUOUS
 62
     7
 10
126.7735313431934
 20
252.9070469923363
 30
0.0
  0
VERTEX
  5
124
  8
1
  6
CONTINUOUS
 62
     7
 10
126.7408602562511
 20
252.9371093476825
 30
0.0
  0
VERTEX
  5
125
  8
1
  6
CONTINUOUS
 62
     7
 10
126.7097283873293
 20
252.9684107574606
 30
0.0
  0
VERTEX
  5
126
  8
1
  6
CONTINUOUS
 62
     7
 10
126.6801729082465
 20
253.0008668342543
 30
0.0
  0
VERTEX
  5
127
  8
1
  6
CONTINUOUS
 62
     7
 10
126.6522263993949
 20
253.0343928393744
 30
0.0
  0
VERTEX
  5
128
  8
1
  6
CONTINUOUS
 62
     7
 10
126.625916924317
 20
253.0689039154827
 30
0.0
  0
VERTEX
  5
129
  8
1
  6
CONTINUOUS
 62
     7
 10
126.6012681144178
 20
253.1043153100711
 30
0.0
  0
VERTEX
  5
12A
  8
1
  6
CONTINUOUS
 62
     7
 10
126.5782992630703
 20
253.1405425894997
 30
0.0
  0
VERTEX
  5
12B
  8
1
  6
CONTINUOUS
 62
     7
 10
126.557025428376
 20
253.1775018433402
 30
0.0
  0
VERTEX
  5
12C
  8
1
  6
CONTINUOUS
 62
     7
 10
126.5374575438533
 20
253.2151098788223
 30
0.0
  0
VERTEX
  5
12D
  8
1
  6
CONTINUOUS
 62
     7
 10
126.5196025363309
 20
253.2532844052265
 30
0.0
  0
VERTEX
  5
12E
  8
1
  6
CONTINUOUS
 62
     7
 10
126.5034634503392
 20
253.2919442081046
 30
0.0
  0
VERTEX
  5
12F
  8
1
  6
CONTINUOUS
 62
     7
 10
126.4890395783044
 20
253.3310093132576
 30
0.0
  0
VERTEX
  5
130
  8
1
  6
CONTINUOUS
 62
     7
 10
126.4763265958658
 20
253.3704011404332
 30
0.0
  0
VERTEX
  5
131
  8
1
  6
CONTINUOUS
 62
     7
 10
126.465316701656
 20
253.4100426467481
 30
0.0
  0
VERTEX
  5
132
  8
1
  6
CONTINUOUS
 62
     7
 10
126.4559987608996
 20
253.44985845987
 30
0.0
  0
VERTEX
  5
133
  8
1
  6
CONTINUOUS
 62
     7
 10
126.4495160348964
 20
253.4831183151613
 30
0.0
  0
VERTEX
  5
134
  8
1
  6
CONTINUOUS
 62
     7
 10
126.4441884791722
 20
253.5164065131572
 30
0.0
  0
VERTEX
  5
135
  8
1
  6
CONTINUOUS
 62
     7
 10
126.4400047840714
 20
253.5496824416555
 30
0.0
  0
VERTEX
  5
136
  8
1
  6
CONTINUOUS
 62
     7
 10
126.436952297303
 20
253.5829064882821
 30
0.0
  0
VERTEX
  5
137
  8
1
  6
CONTINUOUS
 62
     7
 10
126.4350170856307
 20
253.6160400756933
 30
0.0
  0
VERTEX
  5
138
  8
1
  6
CONTINUOUS
 62
     7
 10
126.4341839967879
 20
253.6490456935963
 30
0.0
  0
SEQEND
  5
222
  8
1
  6
CONTINUOUS
 62
     7
  0
POLYLINE
  5
81
  8
1
  6
CONTINUOUS
 62
     7
 66
     1
 10
0.0
 20
0.0
 30
0.0
  0
VERTEX
  5
139
  8
1
  6
CONTINUOUS
 62
     7
 10
52.56585408014794
 20
252.6577722290947
 30
0.0
  0
VERTEX
  5
13A
  8
1
  6
CONTINUOUS
 62
     7
 10
52.60145903247109
 20
252.6584062864241
 30
0.0
  0
VERTEX
  5
13B
  8
1
  6
CONTINUOUS
 62
     7
 10
52.63657506012536
 20
252.6602760922646
 30
0.0
  0
VERTEX
  5
13C
  8
1
  6
CONTINUOUS
 62
     7
 10
52.67116122167079
 20
252.6633324843418
 30
0.0
  0
VERTEX
  5
13D
  8
1
  6
CONTINUOUS
 62
     7
 10
52.70517988937635
 20
252.667525634108
 30
0.0
  0
VERTEX
  5
13E
  8
1
  6
CONTINUOUS
 62
     7
 10
52.73859668057305
 20
252.6728052276179
 30
0.0
  0
VERTEX
  5
13F
  8
1
  6
CONTINUOUS
 62
     7
 10
52.77138038185038
 20
252.679120636694
 30
0.0
  0
VERTEX
  5
140
  8
1
  6
CONTINUOUS
 62
     7
 10
52.79840877387868
 20
252.6851889090528
 30
0.0
  0
VERTEX
  5
141
  8
1
  6
CONTINUOUS
 62
     7
 10
52.82495552870282
 20
252.6919221168326
 30
0.0
  0
VERTEX
  5
142
  8
1
  6
CONTINUOUS
 62
     7
 10
52.85100707000473
 20
252.6992902144613
 30
0.0
  0
VERTEX
  5
143
  8
1
  6
CONTINUOUS
 62
     7
 10
52.87655123612269
 20
252.7072632721305
 30
0.0
  0
VERTEX
  5
144
  8
1
  6
CONTINUOUS
 62
     7
 10
52.89234298169583
 20
252.7125711937768
 30
0.0
  0
VERTEX
  5
145
  8
1
  6
CONTINUOUS
 62
     7
 10
52.90792756467977
 20
252.7180990246347
 30
0.0
  0
VERTEX
  5
146
  8
1
  6
CONTINUOUS
 62
     7
 10
52.92330277998089
 20
252.723839454754
 30
0.0
  0
VERTEX
  5
147
  8
1
  6
CONTINUOUS
 62
     7
 10
52.93846662168914
 20
252.7297852173935
 30
0.0
  0
VERTEX
  5
148
  8
1
  6
CONTINUOUS
 62
     7
 10
52.95341727872911
 20
252.7359290932492
 30
0.0
  0
VERTEX
  5
149
  8
1
  6
CONTINUOUS
 62
     7
 10
52.96546656206588
 20
252.7410880608583
 30
0.0
  0
VERTEX
  5
14A
  8
1
  6
CONTINUOUS
 62
     7
 10
52.97974311110983
 20
252.7474448868439
 30
0.0
  0
VERTEX
  5
14B
  8
1
  6
CONTINUOUS
 62
     7
 10
52.99619523723173
 20
252.7551059072904
 30
0.0
  0
VERTEX
  5
14C
  8
1
  6
CONTINUOUS
 62
     7
 10
53.01475943933625
 20
252.7641929217627
 30
0.0
  0
VERTEX
  5
14D
  8
1
  6
CONTINUOUS
 62
     7
 10
53.03535890443614
 20
252.7748423224939
 30
0.0
  0
VERTEX
  5
14E
  8
1
  6
CONTINUOUS
 62
     7
 10
53.05790184355924
 20
252.7872040246892
 30
0.0
  0
VERTEX
  5
14F
  8
1
  6
CONTINUOUS
 62
     7
 10
53.08736459056621
 20
252.8045273712004
 30
0.0
  0
VERTEX
  5
150
  8
1
  6
CONTINUOUS
 62
     7
 10
53.11924504558738
 20
252.8248506005065
 30
0.0
  0
VERTEX
  5
151
  8
1
  6
CONTINUOUS
 62
     7
 10
53.15327581206943
 20
252.8484912464525
 30
0.0
  0
VERTEX
  5
152
  8
1
  6
CONTINUOUS
 62
     7
 10
53.18914050904576
 20
252.8757786053664
 30
0.0
  0
VERTEX
  5
153
  8
1
  6
CONTINUOUS
 62
     7
 10
53.22646865680664
 20
252.9070469923363
 30
0.0
  0
VERTEX
  5
154
  8
1
  6
CONTINUOUS
 62
     7
 10
53.25913974374888
 20
252.9371093476825
 30
0.0
  0
VERTEX
  5
155
  8
1
  6
CONTINUOUS
 62
     7
 10
53.2902716126707
 20
252.9684107574606
 30
0.0
  0
VERTEX
  5
156
  8
1
  6
CONTINUOUS
 62
     7
 10
53.31982709175347
 20
253.0008668342543
 30
0.0
  0
VERTEX
  5
157
  8
1
  6
CONTINUOUS
 62
     7
 10
53.34777360060512
 20
253.0343928393744
 30
0.0
  0
VERTEX
  5
158
  8
1
  6
CONTINUOUS
 62
     7
 10
53.37408307568304
 20
253.0689039154827
 30
0.0
  0
VERTEX
  5
159
  8
1
  6
CONTINUOUS
 62
     7
 10
53.39873188558212
 20
253.1043153100711
 30
0.0
  0
VERTEX
  5
15A
  8
1
  6
CONTINUOUS
 62
     7
 10
53.42170073692967
 20
253.1405425894997
 30
0.0
  0
VERTEX
  5
15B
  8
1
  6
CONTINUOUS
 62
     7
 10
53.44297457162398
 20
253.1775018433402
 30
0.0
  0
VERTEX
  5
15C
  8
1
  6
CONTINUOUS
 62
     7
 10
53.46254245614671
 20
253.2151098788223
 30
0.0
  0
VERTEX
  5
15D
  8
1
  6
CONTINUOUS
 62
     7
 10
53.4803974636691
 20
253.2532844052265
 30
0.0
  0
VERTEX
  5
15E
  8
1
  6
CONTINUOUS
 62
     7
 10
53.49653654966075
 20
253.2919442081046
 30
0.0
  0
VERTEX
  5
15F
  8
1
  6
CONTINUOUS
 62
     7
 10
53.5109604216956
 20
253.3310093132576
 30
0.0
  0
VERTEX
  5
160
  8
1
  6
CONTINUOUS
 62
     7
 10
53.52367340413421
 20
253.3704011404332
 30
0.0
  0
VERTEX
  5
161
  8
1
  6
CONTINUOUS
 62
     7
 10
53.53468329834399
 20
253.4100426467481
 30
0.0
  0
VERTEX
  5
162
  8
1
  6
CONTINUOUS
 62
     7
 10
53.5440012391004
 20
253.44985845987
 30
0.0
  0
VERTEX
  5
163
  8
1
  6
CONTINUOUS
 62
     7
 10
53.55048396510357
 20
253.4831183151613
 30
0.0
  0
VERTEX
  5
164
  8
1
  6
CONTINUOUS
 62
     7
 10
53.55581152082782
 20
253.5164065131572
 30
0.0
  0
VERTEX
  5
165
  8
1
  6
CONTINUOUS
 62
     7
 10
53.55999521592864
 20
253.5496824416555
 30
0.0
  0
VERTEX
  5
166
  8
1
  6
CONTINUOUS
 62
     7
 10
53.56304770269703
 20
253.5829064882821
 30
0.0
  0
VERTEX
  5
167
  8
1
  6
CONTINUOUS
 62
     7
 10
53.56498291436927
 20
253.6160400756933
 30
0.0
  0
VERTEX
  5
168
  8
1
  6
CONTINUOUS
 62
     7
 10
53.56581600321212
 20
253.6490456935963
 30
0.0
  0
SEQEND
  5
223
  8
1
  6
CONTINUOUS
 62
     7
  0
LINE
  5
82
  8
1
  6
CONTINUOUS
 62
     7
 10
144.0
 20
249.6577722290947
 30
0.0
 11
143.9824701090969
 21
251.6664987645931
 31
0.0
  0
LINE
  5
83
  8
1
  6
CONTINUOUS
 62
     7
 10
139.0001903846791
 20
249.6577722290947
 30
0.0
 11
144.0
 21
249.6577722290947
 31
0.0
  0
LINE
  5
84
  8
1
  6
CONTINUOUS
 62
     7
 10
40.99980961532085
 20
249.6577722290947
 30
0.0
 11
35.99999999999999
 21
249.6577722290947
 31
0.0
  0
LINE
  5
85
  8
1
  6
CONTINUOUS
 62
     7
 10
35.99999999999999
 20
249.6577722290947
 30
0.0
 11
36.01752989090307
 21
251.6664987645931
 31
0.0
  0
LINE
  5
86
  8
1
  6
CONTINUOUS
 62
     7
 10
142.9825081860328
 20
252.6577722290947
 30
0.0
 11
138.9826604937761
 21
252.6577722290947
 31
0.0
  0
ARC
  5
87
  8
1
  6
CONTINUOUS
 62
     7
 10
142.9825081860328
 20
251.6577722290947
 30
0.0
 40
1.000000000000003
 50
0.4999999999999818
 51
90.0
  0
ARC
  5
88
  8
1
  6
CONTINUOUS
 62
     7
 10
37.01749181396725
 20
251.6577722290947
 30
0.0
 40
1.000000000000003
 50
90.0
 51
179.5
  0
LINE
  5
89
  8
1
  6
CONTINUOUS
 62
     7
 10
37.01749181396724
 20
252.6577722290947
 30
0.0
 11
41.01733950622392
 21
252.6577722290947
 31
0.0
  0
ARC
  5
8A
  8
1
  6
CONTINUOUS
 62
     7
 10
69.21118789305822
 20
293.157985076115
 30
0.0
 40
15.29999999999999
 50
135.6636916885902
 51
179.5
  0
ARC
  5
8B
  8
1
  6
CONTINUOUS
 62
     7
 10
110.7888121069418
 20
293.157985076115
 30
0.0
 40
15.29999999999999
 50
0.4999999999999608
 51
44.33630831140977
  0
LINE
  5
8C
  8
1
  6
CONTINUOUS
 62
     7
 10
58.26786282331852
 20
303.8506758702046
 30
0.0
 11
71.2037372905506
 21
317.0897643356184
 31
0.0
  0
LINE
  5
8D
  8
1
  6
CONTINUOUS
 62
     7
 10
121.7321371766815
 20
303.8506758702046
 30
0.0
 11
108.7962627094494
 21
317.0897643356184
 31
0.0
  0
ARC
  5
8E
  8
1
  6
CONTINUOUS
 62
     7
 10
89.99999999999999
 20
80.15777222909476
 30
0.0
 40
237.8
 50
85.54352258494299
 51
94.45647741505707
  0
ARC
  5
8F
  8
1
  6
CONTINUOUS
 62
     7
 10
71.56136229282961
 20
316.7403299959422
 30
0.0
 40
0.4999999999999819
 50
94.45647741505711
 51
135.663691688584
  0
ARC
  5
90
  8
1
  6
CONTINUOUS
 62
     7
 10
108.4386377071704
 20
316.7403299959422
 30
0.0
 40
0.4999999999999819
 50
44.33630831141596
 51
85.54352258494288
  0
ARC
  5
91
  8
1
  6
CONTINUOUS
 62
     7
 10
50.05341208373877
 20
253.6577722290947
 30
0.0
 40
1.000000000000001
 50
270.0
 51
359.4999999999995
  0
ARC
  5
92
  8
1
  6
CONTINUOUS
 62
     7
 10
129.9465879162612
 20
253.6577722290947
 30
0.0
 40
1.000000000000001
 50
180.5000000000004
 51
270.0
  0
LINE
  5
93
  8
1
  6
CONTINUOUS
 62
     7
 10
51.05337400680295
 20
253.6490456935963
 30
0.0
 11
51.39990325545806
 21
293.3573645273125
 31
0.0
  0
LINE
  5
94
  8
1
  6
CONTINUOUS
 62
     7
 10
128.946625993197
 20
253.6490456935963
 30
0.0
 11
128.6000967445419
 21
293.3573645273125
 31
0.0
  0
ARC
  5
95
  8
1
  6
CONTINUOUS
 62
     7
 10
111.3007554755318
 20
293.2063954631906
 30
0.0
 40
17.3
 50
0.5000000000000212
 51
44.33630831140977
  0
ARC
  5
96
  8
1
  6
CONTINUOUS
 62
     7
 10
68.69924452446821
 20
293.2063954631906
 30
0.0
 40
17.3
 50
135.6636916885902
 51
179.5
  0
LINE
  5
97
  8
1
  6
CONTINUOUS
 62
     7
 10
123.6745805543878
 20
305.2968236159846
 30
0.0
 11
109.7775865961892
 21
319.5195599978165
 31
0.0
  0
LINE
  5
98
  8
1
  6
CONTINUOUS
 62
     7
 10
56.32541944561221
 20
305.2968236159846
 30
0.0
 11
70.22241340381078
 21
319.5195599978165
 31
0.0
  0
POLYLINE
  5
99
  8
1
  6
CONTINUOUS
 62
     7
 66
     1
 10
0.0
 20
0.0
 30
0.0
  0
VERTEX
  5
169
  8
1
  6
CONTINUOUS
 62
     7
 10
70.53954640943907
 20
319.6684833591951
 30
0.0
  0
VERTEX
  5
16A
  8
1
  6
CONTINUOUS
 62
     7
 10
70.45147684495366
 20
319.653314381719
 30
0.0
  0
VERTEX
  5
16B
  8
1
  6
CONTINUOUS
 62
     7
 10
70.36751437478709
 20
319.6227095212786
 30
0.0
  0
VERTEX
  5
16C
  8
1
  6
CONTINUOUS
 62
     7
 10
70.29034125404725
 20
319.5776464771137
 30
0.0
  0
VERTEX
  5
16D
  8
1
  6
CONTINUOUS
 62
     7
 10
70.222422846091
 20
319.5195648278852
 30
0.0
  0
SEQEND
  5
224
  8
1
  6
CONTINUOUS
 62
     7
  0
POLYLINE
  5
9A
  8
1
  6
CONTINUOUS
 62
     7
 66
     1
 10
0.0
 20
0.0
 30
0.0
  0
VERTEX
  5
16E
  8
1
  6
CONTINUOUS
 62
     7
 10
109.777577153909
 20
319.5195648278852
 30
0.0
  0
VERTEX
  5
16F
  8
1
  6
CONTINUOUS
 62
     7
 10
109.7096587459527
 20
319.5776464771137
 30
0.0
  0
VERTEX
  5
170
  8
1
  6
CONTINUOUS
 62
     7
 10
109.6324856252129
 20
319.6227095212786
 30
0.0
  0
VERTEX
  5
171
  8
1
  6
CONTINUOUS
 62
     7
 10
109.5485231550463
 20
319.653314381719
 30
0.0
  0
VERTEX
  5
172
  8
1
  6
CONTINUOUS
 62
     7
 10
109.4604535905609
 20
319.6684833591951
 30
0.0
  0
SEQEND
  5
225
  8
1
  6
CONTINUOUS
 62
     7
  0
ARC
  5
9B
  8
1
  6
CONTINUOUS
 62
     7
 10
90.0
 20
80.15777222909473
 30
0.0
 40
240.3
 50
85.35487206868686
 51
94.6451279313132
  0
ENDBLK
  8
0
  0
BLOCK
  8
0
  2
D_FRAME_VIEW_1612
 70
     0
 10
0.0
 20
0.0
 30
0.0
  0
LINE
  5
A0
  8
1
  6
CONTINUOUS
 62
     7
 10
109.4604535905613
 20
350.1036137293016
 30
0.0
 11
109.4604535905613
 21
350.1023140966308
 31
0.0
  0
LINE
  5
A1
  8
1
  6
CONTINUOUS
 62
     7
 10
70.5800384060898
 20
359.3933368041394
 30
0.0
 11
109.4199615939101
 21
359.3933368041394
 31
0.0
  0
POLYLINE
  5
A2
  8
1
  6
CONTINUOUS
 62
     7
 66
     1
 10
0.0
 20
0.0
 30
0.0
  0
VERTEX
  5
173
  8
1
  6
CONTINUOUS
 62
     7
 10
54.39978902465057
 20
359.618867901468
 30
0.0
  0
VERTEX
  5
174
  8
1
  6
CONTINUOUS
 62
     7
 10
54.68428855288045
 20
359.5951643087598
 30
0.0
  0
VERTEX
  5
175
  8
1
  6
CONTINUOUS
 62
     7
 10
55.47996351901923
 20
359.5723649911164
 30
0.0
  0
VERTEX
  5
176
  8
1
  6
CONTINUOUS
 62
     7
 10
56.75779281874995
 20
359.5513015209812
 30
0.0
  0
VERTEX
  5
177
  8
1
  6
CONTINUOUS
 62
     7
 10
58.47116945928668
 20
359.5327421582467
 30
0.0
  0
SEQEND
  5
226
  8
1
  6
CONTINUOUS
 62
     7
  0
LINE
  5
A3
  8
1
  6
CONTINUOUS
 62
     7
 10
71.71264667453768
 20
359.4144769159382
 30
0.0
 11
108.2873533254622
 21
359.4144769159382
 31
0.0
  0
POLYLINE
  5
A4
  8
1
  6
CONTINUOUS
 62
     7
 66
     1
 10
0.0
 20
0.0
 30
0.0
  0
VERTEX
  5
178
  8
1
  6
CONTINUOUS
 62
     7
 10
121.5288305407132
 20
359.5327421582467
 30
0.0
  0
VERTEX
  5
179
  8
1
  6
CONTINUOUS
 62
     7
 10
123.2422071812499
 20
359.5513015209812
 30
0.0
  0
VERTEX
  5
17A
  8
1
  6
CONTINUOUS
 62
     7
 10
124.5200364809807
 20
359.5723649911164
 30
0.0
  0
VERTEX
  5
17B
  8
1
  6
CONTINUOUS
 62
     7
 10
125.3157114471195
 20
359.5951643087598
 30
0.0
  0
VERTEX
  5
17C
  8
1
  6
CONTINUOUS
 62
     7
 10
125.6002109753494
 20
359.618867901468
 30
0.0
  0
SEQEND
  5
227
  8
1
  6
CONTINUOUS
 62
     7
  0
LINE
  5
A5
  8
1
  6
CONTINUOUS
 62
     7
 10
125.9640416489429
 20
359.9826985750616
 30
0.0
 11
125.6002109753494
 21
359.6188679014681
 31
0.0
  0
LINE
  5
A6
  8
1
  6
CONTINUOUS
 62
     7
 10
125.9640416489429
 20
359.9826985750616
 30
0.0
 11
127.9639654950713
 21
360.0
 31
0.0
  0
LINE
  5
A7
  8
1
  6
CONTINUOUS
 62
     7
 10
139.0001903846791
 20
360.0
 30
0.0
 11
127.9639654950713
 21
360.0
 31
0.0
  0
LINE
  5
A8
  8
1
  6
CONTINUOUS
 62
     7
 10
123.3169555521087
 20
359.5174567441665
 30
0.0
 11
109.4199615939101
 21
359.3933368041394
 31
0.0
  0
LINE
  5
A9
  8
1
  6
CONTINUOUS
 62
     7
 10
56.68304444789128
 20
359.5174567441665
 30
0.0
 11
70.58003840608984
 21
359.3933368041394
 31
0.0
  0
LINE
  5
AA
  8
1
  6
CONTINUOUS
 62
     7
 10
40.99980961532085
 20
360.0
 30
0.0
 11
52.03603450492871
 21
360.0
 31
0.0
  0
LINE
  5
AB
  8
1
  6
CONTINUOUS
 62
     7
 10
54.03595835105705
 20
359.9826985750616
 30
0.0
 11
52.03603450492871
 21
360.0
 31
0.0
  0
LINE
  5
AC
  8
1
  6
CONTINUOUS
 62
     7
 10
54.03595835105705
 20
359.9826985750616
 30
0.0
 11
54.39978902465057
 21
359.6188679014681
 31
0.0
  0
POLYLINE
  5
AD
  8
1
  6
CONTINUOUS
 62
     7
 66
     1
 10
0.0
 20
0.0
 30
0.0
  0
VERTEX
  5
17D
  8
1
  6
CONTINUOUS
 62
     7
 10
56.3254194456122
 20
349.9794937892744
 30
0.0
  0
VERTEX
  5
17E
  8
1
  6
CONTINUOUS
 62
     7
 10
56.33990435861575
 20
349.7851550039974
 30
0.0
  0
VERTEX
  5
17F
  8
1
  6
CONTINUOUS
 62
     7
 10
56.38111123706607
 20
349.5982268537073
 30
0.0
  0
VERTEX
  5
180
  8
1
  6
CONTINUOUS
 62
     7
 10
56.44746875728367
 20
349.4258373869234
 30
0.0
  0
VERTEX
  5
181
  8
1
  6
CONTINUOUS
 62
     7
 10
56.53644653728495
 20
349.2745602549736
 30
0.0
  0
VERTEX
  5
182
  8
1
  6
CONTINUOUS
 62
     7
 10
56.64465162671984
 20
349.150164041855
 30
0.0
  0
VERTEX
  5
183
  8
1
  6
CONTINUOUS
 62
     7
 10
56.76795788874749
 20
349.0573922933703
 30
0.0
  0
VERTEX
  5
184
  8
1
  6
CONTINUOUS
 62
     7
 10
56.90166334018839
 20
348.9997826335925
 30
0.0
  0
VERTEX
  5
185
  8
1
  6
CONTINUOUS
 62
     7
 10
57.04066945017036
 20
348.9795318662103
 30
0.0
  0
SEQEND
  5
228
  8
1
  6
CONTINUOUS
 62
     7
  0
POLYLINE
  5
AE
  8
1
  6
CONTINUOUS
 62
     7
 66
     1
 10
0.0
 20
0.0
 30
0.0
  0
VERTEX
  5
186
  8
1
  6
CONTINUOUS
 62
     7
 10
122.9593305498296
 20
348.9795318662103
 30
0.0
  0
VERTEX
  5
187
  8
1
  6
CONTINUOUS
 62
     7
 10
123.0983366598116
 20
348.9997826335925
 30
0.0
  0
VERTEX
  5
188
  8
1
  6
CONTINUOUS
 62
     7
 10
123.2320421112525
 20
349.0573922933703
 30
0.0
  0
VERTEX
  5
189
  8
1
  6
CONTINUOUS
 62
     7
 10
123.3553483732802
 20
349.150164041855
 30
0.0
  0
VERTEX
  5
18A
  8
1
  6
CONTINUOUS
 62
     7
 10
123.463553462715
 20
349.2745602549736
 30
0.0
  0
VERTEX
  5
18B
  8
1
  6
CONTINUOUS
 62
     7
 10
123.5525312427163
 20
349.4258373869234
 30
0.0
  0
VERTEX
  5
18C
  8
1
  6
CONTINUOUS
 62
     7
 10
123.6188887629339
 20
349.5982268537073
 30
0.0
  0
VERTEX
  5
18D
  8
1
  6
CONTINUOUS
 62
     7
 10
123.6600956413842
 20
349.7851550039974
 30
0.0
  0
VERTEX
  5
18E
  8
1
  6
CONTINUOUS
 62
     7
 10
123.6745805543878
 20
349.9794937892744
 30
0.0
  0
SEQEND
  5
229
  8
1
  6
CONTINUOUS
 62
     7
  0
POLYLINE
  5
AF
  8
1
  6
CONTINUOUS
 62
     7
 66
     1
 10
0.0
 20
0.0
 30
0.0
  0
VERTEX
  5
18F
  8
1
  6
CONTINUOUS
 62
     7
 10
123.6745805543878
 20
359.0174757826344
 30
0.0
  0
VERTEX
  5
190
  8
1
  6
CONTINUOUS
 62
     7
 10
123.667338097886
 20
359.1146451752729
 30
0.0
  0
VERTEX
  5
191
  8
1
  6
CONTINUOUS
 62
     7
 10
123.6467346586608
 20
359.2081092504179
 30
0.0
  0
VERTEX
  5
192
  8
1
  6
CONTINUOUS
 62
     7
 10
123.6135558985521
 20
359.2943039838099
 30
0.0
  0
VERTEX
  5
193
  8
1
  6
CONTINUOUS
 62
     7
 10
123.5690670085514
 20
359.3699425497848
 30
0.0
  0
VERTEX
  5
194
  8
1
  6
CONTINUOUS
 62
     7
 10
123.514964463834
 20
359.4321406563441
 30
0.0
  0
VERTEX
  5
195
  8
1
  6
CONTINUOUS
 62
     7
 10
123.4533113328201
 20
359.4785265305865
 30
0.0
  0
VERTEX
  5
196
  8
1
  6
CONTINUOUS
 62
     7
 10
123.3864586070997
 20
359.5073313604753
 30
0.0
  0
VERTEX
  5
197
  8
1
  6
CONTINUOUS
 62
     7
 10
123.3169555521087
 20
359.5174567441665
 30
0.0
  0
SEQEND
  5
22A
  8
1
  6
CONTINUOUS
 62
     7
  0
POLYLINE
  5
B0
  8
1
  6
CONTINUOUS
 62
     7
 66
     1
 10
0.0
 20
0.0
 30
0.0
  0
VERTEX
  5
198
  8
1
  6
CONTINUOUS
 62
     7
 10
56.68304444789128
 20
359.5174567441665
 30
0.0
  0
VERTEX
  5
199
  8
1
  6
CONTINUOUS
 62
     7
 10
56.6135413929003
 20
359.5073313604753
 30
0.0
  0
VERTEX
  5
19A
  8
1
  6
CONTINUOUS
 62
     7
 10
56.54668866717985
 20
359.4785265305865
 30
0.0
  0
VERTEX
  5
19B
  8
1
  6
CONTINUOUS
 62
     7
 10
56.48503553616602
 20
359.4321406563441
 30
0.0
  0
VERTEX
  5
19C
  8
1
  6
CONTINUOUS
 62
     7
 10
56.43093299144859
 20
359.3699425497848
 30
0.0
  0
VERTEX
  5
19D
  8
1
  6
CONTINUOUS
 62
     7
 10
56.38644410144794
 20
359.2943039838099
 30
0.0
  0
VERTEX
  5
19E
  8
1
  6
CONTINUOUS
 62
     7
 10
56.35326534133915
 20
359.2081092504179
 30
0.0
  0
VERTEX
  5
19F
  8
1
  6
CONTINUOUS
 62
     7
 10
56.332661902114
 20
359.1146451752729
 30
0.0
  0
VERTEX
  5
1A0
  8
1
  6
CONTINUOUS
 62
     7
 10
56.32541944561221
 20
359.0174757826344
 30
0.0
  0
SEQEND
  5
22B
  8
1
  6
CONTINUOUS
 62
     7
  0
LINE
  5
B1
  8
1
  6
CONTINUOUS
 62
     7
 10
123.6745805543878
 20
359.0174757826344
 30
0.0
 11
123.6745805543878
 21
349.9794937892745
 31
0.0
  0
LINE
  5
B2
  8
1
  6
CONTINUOUS
 62
     7
 10
56.32541944561221
 20
359.0174757826344
 30
0.0
 11
56.32541944561221
 21
349.9794937892745
 31
0.0
  0
LINE
  5
B3
  8
1
  6
CONTINUOUS
 62
     7
 10
108.4774886083653
 20
348.0984332593634
 30
0.0
 11
71.52251139163494
 21
348.0984332593634
 31
0.0
  0
LINE
  5
B4
  8
1
  6
CONTINUOUS
 62
     7
 10
71.52251139163457
 20
348.0984332593635
 30
0.0
 11
71.20373729055054
 21
348.0945309361632
 31
0.0
  0
LINE
  5
B5
  8
1
  6
CONTINUOUS
 62
     7
 10
108.4774886083654
 20
348.0984332593635
 30
0.0
 11
108.7962627094495
 21
348.0945309361632
 31
0.0
  0
LINE
  5
B6
  8
1
  6
CONTINUOUS
 62
     7
 10
108.4386377071703
 20
340.5854586903579
 30
0.0
 11
71.56136229282977
 21
340.5854586903579
 31
0.0
  0
LINE
  5
B7
  8
1
  6
CONTINUOUS
 62
     7
 10
71.20373729055056
 20
348.0945309361632
 30
0.0
 11
58.26786282331852
 21
347.9789951614554
 31
0.0
  0
POLYLINE
  5
B8
  8
1
  6
CONTINUOUS
 62
     7
 66
     1
 10
0.0
 20
0.0
 30
0.0
  0
VERTEX
  5
1A1
  8
1
  6
CONTINUOUS
 62
     7
 10
58.26786282331853
 20
347.9789951614554
 30
0.0
  0
VERTEX
  5
1A2
  8
1
  6
CONTINUOUS
 62
     7
 10
58.25337791031497
 20
348.1733339467324
 30
0.0
  0
VERTEX
  5
1A3
  8
1
  6
CONTINUOUS
 62
     7
 10
58.21217103186466
 20
348.3602620970225
 30
0.0
  0
VERTEX
  5
1A4
  8
1
  6
CONTINUOUS
 62
     7
 10
58.14581351164706
 20
348.5326515638065
 30
0.0
  0
VERTEX
  5
1A5
  8
1
  6
CONTINUOUS
 62
     7
 10
58.05683573164577
 20
348.6839286957563
 30
0.0
  0
VERTEX
  5
1A6
  8
1
  6
CONTINUOUS
 62
     7
 10
57.94863064221087
 20
348.8083249088749
 30
0.0
  0
VERTEX
  5
1A7
  8
1
  6
CONTINUOUS
 62
     7
 10
57.82532438018323
 20
348.9010966573596
 30
0.0
  0
VERTEX
  5
1A8
  8
1
  6
CONTINUOUS
 62
     7
 10
57.69161892874232
 20
348.9587063171373
 30
0.0
  0
VERTEX
  5
1A9
  8
1
  6
CONTINUOUS
 62
     7
 10
57.55261281876035
 20
348.9789570845196
 30
0.0
  0
SEQEND
  5
22C
  8
1
  6
CONTINUOUS
 62
     7
  0
LINE
  5
B9
  8
1
  6
CONTINUOUS
 62
     7
 10
108.7962627094494
 20
348.0945309361632
 30
0.0
 11
121.7321371766815
 21
347.9789951614554
 31
0.0
  0
POLYLINE
  5
BA
  8
1
  6
CONTINUOUS
 62
     7
 66
     1
 10
0.0
 20
0.0
 30
0.0
  0
VERTEX
  5
1AA
  8
1
  6
CONTINUOUS
 62
     7
 10
122.4473871812396
 20
348.9789570845196
 30
0.0
  0
VERTEX
  5
1AB
  8
1
  6
CONTINUOUS
 62
     7
 10
122.3083810712577
 20
348.9587063171373
 30
0.0
  0
VERTEX
  5
1AC
  8
1
  6
CONTINUOUS
 62
     7
 10
122.1746756198168
 20
348.9010966573596
 30
0.0
  0
VERTEX
  5
1AD
  8
1
  6
CONTINUOUS
 62
     7
 10
122.0513693577891
 20
348.8083249088749
 30
0.0
  0
VERTEX
  5
1AE
  8
1
  6
CONTINUOUS
 62
     7
 10
121.9431642683542
 20
348.6839286957563
 30
0.0
  0
VERTEX
  5
1AF
  8
1
  6
CONTINUOUS
 62
     7
 10
121.8541864883529
 20
348.5326515638065
 30
0.0
  0
VERTEX
  5
1B0
  8
1
  6
CONTINUOUS
 62
     7
 10
121.7878289681353
 20
348.3602620970225
 30
0.0
  0
VERTEX
  5
1B1
  8
1
  6
CONTINUOUS
 62
     7
 10
121.746622089685
 20
348.1733339467324
 30
0.0
  0
VERTEX
  5
1B2
  8
1
  6
CONTINUOUS
 62
     7
 10
121.7321371766814
 20
347.9789951614554
 30
0.0
  0
SEQEND
  5
22D
  8
1
  6
CONTINUOUS
 62
     7
  0
LINE
  5
BB
  8
1
  6
CONTINUOUS
 62
     7
 10
41.01733950622393
 20
340.0175298909031
 30
0.0
 11
40.99980961532085
 21
339.9999999999999
 31
0.0
  0
LINE
  5
BC
  8
1
  6
CONTINUOUS
 62
     7
 10
71.56136229282968
 20
340.585458690358
 30
0.0
 11
58.6254878255976
 21
340.4699229156502
 31
0.0
  0
LINE
  5
BD
  8
1
  6
CONTINUOUS
 62
     7
 10
108.4386377071703
 20
340.585458690358
 30
0.0
 11
121.3745121744024
 21
340.4699229156502
 31
0.0
  0
LINE
  5
BE
  8
1
  6
CONTINUOUS
 62
     7
 10
138.9826604937761
 20
340.0175298909031
 30
0.0
 11
139.0001903846791
 21
339.9999999999999
 31
0.0
  0
LINE
  5
BF
  8
1
  6
CONTINUOUS
 62
     7
 10
139.0001903846791
 20
339.9999999999999
 30
0.0
 11
125.1515120751464
 21
339.9999999999999
 31
0.0
  0
LINE
  5
C0
  8
1
  6
CONTINUOUS
 62
     7
 10
125.1515120751464
 20
339.9999999999999
 30
0.0
 11
123.151588229018
 21
340.0173014249384
 31
0.0
  0
LINE
  5
C1
  8
1
  6
CONTINUOUS
 62
     7
 10
123.151588229018
 20
340.0173014249384
 30
0.0
 11
122.7921350842093
 21
340.3767545697471
 31
0.0
  0
POLYLINE
  5
C2
  8
1
  6
CONTINUOUS
 62
     7
 66
     1
 10
0.0
 20
0.0
 30
0.0
  0
VERTEX
  5
1B3
  8
1
  6
CONTINUOUS
 62
     7
 10
122.7921350842093
 20
340.3767545697471
 30
0.0
  0
VERTEX
  5
1B4
  8
1
  6
CONTINUOUS
 62
     7
 10
122.5533942213591
 20
340.3966456964952
 30
0.0
  0
VERTEX
  5
1B5
  8
1
  6
CONTINUOUS
 62
     7
 10
121.8856949490748
 20
340.4157779910212
 30
0.0
  0
VERTEX
  5
1B6
  8
1
  6
CONTINUOUS
 62
     7
 10
120.8133906416085
 20
340.4334536302955
 30
0.0
  0
VERTEX
  5
1B7
  8
1
  6
CONTINUOUS
 62
     7
 10
119.3755920621371
 20
340.449027920702
 30
0.0
  0
SEQEND
  5
22E
  8
1
  6
CONTINUOUS
 62
     7
  0
LINE
  5
C3
  8
1
  6
CONTINUOUS
 62
     7
 10
119.3755920621371
 20
340.449027920702
 30
0.0
 11
107.25
 21
340.5573267200015
 31
0.0
  0
LINE
  5
C4
  8
1
  6
CONTINUOUS
 62
     7
 10
107.2499999999999
 20
340.5573267200015
 30
0.0
 11
72.75000000000009
 21
340.5573267200015
 31
0.0
  0
LINE
  5
C5
  8
1
  6
CONTINUOUS
 62
     7
 10
60.62440793786293
 20
340.449027920702
 30
0.0
 11
72.74999999999999
 21
340.5573267200015
 31
0.0
  0
POLYLINE
  5
C6
  8
1
  6
CONTINUOUS
 62
     7
 66
     1
 10
0.0
 20
0.0
 30
0.0
  0
VERTEX
  5
1B8
  8
1
  6
CONTINUOUS
 62
     7
 10
60.624407937863
 20
340.449027920702
 30
0.0
  0
VERTEX
  5
1B9
  8
1
  6
CONTINUOUS
 62
     7
 10
59.18660935839164
 20
340.4334536302955
 30
0.0
  0
VERTEX
  5
1BA
  8
1
  6
CONTINUOUS
 62
     7
 10
58.1143050509253
 20
340.4157779910212
 30
0.0
  0
VERTEX
  5
1BB
  8
1
  6
CONTINUOUS
 62
     7
 10
57.44660577864098
 20
340.3966456964952
 30
0.0
  0
VERTEX
  5
1BC
  8
1
  6
CONTINUOUS
 62
     7
 10
57.20786491579068
 20
340.3767545697471
 30
0.0
  0
SEQEND
  5
22F
  8
1
  6
CONTINUOUS
 62
     7
  0
LINE
  5
C7
  8
1
  6
CONTINUOUS
 62
     7
 10
56.84841177098197
 20
340.0173014249384
 30
0.0
 11
57.20786491579069
 21
340.3767545697471
 31
0.0
  0
LINE
  5
C8
  8
1
  6
CONTINUOUS
 62
     7
 10
54.84848792485362
 20
339.9999999999999
 30
0.0
 11
56.84841177098197
 21
340.0173014249384
 31
0.0
  0
LINE
  5
C9
  8
1
  6
CONTINUOUS
 62
     7
 10
40.99980961532085
 20
339.9999999999999
 30
0.0
 11
54.84848792485362
 21
339.9999999999999
 31
0.0
  0
POLYLINE
  5
CA
  8
1
  6
CONTINUOUS
 62
     7
 66
     1
 10
0.0
 20
0.0
 30
0.0
  0
VERTEX
  5
1BD
  8
1
  6
CONTINUOUS
 62
     7
 10
58.26786282331852
 20
340.9699038771822
 30
0.0
  0
VERTEX
  5
1BE
  8
1
  6
CONTINUOUS
 62
     7
 10
58.27510527982031
 20
340.8727344845437
 30
0.0
  0
VERTEX
  5
1BF
  8
1
  6
CONTINUOUS
 62
     7
 10
58.29570871904546
 20
340.7792704093987
 30
0.0
  0
VERTEX
  5
1C0
  8
1
  6
CONTINUOUS
 62
     7
 10
58.32888747915425
 20
340.6930756760067
 30
0.0
  0
VERTEX
  5
1C1
  8
1
  6
CONTINUOUS
 62
     7
 10
58.3733763691549
 20
340.6174371100318
 30
0.0
  0
VERTEX
  5
1C2
  8
1
  6
CONTINUOUS
 62
     7
 10
58.42747891387234
 20
340.5552390034725
 30
0.0
  0
VERTEX
  5
1C3
  8
1
  6
CONTINUOUS
 62
     7
 10
58.48913204488617
 20
340.5088531292301
 30
0.0
  0
VERTEX
  5
1C4
  8
1
  6
CONTINUOUS
 62
     7
 10
58.55598477060661
 20
340.4800482993413
 30
0.0
  0
VERTEX
  5
1C5
  8
1
  6
CONTINUOUS
 62
     7
 10
58.6254878255976
 20
340.4699229156502
 30
0.0
  0
SEQEND
  5
230
  8
1
  6
CONTINUOUS
 62
     7
  0
POLYLINE
  5
CB
  8
1
  6
CONTINUOUS
 62
     7
 66
     1
 10
0.0
 20
0.0
 30
0.0
  0
VERTEX
  5
1C6
  8
1
  6
CONTINUOUS
 62
     7
 10
121.3745121744024
 20
340.4699229156502
 30
0.0
  0
VERTEX
  5
1C7
  8
1
  6
CONTINUOUS
 62
     7
 10
121.4440152293934
 20
340.4800482993413
 30
0.0
  0
VERTEX
  5
1C8
  8
1
  6
CONTINUOUS
 62
     7
 10
121.5108679551138
 20
340.5088531292301
 30
0.0
  0
VERTEX
  5
1C9
  8
1
  6
CONTINUOUS
 62
     7
 10
121.5725210861276
 20
340.5552390034725
 30
0.0
  0
VERTEX
  5
1CA
  8
1
  6
CONTINUOUS
 62
     7
 10
121.6266236308451
 20
340.6174371100318
 30
0.0
  0
VERTEX
  5
1CB
  8
1
  6
CONTINUOUS
 62
     7
 10
121.6711125208457
 20
340.6930756760067
 30
0.0
  0
VERTEX
  5
1CC
  8
1
  6
CONTINUOUS
 62
     7
 10
121.7042912809545
 20
340.7792704093987
 30
0.0
  0
VERTEX
  5
1CD
  8
1
  6
CONTINUOUS
 62
     7
 10
121.7248947201797
 20
340.8727344845437
 30
0.0
  0
VERTEX
  5
1CE
  8
1
  6
CONTINUOUS
 62
     7
 10
121.7321371766814
 20
340.9699038771822
 30
0.0
  0
SEQEND
  5
231
  8
1
  6
CONTINUOUS
 62
     7
  0
LINE
  5
CC
  8
1
  6
CONTINUOUS
 62
     7
 10
121.7321371766815
 20
340.9699038771822
 30
0.0
 11
121.7321371766815
 21
347.9789951614554
 31
0.0
  0
LINE
  5
CD
  8
1
  6
CONTINUOUS
 62
     7
 10
58.26786282331852
 20
340.9699038771822
 30
0.0
 11
58.26786282331852
 21
347.9789951614554
 31
0.0
  0
CIRCLE
  5
CE
  8
1
  6
CONTINUOUS
 62
     7
 10
136.75
 20
349.9999999999999
 30
0.0
 40
2.473819396627719
  0
CIRCLE
  5
CF
  8
1
  6
CONTINUOUS
 62
     7
 10
43.24999999999998
 20
349.9999999999999
 30
0.0
 40
2.473819396627726
  0
POLYLINE
  5
D0
  8
1
  6
CONTINUOUS
 62
     7
 66
     1
 10
0.0
 20
0.0
 30
0.0
  0
VERTEX
  5
1CF
  8
1
  6
CONTINUOUS
 62
     7
 10
36.00000000000001
 20
344.9998096153208
 30
0.0
  0
VERTEX
  5
1D0
  8
1
  6
CONTINUOUS
 62
     7
 10
36.09606797080468
 20
344.0243748628102
 30
0.0
  0
VERTEX
  5
1D1
  8
1
  6
CONTINUOUS
 62
     7
 10
36.38058040177852
 20
343.0864365296014
 30
0.0
  0
VERTEX
  5
1D2
  8
1
  6
CONTINUOUS
 62
     7
 10
36.84260469645223
 20
342.2220355762772
 30
0.0
  0
VERTEX
  5
1D3
  8
1
  6
CONTINUOUS
 62
     7
 10
37.46438723627424
 20
341.4643872362742
 30
0.0
  0
VERTEX
  5
1D4
  8
1
  6
CONTINUOUS
 62
     7
 10
38.22203557627729
 20
340.8426046964522
 30
0.0
  0
VERTEX
  5
1D5
  8
1
  6
CONTINUOUS
 62
     7
 10
39.08643652960149
 20
340.3805804017785
 30
0.0
  0
VERTEX
  5
1D6
  8
1
  6
CONTINUOUS
 62
     7
 10
40.02437486281031
 20
340.0960679708047
 30
0.0
  0
VERTEX
  5
1D7
  8
1
  6
CONTINUOUS
 62
     7
 10
40.99980961532084
 20
340.0
 30
0.0
  0
SEQEND
  5
232
  8
1
  6
CONTINUOUS
 62
     7
  0
LINE
  5
D1
  8
1
  6
CONTINUOUS
 62
     7
 10
35.99999999999999
 20
344.9998096153208
 30
0.0
 11
36.01752989090307
 21
345.0173395062239
 31
0.0
  0
POLYLINE
  5
D2
  8
1
  6
CONTINUOUS
 62
     7
 66
     1
 10
0.0
 20
0.0
 30
0.0
  0
VERTEX
  5
1D8
  8
1
  6
CONTINUOUS
 62
     7
 10
139.0001903846791
 20
340.0
 30
0.0
  0
VERTEX
  5
1D9
  8
1
  6
CONTINUOUS
 62
     7
 10
139.9756251371897
 20
340.0960679708047
 30
0.0
  0
VERTEX
  5
1DA
  8
1
  6
CONTINUOUS
 62
     7
 10
140.9135634703985
 20
340.3805804017785
 30
0.0
  0
VERTEX
  5
1DB
  8
1
  6
CONTINUOUS
 62
     7
 10
141.7779644237227
 20
340.8426046964522
 30
0.0
  0
VERTEX
  5
1DC
  8
1
  6
CONTINUOUS
 62
     7
 10
142.5356127637257
 20
341.4643872362742
 30
0.0
  0
VERTEX
  5
1DD
  8
1
  6
CONTINUOUS
 62
     7
 10
143.1573953035478
 20
342.2220355762772
 30
0.0
  0
VERTEX
  5
1DE
  8
1
  6
CONTINUOUS
 62
     7
 10
143.6194195982214
 20
343.0864365296014
 30
0.0
  0
VERTEX
  5
1DF
  8
1
  6
CONTINUOUS
 62
     7
 10
143.9039320291953
 20
344.0243748628102
 30
0.0
  0
VERTEX
  5
1E0
  8
1
  6
CONTINUOUS
 62
     7
 10
144.0
 20
344.9998096153208
 30
0.0
  0
SEQEND
  5
233
  8
1
  6
CONTINUOUS
 62
     7
  0
POLYLINE
  5
D3
  8
1
  6
CONTINUOUS
 62
     7
 66
     1
 10
0.0
 20
0.0
 30
0.0
  0
VERTEX
  5
1E1
  8
1
  6
CONTINUOUS
 62
     7
 10
144.0
 20
355.0001903846791
 30
0.0
  0
VERTEX
  5
1E2
  8
1
  6
CONTINUOUS
 62
     7
 10
143.9039320291953
 20
355.9756251371897
 30
0.0
  0
VERTEX
  5
1E3
  8
1
  6
CONTINUOUS
 62
     7
 10
143.6194195982214
 20
356.9135634703985
 30
0.0
  0
VERTEX
  5
1E4
  8
1
  6
CONTINUOUS
 62
     7
 10
143.1573953035478
 20
357.7779644237227
 30
0.0
  0
VERTEX
  5
1E5
  8
1
  6
CONTINUOUS
 62
     7
 10
142.5356127637257
 20
358.5356127637257
 30
0.0
  0
VERTEX
  5
1E6
  8
1
  6
CONTINUOUS
 62
     7
 10
141.7779644237227
 20
359.1573953035477
 30
0.0
  0
VERTEX
  5
1E7
  8
1
  6
CONTINUOUS
 62
     7
 10
140.9135634703985
 20
359.6194195982214
 30
0.0
  0
VERTEX
  5
1E8
  8
1
  6
CONTINUOUS
 62
     7
 10
139.9756251371897
 20
359.9039320291953
 30
0.0
  0
VERTEX
  5
1E9
  8
1
  6
CONTINUOUS
 62
     7
 10
139.0001903846791
 20
359.9999999999999
 30
0.0
  0
SEQEND
  5
234
  8
1
  6
CONTINUOUS
 62
     7
  0
POLYLINE
  5
D4
  8
1
  6
CONTINUOUS
 62
     7
 66
     1
 10
0.0
 20
0.0
 30
0.0
  0
VERTEX
  5
1EA
  8
1
  6
CONTINUOUS
 62
     7
 10
40.99980961532084
 20
359.9999999999999
 30
0.0
  0
VERTEX
  5
1EB
  8
1
  6
CONTINUOUS
 62
     7
 10
40.0243748628103
 20
359.9039320291953
 30
0.0
  0
VERTEX
  5
1EC
  8
1
  6
CONTINUOUS
 62
     7
 10
39.08643652960146
 20
359.6194195982214
 30
0.0
  0
VERTEX
  5
1ED
  8
1
  6
CONTINUOUS
 62
     7
 10
38.22203557627727
 20
359.1573953035477
 30
0.0
  0
VERTEX
  5
1EE
  8
1
  6
CONTINUOUS
 62
     7
 10
37.46438723627423
 20
358.5356127637257
 30
0.0
  0
VERTEX
  5
1EF
  8
1
  6
CONTINUOUS
 62
     7
 10
36.84260469645223
 20
357.7779644237227
 30
0.0
  0
VERTEX
  5
1F0
  8
1
  6
CONTINUOUS
 62
     7
 10
36.38058040177852
 20
356.9135634703985
 30
0.0
  0
VERTEX
  5
1F1
  8
1
  6
CONTINUOUS
 62
     7
 10
36.09606797080468
 20
355.9756251371897
 30
0.0
  0
VERTEX
  5
1F2
  8
1
  6
CONTINUOUS
 62
     7
 10
36.00000000000001
 20
355.0001903846791
 30
0.0
  0
SEQEND
  5
235
  8
1
  6
CONTINUOUS
 62
     7
  0
LINE
  5
D5
  8
1
  6
CONTINUOUS
 62
     7
 10
144.0
 20
355.0001903846791
 30
0.0
 11
144.0
 21
344.9998096153208
 31
0.0
  0
LINE
  5
D6
  8
1
  6
CONTINUOUS
 62
     7
 10
35.99999999999999
 20
355.0001903846791
 30
0.0
 11
35.99999999999999
 21
344.9998096153208
 31
0.0
  0
ENDBLK
  8
0
  0
BLOCK
  8
0
  2
D_FRAME_VIEW_1565
 70
     0
 10
0.0
 20
0.0
 30
0.0
  0
LINE
  5
DB
  8
1
  6
CONTINUOUS
 62
     7
 10
195.0
 20
249.6577722290947
 30
0.0
 11
194.9824701090969
 21
251.6664987645931
 31
0.0
  0
LINE
  5
DC
  8
1
  6
CONTINUOUS
 62
     7
 10
190.0001903846792
 20
249.6577722290947
 30
0.0
 11
195.0
 21
249.6577722290947
 31
0.0
  0
LINE
  5
DD
  8
1
  6
CONTINUOUS
 62
     7
 10
175.0175298909031
 20
251.6664987645931
 30
0.0
 11
175.0
 21
249.6577722290947
 31
0.0
  0
LINE
  5
DE
  8
1
  6
CONTINUOUS
 62
     7
 10
175.0
 20
249.6577722290947
 30
0.0
 11
179.9998096153209
 21
249.6577722290947
 31
0.0
  0
LINE
  5
DF
  8
1
  6
CONTINUOUS
 62
     7
 10
190.0001903846792
 20
249.6577722290947
 30
0.0
 11
179.9998096153209
 21
249.6577722290947
 31
0.0
  0
LINE
  5
E0
  8
1
  6
CONTINUOUS
 62
     7
 10
180.017339506224
 20
252.6577722290947
 30
0.0
 11
176.0174918139673
 21
252.6577722290947
 31
0.0
  0
ARC
  5
E1
  8
1
  6
CONTINUOUS
 62
     7
 10
176.0174918139673
 20
251.6577722290947
 30
0.0
 40
1.000000000000003
 50
89.9999999999999
 51
179.5
  0
LINE
  5
E2
  8
1
  6
CONTINUOUS
 62
     7
 10
189.9826604937761
 20
252.6577722290947
 30
0.0
 11
180.017339506224
 21
252.6577722290947
 31
0.0
  0
LINE
  5
E3
  8
1
  6
CONTINUOUS
 62
     7
 10
193.9825081860328
 20
252.6577722290947
 30
0.0
 11
189.9826604937761
 21
252.6577722290947
 31
0.0
  0
ARC
  5
E4
  8
1
  6
CONTINUOUS
 62
     7
 10
193.9825081860328
 20
251.6577722290947
 30
0.0
 40
1.000000000000003
 50
0.5000000000000331
 51
90.0
  0
POLYLINE
  5
E5
  8
1
  6
CONTINUOUS
 62
     7
 66
     1
 10
0.0
 20
0.0
 30
0.0
  0
VERTEX
  5
1F5
  8
1
  6
CONTINUOUS
 62
     7
 10
194.0045741550674
 20
252.6823678686753
 30
0.0
  0
VERTEX
  5
1F6
  8
1
  6
CONTINUOUS
 62
     7
 10
194.0904438940972
 20
252.7641896454462
 30
0.0
  0
VERTEX
  5
1F7
  8
1
  6
CONTINUOUS
 62
     7
 10
194.1641714288821
 20
252.8362323565663
 30
0.0
  0
VERTEX
  5
1F8
  8
1
  6
CONTINUOUS
 62
     7
 10
194.2464159957827
 20
252.932012659651
 30
0.0
  0
VERTEX
  5
1F9
  8
1
  6
CONTINUOUS
 62
     7
 10
194.3173178047376
 20
253.0400881143578
 30
0.0
  0
VERTEX
  5
1FA
  8
1
  6
CONTINUOUS
 62
     7
 10
194.3667077564131
 20
253.1405569184667
 30
0.0
  0
SEQEND
  5
236
  8
1
  6
CONTINUOUS
 62
     7
  0
ARC
  5
E6
  8
1
  6
CONTINUOUS
 62
     7
 10
193.1978900221557
 20
253.6307048081716
 30
0.0
 40
1.267430412171276
 50
337.2490854704911
 51
0.8291516417096433
  0
LINE
  5
E7
  8
1
  6
CONTINUOUS
 62
     7
 10
194.9824701090969
 20
251.6664987645931
 30
0.0
 11
194.9824053330244
 21
251.6739213673105
 31
0.0
  0
LINE
  5
E8
  8
1
  6
CONTINUOUS
 62
     7
 10
194.9824053330244
 20
251.6739213673105
 30
0.0
 11
194.9651686841586
 21
253.6490456935963
 31
0.0
  0
POLYLINE
  5
E9
  8
1
  6
CONTINUOUS
 62
     7
 66
     1
 10
0.0
 20
0.0
 30
0.0
  0
VERTEX
  5
1FB
  8
1
  6
CONTINUOUS
 62
     7
 10
183.5348313158415
 20
253.6490456935963
 30
0.0
  0
VERTEX
  5
1FC
  8
1
  6
CONTINUOUS
 62
     7
 10
183.533214347537
 20
253.60026265332
 30
0.0
  0
VERTEX
  5
1FD
  8
1
  6
CONTINUOUS
 62
     7
 10
183.5292189226066
 20
253.5516166238343
 30
0.0
  0
VERTEX
  5
1FE
  8
1
  6
CONTINUOUS
 62
     7
 10
183.522854559749
 20
253.5032234994206
 30
0.0
  0
VERTEX
  5
1FF
  8
1
  6
CONTINUOUS
 62
     7
 10
183.5141364214198
 20
253.4551985718394
 30
0.0
  0
VERTEX
  5
200
  8
1
  6
CONTINUOUS
 62
     7
 10
183.5030852777082
 20
253.4076562556594
 30
0.0
  0
VERTEX
  5
201
  8
1
  6
CONTINUOUS
 62
     7
 10
183.4897274568547
 20
253.3607098156756
 30
0.0
  0
VERTEX
  5
202
  8
1
  6
CONTINUOUS
 62
     7
 10
183.4740947825264
 20
253.3144710970683
 30
0.0
  0
VERTEX
  5
203
  8
1
  6
CONTINUOUS
 62
     7
 10
183.4562244980005
 20
253.2690502589424
 30
0.0
  0
VERTEX
  5
204
  8
1
  6
CONTINUOUS
 62
     7
 10
183.4361591774358
 20
253.2245555118845
 30
0.0
  0
VERTEX
  5
205
  8
1
  6
CONTINUOUS
 62
     7
 10
183.413946624444
 20
253.1810928601628
 30
0.0
  0
VERTEX
  5
206
  8
1
  6
CONTINUOUS
 62
     7
 10
183.3896397582026
 20
253.1387658491813
 30
0.0
  0
VERTEX
  5
207
  8
1
  6
CONTINUOUS
 62
     7
 10
183.3632964873802
 20
253.0976753187944
 30
0.0
  0
VERTEX
  5
208
  8
1
  6
CONTINUOUS
 62
     7
 10
183.3349795721747
 20
253.0579191630655
 30
0.0
  0
VERTEX
  5
209
  8
1
  6
CONTINUOUS
 62
     7
 10
183.3047564747938
 20
253.019592097044
 30
0.0
  0
VERTEX
  5
20A
  8
1
  6
CONTINUOUS
 62
     7
 10
183.2726991987327
 20
252.9827854311173
 30
0.0
  0
VERTEX
  5
20B
  8
1
  6
CONTINUOUS
 62
     7
 10
183.2388841172333
 20
252.9475868534714
 30
0.0
  0
VERTEX
  5
20C
  8
1
  6
CONTINUOUS
 62
     7
 10
183.2033917913323
 20
252.9140802211841
 30
0.0
  0
VERTEX
  5
20D
  8
1
  6
CONTINUOUS
 62
     7
 10
183.1663067779331
 20
252.8823453604426
 30
0.0
  0
VERTEX
  5
20E
  8
1
  6
CONTINUOUS
 62
     7
 10
183.1277174283568
 20
252.8524578763668
 30
0.0
  0
VERTEX
  5
20F
  8
1
  6
CONTINUOUS
 62
     7
 10
183.0877156778546
 20
252.824488972887
 30
0.0
  0
VERTEX
  5
210
  8
1
  6
CONTINUOUS
 62
     7
 10
183.0463968265813
 20
252.7985052831077
 30
0.0
  0
VERTEX
  5
211
  8
1
  6
CONTINUOUS
 62
     7
 10
183.0038593125516
 20
252.7745687105611
 30
0.0
  0
VERTEX
  5
212
  8
1
  6
CONTINUOUS
 62
     7
 10
182.9602044771222
 20
252.7527362817284
 30
0.0
  0
VERTEX
  5
213
  8
1
  6
CONTINUOUS
 62
     7
 10
182.9155363235559
 20
252.7330600101793
 30
0.0
  0
VERTEX
  5
214
  8
1
  6
CONTINUOUS
 62
     7
 10
182.869961269244
 20
252.7155867726553
 30
0.0
  0
VERTEX
  5
215
  8
1
  6
CONTINUOUS
 62
     7
 10
182.8235878921779
 20
252.7003581973907
 30
0.0
  0
VERTEX
  5
216
  8
1
  6
CONTINUOUS
 62
     7
 10
182.7765266722729
 20
252.6874105649371
 30
0.0
  0
VERTEX
  5
217
  8
1
  6
CONTINUOUS
 62
     7
 10
182.7288897281606
 20
252.676774721729
 30
0.0
  0
VERTEX
  5
218
  8
1
  6
CONTINUOUS
 62
     7
 10
182.680790550078
 20
252.6684760065951
 30
0.0
  0
VERTEX
  5
219
  8
1
  6
CONTINUOUS
 62
     7
 10
182.6323437294878
 20
252.662534190391
 30
0.0
  0
VERTEX
  5
21A
  8
1
  6
CONTINUOUS
 62
     7
 10
182.5836646860763
 20
252.6589634288973
 30
0.0
  0
VERTEX
  5
21B
  8
1
  6
CONTINUOUS
 62
     7
 10
182.5348693927773
 20
252.6577722290947
 30
0.0
  0
SEQEND
  5
237
  8
1
  6
CONTINUOUS
 62
     7
  0
LINE
  5
EA
  8
1
  6
CONTINUOUS
 62
     7
 10
194.9651686841586
 20
253.6490456935963
 30
0.0
 11
194.6186394355034
 21
293.3573645273125
 31
0.0
  0
LINE
  5
EB
  8
1
  6
CONTINUOUS
 62
     7
 10
183.8813605644966
 20
293.3573645273125
 30
0.0
 11
183.5348313158415
 21
253.6490456935963
 31
0.0
  0
LINE
  5
EC
  8
1
  6
CONTINUOUS
 62
     7
 10
194.6186394355034
 20
293.3573645273125
 30
0.0
 11
194.5174567441665
 21
304.9517525440577
 31
0.0
  0
LINE
  5
ED
  8
1
  6
CONTINUOUS
 62
     7
 10
183.9795318662104
 20
304.6066814721308
 30
0.0
 11
183.8813605644966
 21
293.3573645273125
 31
0.0
  0
POLYLINE
  5
EE
  8
1
  6
CONTINUOUS
 62
     7
 66
     1
 10
0.0
 20
0.0
 30
0.0
  0
VERTEX
  5
21C
  8
1
  6
CONTINUOUS
 62
     7
 10
175.9954209282012
 20
252.6823666296853
 30
0.0
  0
VERTEX
  5
21D
  8
1
  6
CONTINUOUS
 62
     7
 10
175.9197723516235
 20
252.7551059072904
 30
0.0
  0
VERTEX
  5
21E
  8
1
  6
CONTINUOUS
 62
     7
 10
175.8466703356461
 20
252.8248506005065
 30
0.0
  0
VERTEX
  5
21F
  8
1
  6
CONTINUOUS
 62
     7
 10
175.7734709401477
 20
252.9070469923363
 30
0.0
  0
VERTEX
  5
220
  8
1
  6
CONTINUOUS
 62
     7
 10
175.7059241454479
 20
253.0008668342543
 30
0.0
  0
VERTEX
  5
221
  8
1
  6
CONTINUOUS
 62
     7
 10
175.6495825255541
 20
253.1043153100711
 30
0.0
  0
SEQEND
  5
238
  8
1
  6
CONTINUOUS
 62
     7
  0
ARC
  5
EF
  8
1
  6
CONTINUOUS
 62
     7
 10
176.788803810932
 20
253.6287957110135
 30
0.0
 40
1.254155025517519
 50
179.0748440722549
 51
204.7206343601708
  0
LINE
  5
F0
  8
1
  6
CONTINUOUS
 62
     7
 10
175.0348313158415
 20
253.6490456935963
 30
0.0
 11
175.0175946669769
 21
251.673921367445
 31
0.0
  0
LINE
  5
F1
  8
1
  6
CONTINUOUS
 62
     7
 10
175.0175946669769
 20
251.673921367445
 30
0.0
 11
175.0175298909031
 21
251.6664987645931
 31
0.0
  0
LINE
  5
F2
  8
1
  6
CONTINUOUS
 62
     7
 10
175.3807857828058
 20
293.2915010692401
 30
0.0
 11
175.0348313158415
 21
253.6490456935963
 31
0.0
  0
LINE
  5
F3
  8
1
  6
CONTINUOUS
 62
     7
 10
175.4699229156502
 20
303.5056047982776
 30
0.0
 11
175.3807857828058
 21
293.2915010692401
 31
0.0
  0
LINE
  5
F4
  8
1
  6
CONTINUOUS
 62
     7
 10
194.5174567441665
 20
304.9517525440577
 30
0.0
 11
194.3933368041395
 21
319.1744889258896
 31
0.0
  0
LINE
  5
F5
  8
1
  6
CONTINUOUS
 62
     7
 10
184.102483661464
 20
318.6955617212219
 30
0.0
 11
183.9795318662104
 21
304.6066814721308
 31
0.0
  0
LINE
  5
F6
  8
1
  6
CONTINUOUS
 62
     7
 10
175.585458690358
 20
316.7446932636914
 30
0.0
 11
175.4699229156502
 21
303.5056047982776
 31
0.0
  0
LINE
  5
F7
  8
1
  6
CONTINUOUS
 62
     7
 10
184.102483661464
 20
318.6955617212219
 30
0.0
 11
184.1092115271166
 21
319.4664987645931
 31
0.0
  0
LINE
  5
F8
  8
1
  6
CONTINUOUS
 62
     7
 10
194.3864631166489
 20
319.9621354968439
 30
0.0
 11
194.3933368041394
 21
319.1744889258896
 31
0.0
  0
LINE
  5
F9
  8
1
  6
CONTINUOUS
 62
     7
 10
175.585458690358
 20
316.7446932636915
 30
0.0
 11
175.5917197138743
 21
317.462135496844
 31
0.0
  0
ARC
  5
FA
  8
1
  6
CONTINUOUS
 62
     7
 10
185.1091734501807
 20
319.4577722290947
 30
0.0
 40
1.000000000000001
 50
90.0
 51
179.5000000000004
  0
LINE
  5
FB
  8
1
  6
CONTINUOUS
 62
     7
 10
193.8864821551168
 20
320.4577722290947
 30
0.0
 11
185.1091734501807
 21
320.4577722290947
 31
0.0
  0
ARC
  5
FC
  8
1
  6
CONTINUOUS
 62
     7
 10
193.8864821551168
 20
319.9577722290947
 30
0.0
 40
0.5000000000000018
 50
0.5000000000004803
 51
90.0
  0
ARC
  5
FD
  8
1
  6
CONTINUOUS
 62
     7
 10
183.1047338595139
 20
318.9577722290948
 30
0.0
 40
1.000000000000003
 50
270.0
 51
359.5000000000003
  0
ARC
  5
FE
  8
1
  6
CONTINUOUS
 62
     7
 10
176.0917006754063
 20
317.4577722290948
 30
0.0
 40
0.5000000000000004
 50
90.0
 51
179.4999999999995
  0
LINE
  5
FF
  8
1
  6
CONTINUOUS
 62
     7
 10
183.1047338595139
 20
317.9577722290947
 30
0.0
 11
176.0917006754063
 21
317.9577722290947
 31
0.0
  0
ENDBLK
  8
0
  0
ENDSEC
  0
SECTION
  2
ENTITIES
  0
INSERT
  5
9C
  8
1
  6
CONTINUOUS
 62
     7
  2
D_FRAME_VIEW_1473
 10
0.0
 20
0.0
 30
0.0
  0
INSERT
  5
D7
  8
1
  6
CONTINUOUS
 62
     7
  2
D_FRAME_VIEW_1612
 10
0.0
 20
0.0
 30
0.0
  0
INSERT
  5
100
  8
1
  6
CONTINUOUS
 62
     7
  2
D_FRAME_VIEW_1565
 10
0.0
 20
0.0
 30
0.0
  0
TEXT
  5
101
  8
1
  6
CONTINUOUS
 62
     4
 10
178.0263505064399
 20
238.3284200325122
 30
0.0
 40
3.0
  1
RMSTF-40
  0
ENDSEC
  0
EOF
