  0
SECTION
  2
HEADER
  9
$ACADVER
  1
AC1006
  9
$DWGCODEPAGE
  3
ansi_932
  9
$INSBASE
 10
0.0
 20
0.0
 30
0.0
  9
$EXTMIN
 10
45.0
 20
130.0
  9
$EXTMAX
 10
160.0883630828997
 20
240.0
  9
$LIMMIN
 10
0.0
 20
0.0
  9
$LIMMAX
 10
12.0
 20
9.0
  9
$ORTHOMODE
 70
     0
  9
$REGENMODE
 70
     1
  9
$FILLMODE
 70
     1
  9
$QTEXTMODE
 70
     0
  9
$MIRRTEXT
 70
     1
  9
$DRAGMODE
 70
     2
  9
$LTSCALE
 40
1.0
  9
$OSMODE
 70
    37
  9
$ATTMODE
 70
     1
  9
$TEXTSIZE
 40
0.2
  9
$TRACEWID
 40
0.05
  9
$TEXTSTYLE
  7
STANDARD
  9
$CLAYER
  8
0
  9
$CELTYPE
  6
BYLAYER
  9
$CECOLOR
 62
   256
  9
$DIMSCALE
 40
1.0
  9
$DIMASZ
 40
3.0
  9
$DIMEXO
 40
0.0625
  9
$DIMDLI
 40
0.38
  9
$DIMRND
 40
0.0
  9
$DIMDLE
 40
0.0
  9
$DIMEXE
 40
1.5
  9
$DIMTP
 40
0.0
  9
$DIMTM
 40
0.0
  9
$DIMTXT
 40
3.0
  9
$DIMCEN
 40
0.09
  9
$DIMTSZ
 40
0.0
  9
$DIMTOL
 70
     0
  9
$DIMLIM
 70
     0
  9
$DIMTIH
 70
     1
  9
$DIMTOH
 70
     1
  9
$DIMSE1
 70
     0
  9
$DIMSE2
 70
     0
  9
$DIMTAD
 70
     1
  9
$DIMZIN
 70
     0
  9
$DIMBLK
  1

  9
$DIMASO
 70
     1
  9
$DIMSHO
 70
     1
  9
$DIMPOST
  1

  9
$DIMAPOST
  1

  9
$DIMALT
 70
     0
  9
$DIMALTD
 70
     2
  9
$DIMALTF
 40
25.4
  9
$DIMLFAC
 40
1.0
  9
$DIMTOFL
 70
     0
  9
$DIMTVP
 40
0.0
  9
$DIMTIX
 70
     0
  9
$DIMSOXD
 70
     0
  9
$DIMSAH
 70
     0
  9
$DIMBLK1
  1

  9
$DIMBLK2
  1

  9
$LUNITS
 70
     2
  9
$LUPREC
 70
     4
  9
$SKETCHINC
 40
0.1
  9
$FILLETRAD
 40
0.5
  9
$AUNITS
 70
     0
  9
$AUPREC
 70
     0
  9
$MENU
  1
.
  9
$ELEVATION
 40
0.0
  9
$THICKNESS
 40
0.0
  9
$LIMCHECK
 70
     0
  9
$CHAMFERA
 40
0.0
  9
$CHAMFERB
 40
0.0
  9
$SKPOLY
 70
     0
  9
$TDCREATE
 40
2460606.329020567
  9
$TDUPDATE
 40
2460606.329020775
  9
$TDINDWG
 40
0.0000000116
  9
$TDUSRTIMER
 40
0.0000000116
  9
$USRTIMER
 70
     1
  9
$ANGBASE
 50
0.0
  9
$ANGDIR
 70
     0
  9
$PDMODE
 70
     0
  9
$PDSIZE
 40
0.0
  9
$PLINEWID
 40
0.0
  9
$COORDS
 70
     1
  9
$SPLFRAME
 70
     0
  9
$SPLINETYPE
 70
     6
  9
$SPLINESEGS
 70
     8
  9
$ATTDIA
 70
     0
  9
$ATTREQ
 70
     1
  9
$HANDLING
 70
     1
  9
$HANDSEED
  5
939
  9
$SURFTAB1
 70
     6
  9
$SURFTAB2
 70
     6
  9
$SURFTYPE
 70
     6
  9
$SURFU
 70
     6
  9
$SURFV
 70
     6
  9
$UCSNAME
  2

  9
$UCSORG
 10
0.0
 20
0.0
 30
0.0
  9
$UCSXDIR
 10
1.0
 20
0.0
 30
0.0
  9
$UCSYDIR
 10
0.0
 20
1.0
 30
0.0
  9
$USERI1
 70
     0
  9
$USERI2
 70
     0
  9
$USERI3
 70
     0
  9
$USERI4
 70
     0
  9
$USERI5
 70
     0
  9
$USERR1
 40
0.0
  9
$USERR2
 40
0.0
  9
$USERR3
 40
0.0
  9
$USERR4
 40
0.0
  9
$USERR5
 40
0.0
  9
$WORLDVIEW
 70
     1
  0
ENDSEC
  0
SECTION
  2
TABLES
  0
TABLE
  2
VPORT
 70
     1
  0
VPORT
  2
*ACTIVE
 70
     0
 10
0.0
 20
0.0
 11
1.0
 21
1.0
 12
102.5441815414499
 22
185.0
 13
0.0
 23
0.0
 14
0.5
 24
0.5
 15
0.5
 25
0.5
 16
0.0
 26
0.0
 36
1.0
 17
0.0
 27
0.0
 37
0.0
 40
110.0
 41
1.6
 42
50.0
 43
0.0
 44
0.0
 50
0.0
 51
0.0
 71
     0
 72
   100
 73
     1
 74
     3
 75
     0
 76
     0
 77
     0
 78
     0
  0
ENDTAB
  0
TABLE
  2
LTYPE
 70
     3
  0
LTYPE
  2
CONTINUOUS
 70
     0
  3
Solid line
 72
    65
 73
     0
 40
0.0
  0
LTYPE
  2
DOT
 70
     0
  3

 72
    65
 73
     0
 40
0.0
  0
LTYPE
  2
CENTER
 70
     0
  3

 72
    65
 73
     0
 40
0.0
  0
ENDTAB
  0
TABLE
  2
LAYER
 70
     1
  0
LAYER
  2
0
 70
     0
 62
     7
  6
CONTINUOUS
  0
ENDTAB
  0
TABLE
  2
STYLE
 70
     2
  0
STYLE
  2
STANDARD
 70
     0
 40
0.0
 41
1.0
 50
0.0
 71
     0
 42
0.2
  3
txt
  4

  0
STYLE
  2
ＭＳ_ゴシック
 70
     0
 40
0.0
 41
1.0
 50
0.0
 71
     0
 42
0.2
  3
ＭＳ ゴシック.shx
  4

  0
ENDTAB
  0
TABLE
  2
VIEW
 70
     0
  0
ENDTAB
  0
TABLE
  2
UCS
 70
     0
  0
ENDTAB
  0
ENDSEC
  0
SECTION
  2
BLOCKS
  0
BLOCK
  8
0
  2
D_FRAME_VIEW_5888
 70
     0
 10
0.0
 20
0.0
 30
0.0
  0
LINE
  5
70
  8
0
  6
CONTINUOUS
 62
     7
 10
157.749961975102
 20
196.0007255582756
 30
0.0
 11
157.0568459078422
 21
209.2261679781214
 31
0.0
  0
LINE
  5
71
  8
0
  6
CONTINUOUS
 62
     7
 10
157.749961975102
 20
196.0007255582756
 30
0.0
 11
157.2556666330204
 21
195.9999509474873
 31
0.0
  0
LINE
  5
72
  8
0
  6
CONTINUOUS
 62
     7
 10
157.2515976464656
 20
196.0
 30
0.0
 11
157.2556666330204
 21
195.9999509474873
 31
0.0
  0
LINE
  5
73
  8
0
  6
CONTINUOUS
 62
     7
 10
157.75
 20
196.0
 30
0.0
 11
157.749961975102
 21
196.0007255582759
 31
0.0
  0
LINE
  5
74
  8
0
  6
CONTINUOUS
 62
     7
 10
157.4355533243017
 20
190.0
 30
0.0
 11
157.75
 21
196.0
 31
0.0
  0
LINE
  5
75
  8
0
  6
CONTINUOUS
 62
     7
 10
156.9412225280554
 20
190.0
 30
0.0
 11
157.4355533243017
 21
190.0
 31
0.0
  0
LINE
  5
76
  8
0
  6
CONTINUOUS
 62
     7
 10
144.75
 20
196.0399369990379
 30
0.0
 11
144.75
 21
189.9999999999995
 31
0.0
  0
LINE
  5
77
  8
0
  6
CONTINUOUS
 62
     7
 10
144.75
 20
196.0399369990379
 30
0.0
 11
145.25
 21
196.0
 31
0.0
  0
LINE
  5
78
  8
0
  6
CONTINUOUS
 62
     7
 10
144.75
 20
190.0
 30
0.0
 11
145.25
 21
190.0
 31
0.0
  0
LINE
  5
79
  8
0
  6
CONTINUOUS
 62
     7
 10
144.75
 20
209.2
 30
0.0
 11
144.75
 21
196.0399369990379
 31
0.0
  0
LINE
  5
7A
  8
0
  6
CONTINUOUS
 62
     7
 10
157.2515976464656
 20
196.0
 30
0.0
 11
145.25
 21
196.0
 31
0.0
  0
LINE
  5
7B
  8
0
  6
CONTINUOUS
 62
     7
 10
156.9412225280554
 20
190.0
 30
0.0
 11
145.25
 21
190.0
 31
0.0
  0
LINE
  5
7C
  8
0
  6
CONTINUOUS
 62
     7
 10
156.5575311404649
 20
209.7
 30
0.0
 11
145.25
 21
209.7
 31
0.0
  0
ARC
  5
7D
  8
0
  6
CONTINUOUS
 62
     7
 10
145.25
 20
209.2
 30
0.0
 40
0.5000000000000004
 50
89.99999999999977
 51
180.0
  0
ARC
  5
7E
  8
0
  6
CONTINUOUS
 62
     7
 10
156.5575311404649
 20
209.2
 30
0.0
 40
0.5000000000000004
 50
3.000000000000114
 51
90.0
  0
POLYLINE
  5
7F
  8
0
  6
CONTINUOUS
 62
     7
 66
     1
 10
0.0
 20
0.0
 30
0.0
  0
VERTEX
  5
237
  8
0
  6
CONTINUOUS
 62
     7
 10
144.75
 20
193.3517538230155
 30
0.0
  0
VERTEX
  5
238
  8
0
  6
CONTINUOUS
 62
     7
 10
144.7494184321518
 20
193.3127499129482
 30
0.0
  0
VERTEX
  5
239
  8
0
  6
CONTINUOUS
 62
     7
 10
144.7475358825779
 20
193.2756827330801
 30
0.0
  0
VERTEX
  5
23A
  8
0
  6
CONTINUOUS
 62
     7
 10
144.7441121135111
 20
193.240260003713
 30
0.0
  0
VERTEX
  5
23B
  8
0
  6
CONTINUOUS
 62
     7
 10
144.7389501732528
 20
193.2067954174375
 30
0.0
  0
VERTEX
  5
23C
  8
0
  6
CONTINUOUS
 62
     7
 10
144.731617432533
 20
193.1744969112664
 30
0.0
  0
VERTEX
  5
23D
  8
0
  6
CONTINUOUS
 62
     7
 10
144.7219995598742
 20
193.1443847197708
 30
0.0
  0
VERTEX
  5
23E
  8
0
  6
CONTINUOUS
 62
     7
 10
144.7141051600036
 20
193.1253678035094
 30
0.0
  0
VERTEX
  5
23F
  8
0
  6
CONTINUOUS
 62
     7
 10
144.7049865363656
 20
193.1074305315585
 30
0.0
  0
VERTEX
  5
240
  8
0
  6
CONTINUOUS
 62
     7
 10
144.6945751097367
 20
193.0906361291965
 30
0.0
  0
VERTEX
  5
241
  8
0
  6
CONTINUOUS
 62
     7
 10
144.6857092849412
 20
193.078617183417
 30
0.0
  0
VERTEX
  5
242
  8
0
  6
CONTINUOUS
 62
     7
 10
144.6760103300772
 20
193.0673203199707
 30
0.0
  0
VERTEX
  5
243
  8
0
  6
CONTINUOUS
 62
     7
 10
144.6653927429884
 20
193.056727829716
 30
0.0
  0
VERTEX
  5
244
  8
0
  6
CONTINUOUS
 62
     7
 10
144.6538675615893
 20
193.0469268620728
 30
0.0
  0
VERTEX
  5
245
  8
0
  6
CONTINUOUS
 62
     7
 10
144.641186361243
 20
193.0378092099561
 30
0.0
  0
VERTEX
  5
246
  8
0
  6
CONTINUOUS
 62
     7
 10
144.6275034209381
 20
193.0295822712175
 30
0.0
  0
VERTEX
  5
247
  8
0
  6
CONTINUOUS
 62
     7
 10
144.6126858836633
 20
193.0222384042153
 30
0.0
  0
VERTEX
  5
248
  8
0
  6
CONTINUOUS
 62
     7
 10
144.5968002509445
 20
193.0158753864113
 30
0.0
  0
VERTEX
  5
249
  8
0
  6
CONTINUOUS
 62
     7
 10
144.585798075562
 20
193.0122558511767
 30
0.0
  0
VERTEX
  5
24A
  8
0
  6
CONTINUOUS
 62
     7
 10
144.5743245251767
 20
193.0090850205518
 30
0.0
  0
VERTEX
  5
24B
  8
0
  6
CONTINUOUS
 62
     7
 10
144.5623300743173
 20
193.0063637904147
 30
0.0
  0
VERTEX
  5
24C
  8
0
  6
CONTINUOUS
 62
     7
 10
144.5498569487786
 20
193.0041145109057
 30
0.0
  0
VERTEX
  5
24D
  8
0
  6
CONTINUOUS
 62
     7
 10
144.5367388932471
 20
193.0023271742171
 30
0.0
  0
VERTEX
  5
24E
  8
0
  6
CONTINUOUS
 62
     7
 10
144.5231330868493
 20
193.0010410417706
 30
0.0
  0
VERTEX
  5
24F
  8
0
  6
CONTINUOUS
 62
     7
 10
144.5089767686065
 20
193.0002611513669
 30
0.0
  0
VERTEX
  5
250
  8
0
  6
CONTINUOUS
 62
     7
 10
144.4943393605005
 20
193.0
 30
0.0
  0
SEQEND
  5
8EC
  8
0
  6
CONTINUOUS
 62
     7
  0
LINE
  5
80
  8
0
  6
CONTINUOUS
 62
     7
 10
143.75
 20
193.0
 30
0.0
 11
144.4943393605005
 21
193.0
 31
0.0
  0
LINE
  5
81
  8
0
  6
CONTINUOUS
 62
     7
 10
144.75
 20
190.0
 30
0.0
 11
143.75
 21
190.0
 31
0.0
  0
LINE
  5
82
  8
0
  6
CONTINUOUS
 62
     7
 10
133.75
 20
190.0
 30
0.0
 11
133.75
 21
193.0
 31
0.0
  0
LINE
  5
83
  8
0
  6
CONTINUOUS
 62
     7
 10
133.75
 20
193.0
 30
0.0
 11
143.75
 21
193.0
 31
0.0
  0
LINE
  5
84
  8
0
  6
CONTINUOUS
 62
     7
 10
133.75
 20
190.0
 30
0.0
 11
143.75
 21
190.0
 31
0.0
  0
POLYLINE
  5
85
  8
0
  6
CONTINUOUS
 62
     7
 66
     1
 10
0.0
 20
0.0
 30
0.0
  0
VERTEX
  5
251
  8
0
  6
CONTINUOUS
 62
     7
 10
144.2829111429484
 20
196.7712434446774
 30
0.0
  0
VERTEX
  5
252
  8
0
  6
CONTINUOUS
 62
     7
 10
144.2806326501948
 20
196.7053587981853
 30
0.0
  0
VERTEX
  5
253
  8
0
  6
CONTINUOUS
 62
     7
 10
144.2749026929779
 20
196.6397954563951
 30
0.0
  0
VERTEX
  5
254
  8
0
  6
CONTINUOUS
 62
     7
 10
144.2656518691772
 20
196.5747163743217
 30
0.0
  0
VERTEX
  5
255
  8
0
  6
CONTINUOUS
 62
     7
 10
144.252810776672
 20
196.5102845069804
 30
0.0
  0
VERTEX
  5
256
  8
0
  6
CONTINUOUS
 62
     7
 10
144.2357142371819
 20
196.4446344783527
 30
0.0
  0
VERTEX
  5
257
  8
0
  6
CONTINUOUS
 62
     7
 10
144.2145494313753
 20
196.3798190980521
 30
0.0
  0
VERTEX
  5
258
  8
0
  6
CONTINUOUS
 62
     7
 10
144.189200484614
 20
196.3160889765089
 30
0.0
  0
VERTEX
  5
259
  8
0
  6
CONTINUOUS
 62
     7
 10
144.15955152226
 20
196.2536947241537
 30
0.0
  0
VERTEX
  5
25A
  8
0
  6
CONTINUOUS
 62
     7
 10
144.1324693048099
 20
196.2046077342575
 30
0.0
  0
VERTEX
  5
25B
  8
0
  6
CONTINUOUS
 62
     7
 10
144.1023092294543
 20
196.1564701226423
 30
0.0
  0
VERTEX
  5
25C
  8
0
  6
CONTINUOUS
 62
     7
 10
144.069026759026
 20
196.1095127670105
 30
0.0
  0
VERTEX
  5
25D
  8
0
  6
CONTINUOUS
 62
     7
 10
144.0325773563574
 20
196.0639665450647
 30
0.0
  0
VERTEX
  5
25E
  8
0
  6
CONTINUOUS
 62
     7
 10
143.9929164842811
 20
196.0200623345074
 30
0.0
  0
VERTEX
  5
25F
  8
0
  6
CONTINUOUS
 62
     7
 10
143.9499996056297
 20
195.978031013041
 30
0.0
  0
VERTEX
  5
260
  8
0
  6
CONTINUOUS
 62
     7
 10
143.9148759176794
 20
195.9472262449744
 30
0.0
  0
VERTEX
  5
261
  8
0
  6
CONTINUOUS
 62
     7
 10
143.8777177934789
 20
195.9176908327141
 30
0.0
  0
VERTEX
  5
262
  8
0
  6
CONTINUOUS
 62
     7
 10
143.8385575134533
 20
195.8895862317108
 30
0.0
  0
VERTEX
  5
263
  8
0
  6
CONTINUOUS
 62
     7
 10
143.8070700127975
 20
195.8690280264803
 30
0.0
  0
VERTEX
  5
264
  8
0
  6
CONTINUOUS
 62
     7
 10
143.7743612232931
 20
195.8494333958419
 30
0.0
  0
VERTEX
  5
265
  8
0
  6
CONTINUOUS
 62
     7
 10
143.7404815703439
 20
195.8308917960788
 30
0.0
  0
VERTEX
  5
266
  8
0
  6
CONTINUOUS
 62
     7
 10
143.7054814793539
 20
195.8134926834739
 30
0.0
  0
VERTEX
  5
267
  8
0
  6
CONTINUOUS
 62
     7
 10
143.6679920440573
 20
195.7967188641864
 30
0.0
  0
VERTEX
  5
268
  8
0
  6
CONTINUOUS
 62
     7
 10
143.6293228154063
 20
195.7813103666974
 30
0.0
  0
VERTEX
  5
269
  8
0
  6
CONTINUOUS
 62
     7
 10
143.5895878297846
 20
195.7673737637026
 30
0.0
  0
VERTEX
  5
26A
  8
0
  6
CONTINUOUS
 62
     7
 10
143.5582840541398
 20
195.7576948624766
 30
0.0
  0
VERTEX
  5
26B
  8
0
  6
CONTINUOUS
 62
     7
 10
143.5263888497863
 20
195.7489635393376
 30
0.0
  0
VERTEX
  5
26C
  8
0
  6
CONTINUOUS
 62
     7
 10
143.4939836061392
 20
195.7412225378615
 30
0.0
  0
VERTEX
  5
26D
  8
0
  6
CONTINUOUS
 62
     7
 10
143.4611497126135
 20
195.7345146016245
 30
0.0
  0
VERTEX
  5
26E
  8
0
  6
CONTINUOUS
 62
     7
 10
143.4243164685995
 20
195.7283329849081
 30
0.0
  0
VERTEX
  5
26F
  8
0
  6
CONTINUOUS
 62
     7
 10
143.3870020735004
 20
195.7234779900218
 30
0.0
  0
VERTEX
  5
270
  8
0
  6
CONTINUOUS
 62
     7
 10
143.3493567362061
 20
195.7199766576226
 30
0.0
  0
VERTEX
  5
271
  8
0
  6
CONTINUOUS
 62
     7
 10
143.3115306656064
 20
195.7178560283678
 30
0.0
  0
VERTEX
  5
272
  8
0
  6
CONTINUOUS
 62
     7
 10
143.2736740705911
 20
195.7171431429146
 30
0.0
  0
SEQEND
  5
8ED
  8
0
  6
CONTINUOUS
 62
     7
  0
LINE
  5
86
  8
0
  6
CONTINUOUS
 62
     7
 10
143.2350147188139
 20
195.7171431429146
 30
0.0
 11
143.2736740705911
 21
195.7171431429146
 31
0.0
  0
LINE
  5
87
  8
0
  6
CONTINUOUS
 62
     7
 10
133.75
 20
193.1119059802126
 30
0.0
 11
131.7858840598573
 21
193.1119059802126
 31
0.0
  0
LINE
  5
88
  8
0
  6
CONTINUOUS
 62
     7
 10
143.25
 20
194.0
 30
0.0
 11
143.2325462644185
 21
196.0
 31
0.0
  0
LINE
  5
89
  8
0
  6
CONTINUOUS
 62
     7
 10
142.2500380769358
 20
194.0
 30
0.0
 11
143.25
 21
194.0
 31
0.0
  0
LINE
  5
8A
  8
0
  6
CONTINUOUS
 62
     7
 10
143.2325462644185
 20
196.0
 30
0.0
 11
142.25
 21
196.0
 31
0.0
  0
LINE
  5
8B
  8
0
  6
CONTINUOUS
 62
     7
 10
142.25
 20
196.0
 30
0.0
 11
141.2674537355815
 21
196.0
 31
0.0
  0
LINE
  5
8C
  8
0
  6
CONTINUOUS
 62
     7
 10
141.25
 20
194.0
 30
0.0
 11
142.2499619230641
 21
194.0
 31
0.0
  0
LINE
  5
8D
  8
0
  6
CONTINUOUS
 62
     7
 10
144.7674537355815
 20
187.0
 30
0.0
 11
144.75
 21
188.9999999999999
 31
0.0
  0
LINE
  5
8E
  8
0
  6
CONTINUOUS
 62
     7
 10
144.2150925288369
 20
189.0
 30
0.0
 11
144.75
 21
189.0
 31
0.0
  0
LINE
  5
8F
  8
0
  6
CONTINUOUS
 62
     7
 10
157.4355533243017
 20
190.0
 30
0.0
 11
157.2783299864526
 21
187.0
 31
0.0
  0
LINE
  5
90
  8
0
  6
CONTINUOUS
 62
     7
 10
138.2325462644185
 20
196.0
 30
0.0
 11
138.2042835235949
 21
199.2385893199354
 31
0.0
  0
LINE
  5
91
  8
0
  6
CONTINUOUS
 62
     7
 10
138.2325462644185
 20
196.0
 30
0.0
 11
141.2674537355815
 21
196.0
 31
0.0
  0
LINE
  5
92
  8
0
  6
CONTINUOUS
 62
     7
 10
138.25
 20
194.0
 30
0.0
 11
141.25
 21
194.0
 31
0.0
  0
LINE
  5
93
  8
0
  6
CONTINUOUS
 62
     7
 10
138.2412731322092
 20
193.0
 30
0.0
 11
138.25
 21
194.0
 31
0.0
  0
LINE
  5
94
  8
0
  6
CONTINUOUS
 62
     7
 10
133.75
 20
193.0
 30
0.0
 11
133.75
 21
199.2385893199354
 31
0.0
  0
LINE
  5
95
  8
0
  6
CONTINUOUS
 62
     7
 10
144.3044433441959
 20
199.2385893199354
 30
0.0
 11
144.25
 21
193.0
 31
0.0
  0
LINE
  5
96
  8
0
  6
CONTINUOUS
 62
     7
 10
144.3087687004305
 20
199.7342260521862
 30
0.0
 11
144.3044433441959
 21
199.2385893199354
 31
0.0
  0
LINE
  5
97
  8
0
  6
CONTINUOUS
 62
     7
 10
133.75
 20
199.7342260521862
 30
0.0
 11
133.75
 21
199.2385893199354
 31
0.0
  0
LINE
  5
98
  8
0
  6
CONTINUOUS
 62
     7
 10
138.2042835235949
 20
199.2385893199354
 30
0.0
 11
138.1999581673603
 21
199.7342260521862
 31
0.0
  0
LINE
  5
99
  8
0
  6
CONTINUOUS
 62
     7
 10
133.7499999999999
 20
189.0
 30
0.0
 11
138.2063656610462
 21
189.0
 31
0.0
  0
LINE
  5
9A
  8
0
  6
CONTINUOUS
 62
     7
 10
133.75
 20
190.0
 30
0.0
 11
133.7499999999999
 21
189.0
 31
0.0
  0
LINE
  5
9B
  8
0
  6
CONTINUOUS
 62
     7
 10
157.2259222071696
 20
186.0
 30
0.0
 11
144.7761806033722
 21
186.0
 31
0.0
  0
LINE
  5
9C
  8
0
  6
CONTINUOUS
 62
     7
 10
144.7674537355815
 20
187.0
 30
0.0
 11
144.7761806033722
 21
186.0
 31
0.0
  0
LINE
  5
9D
  8
0
  6
CONTINUOUS
 62
     7
 10
157.2783299864526
 20
187.0
 30
0.0
 11
157.2259222071696
 21
186.0
 31
0.0
  0
LINE
  5
9E
  8
0
  6
CONTINUOUS
 62
     7
 10
144.2150925288369
 20
189.0
 30
0.0
 11
143.2150544504511
 21
189.0
 31
0.0
  0
LINE
  5
9F
  8
0
  6
CONTINUOUS
 62
     7
 10
139.206403739432
 20
189.0
 30
0.0
 11
138.2063656610462
 21
189.0
 31
0.0
  0
LINE
  5
A0
  8
0
  6
CONTINUOUS
 62
     7
 10
139.206403739432
 20
189.0000000000007
 30
0.0
 11
143.2150544504511
 21
189.0000000000007
 31
0.0
  0
LINE
  5
A1
  8
0
  6
CONTINUOUS
 62
     7
 10
131.7858840598573
 20
193.1119059802126
 30
0.0
 11
131.75
 21
189.0
 31
0.0
  0
LINE
  5
A2
  8
0
  6
CONTINUOUS
 62
     7
 10
131.75
 20
189.0
 30
0.0
 11
133.7499999999999
 21
189.0
 31
0.0
  0
LINE
  5
A3
  8
0
  6
CONTINUOUS
 62
     7
 10
133.7499999999999
 20
189.0
 30
0.0
 11
133.7150544511761
 21
184.9956367322508
 31
0.0
  0
LINE
  5
A4
  8
0
  6
CONTINUOUS
 62
     7
 10
131.75
 20
189.0
 30
0.0
 11
131.7849455488238
 21
184.9956367322508
 31
0.0
  0
LINE
  5
A5
  8
0
  6
CONTINUOUS
 62
     7
 10
131.7892709050584
 20
184.5
 30
0.0
 11
133.7107290949415
 21
184.5
 31
0.0
  0
LINE
  5
A6
  8
0
  6
CONTINUOUS
 62
     7
 10
133.7107290949415
 20
184.5
 30
0.0
 11
133.7150544511761
 21
184.9956367322508
 31
0.0
  0
LINE
  5
A7
  8
0
  6
CONTINUOUS
 62
     7
 10
131.7849455488238
 20
184.9956367322508
 30
0.0
 11
131.7892709050584
 21
184.5
 31
0.0
  0
LINE
  5
A8
  8
0
  6
CONTINUOUS
 62
     7
 10
144.7761806033722
 20
186.0
 30
0.0
 11
139.0261806033722
 21
186.0
 31
0.0
  0
LINE
  5
A9
  8
0
  6
CONTINUOUS
 62
     7
 10
147.25
 20
184.5000000000001
 30
0.0
 11
142.2499999999999
 21
184.5000000000001
 31
0.0
  0
LINE
  5
AA
  8
0
  6
CONTINUOUS
 62
     7
 10
158.25
 20
211.5
 30
0.0
 11
158.25
 21
235.3865507187201
 31
0.0
  0
POLYLINE
  5
AB
  8
0
  6
CONTINUOUS
 62
     7
 66
     1
 10
0.0
 20
0.0
 30
0.0
  0
VERTEX
  5
273
  8
0
  6
CONTINUOUS
 62
     7
 10
158.25
 20
211.5
 30
0.0
  0
VERTEX
  5
274
  8
0
  6
CONTINUOUS
 62
     7
 10
158.2491336248509
 20
211.4584631397932
 30
0.0
  0
VERTEX
  5
275
  8
0
  6
CONTINUOUS
 62
     7
 10
158.2465401653819
 20
211.4169590270662
 30
0.0
  0
VERTEX
  5
276
  8
0
  6
CONTINUOUS
 62
     7
 10
158.2422281205604
 20
211.375594739137
 30
0.0
  0
VERTEX
  5
277
  8
0
  6
CONTINUOUS
 62
     7
 10
158.2362059893539
 20
211.3344773533238
 30
0.0
  0
VERTEX
  5
278
  8
0
  6
CONTINUOUS
 62
     7
 10
158.2282234722727
 20
211.2924637311567
 30
0.0
  0
VERTEX
  5
279
  8
0
  6
CONTINUOUS
 62
     7
 10
158.2184420498325
 20
211.2507880523086
 30
0.0
  0
VERTEX
  5
27A
  8
0
  6
CONTINUOUS
 62
     7
 10
158.2068905079123
 20
211.2095640832081
 30
0.0
  0
VERTEX
  5
27B
  8
0
  6
CONTINUOUS
 62
     7
 10
158.1935976323913
 20
211.1689055902836
 30
0.0
  0
VERTEX
  5
27C
  8
0
  6
CONTINUOUS
 62
     7
 10
158.1790168706063
 20
211.1299717451149
 30
0.0
  0
VERTEX
  5
27D
  8
0
  6
CONTINUOUS
 62
     7
 10
158.1628150419733
 20
211.0916414513394
 30
0.0
  0
VERTEX
  5
27E
  8
0
  6
CONTINUOUS
 62
     7
 10
158.1450358663372
 20
211.0540133922784
 30
0.0
  0
VERTEX
  5
27F
  8
0
  6
CONTINUOUS
 62
     7
 10
158.1257230635431
 20
211.0171862512532
 30
0.0
  0
VERTEX
  5
280
  8
0
  6
CONTINUOUS
 62
     7
 10
158.1042595944339
 20
210.9801606350902
 30
0.0
  0
VERTEX
  5
281
  8
0
  6
CONTINUOUS
 62
     7
 10
158.0812088255101
 20
210.9440517942357
 30
0.0
  0
VERTEX
  5
282
  8
0
  6
CONTINUOUS
 62
     7
 10
158.0566359542472
 20
210.9089578202483
 30
0.0
  0
VERTEX
  5
283
  8
0
  6
CONTINUOUS
 62
     7
 10
158.0306061781205
 20
210.8749768046863
 30
0.0
  0
VERTEX
  5
284
  8
0
  6
CONTINUOUS
 62
     7
 10
158.003962446575
 20
210.8430876061858
 30
0.0
  0
VERTEX
  5
285
  8
0
  6
CONTINUOUS
 62
     7
 10
157.9759912768465
 20
210.8123048013979
 30
0.0
  0
VERTEX
  5
286
  8
0
  6
CONTINUOUS
 62
     7
 10
157.946766642977
 20
210.7827068173882
 30
0.0
  0
VERTEX
  5
287
  8
0
  6
CONTINUOUS
 62
     7
 10
157.9163625190084
 20
210.7543720812221
 30
0.0
  0
VERTEX
  5
288
  8
0
  6
CONTINUOUS
 62
     7
 10
157.8838671279318
 20
210.7265629242792
 30
0.0
  0
VERTEX
  5
289
  8
0
  6
CONTINUOUS
 62
     7
 10
157.8501802680547
 20
210.7001436311827
 30
0.0
  0
VERTEX
  5
28A
  8
0
  6
CONTINUOUS
 62
     7
 10
157.8153958223588
 20
210.675184862831
 30
0.0
  0
VERTEX
  5
28B
  8
0
  6
CONTINUOUS
 62
     7
 10
157.7796076738257
 20
210.6517572801227
 30
0.0
  0
VERTEX
  5
28C
  8
0
  6
CONTINUOUS
 62
     7
 10
157.7439177082265
 20
210.6304952101159
 30
0.0
  0
VERTEX
  5
28D
  8
0
  6
CONTINUOUS
 62
     7
 10
157.707342995865
 20
210.6107163352753
 30
0.0
  0
VERTEX
  5
28E
  8
0
  6
CONTINUOUS
 62
     7
 10
157.6699792048696
 20
210.5924699730158
 30
0.0
  0
VERTEX
  5
28F
  8
0
  6
CONTINUOUS
 62
     7
 10
157.6319220033687
 20
210.5758054407523
 30
0.0
  0
VERTEX
  5
290
  8
0
  6
CONTINUOUS
 62
     7
 10
157.5920682258853
 20
210.5603288881089
 30
0.0
  0
VERTEX
  5
291
  8
0
  6
CONTINUOUS
 62
     7
 10
157.5515516404606
 20
210.5465571779199
 30
0.0
  0
VERTEX
  5
292
  8
0
  6
CONTINUOUS
 62
     7
 10
157.5104840351941
 20
210.5345257448808
 30
0.0
  0
VERTEX
  5
293
  8
0
  6
CONTINUOUS
 62
     7
 10
157.4689771981855
 20
210.5242700236875
 30
0.0
  0
VERTEX
  5
294
  8
0
  6
CONTINUOUS
 62
     7
 10
157.4257383228905
 20
210.515570786635
 30
0.0
  0
VERTEX
  5
295
  8
0
  6
CONTINUOUS
 62
     7
 10
157.3820931868206
 20
210.5087799264369
 30
0.0
  0
VERTEX
  5
296
  8
0
  6
CONTINUOUS
 62
     7
 10
157.3381697685795
 20
210.5039116823962
 30
0.0
  0
VERTEX
  5
297
  8
0
  6
CONTINUOUS
 62
     7
 10
157.2940960467714
 20
210.5009802938162
 30
0.0
  0
VERTEX
  5
298
  8
0
  6
CONTINUOUS
 62
     7
 10
157.25
 20
210.5
 30
0.0
  0
SEQEND
  5
8EE
  8
0
  6
CONTINUOUS
 62
     7
  0
LINE
  5
AC
  8
0
  6
CONTINUOUS
 62
     7
 10
157.25
 20
210.5
 30
0.0
 11
155.25
 21
210.5
 31
0.0
  0
LINE
  5
AD
  8
0
  6
CONTINUOUS
 62
     7
 10
155.25
 20
210.5
 30
0.0
 11
155.25
 21
209.7
 31
0.0
  0
LINE
  5
AE
  8
0
  6
CONTINUOUS
 62
     7
 10
145.25
 20
209.7
 30
0.0
 11
145.25
 21
235.4999999999999
 31
0.0
  0
LINE
  5
AF
  8
0
  6
CONTINUOUS
 62
     7
 10
144.75
 20
199.7342260521862
 30
0.0
 11
144.3087687004305
 21
199.7342260521862
 31
0.0
  0
LINE
  5
B0
  8
0
  6
CONTINUOUS
 62
     7
 10
138.1999581673603
 20
199.7342260521862
 30
0.0
 11
133.75
 21
199.7342260521862
 31
0.0
  0
LINE
  5
B1
  8
0
  6
CONTINUOUS
 62
     7
 10
138.9999999999999
 20
189.0
 30
0.0
 11
139.0261806033722
 21
186.0
 31
0.0
  0
LINE
  5
B2
  8
0
  6
CONTINUOUS
 62
     7
 10
140.75
 20
186.0
 30
0.0
 11
142.2499999999999
 21
184.5000000000001
 31
0.0
  0
LINE
  5
B3
  8
0
  6
CONTINUOUS
 62
     7
 10
147.25
 20
184.5000000000001
 30
0.0
 11
148.7499999999999
 21
186.0
 31
0.0
  0
LINE
  5
B4
  8
0
  6
CONTINUOUS
 62
     7
 10
158.25
 20
235.3865507187201
 30
0.0
 11
145.25
 21
235.5
 31
0.0
  0
ENDBLK
  8
0
  0
BLOCK
  8
0
  2
D_FRAME_VIEW_6235
 70
     0
 10
0.0
 20
0.0
 30
0.0
  0
LINE
  5
BA
  8
0
  6
CONTINUOUS
 62
     7
 10
69.24999999999997
 20
163.25
 30
0.0
 11
90.75000000000001
 21
163.25
 31
0.0
  0
LINE
  5
BB
  8
0
  6
CONTINUOUS
 62
     7
 10
90.75000000000001
 20
161.2500000000001
 30
0.0
 11
69.24999999999997
 21
161.2500000000001
 31
0.0
  0
CIRCLE
  5
BC
  8
0
  6
CONTINUOUS
 62
     7
 10
79.99999999999999
 20
150.2500000000001
 30
0.0
 40
2.500000000000002
  0
CIRCLE
  5
BD
  8
0
  6
CONTINUOUS
 62
     7
 10
79.99999999999999
 20
150.2500000000001
 30
0.0
 40
4.000000000000004
  0
LINE
  5
BE
  8
0
  6
CONTINUOUS
 62
     7
 10
90.75000000000001
 20
163.25
 30
0.0
 11
90.75000000000001
 21
161.25
 31
0.0
  0
LINE
  5
BF
  8
0
  6
CONTINUOUS
 62
     7
 10
69.24999999999997
 20
163.25
 30
0.0
 11
69.24999999999997
 21
161.25
 31
0.0
  0
LINE
  5
C0
  8
0
  6
CONTINUOUS
 62
     7
 10
64.49999999999994
 20
137.7740777928305
 30
0.0
 11
64.49999999999994
 21
150.2238193966278
 31
0.0
  0
LINE
  5
C1
  8
0
  6
CONTINUOUS
 62
     7
 10
95.50000000000006
 20
137.7740777928304
 30
0.0
 11
95.50000000000006
 21
150.2238193966277
 31
0.0
  0
LINE
  5
C2
  8
0
  6
CONTINUOUS
 62
     7
 10
64.49999999999994
 20
137.7740777928305
 30
0.0
 11
95.50000000000006
 21
137.7740777928305
 31
0.0
  0
LINE
  5
C3
  8
0
  6
CONTINUOUS
 62
     7
 10
74.24999999999999
 20
150.2500000000001
 30
0.0
 11
74.27624047839018
 21
150.2238193966278
 31
0.0
  0
ARC
  5
C4
  8
0
  6
CONTINUOUS
 62
     7
 10
79.99999999999999
 20
150.2500000000001
 30
0.0
 40
5.750000000000005
 50
359.9999999999998
 51
180.0
  0
LINE
  5
C5
  8
0
  6
CONTINUOUS
 62
     7
 10
85.74999999999999
 20
150.2500000000001
 30
0.0
 11
96.26393202250021
 21
150.2500000000001
 31
0.0
  0
LINE
  5
C6
  8
0
  6
CONTINUOUS
 62
     7
 10
95.50000000000006
 20
150.2325462644185
 30
0.0
 11
95.50000000000006
 21
150.2238193966277
 31
0.0
  0
LINE
  5
C7
  8
0
  6
CONTINUOUS
 62
     7
 10
64.49999999999994
 20
137.7216700135474
 30
0.0
 11
64.37082100719657
 21
137.676030487663
 31
0.0
  0
ARC
  5
C8
  8
0
  6
CONTINUOUS
 62
     7
 10
61.87472682000554
 20
164.9094389346061
 30
0.0
 40
27.34755970519783
 50
269.2148865418141
 51
275.236846850729
  0
LINE
  5
C9
  8
0
  6
CONTINUOUS
 62
     7
 10
64.49999999999994
 20
137.7216700135474
 30
0.0
 11
64.49999999999994
 21
137.7740777928305
 31
0.0
  0
LINE
  5
CA
  8
0
  6
CONTINUOUS
 62
     7
 10
95.50000000000007
 20
137.7216700135474
 30
0.0
 11
95.62917899280343
 21
137.676030487663
 31
0.0
  0
ARC
  5
CB
  8
0
  6
CONTINUOUS
 62
     7
 10
98.12527317999414
 20
164.9094389346014
 30
0.0
 40
27.34755970519315
 50
264.7631531492708
 51
270.7851134581867
  0
LINE
  5
CC
  8
0
  6
CONTINUOUS
 62
     7
 10
106.9911537913282
 20
137.5644466756983
 30
0.0
 11
98.50000000000006
 21
137.5644466756983
 31
0.0
  0
LINE
  5
CD
  8
0
  6
CONTINUOUS
 62
     7
 10
94.28285685708572
 20
137.25
 30
0.0
 11
108.4911537913282
 21
137.25
 31
0.0
  0
LINE
  5
CE
  8
0
  6
CONTINUOUS
 62
     7
 10
65.71714314291427
 20
137.25
 30
0.0
 11
51.50884620867178
 21
137.25
 31
0.0
  0
LINE
  5
CF
  8
0
  6
CONTINUOUS
 62
     7
 10
53.00884620867179
 20
137.5644466756983
 30
0.0
 11
61.49999999999994
 21
137.5644466756983
 31
0.0
  0
LINE
  5
D0
  8
0
  6
CONTINUOUS
 62
     7
 10
95.50000000000006
 20
137.7216700135474
 30
0.0
 11
95.50000000000006
 21
137.7740777928305
 31
0.0
  0
LINE
  5
D1
  8
0
  6
CONTINUOUS
 62
     7
 10
64.49999999999994
 20
150.2325462644185
 30
0.0
 11
64.49999999999994
 21
150.2238193966277
 31
0.0
  0
LINE
  5
D2
  8
0
  6
CONTINUOUS
 62
     7
 10
74.24999999999999
 20
150.2500000000001
 30
0.0
 11
63.73606797749978
 21
150.2500000000001
 31
0.0
  0
LINE
  5
D3
  8
0
  6
CONTINUOUS
 62
     7
 10
96.26393202250021
 20
150.7849074711631
 30
0.0
 11
96.26393202250021
 21
150.2500000000001
 31
0.0
  0
LINE
  5
D4
  8
0
  6
CONTINUOUS
 62
     7
 10
98.50000000000006
 20
150.7761806033723
 30
0.0
 11
96.26393202250023
 21
150.7849074711631
 31
0.0
  0
LINE
  5
D5
  8
0
  6
CONTINUOUS
 62
     7
 10
61.49999999999994
 20
150.7761806033723
 30
0.0
 11
63.73606797749976
 21
150.7849074711631
 31
0.0
  0
LINE
  5
D6
  8
0
  6
CONTINUOUS
 62
     7
 10
63.73606797749976
 20
150.7849074711631
 30
0.0
 11
63.73606797749978
 21
150.2500000000001
 31
0.0
  0
LINE
  5
D7
  8
0
  6
CONTINUOUS
 62
     7
 10
81.49999999999999
 20
148.25
 30
0.0
 11
81.49999999999999
 21
152.2500000000001
 31
0.0
  0
LINE
  5
D8
  8
0
  6
CONTINUOUS
 62
     7
 10
78.49999999999999
 20
148.25
 30
0.0
 11
78.49999999999999
 21
152.2500000000001
 31
0.0
  0
LINE
  5
D9
  8
0
  6
CONTINUOUS
 62
     7
 10
64.9999999999997
 20
150.7849074711631
 30
0.0
 11
63.73606797749976
 21
150.7849074711631
 31
0.0
  0
POLYLINE
  5
DA
  8
0
  6
CONTINUOUS
 62
     7
 66
     1
 10
0.0
 20
0.0
 30
0.0
  0
VERTEX
  5
299
  8
0
  6
CONTINUOUS
 62
     7
 10
64.9999999999997
 20
150.7849074711631
 30
0.0
  0
VERTEX
  5
29A
  8
0
  6
CONTINUOUS
 62
     7
 10
65.19509032201584
 20
150.8041229224254
 30
0.0
  0
VERTEX
  5
29B
  8
0
  6
CONTINUOUS
 62
     7
 10
65.38268343236481
 20
150.8610308371963
 30
0.0
  0
VERTEX
  5
29C
  8
0
  6
CONTINUOUS
 62
     7
 10
65.55557023301934
 20
150.9534442762257
 30
0.0
  0
VERTEX
  5
29D
  8
0
  6
CONTINUOUS
 62
     7
 10
65.70710678118628
 20
151.0778118428775
 30
0.0
  0
VERTEX
  5
29E
  8
0
  6
CONTINUOUS
 62
     7
 10
65.83146961230229
 20
151.2293541613116
 30
0.0
  0
VERTEX
  5
29F
  8
0
  6
CONTINUOUS
 62
     7
 10
65.92387953251102
 20
151.4022475452164
 30
0.0
  0
VERTEX
  5
2A0
  8
0
  6
CONTINUOUS
 62
     7
 10
65.98078528040296
 20
151.5898477988082
 30
0.0
  0
VERTEX
  5
2A1
  8
0
  6
CONTINUOUS
 62
     7
 10
65.9999999999997
 20
151.7849455495489
 30
0.0
  0
SEQEND
  5
8EF
  8
0
  6
CONTINUOUS
 62
     7
  0
LINE
  5
DB
  8
0
  6
CONTINUOUS
 62
     7
 10
65.9999999999997
 20
155.7935962605681
 30
0.0
 11
65.9999999999997
 21
151.7849455495489
 31
0.0
  0
POLYLINE
  5
DC
  8
0
  6
CONTINUOUS
 62
     7
 66
     1
 10
0.0
 20
0.0
 30
0.0
  0
VERTEX
  5
2A2
  8
0
  6
CONTINUOUS
 62
     7
 10
65.9999999999997
 20
155.793596260568
 30
0.0
  0
VERTEX
  5
2A3
  8
0
  6
CONTINUOUS
 62
     7
 10
65.98078528040293
 20
155.9886940113087
 30
0.0
  0
VERTEX
  5
2A4
  8
0
  6
CONTINUOUS
 62
     7
 10
65.92387953251098
 20
156.1762942649004
 30
0.0
  0
VERTEX
  5
2A5
  8
0
  6
CONTINUOUS
 62
     7
 10
65.83146961230224
 20
156.3491876488052
 30
0.0
  0
VERTEX
  5
2A6
  8
0
  6
CONTINUOUS
 62
     7
 10
65.70710678118624
 20
156.5007299672393
 30
0.0
  0
VERTEX
  5
2A7
  8
0
  6
CONTINUOUS
 62
     7
 10
65.5555702330193
 20
156.6250975338912
 30
0.0
  0
VERTEX
  5
2A8
  8
0
  6
CONTINUOUS
 62
     7
 10
65.38268343236479
 20
156.7175109729205
 30
0.0
  0
VERTEX
  5
2A9
  8
0
  6
CONTINUOUS
 62
     7
 10
65.19509032201583
 20
156.7744188876914
 30
0.0
  0
VERTEX
  5
2AA
  8
0
  6
CONTINUOUS
 62
     7
 10
64.9999999999997
 20
156.7936343389537
 30
0.0
  0
SEQEND
  5
8F0
  8
0
  6
CONTINUOUS
 62
     7
  0
LINE
  5
DD
  8
0
  6
CONTINUOUS
 62
     7
 10
64.49999999999997
 20
156.7936343389538
 30
0.0
 11
64.9999999999997
 21
156.7936343389538
 31
0.0
  0
LINE
  5
DE
  8
0
  6
CONTINUOUS
 62
     7
 10
64.49999999999997
 20
161.2500000000001
 30
0.0
 11
64.49999999999997
 21
156.7936343389538
 31
0.0
  0
LINE
  5
DF
  8
0
  6
CONTINUOUS
 62
     7
 10
69.24999999999997
 20
161.2500000000001
 30
0.0
 11
64.49999999999997
 21
161.2500000000001
 31
0.0
  0
LINE
  5
E0
  8
0
  6
CONTINUOUS
 62
     7
 10
90.75000000000001
 20
161.2500000000001
 30
0.0
 11
95.50000000000003
 21
161.2500000000001
 31
0.0
  0
LINE
  5
E1
  8
0
  6
CONTINUOUS
 62
     7
 10
95.50000000000003
 20
156.7936343389538
 30
0.0
 11
95.0000000000003
 21
156.7936343389538
 31
0.0
  0
POLYLINE
  5
E2
  8
0
  6
CONTINUOUS
 62
     7
 66
     1
 10
0.0
 20
0.0
 30
0.0
  0
VERTEX
  5
2AB
  8
0
  6
CONTINUOUS
 62
     7
 10
95.00000000000028
 20
156.7936343389537
 30
0.0
  0
VERTEX
  5
2AC
  8
0
  6
CONTINUOUS
 62
     7
 10
94.80490967798416
 20
156.7744188876914
 30
0.0
  0
VERTEX
  5
2AD
  8
0
  6
CONTINUOUS
 62
     7
 10
94.6173165676352
 20
156.7175109729205
 30
0.0
  0
VERTEX
  5
2AE
  8
0
  6
CONTINUOUS
 62
     7
 10
94.44442976698069
 20
156.6250975338912
 30
0.0
  0
VERTEX
  5
2AF
  8
0
  6
CONTINUOUS
 62
     7
 10
94.29289321881375
 20
156.5007299672393
 30
0.0
  0
VERTEX
  5
2B0
  8
0
  6
CONTINUOUS
 62
     7
 10
94.16853038769774
 20
156.3491876488052
 30
0.0
  0
VERTEX
  5
2B1
  8
0
  6
CONTINUOUS
 62
     7
 10
94.076120467489
 20
156.1762942649004
 30
0.0
  0
VERTEX
  5
2B2
  8
0
  6
CONTINUOUS
 62
     7
 10
94.01921471959706
 20
155.9886940113087
 30
0.0
  0
VERTEX
  5
2B3
  8
0
  6
CONTINUOUS
 62
     7
 10
94.00000000000028
 20
155.793596260568
 30
0.0
  0
SEQEND
  5
8F1
  8
0
  6
CONTINUOUS
 62
     7
  0
LINE
  5
E3
  8
0
  6
CONTINUOUS
 62
     7
 10
94.00000000000028
 20
155.7935962605681
 30
0.0
 11
94.00000000000028
 21
151.7849455495489
 31
0.0
  0
POLYLINE
  5
E4
  8
0
  6
CONTINUOUS
 62
     7
 66
     1
 10
0.0
 20
0.0
 30
0.0
  0
VERTEX
  5
2B4
  8
0
  6
CONTINUOUS
 62
     7
 10
94.00000000000028
 20
151.7849455495489
 30
0.0
  0
VERTEX
  5
2B5
  8
0
  6
CONTINUOUS
 62
     7
 10
94.01921471959703
 20
151.5898477988082
 30
0.0
  0
VERTEX
  5
2B6
  8
0
  6
CONTINUOUS
 62
     7
 10
94.07612046748896
 20
151.4022475452164
 30
0.0
  0
VERTEX
  5
2B7
  8
0
  6
CONTINUOUS
 62
     7
 10
94.1685303876977
 20
151.2293541613116
 30
0.0
  0
VERTEX
  5
2B8
  8
0
  6
CONTINUOUS
 62
     7
 10
94.2928932188137
 20
151.0778118428775
 30
0.0
  0
VERTEX
  5
2B9
  8
0
  6
CONTINUOUS
 62
     7
 10
94.44442976698065
 20
150.9534442762257
 30
0.0
  0
VERTEX
  5
2BA
  8
0
  6
CONTINUOUS
 62
     7
 10
94.61731656763517
 20
150.8610308371963
 30
0.0
  0
VERTEX
  5
2BB
  8
0
  6
CONTINUOUS
 62
     7
 10
94.80490967798414
 20
150.8041229224254
 30
0.0
  0
VERTEX
  5
2BC
  8
0
  6
CONTINUOUS
 62
     7
 10
95.00000000000028
 20
150.7849074711631
 30
0.0
  0
SEQEND
  5
8F2
  8
0
  6
CONTINUOUS
 62
     7
  0
LINE
  5
E5
  8
0
  6
CONTINUOUS
 62
     7
 10
95.0000000000003
 20
150.7849074711631
 30
0.0
 11
96.26393202250021
 21
150.7849074711631
 31
0.0
  0
LINE
  5
E6
  8
0
  6
CONTINUOUS
 62
     7
 10
95.50000000000003
 20
161.2500000000001
 30
0.0
 11
95.50000000000003
 21
156.7936343389538
 31
0.0
  0
LINE
  5
E7
  8
0
  6
CONTINUOUS
 62
     7
 10
95.50000000000009
 20
156.784907471163
 30
0.0
 11
95.99999999999997
 21
156.784907471163
 31
0.0
  0
LINE
  5
E8
  8
0
  6
CONTINUOUS
 62
     7
 10
95.50000000000003
 20
156.7936343389538
 30
0.0
 11
95.50000000000009
 21
156.784907471163
 31
0.0
  0
LINE
  5
E9
  8
0
  6
CONTINUOUS
 62
     7
 10
64.49999999999991
 20
156.784907471163
 30
0.0
 11
64.00000000000001
 21
156.784907471163
 31
0.0
  0
LINE
  5
EA
  8
0
  6
CONTINUOUS
 62
     7
 10
64.49999999999997
 20
156.7936343389538
 30
0.0
 11
64.49999999999991
 21
156.784907471163
 31
0.0
  0
LINE
  5
EB
  8
0
  6
CONTINUOUS
 62
     7
 10
105.8354097874115
 20
139.9145902125886
 30
0.0
 11
105.8354097874115
 21
148.5854097874115
 31
0.0
  0
LINE
  5
EC
  8
0
  6
CONTINUOUS
 62
     7
 10
105.8354097874115
 20
148.5854097874115
 30
0.0
 11
101.6645902125885
 21
148.5854097874115
 31
0.0
  0
LINE
  5
ED
  8
0
  6
CONTINUOUS
 62
     7
 10
101.6645902125885
 20
148.5854097874115
 30
0.0
 11
101.6645902125885
 21
139.9145902125886
 31
0.0
  0
LINE
  5
EE
  8
0
  6
CONTINUOUS
 62
     7
 10
105.8354097874115
 20
139.9145902125886
 30
0.0
 11
101.6645902125885
 21
139.9145902125886
 31
0.0
  0
POLYLINE
  5
EF
  8
0
  6
CONTINUOUS
 62
     7
 66
     1
 10
0.0
 20
0.0
 30
0.0
  0
VERTEX
  5
2BD
  8
0
  6
CONTINUOUS
 62
     7
 10
104.0
 20
151.2500000000001
 30
0.0
  0
VERTEX
  5
2BE
  8
0
  6
CONTINUOUS
 62
     7
 10
104.0202540928424
 20
151.0549096779839
 30
0.0
  0
VERTEX
  5
2BF
  8
0
  6
CONTINUOUS
 62
     7
 10
104.0802380179404
 20
150.867316567635
 30
0.0
  0
VERTEX
  5
2C0
  8
0
  6
CONTINUOUS
 62
     7
 10
104.1776466266917
 20
150.6944297669805
 30
0.0
  0
VERTEX
  5
2C1
  8
0
  6
CONTINUOUS
 62
     7
 10
104.3087365608895
 20
150.5428932188136
 30
0.0
  0
VERTEX
  5
2C2
  8
0
  6
CONTINUOUS
 62
     7
 10
104.4684701078786
 20
150.4185303876976
 30
0.0
  0
VERTEX
  5
2C3
  8
0
  6
CONTINUOUS
 62
     7
 10
104.6507087970278
 20
150.3261204674888
 30
0.0
  0
VERTEX
  5
2C4
  8
0
  6
CONTINUOUS
 62
     7
 10
104.8484492977138
 20
150.2692147195968
 30
0.0
  0
VERTEX
  5
2C5
  8
0
  6
CONTINUOUS
 62
     7
 10
105.0540925533893
 20
150.2500000000001
 30
0.0
  0
SEQEND
  5
8F3
  8
0
  6
CONTINUOUS
 62
     7
  0
LINE
  5
F0
  8
0
  6
CONTINUOUS
 62
     7
 10
105.0540925533893
 20
150.25
 30
0.0
 11
106.9846117967977
 21
150.25
 31
0.0
  0
POLYLINE
  5
F1
  8
0
  6
CONTINUOUS
 62
     7
 66
     1
 10
0.0
 20
0.0
 30
0.0
  0
VERTEX
  5
2C6
  8
0
  6
CONTINUOUS
 62
     7
 10
107.5
 20
149.75
 30
0.0
  0
VERTEX
  5
2C7
  8
0
  6
CONTINUOUS
 62
     7
 10
107.490096960192
 20
149.8475451610081
 30
0.0
  0
VERTEX
  5
2C8
  8
0
  6
CONTINUOUS
 62
     7
 10
107.4607684090341
 20
149.9413417161826
 30
0.0
  0
VERTEX
  5
2C9
  8
0
  6
CONTINUOUS
 62
     7
 10
107.4131414262997
 20
150.0277851165099
 30
0.0
  0
VERTEX
  5
2CA
  8
0
  6
CONTINUOUS
 62
     7
 10
107.3490462902256
 20
150.1035533905933
 30
0.0
  0
VERTEX
  5
2CB
  8
0
  6
CONTINUOUS
 62
     7
 10
107.2709461409464
 20
150.1657348061513
 30
0.0
  0
VERTEX
  5
2CC
  8
0
  6
CONTINUOUS
 62
     7
 10
107.1818423233997
 20
150.2119397662557
 30
0.0
  0
VERTEX
  5
2CD
  8
0
  6
CONTINUOUS
 62
     7
 10
107.0851590473238
 20
150.2403926402017
 30
0.0
  0
VERTEX
  5
2CE
  8
0
  6
CONTINUOUS
 62
     7
 10
106.9846117967977
 20
150.25
 30
0.0
  0
SEQEND
  5
8F4
  8
0
  6
CONTINUOUS
 62
     7
  0
LINE
  5
F2
  8
0
  6
CONTINUOUS
 62
     7
 10
107.5000000000001
 20
138.0587774719446
 30
0.0
 11
107.5000000000001
 21
149.75
 31
0.0
  0
POLYLINE
  5
F3
  8
0
  6
CONTINUOUS
 62
     7
 66
     1
 10
0.0
 20
0.0
 30
0.0
  0
VERTEX
  5
2CF
  8
0
  6
CONTINUOUS
 62
     7
 10
106.9911537913282
 20
137.5644466756983
 30
0.0
  0
VERTEX
  5
2D0
  8
0
  6
CONTINUOUS
 62
     7
 10
107.0907671361825
 20
137.5739128501239
 30
0.0
  0
VERTEX
  5
2D1
  8
0
  6
CONTINUOUS
 62
     7
 10
107.1863664498412
 20
137.6019534307887
 30
0.0
  0
VERTEX
  5
2D2
  8
0
  6
CONTINUOUS
 62
     7
 10
107.2743368540557
 20
137.6475081246714
 30
0.0
  0
VERTEX
  5
2D3
  8
0
  6
CONTINUOUS
 62
     7
 10
107.351351941046
 20
137.7088543809949
 30
0.0
  0
VERTEX
  5
2D4
  8
0
  6
CONTINUOUS
 62
     7
 10
107.4144995543112
 20
137.7836725257037
 30
0.0
  0
VERTEX
  5
2D5
  8
0
  6
CONTINUOUS
 62
     7
 10
107.4613919054361
 20
137.8691334748478
 30
0.0
  0
VERTEX
  5
2D6
  8
0
  6
CONTINUOUS
 62
     7
 10
107.4902558630706
 20
137.9620057101836
 30
0.0
  0
VERTEX
  5
2D7
  8
0
  6
CONTINUOUS
 62
     7
 10
107.5000000000001
 20
138.0587774719446
 30
0.0
  0
SEQEND
  5
8F5
  8
0
  6
CONTINUOUS
 62
     7
  0
POLYLINE
  5
F4
  8
0
  6
CONTINUOUS
 62
     7
 66
     1
 10
0.0
 20
0.0
 30
0.0
  0
VERTEX
  5
2D8
  8
0
  6
CONTINUOUS
 62
     7
 10
99.50000000000028
 20
150.7761806033723
 30
0.0
  0
VERTEX
  5
2D9
  8
0
  6
CONTINUOUS
 62
     7
 10
99.69509032201641
 20
150.7953960546346
 30
0.0
  0
VERTEX
  5
2DA
  8
0
  6
CONTINUOUS
 62
     7
 10
99.88268343236537
 20
150.8523039694055
 30
0.0
  0
VERTEX
  5
2DB
  8
0
  6
CONTINUOUS
 62
     7
 10
100.0555702330199
 20
150.9447174084349
 30
0.0
  0
VERTEX
  5
2DC
  8
0
  6
CONTINUOUS
 62
     7
 10
100.2071067811868
 20
151.0690849750867
 30
0.0
  0
VERTEX
  5
2DD
  8
0
  6
CONTINUOUS
 62
     7
 10
100.3314696123028
 20
151.2206272935208
 30
0.0
  0
VERTEX
  5
2DE
  8
0
  6
CONTINUOUS
 62
     7
 10
100.4238795325116
 20
151.3935206774256
 30
0.0
  0
VERTEX
  5
2DF
  8
0
  6
CONTINUOUS
 62
     7
 10
100.4807852804035
 20
151.5811209310174
 30
0.0
  0
VERTEX
  5
2E0
  8
0
  6
CONTINUOUS
 62
     7
 10
100.5000000000003
 20
151.7762186817581
 30
0.0
  0
SEQEND
  5
8F6
  8
0
  6
CONTINUOUS
 62
     7
  0
LINE
  5
F5
  8
0
  6
CONTINUOUS
 62
     7
 10
100.5000000000003
 20
155.7848693927773
 30
0.0
 11
100.5000000000003
 21
151.776218681758
 31
0.0
  0
POLYLINE
  5
F6
  8
0
  6
CONTINUOUS
 62
     7
 66
     1
 10
0.0
 20
0.0
 30
0.0
  0
VERTEX
  5
2E1
  8
0
  6
CONTINUOUS
 62
     7
 10
100.5000000000003
 20
155.7848693927773
 30
0.0
  0
VERTEX
  5
2E2
  8
0
  6
CONTINUOUS
 62
     7
 10
100.4807852804035
 20
155.979967143518
 30
0.0
  0
VERTEX
  5
2E3
  8
0
  6
CONTINUOUS
 62
     7
 10
100.4238795325116
 20
156.1675673971097
 30
0.0
  0
VERTEX
  5
2E4
  8
0
  6
CONTINUOUS
 62
     7
 10
100.3314696123028
 20
156.3404607810145
 30
0.0
  0
VERTEX
  5
2E5
  8
0
  6
CONTINUOUS
 62
     7
 10
100.2071067811868
 20
156.4920030994486
 30
0.0
  0
VERTEX
  5
2E6
  8
0
  6
CONTINUOUS
 62
     7
 10
100.0555702330199
 20
156.6163706661005
 30
0.0
  0
VERTEX
  5
2E7
  8
0
  6
CONTINUOUS
 62
     7
 10
99.88268343236537
 20
156.7087841051298
 30
0.0
  0
VERTEX
  5
2E8
  8
0
  6
CONTINUOUS
 62
     7
 10
99.69509032201641
 20
156.7656920199008
 30
0.0
  0
VERTEX
  5
2E9
  8
0
  6
CONTINUOUS
 62
     7
 10
99.50000000000028
 20
156.7849074711631
 30
0.0
  0
SEQEND
  5
8F7
  8
0
  6
CONTINUOUS
 62
     7
  0
LINE
  5
F7
  8
0
  6
CONTINUOUS
 62
     7
 10
95.99999999999997
 20
156.784907471163
 30
0.0
 11
99.50000000000028
 21
156.7849074711631
 31
0.0
  0
LINE
  5
F8
  8
0
  6
CONTINUOUS
 62
     7
 10
104.0
 20
161.25
 30
0.0
 11
104.0
 21
151.25
 31
0.0
  0
LINE
  5
F9
  8
0
  6
CONTINUOUS
 62
     7
 10
99.50000000000028
 20
150.7761806033723
 30
0.0
 11
98.50000000000006
 21
150.7761806033723
 31
0.0
  0
LINE
  5
FA
  8
0
  6
CONTINUOUS
 62
     7
 10
104.0
 20
161.25
 30
0.0
 11
95.50000000000009
 21
161.25
 31
0.0
  0
POLYLINE
  5
FB
  8
0
  6
CONTINUOUS
 62
     7
 66
     1
 10
0.0
 20
0.0
 30
0.0
  0
VERTEX
  5
2EA
  8
0
  6
CONTINUOUS
 62
     7
 10
105.0
 20
151.2500000000001
 30
0.0
  0
VERTEX
  5
2EB
  8
0
  6
CONTINUOUS
 62
     7
 10
105.0231324619746
 20
151.0416513476913
 30
0.0
  0
VERTEX
  5
2EC
  8
0
  6
CONTINUOUS
 62
     7
 10
105.0915145465469
 20
150.84244727621
 30
0.0
  0
VERTEX
  5
2ED
  8
0
  6
CONTINUOUS
 62
     7
 10
105.2021449120112
 20
150.661131003775
 30
0.0
  0
VERTEX
  5
2EE
  8
0
  6
CONTINUOUS
 62
     7
 10
105.3501679074778
 20
150.5056606394995
 30
0.0
  0
SEQEND
  5
8F8
  8
0
  6
CONTINUOUS
 62
     7
  0
ARC
  5
FC
  8
0
  6
CONTINUOUS
 62
     7
 10
106.1481398239168
 20
151.7731175840266
 30
0.0
 40
1.523294324995571
 50
252.0473990991062
 51
270.8728076282156
  0
POLYLINE
  5
FD
  8
0
  6
CONTINUOUS
 62
     7
 66
     1
 10
0.0
 20
0.0
 30
0.0
  0
VERTEX
  5
2EF
  8
0
  6
CONTINUOUS
 62
     7
 10
105.6786146498005
 20
150.3239896699228
 30
0.0
  0
VERTEX
  5
2F0
  8
0
  6
CONTINUOUS
 62
     7
 10
105.5584417475193
 20
150.3724965790619
 30
0.0
  0
VERTEX
  5
2F1
  8
0
  6
CONTINUOUS
 62
     7
 10
105.4603806027785
 20
150.4256754748233
 30
0.0
  0
VERTEX
  5
2F2
  8
0
  6
CONTINUOUS
 62
     7
 10
105.3678522323566
 20
150.4910143720546
 30
0.0
  0
VERTEX
  5
2F3
  8
0
  6
CONTINUOUS
 62
     7
 10
105.3501679074778
 20
150.5056606394995
 30
0.0
  0
SEQEND
  5
8F9
  8
0
  6
CONTINUOUS
 62
     7
  0
POLYLINE
  5
FE
  8
0
  6
CONTINUOUS
 62
     7
 66
     1
 10
0.0
 20
0.0
 30
0.0
  0
VERTEX
  5
2F4
  8
0
  6
CONTINUOUS
 62
     7
 10
108.4945960465573
 20
150.25
 30
0.0
  0
VERTEX
  5
2F5
  8
0
  6
CONTINUOUS
 62
     7
 10
108.5193950431486
 20
150.2493977281026
 30
0.0
  0
VERTEX
  5
2F6
  8
0
  6
CONTINUOUS
 62
     7
 10
108.544134296785
 20
150.2475923633361
 30
0.0
  0
VERTEX
  5
2F7
  8
0
  6
CONTINUOUS
 62
     7
 10
108.5687542084376
 20
150.2445882549824
 30
0.0
  0
VERTEX
  5
2F8
  8
0
  6
CONTINUOUS
 62
     7
 10
108.5931954665827
 20
150.2403926402016
 30
0.0
  0
VERTEX
  5
2F9
  8
0
  6
CONTINUOUS
 62
     7
 10
108.6173991900887
 20
150.2350156265973
 30
0.0
  0
VERTEX
  5
2FA
  8
0
  6
CONTINUOUS
 62
     7
 10
108.6413070700656
 20
150.2284701678661
 30
0.0
  0
VERTEX
  5
2FB
  8
0
  6
CONTINUOUS
 62
     7
 10
108.6648615103365
 20
150.2207720325915
 30
0.0
  0
VERTEX
  5
2FC
  8
0
  6
CONTINUOUS
 62
     7
 10
108.6880057661917
 20
150.2119397662557
 30
0.0
  0
VERTEX
  5
2FD
  8
0
  6
CONTINUOUS
 62
     7
 10
108.7106840810916
 20
150.2019946465618
 30
0.0
  0
VERTEX
  5
2FE
  8
0
  6
CONTINUOUS
 62
     7
 10
108.7328418209892
 20
150.1909606321742
 30
0.0
  0
VERTEX
  5
2FF
  8
0
  6
CONTINUOUS
 62
     7
 10
108.7544256059483
 20
150.1788643050002
 30
0.0
  0
VERTEX
  5
300
  8
0
  6
CONTINUOUS
 62
     7
 10
108.7753834387405
 20
150.1657348061513
 30
0.0
  0
VERTEX
  5
301
  8
0
  6
CONTINUOUS
 62
     7
 10
108.7956648301109
 20
150.1516037657403
 30
0.0
  0
VERTEX
  5
302
  8
0
  6
CONTINUOUS
 62
     7
 10
108.8152209204112
 20
150.1365052266814
 30
0.0
  0
VERTEX
  5
303
  8
0
  6
CONTINUOUS
 62
     7
 10
108.8340045973069
 20
150.1204755626775
 30
0.0
  0
VERTEX
  5
304
  8
0
  6
CONTINUOUS
 62
     7
 10
108.8519706092752
 20
150.1035533905933
 30
0.0
  0
VERTEX
  5
305
  8
0
  6
CONTINUOUS
 62
     7
 10
108.8690756746196
 20
150.0857794774235
 30
0.0
  0
VERTEX
  5
306
  8
0
  6
CONTINUOUS
 62
     7
 10
108.8852785857394
 20
150.0671966420819
 30
0.0
  0
VERTEX
  5
307
  8
0
  6
CONTINUOUS
 62
     7
 10
108.9005403084026
 20
150.0478496522462
 30
0.0
  0
VERTEX
  5
308
  8
0
  6
CONTINUOUS
 62
     7
 10
108.9148240757825
 20
150.0277851165098
 30
0.0
  0
VERTEX
  5
309
  8
0
  6
CONTINUOUS
 62
     7
 10
108.9280954770324
 20
150.0070513720966
 30
0.0
  0
VERTEX
  5
30A
  8
0
  6
CONTINUOUS
 62
     7
 10
108.9403225401842
 20
149.985698368413
 30
0.0
  0
VERTEX
  5
30B
  8
0
  6
CONTINUOUS
 62
     7
 10
108.9514758091718
 20
149.9637775467151
 30
0.0
  0
VERTEX
  5
30C
  8
0
  6
CONTINUOUS
 62
     7
 10
108.9615284147934
 20
149.9413417161826
 30
0.0
  0
VERTEX
  5
30D
  8
0
  6
CONTINUOUS
 62
     7
 10
108.9704561394414
 20
149.9184449266961
 30
0.0
  0
VERTEX
  5
30E
  8
0
  6
CONTINUOUS
 62
     7
 10
108.9782374754452
 20
149.8951423386272
 30
0.0
  0
VERTEX
  5
30F
  8
0
  6
CONTINUOUS
 62
     7
 10
108.9848536768849
 20
149.8714900899517
 30
0.0
  0
VERTEX
  5
310
  8
0
  6
CONTINUOUS
 62
     7
 10
108.9902888047516
 20
149.8475451610081
 30
0.0
  0
VERTEX
  5
311
  8
0
  6
CONTINUOUS
 62
     7
 10
108.9945297653462
 20
149.8233652372277
 30
0.0
  0
VERTEX
  5
312
  8
0
  6
CONTINUOUS
 62
     7
 10
108.9975663418233
 20
149.7990085701648
 30
0.0
  0
VERTEX
  5
313
  8
0
  6
CONTINUOUS
 62
     7
 10
108.9993912188041
 20
149.7745338371637
 30
0.0
  0
VERTEX
  5
314
  8
0
  6
CONTINUOUS
 62
     7
 10
109.0000000000001
 20
149.75
 30
0.0
  0
SEQEND
  5
8FA
  8
0
  6
CONTINUOUS
 62
     7
  0
LINE
  5
FF
  8
0
  6
CONTINUOUS
 62
     7
 10
108.4945960465573
 20
150.25
 30
0.0
 11
106.9846117967977
 21
150.25
 31
0.0
  0
LINE
  5
100
  8
0
  6
CONTINUOUS
 62
     7
 10
58.33540978741144
 20
148.5854097874115
 30
0.0
 11
58.33540978741144
 21
139.9145902125885
 31
0.0
  0
LINE
  5
101
  8
0
  6
CONTINUOUS
 62
     7
 10
54.16459021258853
 20
148.5854097874115
 30
0.0
 11
58.33540978741144
 21
148.5854097874115
 31
0.0
  0
LINE
  5
102
  8
0
  6
CONTINUOUS
 62
     7
 10
54.16459021258853
 20
139.9145902125886
 30
0.0
 11
54.16459021258853
 21
148.5854097874115
 31
0.0
  0
LINE
  5
103
  8
0
  6
CONTINUOUS
 62
     7
 10
54.16459021258853
 20
139.9145902125886
 30
0.0
 11
58.33540978741144
 21
139.9145902125886
 31
0.0
  0
LINE
  5
104
  8
0
  6
CONTINUOUS
 62
     7
 10
64.00000000000001
 20
156.784907471163
 30
0.0
 11
60.49999999999972
 21
156.7849074711631
 31
0.0
  0
POLYLINE
  5
105
  8
0
  6
CONTINUOUS
 62
     7
 66
     1
 10
0.0
 20
0.0
 30
0.0
  0
VERTEX
  5
315
  8
0
  6
CONTINUOUS
 62
     7
 10
60.49999999999972
 20
156.7849074711631
 30
0.0
  0
VERTEX
  5
316
  8
0
  6
CONTINUOUS
 62
     7
 10
60.30490967798359
 20
156.7656920199008
 30
0.0
  0
VERTEX
  5
317
  8
0
  6
CONTINUOUS
 62
     7
 10
60.11731656763463
 20
156.7087841051298
 30
0.0
  0
VERTEX
  5
318
  8
0
  6
CONTINUOUS
 62
     7
 10
59.94442976698012
 20
156.6163706661005
 30
0.0
  0
VERTEX
  5
319
  8
0
  6
CONTINUOUS
 62
     7
 10
59.79289321881318
 20
156.4920030994486
 30
0.0
  0
VERTEX
  5
31A
  8
0
  6
CONTINUOUS
 62
     7
 10
59.66853038769717
 20
156.3404607810145
 30
0.0
  0
VERTEX
  5
31B
  8
0
  6
CONTINUOUS
 62
     7
 10
59.57612046748844
 20
156.1675673971097
 30
0.0
  0
VERTEX
  5
31C
  8
0
  6
CONTINUOUS
 62
     7
 10
59.51921471959649
 20
155.979967143518
 30
0.0
  0
VERTEX
  5
31D
  8
0
  6
CONTINUOUS
 62
     7
 10
59.49999999999972
 20
155.7848693927773
 30
0.0
  0
SEQEND
  5
8FB
  8
0
  6
CONTINUOUS
 62
     7
  0
LINE
  5
106
  8
0
  6
CONTINUOUS
 62
     7
 10
59.49999999999972
 20
155.7848693927773
 30
0.0
 11
59.49999999999972
 21
151.776218681758
 31
0.0
  0
POLYLINE
  5
107
  8
0
  6
CONTINUOUS
 62
     7
 66
     1
 10
0.0
 20
0.0
 30
0.0
  0
VERTEX
  5
31E
  8
0
  6
CONTINUOUS
 62
     7
 10
59.49999999999972
 20
151.7762186817581
 30
0.0
  0
VERTEX
  5
31F
  8
0
  6
CONTINUOUS
 62
     7
 10
59.51921471959649
 20
151.5811209310174
 30
0.0
  0
VERTEX
  5
320
  8
0
  6
CONTINUOUS
 62
     7
 10
59.57612046748844
 20
151.3935206774256
 30
0.0
  0
VERTEX
  5
321
  8
0
  6
CONTINUOUS
 62
     7
 10
59.66853038769717
 20
151.2206272935208
 30
0.0
  0
VERTEX
  5
322
  8
0
  6
CONTINUOUS
 62
     7
 10
59.79289321881318
 20
151.0690849750867
 30
0.0
  0
VERTEX
  5
323
  8
0
  6
CONTINUOUS
 62
     7
 10
59.94442976698012
 20
150.9447174084349
 30
0.0
  0
VERTEX
  5
324
  8
0
  6
CONTINUOUS
 62
     7
 10
60.11731656763463
 20
150.8523039694055
 30
0.0
  0
VERTEX
  5
325
  8
0
  6
CONTINUOUS
 62
     7
 10
60.30490967798359
 20
150.7953960546346
 30
0.0
  0
VERTEX
  5
326
  8
0
  6
CONTINUOUS
 62
     7
 10
60.49999999999972
 20
150.7761806033723
 30
0.0
  0
SEQEND
  5
8FC
  8
0
  6
CONTINUOUS
 62
     7
  0
POLYLINE
  5
108
  8
0
  6
CONTINUOUS
 62
     7
 66
     1
 10
0.0
 20
0.0
 30
0.0
  0
VERTEX
  5
327
  8
0
  6
CONTINUOUS
 62
     7
 10
52.49999999999996
 20
138.0587774719447
 30
0.0
  0
VERTEX
  5
328
  8
0
  6
CONTINUOUS
 62
     7
 10
52.50974413692944
 20
137.9620057101837
 30
0.0
  0
VERTEX
  5
329
  8
0
  6
CONTINUOUS
 62
     7
 10
52.53860809456391
 20
137.8691334748478
 30
0.0
  0
VERTEX
  5
32A
  8
0
  6
CONTINUOUS
 62
     7
 10
52.58550044568882
 20
137.7836725257038
 30
0.0
  0
VERTEX
  5
32B
  8
0
  6
CONTINUOUS
 62
     7
 10
52.64864805895397
 20
137.708854380995
 30
0.0
  0
VERTEX
  5
32C
  8
0
  6
CONTINUOUS
 62
     7
 10
52.72566314594433
 20
137.6475081246715
 30
0.0
  0
VERTEX
  5
32D
  8
0
  6
CONTINUOUS
 62
     7
 10
52.81363355015881
 20
137.6019534307888
 30
0.0
  0
VERTEX
  5
32E
  8
0
  6
CONTINUOUS
 62
     7
 10
52.90923286381748
 20
137.5739128501239
 30
0.0
  0
VERTEX
  5
32F
  8
0
  6
CONTINUOUS
 62
     7
 10
53.00884620867178
 20
137.5644466756983
 30
0.0
  0
SEQEND
  5
8FD
  8
0
  6
CONTINUOUS
 62
     7
  0
LINE
  5
109
  8
0
  6
CONTINUOUS
 62
     7
 10
52.49999999999995
 20
138.0587774719447
 30
0.0
 11
52.49999999999995
 21
149.75
 31
0.0
  0
POLYLINE
  5
10A
  8
0
  6
CONTINUOUS
 62
     7
 66
     1
 10
0.0
 20
0.0
 30
0.0
  0
VERTEX
  5
330
  8
0
  6
CONTINUOUS
 62
     7
 10
53.01538820320227
 20
150.25
 30
0.0
  0
VERTEX
  5
331
  8
0
  6
CONTINUOUS
 62
     7
 10
52.91484095267622
 20
150.2403926402017
 30
0.0
  0
VERTEX
  5
332
  8
0
  6
CONTINUOUS
 62
     7
 10
52.81815767660034
 20
150.2119397662557
 30
0.0
  0
VERTEX
  5
333
  8
0
  6
CONTINUOUS
 62
     7
 10
52.72905385905361
 20
150.1657348061513
 30
0.0
  0
VERTEX
  5
334
  8
0
  6
CONTINUOUS
 62
     7
 10
52.65095370977436
 20
150.1035533905933
 30
0.0
  0
VERTEX
  5
335
  8
0
  6
CONTINUOUS
 62
     7
 10
52.58685857370033
 20
150.0277851165099
 30
0.0
  0
VERTEX
  5
336
  8
0
  6
CONTINUOUS
 62
     7
 10
52.53923159096588
 20
149.9413417161826
 30
0.0
  0
VERTEX
  5
337
  8
0
  6
CONTINUOUS
 62
     7
 10
52.50990303980797
 20
149.8475451610081
 30
0.0
  0
VERTEX
  5
338
  8
0
  6
CONTINUOUS
 62
     7
 10
52.49999999999994
 20
149.75
 30
0.0
  0
SEQEND
  5
8FE
  8
0
  6
CONTINUOUS
 62
     7
  0
LINE
  5
10B
  8
0
  6
CONTINUOUS
 62
     7
 10
54.9459074466107
 20
150.2500000000001
 30
0.0
 11
53.01538820320227
 21
150.2500000000001
 31
0.0
  0
POLYLINE
  5
10C
  8
0
  6
CONTINUOUS
 62
     7
 66
     1
 10
0.0
 20
0.0
 30
0.0
  0
VERTEX
  5
339
  8
0
  6
CONTINUOUS
 62
     7
 10
54.9459074466107
 20
150.2500000000001
 30
0.0
  0
VERTEX
  5
33A
  8
0
  6
CONTINUOUS
 62
     7
 10
55.15155070228622
 20
150.2692147195968
 30
0.0
  0
VERTEX
  5
33B
  8
0
  6
CONTINUOUS
 62
     7
 10
55.3492912029722
 20
150.3261204674888
 30
0.0
  0
VERTEX
  5
33C
  8
0
  6
CONTINUOUS
 62
     7
 10
55.53152989212142
 20
150.4185303876976
 30
0.0
  0
VERTEX
  5
33D
  8
0
  6
CONTINUOUS
 62
     7
 10
55.69126343911051
 20
150.5428932188136
 30
0.0
  0
VERTEX
  5
33E
  8
0
  6
CONTINUOUS
 62
     7
 10
55.82235337330829
 20
150.6944297669805
 30
0.0
  0
VERTEX
  5
33F
  8
0
  6
CONTINUOUS
 62
     7
 10
55.91976198205962
 20
150.867316567635
 30
0.0
  0
VERTEX
  5
340
  8
0
  6
CONTINUOUS
 62
     7
 10
55.97974590715756
 20
151.0549096779839
 30
0.0
  0
VERTEX
  5
341
  8
0
  6
CONTINUOUS
 62
     7
 10
55.99999999999998
 20
151.2500000000001
 30
0.0
  0
SEQEND
  5
8FF
  8
0
  6
CONTINUOUS
 62
     7
  0
LINE
  5
10D
  8
0
  6
CONTINUOUS
 62
     7
 10
56.0
 20
161.25
 30
0.0
 11
56.0
 21
151.25
 31
0.0
  0
LINE
  5
10E
  8
0
  6
CONTINUOUS
 62
     7
 10
60.49999999999972
 20
150.7761806033723
 30
0.0
 11
61.49999999999994
 21
150.7761806033723
 31
0.0
  0
LINE
  5
10F
  8
0
  6
CONTINUOUS
 62
     7
 10
56.0
 20
161.25
 30
0.0
 11
64.49999999999991
 21
161.25
 31
0.0
  0
POLYLINE
  5
110
  8
0
  6
CONTINUOUS
 62
     7
 66
     1
 10
0.0
 20
0.0
 30
0.0
  0
VERTEX
  5
342
  8
0
  6
CONTINUOUS
 62
     7
 10
51.50540395344269
 20
150.2500000000001
 30
0.0
  0
VERTEX
  5
343
  8
0
  6
CONTINUOUS
 62
     7
 10
51.48060495685137
 20
150.2493977281026
 30
0.0
  0
VERTEX
  5
344
  8
0
  6
CONTINUOUS
 62
     7
 10
51.45586570321498
 20
150.2475923633361
 30
0.0
  0
VERTEX
  5
345
  8
0
  6
CONTINUOUS
 62
     7
 10
51.43124579156241
 20
150.2445882549824
 30
0.0
  0
VERTEX
  5
346
  8
0
  6
CONTINUOUS
 62
     7
 10
51.40680453341731
 20
150.2403926402016
 30
0.0
  0
VERTEX
  5
347
  8
0
  6
CONTINUOUS
 62
     7
 10
51.38260080991135
 20
150.2350156265973
 30
0.0
  0
VERTEX
  5
348
  8
0
  6
CONTINUOUS
 62
     7
 10
51.35869292993443
 20
150.2284701678661
 30
0.0
  0
VERTEX
  5
349
  8
0
  6
CONTINUOUS
 62
     7
 10
51.33513848966351
 20
150.2207720325915
 30
0.0
  0
VERTEX
  5
34A
  8
0
  6
CONTINUOUS
 62
     7
 10
51.31199423380833
 20
150.2119397662557
 30
0.0
  0
VERTEX
  5
34B
  8
0
  6
CONTINUOUS
 62
     7
 10
51.28931591890844
 20
150.2019946465618
 30
0.0
  0
VERTEX
  5
34C
  8
0
  6
CONTINUOUS
 62
     7
 10
51.26715817901082
 20
150.1909606321742
 30
0.0
  0
VERTEX
  5
34D
  8
0
  6
CONTINUOUS
 62
     7
 10
51.24557439405167
 20
150.1788643050002
 30
0.0
  0
VERTEX
  5
34E
  8
0
  6
CONTINUOUS
 62
     7
 10
51.22461656125947
 20
150.1657348061513
 30
0.0
  0
VERTEX
  5
34F
  8
0
  6
CONTINUOUS
 62
     7
 10
51.20433516988912
 20
150.1516037657403
 30
0.0
  0
VERTEX
  5
350
  8
0
  6
CONTINUOUS
 62
     7
 10
51.18477907958886
 20
150.1365052266814
 30
0.0
  0
VERTEX
  5
351
  8
0
  6
CONTINUOUS
 62
     7
 10
51.16599540269313
 20
150.1204755626775
 30
0.0
  0
VERTEX
  5
352
  8
0
  6
CONTINUOUS
 62
     7
 10
51.14802939072484
 20
150.1035533905933
 30
0.0
  0
VERTEX
  5
353
  8
0
  6
CONTINUOUS
 62
     7
 10
51.13092432538044
 20
150.0857794774235
 30
0.0
  0
VERTEX
  5
354
  8
0
  6
CONTINUOUS
 62
     7
 10
51.1147214142606
 20
150.0671966420819
 30
0.0
  0
VERTEX
  5
355
  8
0
  6
CONTINUOUS
 62
     7
 10
51.09945969159738
 20
150.0478496522462
 30
0.0
  0
VERTEX
  5
356
  8
0
  6
CONTINUOUS
 62
     7
 10
51.08517592421747
 20
150.0277851165098
 30
0.0
  0
VERTEX
  5
357
  8
0
  6
CONTINUOUS
 62
     7
 10
51.0719045229676
 20
150.0070513720966
 30
0.0
  0
VERTEX
  5
358
  8
0
  6
CONTINUOUS
 62
     7
 10
51.05967745981581
 20
149.985698368413
 30
0.0
  0
VERTEX
  5
359
  8
0
  6
CONTINUOUS
 62
     7
 10
51.04852419082819
 20
149.9637775467151
 30
0.0
  0
VERTEX
  5
35A
  8
0
  6
CONTINUOUS
 62
     7
 10
51.03847158520665
 20
149.9413417161826
 30
0.0
  0
VERTEX
  5
35B
  8
0
  6
CONTINUOUS
 62
     7
 10
51.02954386055864
 20
149.9184449266961
 30
0.0
  0
VERTEX
  5
35C
  8
0
  6
CONTINUOUS
 62
     7
 10
51.02176252455481
 20
149.8951423386272
 30
0.0
  0
VERTEX
  5
35D
  8
0
  6
CONTINUOUS
 62
     7
 10
51.01514632311515
 20
149.8714900899517
 30
0.0
  0
VERTEX
  5
35E
  8
0
  6
CONTINUOUS
 62
     7
 10
51.00971119524846
 20
149.8475451610081
 30
0.0
  0
VERTEX
  5
35F
  8
0
  6
CONTINUOUS
 62
     7
 10
51.00547023465379
 20
149.8233652372277
 30
0.0
  0
VERTEX
  5
360
  8
0
  6
CONTINUOUS
 62
     7
 10
51.00243365817673
 20
149.7990085701648
 30
0.0
  0
VERTEX
  5
361
  8
0
  6
CONTINUOUS
 62
     7
 10
51.00060878119595
 20
149.7745338371637
 30
0.0
  0
VERTEX
  5
362
  8
0
  6
CONTINUOUS
 62
     7
 10
50.99999999999995
 20
149.75
 30
0.0
  0
SEQEND
  5
900
  8
0
  6
CONTINUOUS
 62
     7
  0
LINE
  5
111
  8
0
  6
CONTINUOUS
 62
     7
 10
51.50540395344269
 20
150.2500000000001
 30
0.0
 11
53.01538820320227
 21
150.2500000000001
 31
0.0
  0
POLYLINE
  5
112
  8
0
  6
CONTINUOUS
 62
     7
 66
     1
 10
0.0
 20
0.0
 30
0.0
  0
VERTEX
  5
363
  8
0
  6
CONTINUOUS
 62
     7
 10
54.64983209252219
 20
150.5056606394995
 30
0.0
  0
VERTEX
  5
364
  8
0
  6
CONTINUOUS
 62
     7
 10
54.79785508798877
 20
150.661131003775
 30
0.0
  0
VERTEX
  5
365
  8
0
  6
CONTINUOUS
 62
     7
 10
54.90848545345307
 20
150.84244727621
 30
0.0
  0
VERTEX
  5
366
  8
0
  6
CONTINUOUS
 62
     7
 10
54.9768675380254
 20
151.0416513476913
 30
0.0
  0
VERTEX
  5
367
  8
0
  6
CONTINUOUS
 62
     7
 10
54.99999999999999
 20
151.2500000000001
 30
0.0
  0
SEQEND
  5
901
  8
0
  6
CONTINUOUS
 62
     7
  0
ARC
  5
113
  8
0
  6
CONTINUOUS
 62
     7
 10
53.85186017608351
 20
151.7731175840246
 30
0.0
 40
1.523294324993633
 50
269.1271923717726
 51
287.9526009009058
  0
POLYLINE
  5
114
  8
0
  6
CONTINUOUS
 62
     7
 66
     1
 10
0.0
 20
0.0
 30
0.0
  0
VERTEX
  5
368
  8
0
  6
CONTINUOUS
 62
     7
 10
54.32138535019948
 20
150.3239896699228
 30
0.0
  0
VERTEX
  5
369
  8
0
  6
CONTINUOUS
 62
     7
 10
54.44155825248072
 20
150.3724965790619
 30
0.0
  0
VERTEX
  5
36A
  8
0
  6
CONTINUOUS
 62
     7
 10
54.53961939722149
 20
150.4256754748233
 30
0.0
  0
VERTEX
  5
36B
  8
0
  6
CONTINUOUS
 62
     7
 10
54.63214776764344
 20
150.4910143720546
 30
0.0
  0
VERTEX
  5
36C
  8
0
  6
CONTINUOUS
 62
     7
 10
54.64983209252219
 20
150.5056606394995
 30
0.0
  0
SEQEND
  5
902
  8
0
  6
CONTINUOUS
 62
     7
  0
LINE
  5
115
  8
0
  6
CONTINUOUS
 62
     7
 10
105.0
 20
161.25
 30
0.0
 11
105.0
 21
151.25
 31
0.0
  0
LINE
  5
116
  8
0
  6
CONTINUOUS
 62
     7
 10
104.0
 20
161.25
 30
0.0
 11
105.0
 21
161.25
 31
0.0
  0
LINE
  5
117
  8
0
  6
CONTINUOUS
 62
     7
 10
54.99999999999999
 20
161.25
 30
0.0
 11
54.99999999999999
 21
151.25
 31
0.0
  0
LINE
  5
118
  8
0
  6
CONTINUOUS
 62
     7
 10
56.0
 20
161.25
 30
0.0
 11
54.99999999999999
 21
161.25
 31
0.0
  0
LINE
  5
119
  8
0
  6
CONTINUOUS
 62
     7
 10
98.0
 20
156.7587268677908
 30
0.0
 11
97.99127313220924
 21
156.75
 31
0.0
  0
POLYLINE
  5
11A
  8
0
  6
CONTINUOUS
 62
     7
 66
     1
 10
0.0
 20
0.0
 30
0.0
  0
VERTEX
  5
36D
  8
0
  6
CONTINUOUS
 62
     7
 10
108.5003160045376
 20
137.250038024898
 30
0.0
  0
VERTEX
  5
36E
  8
0
  6
CONTINUOUS
 62
     7
 10
108.5133475757263
 20
137.2503062786006
 30
0.0
  0
VERTEX
  5
36F
  8
0
  6
CONTINUOUS
 62
     7
 10
108.5264198836235
 20
137.2509015134532
 30
0.0
  0
VERTEX
  5
370
  8
0
  6
CONTINUOUS
 62
     7
 10
108.5394995922473
 20
137.2518269294723
 30
0.0
  0
VERTEX
  5
371
  8
0
  6
CONTINUOUS
 62
     7
 10
108.5595168803789
 20
137.253893684071
 30
0.0
  0
VERTEX
  5
372
  8
0
  6
CONTINUOUS
 62
     7
 10
108.579480708989
 20
137.2567465844562
 30
0.0
  0
VERTEX
  5
373
  8
0
  6
CONTINUOUS
 62
     7
 10
108.5993317998108
 20
137.2603808298795
 30
0.0
  0
VERTEX
  5
374
  8
0
  6
CONTINUOUS
 62
     7
 10
108.6190108745774
 20
137.2647916195923
 30
0.0
  0
VERTEX
  5
375
  8
0
  6
CONTINUOUS
 62
     7
 10
108.6388748316351
 20
137.2700875698663
 30
0.0
  0
VERTEX
  5
376
  8
0
  6
CONTINUOUS
 62
     7
 10
108.6585083932109
 20
137.2761815453502
 30
0.0
  0
VERTEX
  5
377
  8
0
  6
CONTINUOUS
 62
     7
 10
108.6770956348962
 20
137.2827706179064
 30
0.0
  0
VERTEX
  5
378
  8
0
  6
CONTINUOUS
 62
     7
 10
108.6954109878955
 20
137.2900778597363
 30
0.0
  0
VERTEX
  5
379
  8
0
  6
CONTINUOUS
 62
     7
 10
108.7137032320532
 20
137.2982255458449
 30
0.0
  0
VERTEX
  5
37A
  8
0
  6
CONTINUOUS
 62
     7
 10
108.7316706241976
 20
137.3070996716415
 30
0.0
  0
VERTEX
  5
37B
  8
0
  6
CONTINUOUS
 62
     7
 10
108.7492705097951
 20
137.3166796278247
 30
0.0
  0
VERTEX
  5
37C
  8
0
  6
CONTINUOUS
 62
     7
 10
108.7664602343122
 20
137.3269448050929
 30
0.0
  0
VERTEX
  5
37D
  8
0
  6
CONTINUOUS
 62
     7
 10
108.7835004867199
 20
137.3380769294889
 30
0.0
  0
VERTEX
  5
37E
  8
0
  6
CONTINUOUS
 62
     7
 10
108.8000740278224
 20
137.3498921263833
 30
0.0
  0
VERTEX
  5
37F
  8
0
  6
CONTINUOUS
 62
     7
 10
108.8165019471453
 20
137.3626557615476
 30
0.0
  0
VERTEX
  5
380
  8
0
  6
CONTINUOUS
 62
     7
 10
108.8323839256315
 20
137.3760928645341
 30
0.0
  0
VERTEX
  5
381
  8
0
  6
CONTINUOUS
 62
     7
 10
108.847796979247
 20
137.3902833689864
 30
0.0
  0
VERTEX
  5
382
  8
0
  6
CONTINUOUS
 62
     7
 10
108.8625996420567
 20
137.4051102275715
 30
0.0
  0
VERTEX
  5
383
  8
0
  6
CONTINUOUS
 62
     7
 10
108.8770715406614
 20
137.420898335291
 30
0.0
  0
VERTEX
  5
384
  8
0
  6
CONTINUOUS
 62
     7
 10
108.8908497134106
 20
137.437296393175
 30
0.0
  0
VERTEX
  5
385
  8
0
  6
CONTINUOUS
 62
     7
 10
108.9040030266639
 20
137.4544058027137
 30
0.0
  0
VERTEX
  5
386
  8
0
  6
CONTINUOUS
 62
     7
 10
108.9163995170801
 20
137.4720723848563
 30
0.0
  0
VERTEX
  5
387
  8
0
  6
CONTINUOUS
 62
     7
 10
108.9274974295779
 20
137.4894158352178
 30
0.0
  0
VERTEX
  5
388
  8
0
  6
CONTINUOUS
 62
     7
 10
108.9378646471365
 20
137.5072066408638
 30
0.0
  0
VERTEX
  5
389
  8
0
  6
CONTINUOUS
 62
     7
 10
108.947547103968
 20
137.5255442610193
 30
0.0
  0
VERTEX
  5
38A
  8
0
  6
CONTINUOUS
 62
     7
 10
108.9564523739024
 20
137.5442723659988
 30
0.0
  0
VERTEX
  5
38B
  8
0
  6
CONTINUOUS
 62
     7
 10
108.9647341111345
 20
137.5637843918818
 30
0.0
  0
VERTEX
  5
38C
  8
0
  6
CONTINUOUS
 62
     7
 10
108.9721717694861
 20
137.5836339556995
 30
0.0
  0
VERTEX
  5
38D
  8
0
  6
CONTINUOUS
 62
     7
 10
108.9787968393716
 20
137.6039368214717
 30
0.0
  0
VERTEX
  5
38E
  8
0
  6
CONTINUOUS
 62
     7
 10
108.9845388799992
 20
137.6245068958801
 30
0.0
  0
VERTEX
  5
38F
  8
0
  6
CONTINUOUS
 62
     7
 10
108.9880373400347
 20
137.6390915823993
 30
0.0
  0
VERTEX
  5
390
  8
0
  6
CONTINUOUS
 62
     7
 10
108.9910919113791
 20
137.6537754508369
 30
0.0
  0
VERTEX
  5
391
  8
0
  6
CONTINUOUS
 62
     7
 10
108.9944964743063
 20
137.6736690488933
 30
0.0
  0
VERTEX
  5
392
  8
0
  6
CONTINUOUS
 62
     7
 10
108.9970887183722
 20
137.693692448197
 30
0.0
  0
VERTEX
  5
393
  8
0
  6
CONTINUOUS
 62
     7
 10
108.9988628599992
 20
137.7137953007724
 30
0.0
  0
VERTEX
  5
394
  8
0
  6
CONTINUOUS
 62
     7
 10
108.9996604388082
 20
137.7290561310632
 30
0.0
  0
VERTEX
  5
395
  8
0
  6
CONTINUOUS
 62
     7
 10
108.9999877368719
 20
137.7443333669797
 30
0.0
  0
SEQEND
  5
903
  8
0
  6
CONTINUOUS
 62
     7
  0
LINE
  5
11B
  8
0
  6
CONTINUOUS
 62
     7
 10
108.4911537913282
 20
137.25
 30
0.0
 11
108.5003160045376
 21
137.250038024898
 31
0.0
  0
LINE
  5
11C
  8
0
  6
CONTINUOUS
 62
     7
 10
109.0000000000001
 20
137.7484023535344
 30
0.0
 11
109.0000000000001
 21
149.75
 31
0.0
  0
LINE
  5
11D
  8
0
  6
CONTINUOUS
 62
     7
 10
109.0000000000001
 20
137.7484023535344
 30
0.0
 11
108.9999877368719
 21
137.7443333669797
 31
0.0
  0
LINE
  5
11E
  8
0
  6
CONTINUOUS
 62
     7
 10
62.0
 20
156.7587268677908
 30
0.0
 11
62.00872686779076
 21
156.75
 31
0.0
  0
LINE
  5
11F
  8
0
  6
CONTINUOUS
 62
     7
 10
51.50884620867178
 20
137.25
 30
0.0
 11
51.49968399546238
 21
137.250038024898
 31
0.0
  0
POLYLINE
  5
120
  8
0
  6
CONTINUOUS
 62
     7
 66
     1
 10
0.0
 20
0.0
 30
0.0
  0
VERTEX
  5
396
  8
0
  6
CONTINUOUS
 62
     7
 10
51.49968399546244
 20
137.250038024898
 30
0.0
  0
VERTEX
  5
397
  8
0
  6
CONTINUOUS
 62
     7
 10
51.48665242427369
 20
137.2503062786006
 30
0.0
  0
VERTEX
  5
398
  8
0
  6
CONTINUOUS
 62
     7
 10
51.47358011637647
 20
137.2509015134532
 30
0.0
  0
VERTEX
  5
399
  8
0
  6
CONTINUOUS
 62
     7
 10
51.46050040775272
 20
137.2518269294723
 30
0.0
  0
VERTEX
  5
39A
  8
0
  6
CONTINUOUS
 62
     7
 10
51.44048311962113
 20
137.253893684071
 30
0.0
  0
VERTEX
  5
39B
  8
0
  6
CONTINUOUS
 62
     7
 10
51.42051929101102
 20
137.2567465844562
 30
0.0
  0
VERTEX
  5
39C
  8
0
  6
CONTINUOUS
 62
     7
 10
51.40066820018924
 20
137.2603808298795
 30
0.0
  0
VERTEX
  5
39D
  8
0
  6
CONTINUOUS
 62
     7
 10
51.38098912542264
 20
137.2647916195923
 30
0.0
  0
VERTEX
  5
39E
  8
0
  6
CONTINUOUS
 62
     7
 10
51.36112516836489
 20
137.2700875698663
 30
0.0
  0
VERTEX
  5
39F
  8
0
  6
CONTINUOUS
 62
     7
 10
51.34149160678913
 20
137.2761815453503
 30
0.0
  0
VERTEX
  5
3A0
  8
0
  6
CONTINUOUS
 62
     7
 10
51.32290436510384
 20
137.2827706179064
 30
0.0
  0
VERTEX
  5
3A1
  8
0
  6
CONTINUOUS
 62
     7
 10
51.30458901210449
 20
137.2900778597363
 30
0.0
  0
VERTEX
  5
3A2
  8
0
  6
CONTINUOUS
 62
     7
 10
51.28629676794681
 20
137.2982255458449
 30
0.0
  0
VERTEX
  5
3A3
  8
0
  6
CONTINUOUS
 62
     7
 10
51.26832937580242
 20
137.3070996716415
 30
0.0
  0
VERTEX
  5
3A4
  8
0
  6
CONTINUOUS
 62
     7
 10
51.25072949020488
 20
137.3166796278247
 30
0.0
  0
VERTEX
  5
3A5
  8
0
  6
CONTINUOUS
 62
     7
 10
51.23353976568779
 20
137.3269448050929
 30
0.0
  0
VERTEX
  5
3A6
  8
0
  6
CONTINUOUS
 62
     7
 10
51.21649951328015
 20
137.3380769294889
 30
0.0
  0
VERTEX
  5
3A7
  8
0
  6
CONTINUOUS
 62
     7
 10
51.19992597217761
 20
137.3498921263834
 30
0.0
  0
VERTEX
  5
3A8
  8
0
  6
CONTINUOUS
 62
     7
 10
51.18349805285476
 20
137.3626557615476
 30
0.0
  0
VERTEX
  5
3A9
  8
0
  6
CONTINUOUS
 62
     7
 10
51.16761607436854
 20
137.3760928645341
 30
0.0
  0
VERTEX
  5
3AA
  8
0
  6
CONTINUOUS
 62
     7
 10
51.15220302075305
 20
137.3902833689864
 30
0.0
  0
VERTEX
  5
3AB
  8
0
  6
CONTINUOUS
 62
     7
 10
51.13740035794332
 20
137.4051102275715
 30
0.0
  0
VERTEX
  5
3AC
  8
0
  6
CONTINUOUS
 62
     7
 10
51.1229284593386
 20
137.420898335291
 30
0.0
  0
VERTEX
  5
3AD
  8
0
  6
CONTINUOUS
 62
     7
 10
51.10915028658945
 20
137.437296393175
 30
0.0
  0
VERTEX
  5
3AE
  8
0
  6
CONTINUOUS
 62
     7
 10
51.09599697333613
 20
137.4544058027137
 30
0.0
  0
VERTEX
  5
3AF
  8
0
  6
CONTINUOUS
 62
     7
 10
51.08360048291993
 20
137.4720723848563
 30
0.0
  0
VERTEX
  5
3B0
  8
0
  6
CONTINUOUS
 62
     7
 10
51.07250257042212
 20
137.4894158352178
 30
0.0
  0
VERTEX
  5
3B1
  8
0
  6
CONTINUOUS
 62
     7
 10
51.0621353528635
 20
137.5072066408638
 30
0.0
  0
VERTEX
  5
3B2
  8
0
  6
CONTINUOUS
 62
     7
 10
51.05245289603205
 20
137.5255442610193
 30
0.0
  0
VERTEX
  5
3B3
  8
0
  6
CONTINUOUS
 62
     7
 10
51.04354762609758
 20
137.5442723659988
 30
0.0
  0
VERTEX
  5
3B4
  8
0
  6
CONTINUOUS
 62
     7
 10
51.03526588886545
 20
137.5637843918818
 30
0.0
  0
VERTEX
  5
3B5
  8
0
  6
CONTINUOUS
 62
     7
 10
51.02782823051388
 20
137.5836339556995
 30
0.0
  0
VERTEX
  5
3B6
  8
0
  6
CONTINUOUS
 62
     7
 10
51.02120316062841
 20
137.6039368214717
 30
0.0
  0
VERTEX
  5
3B7
  8
0
  6
CONTINUOUS
 62
     7
 10
51.01546112000079
 20
137.6245068958801
 30
0.0
  0
VERTEX
  5
3B8
  8
0
  6
CONTINUOUS
 62
     7
 10
51.0119626599653
 20
137.6390915823993
 30
0.0
  0
VERTEX
  5
3B9
  8
0
  6
CONTINUOUS
 62
     7
 10
51.00890808862087
 20
137.653775450837
 30
0.0
  0
VERTEX
  5
3BA
  8
0
  6
CONTINUOUS
 62
     7
 10
51.00550352569368
 20
137.6736690488933
 30
0.0
  0
VERTEX
  5
3BB
  8
0
  6
CONTINUOUS
 62
     7
 10
51.00291128162781
 20
137.693692448197
 30
0.0
  0
VERTEX
  5
3BC
  8
0
  6
CONTINUOUS
 62
     7
 10
51.00113714000086
 20
137.7137953007724
 30
0.0
  0
VERTEX
  5
3BD
  8
0
  6
CONTINUOUS
 62
     7
 10
51.00033956119181
 20
137.7290561310632
 30
0.0
  0
VERTEX
  5
3BE
  8
0
  6
CONTINUOUS
 62
     7
 10
51.00001226312812
 20
137.7443333669797
 30
0.0
  0
SEQEND
  5
904
  8
0
  6
CONTINUOUS
 62
     7
  0
LINE
  5
121
  8
0
  6
CONTINUOUS
 62
     7
 10
50.99999999999995
 20
137.7484023535344
 30
0.0
 11
51.00001226312812
 21
137.7443333669797
 31
0.0
  0
LINE
  5
122
  8
0
  6
CONTINUOUS
 62
     7
 10
50.99999999999996
 20
137.7484023535344
 30
0.0
 11
50.99999999999996
 21
149.75
 31
0.0
  0
POLYLINE
  5
123
  8
0
  6
CONTINUOUS
 62
     7
 66
     1
 10
0.0
 20
0.0
 30
0.0
  0
VERTEX
  5
3BF
  8
0
  6
CONTINUOUS
 62
     7
 10
99.00000000000003
 20
152.7500380769358
 30
0.0
  0
VERTEX
  5
3C0
  8
0
  6
CONTINUOUS
 62
     7
 10
98.98078640583908
 20
152.9451250274379
 30
0.0
  0
VERTEX
  5
3C1
  8
0
  6
CONTINUOUS
 62
     7
 10
98.92388391964431
 20
153.1327126940797
 30
0.0
  0
VERTEX
  5
3C2
  8
0
  6
CONTINUOUS
 62
     7
 10
98.83147906070957
 20
153.3055928847446
 30
0.0
  0
VERTEX
  5
3C3
  8
0
  6
CONTINUOUS
 62
     7
 10
98.70712255274518
 20
153.4571225527451
 30
0.0
  0
VERTEX
  5
3C4
  8
0
  6
CONTINUOUS
 62
     7
 10
98.55559288474456
 20
153.5814790607096
 30
0.0
  0
VERTEX
  5
3C5
  8
0
  6
CONTINUOUS
 62
     7
 10
98.38271269407971
 20
153.6738839196443
 30
0.0
  0
VERTEX
  5
3C6
  8
0
  6
CONTINUOUS
 62
     7
 10
98.19512502743795
 20
153.7307864058391
 30
0.0
  0
VERTEX
  5
3C7
  8
0
  6
CONTINUOUS
 62
     7
 10
98.00003807693585
 20
153.75
 30
0.0
  0
SEQEND
  5
905
  8
0
  6
CONTINUOUS
 62
     7
  0
POLYLINE
  5
124
  8
0
  6
CONTINUOUS
 62
     7
 66
     1
 10
0.0
 20
0.0
 30
0.0
  0
VERTEX
  5
3C8
  8
0
  6
CONTINUOUS
 62
     7
 10
98.00003807693585
 20
151.75
 30
0.0
  0
VERTEX
  5
3C9
  8
0
  6
CONTINUOUS
 62
     7
 10
98.19512502743797
 20
151.769213594161
 30
0.0
  0
VERTEX
  5
3CA
  8
0
  6
CONTINUOUS
 62
     7
 10
98.38271269407973
 20
151.8261160803557
 30
0.0
  0
VERTEX
  5
3CB
  8
0
  6
CONTINUOUS
 62
     7
 10
98.55559288474457
 20
151.9185209392905
 30
0.0
  0
VERTEX
  5
3CC
  8
0
  6
CONTINUOUS
 62
     7
 10
98.70712255274518
 20
152.0428774472549
 30
0.0
  0
VERTEX
  5
3CD
  8
0
  6
CONTINUOUS
 62
     7
 10
98.83147906070958
 20
152.1944071152555
 30
0.0
  0
VERTEX
  5
3CE
  8
0
  6
CONTINUOUS
 62
     7
 10
98.92388391964433
 20
152.3672873059203
 30
0.0
  0
VERTEX
  5
3CF
  8
0
  6
CONTINUOUS
 62
     7
 10
98.9807864058391
 20
152.5548749725621
 30
0.0
  0
VERTEX
  5
3D0
  8
0
  6
CONTINUOUS
 62
     7
 10
99.00000000000003
 20
152.7499619230642
 30
0.0
  0
SEQEND
  5
906
  8
0
  6
CONTINUOUS
 62
     7
  0
LINE
  5
125
  8
0
  6
CONTINUOUS
 62
     7
 10
98.00003807693582
 20
151.75
 30
0.0
 11
96.99996192306419
 21
151.75
 31
0.0
  0
LINE
  5
126
  8
0
  6
CONTINUOUS
 62
     7
 10
97.99127313220924
 20
153.75
 30
0.0
 11
98.00003807693584
 21
153.75
 31
0.0
  0
LINE
  5
127
  8
0
  6
CONTINUOUS
 62
     7
 10
96.0
 20
152.7499619230642
 30
0.0
 11
95.99999999999997
 21
156.75
 31
0.0
  0
POLYLINE
  5
128
  8
0
  6
CONTINUOUS
 62
     7
 66
     1
 10
0.0
 20
0.0
 30
0.0
  0
VERTEX
  5
3D1
  8
0
  6
CONTINUOUS
 62
     7
 10
96.0
 20
152.7499619230642
 30
0.0
  0
VERTEX
  5
3D2
  8
0
  6
CONTINUOUS
 62
     7
 10
96.01921359416095
 20
152.5548749725621
 30
0.0
  0
VERTEX
  5
3D3
  8
0
  6
CONTINUOUS
 62
     7
 10
96.0761160803557
 20
152.3672873059203
 30
0.0
  0
VERTEX
  5
3D4
  8
0
  6
CONTINUOUS
 62
     7
 10
96.16852093929045
 20
152.1944071152555
 30
0.0
  0
VERTEX
  5
3D5
  8
0
  6
CONTINUOUS
 62
     7
 10
96.29287744725485
 20
152.0428774472549
 30
0.0
  0
VERTEX
  5
3D6
  8
0
  6
CONTINUOUS
 62
     7
 10
96.44440711525546
 20
151.9185209392905
 30
0.0
  0
VERTEX
  5
3D7
  8
0
  6
CONTINUOUS
 62
     7
 10
96.6172873059203
 20
151.8261160803557
 30
0.0
  0
VERTEX
  5
3D8
  8
0
  6
CONTINUOUS
 62
     7
 10
96.80487497256208
 20
151.769213594161
 30
0.0
  0
VERTEX
  5
3D9
  8
0
  6
CONTINUOUS
 62
     7
 10
96.99996192306419
 20
151.75
 30
0.0
  0
SEQEND
  5
907
  8
0
  6
CONTINUOUS
 62
     7
  0
LINE
  5
129
  8
0
  6
CONTINUOUS
 62
     7
 10
97.99127313220924
 20
156.75
 30
0.0
 11
97.99127313220924
 21
153.75
 31
0.0
  0
POLYLINE
  5
12A
  8
0
  6
CONTINUOUS
 62
     7
 66
     1
 10
0.0
 20
0.0
 30
0.0
  0
VERTEX
  5
3DA
  8
0
  6
CONTINUOUS
 62
     7
 10
60.99999999999998
 20
152.7499619230642
 30
0.0
  0
VERTEX
  5
3DB
  8
0
  6
CONTINUOUS
 62
     7
 10
61.01921359416091
 20
152.5548749725621
 30
0.0
  0
VERTEX
  5
3DC
  8
0
  6
CONTINUOUS
 62
     7
 10
61.07611608035568
 20
152.3672873059203
 30
0.0
  0
VERTEX
  5
3DD
  8
0
  6
CONTINUOUS
 62
     7
 10
61.16852093929042
 20
152.1944071152555
 30
0.0
  0
VERTEX
  5
3DE
  8
0
  6
CONTINUOUS
 62
     7
 10
61.29287744725482
 20
152.0428774472549
 30
0.0
  0
VERTEX
  5
3DF
  8
0
  6
CONTINUOUS
 62
     7
 10
61.44440711525544
 20
151.9185209392905
 30
0.0
  0
VERTEX
  5
3E0
  8
0
  6
CONTINUOUS
 62
     7
 10
61.61728730592028
 20
151.8261160803557
 30
0.0
  0
VERTEX
  5
3E1
  8
0
  6
CONTINUOUS
 62
     7
 10
61.80487497256204
 20
151.769213594161
 30
0.0
  0
VERTEX
  5
3E2
  8
0
  6
CONTINUOUS
 62
     7
 10
61.99996192306416
 20
151.75
 30
0.0
  0
SEQEND
  5
908
  8
0
  6
CONTINUOUS
 62
     7
  0
POLYLINE
  5
12B
  8
0
  6
CONTINUOUS
 62
     7
 66
     1
 10
0.0
 20
0.0
 30
0.0
  0
VERTEX
  5
3E3
  8
0
  6
CONTINUOUS
 62
     7
 10
61.99996192306416
 20
153.75
 30
0.0
  0
VERTEX
  5
3E4
  8
0
  6
CONTINUOUS
 62
     7
 10
61.80487497256205
 20
153.7307864058391
 30
0.0
  0
VERTEX
  5
3E5
  8
0
  6
CONTINUOUS
 62
     7
 10
61.61728730592029
 20
153.6738839196443
 30
0.0
  0
VERTEX
  5
3E6
  8
0
  6
CONTINUOUS
 62
     7
 10
61.44440711525545
 20
153.5814790607096
 30
0.0
  0
VERTEX
  5
3E7
  8
0
  6
CONTINUOUS
 62
     7
 10
61.29287744725484
 20
153.4571225527451
 30
0.0
  0
VERTEX
  5
3E8
  8
0
  6
CONTINUOUS
 62
     7
 10
61.16852093929044
 20
153.3055928847446
 30
0.0
  0
VERTEX
  5
3E9
  8
0
  6
CONTINUOUS
 62
     7
 10
61.0761160803557
 20
153.1327126940797
 30
0.0
  0
VERTEX
  5
3EA
  8
0
  6
CONTINUOUS
 62
     7
 10
61.01921359416093
 20
152.9451250274379
 30
0.0
  0
VERTEX
  5
3EB
  8
0
  6
CONTINUOUS
 62
     7
 10
60.99999999999999
 20
152.7500380769358
 30
0.0
  0
SEQEND
  5
909
  8
0
  6
CONTINUOUS
 62
     7
  0
LINE
  5
12C
  8
0
  6
CONTINUOUS
 62
     7
 10
62.00872686779076
 20
153.75
 30
0.0
 11
61.99996192306416
 21
153.75
 31
0.0
  0
LINE
  5
12D
  8
0
  6
CONTINUOUS
 62
     7
 10
63.99999999999999
 20
152.7499619230642
 30
0.0
 11
64.00000000000001
 21
156.75
 31
0.0
  0
POLYLINE
  5
12E
  8
0
  6
CONTINUOUS
 62
     7
 66
     1
 10
0.0
 20
0.0
 30
0.0
  0
VERTEX
  5
3EC
  8
0
  6
CONTINUOUS
 62
     7
 10
63.00003807693581
 20
151.7500000000001
 30
0.0
  0
VERTEX
  5
3ED
  8
0
  6
CONTINUOUS
 62
     7
 10
63.19512502743792
 20
151.769213594161
 30
0.0
  0
VERTEX
  5
3EE
  8
0
  6
CONTINUOUS
 62
     7
 10
63.38271269407968
 20
151.8261160803557
 30
0.0
  0
VERTEX
  5
3EF
  8
0
  6
CONTINUOUS
 62
     7
 10
63.55559288474452
 20
151.9185209392905
 30
0.0
  0
VERTEX
  5
3F0
  8
0
  6
CONTINUOUS
 62
     7
 10
63.70712255274513
 20
152.0428774472549
 30
0.0
  0
VERTEX
  5
3F1
  8
0
  6
CONTINUOUS
 62
     7
 10
63.83147906070953
 20
152.1944071152555
 30
0.0
  0
VERTEX
  5
3F2
  8
0
  6
CONTINUOUS
 62
     7
 10
63.92388391964428
 20
152.3672873059203
 30
0.0
  0
VERTEX
  5
3F3
  8
0
  6
CONTINUOUS
 62
     7
 10
63.98078640583905
 20
152.5548749725621
 30
0.0
  0
VERTEX
  5
3F4
  8
0
  6
CONTINUOUS
 62
     7
 10
63.99999999999998
 20
152.7499619230642
 30
0.0
  0
SEQEND
  5
90A
  8
0
  6
CONTINUOUS
 62
     7
  0
LINE
  5
12F
  8
0
  6
CONTINUOUS
 62
     7
 10
61.99996192306416
 20
151.75
 30
0.0
 11
63.00003807693581
 21
151.75
 31
0.0
  0
LINE
  5
130
  8
0
  6
CONTINUOUS
 62
     7
 10
62.00872686779076
 20
156.75
 30
0.0
 11
62.00872686779076
 21
153.75
 31
0.0
  0
LINE
  5
131
  8
0
  6
CONTINUOUS
 62
     7
 10
105.2232540399146
 20
140.9557840309383
 30
0.0
 11
105.2882937810426
 21
148.4086001715549
 31
0.0
  0
LINE
  5
132
  8
0
  6
CONTINUOUS
 62
     7
 10
54.77674596008537
 20
140.9557840309383
 30
0.0
 11
54.71170621895737
 21
148.4086001715549
 31
0.0
  0
ARC
  5
133
  8
0
  6
CONTINUOUS
 62
     7
 10
104.7232730783825
 20
140.9601472986875
 30
0.0
 40
0.5000000000000003
 50
314.7500000000001
 51
359.4999999999995
  0
LINE
  5
134
  8
0
  6
CONTINUOUS
 62
     7
 10
104.5709363774691
 20
140.1050926870867
 30
0.0
 11
105.0752804406105
 21
140.6050546108758
 31
0.0
  0
LINE
  5
135
  8
0
  6
CONTINUOUS
 62
     7
 10
55.42906362253088
 20
140.1050926870868
 30
0.0
 11
54.92471955938947
 21
140.6050546108759
 31
0.0
  0
ARC
  5
136
  8
0
  6
CONTINUOUS
 62
     7
 10
55.27672692161745
 20
140.9601472986875
 30
0.0
 40
0.5000000000000003
 50
180.5000000000009
 51
225.2499999999999
  0
LINE
  5
137
  8
0
  6
CONTINUOUS
 62
     7
 10
54.65780283017768
 20
136.75
 30
0.0
 11
54.61700324420353
 21
137.2499375375316
 31
0.0
  0
LINE
  5
138
  8
0
  6
CONTINUOUS
 62
     7
 10
105.3421971698223
 20
136.75
 30
0.0
 11
105.3829967557965
 21
137.2499375375315
 31
0.0
  0
LINE
  5
139
  8
0
  6
CONTINUOUS
 62
     7
 10
102.5571622760948
 20
137.2499440628006
 30
0.0
 11
102.5927891211565
 21
136.9289355618172
 31
0.0
  0
LINE
  5
13A
  8
0
  6
CONTINUOUS
 62
     7
 10
57.44283772390521
 20
137.2499440628006
 30
0.0
 11
57.40721087884344
 21
136.9289355618172
 31
0.0
  0
LINE
  5
13B
  8
0
  6
CONTINUOUS
 62
     7
 10
102.5636452816697
 20
136.75
 30
0.0
 11
105.3421971698223
 21
136.75
 31
0.0
  0
LINE
  5
13C
  8
0
  6
CONTINUOUS
 62
     7
 10
102.5927891211565
 20
136.9289355618172
 30
0.0
 11
102.5636452816697
 21
136.75
 31
0.0
  0
LINE
  5
13D
  8
0
  6
CONTINUOUS
 62
     7
 10
57.40721087884344
 20
136.9289355618172
 30
0.0
 11
57.43635471833025
 21
136.75
 31
0.0
  0
LINE
  5
13E
  8
0
  6
CONTINUOUS
 62
     7
 10
57.43635471833025
 20
136.75
 30
0.0
 11
54.65780283017768
 21
136.75
 31
0.0
  0
LINE
  5
13F
  8
0
  6
CONTINUOUS
 62
     7
 10
101.5490421932687
 20
136.75
 30
0.0
 11
102.5636452816697
 21
136.75
 31
0.0
  0
LINE
  5
140
  8
0
  6
CONTINUOUS
 62
     7
 10
58.45095780673132
 20
136.75
 30
0.0
 11
57.43635471833025
 21
136.75
 31
0.0
  0
LINE
  5
141
  8
0
  6
CONTINUOUS
 62
     7
 10
59.7458589947401
 20
136.75
 30
0.0
 11
58.48970962604071
 21
136.75
 31
0.0
  0
LINE
  5
142
  8
0
  6
CONTINUOUS
 62
     7
 10
58.48970962604071
 20
136.75
 30
0.0
 11
58.45095780673132
 21
136.75
 31
0.0
  0
LINE
  5
143
  8
0
  6
CONTINUOUS
 62
     7
 10
100.2541410052599
 20
136.75
 30
0.0
 11
101.5102903739593
 21
136.75
 31
0.0
  0
LINE
  5
144
  8
0
  6
CONTINUOUS
 62
     7
 10
101.5102903739593
 20
136.75
 30
0.0
 11
101.5490421932687
 21
136.75
 31
0.0
  0
LINE
  5
145
  8
0
  6
CONTINUOUS
 62
     7
 10
98.6873723960566
 20
136.75
 30
0.0
 11
99.32290743899148
 21
136.75
 31
0.0
  0
LINE
  5
146
  8
0
  6
CONTINUOUS
 62
     7
 10
61.31262760394338
 20
136.75
 30
0.0
 11
60.67709256100849
 21
136.75
 31
0.0
  0
LINE
  5
147
  8
0
  6
CONTINUOUS
 62
     7
 10
100.2541410052599
 20
136.75
 30
0.0
 11
99.32290743899148
 21
136.75
 31
0.0
  0
LINE
  5
148
  8
0
  6
CONTINUOUS
 62
     7
 10
59.7458589947401
 20
136.75
 30
0.0
 11
60.67709256100849
 21
136.75
 31
0.0
  0
LINE
  5
149
  8
0
  6
CONTINUOUS
 62
     7
 10
61.46178130081175
 20
136.75
 30
0.0
 11
61.31262760394339
 21
136.75
 31
0.0
  0
LINE
  5
14A
  8
0
  6
CONTINUOUS
 62
     7
 10
98.53821869918823
 20
136.75
 30
0.0
 11
98.68737239605659
 21
136.75
 31
0.0
  0
LINE
  5
14B
  8
0
  6
CONTINUOUS
 62
     7
 10
63.4036689861969
 20
136.75
 30
0.0
 11
61.5711988708082
 21
136.75
 31
0.0
  0
LINE
  5
14C
  8
0
  6
CONTINUOUS
 62
     7
 10
96.59633101380308
 20
136.75
 30
0.0
 11
98.42880112919178
 21
136.75
 31
0.0
  0
LINE
  5
14D
  8
0
  6
CONTINUOUS
 62
     7
 10
96.02662125034306
 20
136.75
 30
0.0
 11
96.59633101380308
 21
136.75
 31
0.0
  0
LINE
  5
14E
  8
0
  6
CONTINUOUS
 62
     7
 10
63.97337874965692
 20
136.75
 30
0.0
 11
63.4036689861969
 21
136.75
 31
0.0
  0
LINE
  5
14F
  8
0
  6
CONTINUOUS
 62
     7
 10
95.78571353352521
 20
136.75
 30
0.0
 11
96.02662125034307
 21
136.75
 31
0.0
  0
LINE
  5
150
  8
0
  6
CONTINUOUS
 62
     7
 10
64.21428646647476
 20
136.75
 30
0.0
 11
63.9733787496569
 21
136.75
 31
0.0
  0
LINE
  5
151
  8
0
  6
CONTINUOUS
 62
     7
 10
95.67813170802843
 20
136.75
 30
0.0
 11
95.75151066365264
 21
136.75
 31
0.0
  0
LINE
  5
152
  8
0
  6
CONTINUOUS
 62
     7
 10
95.75151066365264
 20
136.75
 30
0.0
 11
95.78571353352521
 21
136.75
 31
0.0
  0
LINE
  5
153
  8
0
  6
CONTINUOUS
 62
     7
 10
64.32186829197155
 20
136.75
 30
0.0
 11
64.24848933634733
 21
136.75
 31
0.0
  0
LINE
  5
154
  8
0
  6
CONTINUOUS
 62
     7
 10
64.24848933634733
 20
136.75
 30
0.0
 11
64.21428646647477
 21
136.75
 31
0.0
  0
LINE
  5
155
  8
0
  6
CONTINUOUS
 62
     7
 10
67.8995278120563
 20
136.75
 30
0.0
 11
64.39527431595116
 21
136.75
 31
0.0
  0
LINE
  5
156
  8
0
  6
CONTINUOUS
 62
     7
 10
92.10047218794365
 20
136.75
 30
0.0
 11
95.6047256840488
 21
136.75
 31
0.0
  0
LINE
  5
157
  8
0
  6
CONTINUOUS
 62
     7
 10
89.53390987558936
 20
136.75
 30
0.0
 11
90.203900419205
 21
136.75
 31
0.0
  0
LINE
  5
158
  8
0
  6
CONTINUOUS
 62
     7
 10
70.46609012441061
 20
136.75
 30
0.0
 11
69.79609958079497
 21
136.75
 31
0.0
  0
LINE
  5
159
  8
0
  6
CONTINUOUS
 62
     7
 10
89.18549028974789
 20
136.75
 30
0.0
 11
89.53390987558936
 21
136.75
 31
0.0
  0
LINE
  5
15A
  8
0
  6
CONTINUOUS
 62
     7
 10
70.8145097102521
 20
136.75
 30
0.0
 11
70.46609012441061
 21
136.75
 31
0.0
  0
LINE
  5
15B
  8
0
  6
CONTINUOUS
 62
     7
 10
90.69939945030816
 20
136.75
 30
0.0
 11
90.203900419205
 21
136.75
 31
0.0
  0
LINE
  5
15C
  8
0
  6
CONTINUOUS
 62
     7
 10
69.30060054969182
 20
136.75
 30
0.0
 11
69.79609958079497
 21
136.75
 31
0.0
  0
LINE
  5
15D
  8
0
  6
CONTINUOUS
 62
     7
 10
88.91696430802936
 20
136.75
 30
0.0
 11
89.18549028974789
 21
136.75
 31
0.0
  0
LINE
  5
15E
  8
0
  6
CONTINUOUS
 62
     7
 10
71.08303569197061
 20
136.75
 30
0.0
 11
70.8145097102521
 21
136.75
 31
0.0
  0
LINE
  5
15F
  8
0
  6
CONTINUOUS
 62
     7
 10
74.99060782534856
 20
136.75
 30
0.0
 11
71.04614785220677
 21
136.75
 31
0.0
  0
LINE
  5
160
  8
0
  6
CONTINUOUS
 62
     7
 10
85.00939217465141
 20
136.75
 30
0.0
 11
88.9538521477932
 21
136.75
 31
0.0
  0
LINE
  5
161
  8
0
  6
CONTINUOUS
 62
     7
 10
69.30060054969182
 20
136.75
 30
0.0
 11
69.21896163051868
 21
136.75
 31
0.0
  0
LINE
  5
162
  8
0
  6
CONTINUOUS
 62
     7
 10
69.21896163051868
 20
136.75
 30
0.0
 11
67.89952781205633
 21
136.75
 31
0.0
  0
LINE
  5
163
  8
0
  6
CONTINUOUS
 62
     7
 10
90.69939945030816
 20
136.75
 30
0.0
 11
90.78103836948131
 21
136.75
 31
0.0
  0
LINE
  5
164
  8
0
  6
CONTINUOUS
 62
     7
 10
90.78103836948131
 20
136.75
 30
0.0
 11
92.10047218794365
 21
136.75
 31
0.0
  0
LINE
  5
165
  8
0
  6
CONTINUOUS
 62
     7
 10
75.53476888838112
 20
136.75
 30
0.0
 11
74.99060782534856
 21
136.75
 31
0.0
  0
LINE
  5
166
  8
0
  6
CONTINUOUS
 62
     7
 10
84.46523111161885
 20
136.75
 30
0.0
 11
85.00939217465141
 21
136.75
 31
0.0
  0
LINE
  5
167
  8
0
  6
CONTINUOUS
 62
     7
 10
75.91942496672817
 20
136.75
 30
0.0
 11
75.53476888838112
 21
136.75
 31
0.0
  0
LINE
  5
168
  8
0
  6
CONTINUOUS
 62
     7
 10
84.0805750332718
 20
136.75
 30
0.0
 11
84.46523111161885
 21
136.75
 31
0.0
  0
LINE
  5
169
  8
0
  6
CONTINUOUS
 62
     7
 10
83.6842133795697
 20
136.75
 30
0.0
 11
84.08057503327181
 21
136.75
 31
0.0
  0
LINE
  5
16A
  8
0
  6
CONTINUOUS
 62
     7
 10
76.31578662043027
 20
136.75
 30
0.0
 11
75.91942496672817
 21
136.75
 31
0.0
  0
LINE
  5
16B
  8
0
  6
CONTINUOUS
 62
     7
 10
83.01004323588869
 20
136.75
 30
0.0
 11
83.68431004452137
 21
136.75
 31
0.0
  0
LINE
  5
16C
  8
0
  6
CONTINUOUS
 62
     7
 10
76.98995676411128
 20
136.75
 30
0.0
 11
76.3156899554786
 21
136.75
 31
0.0
  0
LINE
  5
16D
  8
0
  6
CONTINUOUS
 62
     7
 10
83.01004323588869
 20
136.75
 30
0.0
 11
76.98995676411128
 21
136.75
 31
0.0
  0
LINE
  5
16E
  8
0
  6
CONTINUOUS
 62
     7
 10
81.50000000000001
 20
149.75
 30
0.0
 11
78.49999999999999
 21
149.75
 31
0.0
  0
LINE
  5
16F
  8
0
  6
CONTINUOUS
 62
     7
 10
54.51190031827241
 20
148.3863585930547
 30
0.0
 11
54.51309030168613
 21
148.25
 31
0.0
  0
LINE
  5
170
  8
0
  6
CONTINUOUS
 62
     7
 10
105.4869096983139
 20
148.25
 30
0.0
 11
105.4880996817276
 21
148.3863585930547
 31
0.0
  0
LINE
  5
171
  8
0
  6
CONTINUOUS
 62
     7
 10
61.50092077220557
 20
136.7499988315232
 30
0.0
 11
61.50619255345349
 21
137.250000624653
 31
0.0
  0
LINE
  5
172
  8
0
  6
CONTINUOUS
 62
     7
 10
98.4938074465465
 20
137.250000624653
 30
0.0
 11
98.49907922779441
 21
136.7499988315232
 31
0.0
  0
LINE
  5
173
  8
0
  6
CONTINUOUS
 62
     7
 10
95.67208205851803
 20
137.2500001141563
 30
0.0
 11
95.67813171981796
 21
136.7499989455236
 31
0.0
  0
LINE
  5
174
  8
0
  6
CONTINUOUS
 62
     7
 10
64.32186828018203
 20
136.7499989455237
 30
0.0
 11
64.32791794148196
 21
137.2500001141563
 31
0.0
  0
LINE
  5
175
  8
0
  6
CONTINUOUS
 62
     7
 10
88.91008437442827
 20
137.4543121821342
 30
0.0
 11
88.91696484776185
 21
136.7499993100756
 31
0.0
  0
LINE
  5
176
  8
0
  6
CONTINUOUS
 62
     7
 10
71.08303515223814
 20
136.7499993100756
 30
0.0
 11
71.08991877958067
 21
137.4546348615748
 31
0.0
  0
LINE
  5
177
  8
0
  6
CONTINUOUS
 62
     7
 10
83.67620031217713
 20
137.5462646849473
 30
0.0
 11
83.6842132808452
 21
136.7499988280971
 31
0.0
  0
LINE
  5
178
  8
0
  6
CONTINUOUS
 62
     7
 10
76.31578671915477
 20
136.7499988280971
 30
0.0
 11
76.32380012284789
 21
137.5463079132868
 31
0.0
  0
ENDBLK
  8
0
  0
BLOCK
  8
0
  2
D_FRAME_VIEW_5485
 70
     0
 10
0.0
 20
0.0
 30
0.0
  0
ARC
  5
17E
  8
0
  6
CONTINUOUS
 62
     7
 10
79.99999999999996
 20
210.0
 30
0.0
 40
19.99999999999999
 50
237.6082105041341
 51
302.3917894958661
  0
LINE
  5
17F
  8
0
  6
CONTINUOUS
 62
     7
 10
69.28588405985735
 20
193.1119059802126
 30
0.0
 11
69.25
 21
189.0
 31
0.0
  0
LINE
  5
180
  8
0
  6
CONTINUOUS
 62
     7
 10
90.71411594014269
 20
193.1119059802126
 30
0.0
 11
90.75000000000004
 21
189.0
 31
0.0
  0
POLYLINE
  5
181
  8
0
  6
CONTINUOUS
 62
     7
 66
     1
 10
0.0
 20
0.0
 30
0.0
  0
VERTEX
  5
3F7
  8
0
  6
CONTINUOUS
 62
     7
 10
90.71505445117623
 20
184.9956367322508
 30
0.0
  0
VERTEX
  5
3F8
  8
0
  6
CONTINUOUS
 62
     7
 10
90.714245967024
 20
184.9712452121126
 30
0.0
  0
VERTEX
  5
3F9
  8
0
  6
CONTINUOUS
 62
     7
 10
90.71224825455879
 20
184.9469221973698
 30
0.0
  0
VERTEX
  5
3FA
  8
0
  6
CONTINUOUS
 62
     7
 10
90.70906607312997
 20
184.9227256351629
 30
0.0
  0
VERTEX
  5
3FB
  8
0
  6
CONTINUOUS
 62
     7
 10
90.70470700396537
 20
184.8987131713723
 30
0.0
  0
VERTEX
  5
3FC
  8
0
  6
CONTINUOUS
 62
     7
 10
90.69918143210957
 20
184.8749420132823
 30
0.0
  0
VERTEX
  5
3FD
  8
0
  6
CONTINUOUS
 62
     7
 10
90.69250252168283
 20
184.8514687932904
 30
0.0
  0
VERTEX
  5
3FE
  8
0
  6
CONTINUOUS
 62
     7
 10
90.6846861845187
 20
184.8283494339868
 30
0.0
  0
VERTEX
  5
3FF
  8
0
  6
CONTINUOUS
 62
     7
 10
90.67575104225573
 20
184.8056390149238
 30
0.0
  0
VERTEX
  5
400
  8
0
  6
CONTINUOUS
 62
     7
 10
90.66571838197335
 20
184.7833916413949
 30
0.0
  0
VERTEX
  5
401
  8
0
  6
CONTINUOUS
 62
     7
 10
90.65461210547744
 20
184.761660315534
 30
0.0
  0
VERTEX
  5
402
  8
0
  6
CONTINUOUS
 62
     7
 10
90.64245867235675
 20
184.7404968100433
 30
0.0
  0
VERTEX
  5
403
  8
0
  6
CONTINUOUS
 62
     7
 10
90.62928703694553
 20
184.7199515448499
 30
0.0
  0
VERTEX
  5
404
  8
0
  6
CONTINUOUS
 62
     7
 10
90.61512857934281
 20
184.7000734669853
 30
0.0
  0
VERTEX
  5
405
  8
0
  6
CONTINUOUS
 62
     7
 10
90.60001703065235
 20
184.6809099339746
 30
0.0
  0
VERTEX
  5
406
  8
0
  6
CONTINUOUS
 62
     7
 10
90.58398839262182
 20
184.6625066010113
 30
0.0
  0
VERTEX
  5
407
  8
0
  6
CONTINUOUS
 62
     7
 10
90.56708085187212
 20
184.6449073121884
 30
0.0
  0
VERTEX
  5
408
  8
0
  6
CONTINUOUS
 62
     7
 10
90.54933468892165
 20
184.6281539960447
 30
0.0
  0
VERTEX
  5
409
  8
0
  6
CONTINUOUS
 62
     7
 10
90.53079218222202
 20
184.6122865656739
 30
0.0
  0
VERTEX
  5
40A
  8
0
  6
CONTINUOUS
 62
     7
 10
90.51149750743387
 20
184.597342823636
 30
0.0
  0
VERTEX
  5
40B
  8
0
  6
CONTINUOUS
 62
     7
 10
90.4914966321828
 20
184.5833583718961
 30
0.0
  0
VERTEX
  5
40C
  8
0
  6
CONTINUOUS
 62
     7
 10
90.4708372065461
 20
184.5703665270065
 30
0.0
  0
VERTEX
  5
40D
  8
0
  6
CONTINUOUS
 62
     7
 10
90.44956844953126
 20
184.5583982407332
 30
0.0
  0
VERTEX
  5
40E
  8
0
  6
CONTINUOUS
 62
     7
 10
90.42774103181658
 20
184.5474820263168
 30
0.0
  0
VERTEX
  5
40F
  8
0
  6
CONTINUOUS
 62
     7
 10
90.4054069550334
 20
184.5376438905423
 30
0.0
  0
VERTEX
  5
410
  8
0
  6
CONTINUOUS
 62
     7
 10
90.38261942787746
 20
184.5289072717802
 30
0.0
  0
VERTEX
  5
411
  8
0
  6
CONTINUOUS
 62
     7
 10
90.35943273934443
 20
184.5212929841479
 30
0.0
  0
VERTEX
  5
412
  8
0
  6
CONTINUOUS
 62
     7
 10
90.33590212939191
 20
184.5148191679212
 30
0.0
  0
VERTEX
  5
413
  8
0
  6
CONTINUOUS
 62
     7
 10
90.31208365733578
 20
184.5095012463171
 30
0.0
  0
VERTEX
  5
414
  8
0
  6
CONTINUOUS
 62
     7
 10
90.28803406829445
 20
184.5053518887502
 30
0.0
  0
VERTEX
  5
415
  8
0
  6
CONTINUOUS
 62
     7
 10
90.26381065799934
 20
184.5023809806481
 30
0.0
  0
VERTEX
  5
416
  8
0
  6
CONTINUOUS
 62
     7
 10
90.23947113629362
 20
184.5005955999013
 30
0.0
  0
VERTEX
  5
417
  8
0
  6
CONTINUOUS
 62
     7
 10
90.21507348964414
 20
184.5
 30
0.0
  0
SEQEND
  5
90B
  8
0
  6
CONTINUOUS
 62
     7
  0
LINE
  5
182
  8
0
  6
CONTINUOUS
 62
     7
 10
69.7849265103559
 20
184.5
 30
0.0
 11
90.21507348964414
 21
184.5
 31
0.0
  0
POLYLINE
  5
183
  8
0
  6
CONTINUOUS
 62
     7
 66
     1
 10
0.0
 20
0.0
 30
0.0
  0
VERTEX
  5
418
  8
0
  6
CONTINUOUS
 62
     7
 10
69.28494554882381
 20
184.9956367322508
 30
0.0
  0
VERTEX
  5
419
  8
0
  6
CONTINUOUS
 62
     7
 10
69.28575403297604
 20
184.9712452121126
 30
0.0
  0
VERTEX
  5
41A
  8
0
  6
CONTINUOUS
 62
     7
 10
69.28775174544124
 20
184.9469221973698
 30
0.0
  0
VERTEX
  5
41B
  8
0
  6
CONTINUOUS
 62
     7
 10
69.29093392687005
 20
184.9227256351629
 30
0.0
  0
VERTEX
  5
41C
  8
0
  6
CONTINUOUS
 62
     7
 10
69.29529299603468
 20
184.8987131713723
 30
0.0
  0
VERTEX
  5
41D
  8
0
  6
CONTINUOUS
 62
     7
 10
69.30081856789047
 20
184.8749420132823
 30
0.0
  0
VERTEX
  5
41E
  8
0
  6
CONTINUOUS
 62
     7
 10
69.30749747831722
 20
184.8514687932905
 30
0.0
  0
VERTEX
  5
41F
  8
0
  6
CONTINUOUS
 62
     7
 10
69.31531381548135
 20
184.8283494339868
 30
0.0
  0
VERTEX
  5
420
  8
0
  6
CONTINUOUS
 62
     7
 10
69.3242489577443
 20
184.8056390149238
 30
0.0
  0
VERTEX
  5
421
  8
0
  6
CONTINUOUS
 62
     7
 10
69.3342816180267
 20
184.7833916413949
 30
0.0
  0
VERTEX
  5
422
  8
0
  6
CONTINUOUS
 62
     7
 10
69.3453878945226
 20
184.761660315534
 30
0.0
  0
VERTEX
  5
423
  8
0
  6
CONTINUOUS
 62
     7
 10
69.35754132764329
 20
184.7404968100433
 30
0.0
  0
VERTEX
  5
424
  8
0
  6
CONTINUOUS
 62
     7
 10
69.3707129630545
 20
184.7199515448499
 30
0.0
  0
VERTEX
  5
425
  8
0
  6
CONTINUOUS
 62
     7
 10
69.38487142065723
 20
184.7000734669853
 30
0.0
  0
VERTEX
  5
426
  8
0
  6
CONTINUOUS
 62
     7
 10
69.39998296934769
 20
184.6809099339746
 30
0.0
  0
VERTEX
  5
427
  8
0
  6
CONTINUOUS
 62
     7
 10
69.41601160737821
 20
184.6625066010113
 30
0.0
  0
VERTEX
  5
428
  8
0
  6
CONTINUOUS
 62
     7
 10
69.43291914812792
 20
184.6449073121884
 30
0.0
  0
VERTEX
  5
429
  8
0
  6
CONTINUOUS
 62
     7
 10
69.4506653110784
 20
184.6281539960447
 30
0.0
  0
VERTEX
  5
42A
  8
0
  6
CONTINUOUS
 62
     7
 10
69.46920781777801
 20
184.6122865656739
 30
0.0
  0
VERTEX
  5
42B
  8
0
  6
CONTINUOUS
 62
     7
 10
69.48850249256617
 20
184.597342823636
 30
0.0
  0
VERTEX
  5
42C
  8
0
  6
CONTINUOUS
 62
     7
 10
69.50850336781724
 20
184.5833583718961
 30
0.0
  0
VERTEX
  5
42D
  8
0
  6
CONTINUOUS
 62
     7
 10
69.52916279345395
 20
184.5703665270065
 30
0.0
  0
VERTEX
  5
42E
  8
0
  6
CONTINUOUS
 62
     7
 10
69.55043155046879
 20
184.5583982407332
 30
0.0
  0
VERTEX
  5
42F
  8
0
  6
CONTINUOUS
 62
     7
 10
69.57225896818348
 20
184.5474820263168
 30
0.0
  0
VERTEX
  5
430
  8
0
  6
CONTINUOUS
 62
     7
 10
69.59459304496663
 20
184.5376438905423
 30
0.0
  0
VERTEX
  5
431
  8
0
  6
CONTINUOUS
 62
     7
 10
69.61738057212258
 20
184.5289072717802
 30
0.0
  0
VERTEX
  5
432
  8
0
  6
CONTINUOUS
 62
     7
 10
69.64056726065562
 20
184.5212929841479
 30
0.0
  0
VERTEX
  5
433
  8
0
  6
CONTINUOUS
 62
     7
 10
69.66409787060813
 20
184.5148191679212
 30
0.0
  0
VERTEX
  5
434
  8
0
  6
CONTINUOUS
 62
     7
 10
69.68791634266425
 20
184.5095012463171
 30
0.0
  0
VERTEX
  5
435
  8
0
  6
CONTINUOUS
 62
     7
 10
69.71196593170559
 20
184.5053518887502
 30
0.0
  0
VERTEX
  5
436
  8
0
  6
CONTINUOUS
 62
     7
 10
69.73618934200069
 20
184.5023809806481
 30
0.0
  0
VERTEX
  5
437
  8
0
  6
CONTINUOUS
 62
     7
 10
69.76052886370643
 20
184.5005955999013
 30
0.0
  0
VERTEX
  5
438
  8
0
  6
CONTINUOUS
 62
     7
 10
69.7849265103559
 20
184.5
 30
0.0
  0
SEQEND
  5
90C
  8
0
  6
CONTINUOUS
 62
     7
  0
LINE
  5
184
  8
0
  6
CONTINUOUS
 62
     7
 10
69.25
 20
189.0
 30
0.0
 11
69.28494554882381
 21
184.9956367322508
 31
0.0
  0
LINE
  5
185
  8
0
  6
CONTINUOUS
 62
     7
 10
90.75000000000004
 20
189.0
 30
0.0
 11
90.71505445117623
 21
184.9956367322508
 31
0.0
  0
ARC
  5
186
  8
0
  6
CONTINUOUS
 62
     7
 10
97.44557569427204
 20
199.2342260521862
 30
0.0
 40
0.5000000000000003
 50
0.4999999999997159
 51
148.3210048781508
  0
LINE
  5
187
  8
0
  6
CONTINUOUS
 62
     7
 10
98.00000000000003
 20
193.0
 30
0.0
 11
97.94555665580413
 21
199.2385893199354
 31
0.0
  0
LINE
  5
188
  8
0
  6
CONTINUOUS
 62
     7
 10
105.0
 20
193.0
 30
0.0
 11
98.00000000000003
 21
193.0
 31
0.0
  0
LINE
  5
189
  8
0
  6
CONTINUOUS
 62
     7
 10
104.0
 20
190.0
 30
0.0
 11
95.50000000000011
 21
190.0
 31
0.0
  0
ARC
  5
18A
  8
0
  6
CONTINUOUS
 62
     7
 10
80.00000000000007
 20
210.0
 30
0.0
 40
19.99999999999998
 50
302.3917894958659
 51
328.3210048781509
  0
LINE
  5
18B
  8
0
  6
CONTINUOUS
 62
     7
 10
56.00000000000003
 20
190.0
 30
0.0
 11
64.49999999999994
 21
190.0
 31
0.0
  0
LINE
  5
18C
  8
0
  6
CONTINUOUS
 62
     7
 10
55.00000000000002
 20
193.0
 30
0.0
 11
62.00000000000003
 21
193.0
 31
0.0
  0
LINE
  5
18D
  8
0
  6
CONTINUOUS
 62
     7
 10
62.00000000000003
 20
193.0
 30
0.0
 11
62.05444334419594
 21
199.2385893199354
 31
0.0
  0
ARC
  5
18E
  8
0
  6
CONTINUOUS
 62
     7
 10
62.55442430572802
 20
199.2342260521862
 30
0.0
 40
0.5000000000000003
 50
31.67899512184918
 51
179.5000000000003
  0
ARC
  5
18F
  8
0
  6
CONTINUOUS
 62
     7
 10
79.99999999999996
 20
210.0
 30
0.0
 40
19.99999999999996
 50
211.6789951218491
 51
237.6082105041341
  0
LINE
  5
190
  8
0
  6
CONTINUOUS
 62
     7
 10
62.00872686779078
 20
194.0
 30
0.0
 11
61.99996192306418
 21
194.0
 31
0.0
  0
LINE
  5
191
  8
0
  6
CONTINUOUS
 62
     7
 10
62.0261806033723
 20
196.0
 30
0.0
 11
62.0174156586457
 21
196.0
 31
0.0
  0
LINE
  5
192
  8
0
  6
CONTINUOUS
 62
     7
 10
61.00000000000001
 20
194.0
 30
0.0
 11
61.00003807693584
 21
194.0043631846777
 31
0.0
  0
LINE
  5
193
  8
0
  6
CONTINUOUS
 62
     7
 10
61.01760539409182
 20
196.0000000000001
 30
0.0
 11
61.00003807693584
 21
194.0043631846778
 31
0.0
  0
LINE
  5
194
  8
0
  6
CONTINUOUS
 62
     7
 10
61.99996192306418
 20
194.0
 30
0.0
 11
61.00000000000001
 21
194.0
 31
0.0
  0
LINE
  5
195
  8
0
  6
CONTINUOUS
 62
     7
 10
61.01760539409182
 20
196.0
 30
0.0
 11
62.0174156586457
 21
196.0
 31
0.0
  0
LINE
  5
196
  8
0
  6
CONTINUOUS
 62
     7
 10
98.9999619230642
 20
194.0043631846777
 30
0.0
 11
98.98239460590823
 21
196.0
 31
0.0
  0
LINE
  5
197
  8
0
  6
CONTINUOUS
 62
     7
 10
99.00000000000003
 20
194.0
 30
0.0
 11
98.9999619230642
 21
194.0043631846777
 31
0.0
  0
LINE
  5
198
  8
0
  6
CONTINUOUS
 62
     7
 10
98.00003807693587
 20
194.0
 30
0.0
 11
99.00000000000004
 21
194.0
 31
0.0
  0
LINE
  5
199
  8
0
  6
CONTINUOUS
 62
     7
 10
98.98239460590824
 20
196.0
 30
0.0
 11
97.98258434135434
 21
196.0
 31
0.0
  0
LINE
  5
19A
  8
0
  6
CONTINUOUS
 62
     7
 10
97.99127313220927
 20
194.0
 30
0.0
 11
98.00003807693587
 21
194.0
 31
0.0
  0
LINE
  5
19B
  8
0
  6
CONTINUOUS
 62
     7
 10
97.97381939662775
 20
196.0
 30
0.0
 11
97.98258434135434
 21
196.0
 31
0.0
  0
ARC
  5
19C
  8
0
  6
CONTINUOUS
 62
     7
 10
54.85642477359926
 20
194.5781821734472
 30
0.0
 40
1.600135868173871
 50
230.036398423134
 51
259.0437894158079
  0
LINE
  5
19D
  8
0
  6
CONTINUOUS
 62
     7
 10
54.55230501143279
 20
193.0072124197993
 30
0.0
 11
54.64983209252222
 21
193.0
 31
0.0
  0
LINE
  5
19E
  8
0
  6
CONTINUOUS
 62
     7
 10
54.94590744661073
 20
190.0
 30
0.0
 11
56.00000000000002
 21
190.0
 31
0.0
  0
LINE
  5
19F
  8
0
  6
CONTINUOUS
 62
     7
 10
55.00000000000002
 20
193.0
 30
0.0
 11
54.64983209252222
 21
193.0
 31
0.0
  0
ARC
  5
1A0
  8
0
  6
CONTINUOUS
 62
     7
 10
105.143575226401
 20
194.578182173447
 30
0.0
 40
1.60013586817365
 50
280.9562105841878
 51
309.9636015768658
  0
LINE
  5
1A1
  8
0
  6
CONTINUOUS
 62
     7
 10
105.4476949885673
 20
193.0072124197993
 30
0.0
 11
105.3501679074779
 21
193.0
 31
0.0
  0
LINE
  5
1A2
  8
0
  6
CONTINUOUS
 62
     7
 10
105.0540925533893
 20
190.0
 30
0.0
 11
104.0
 21
190.0
 31
0.0
  0
LINE
  5
1A3
  8
0
  6
CONTINUOUS
 62
     7
 10
105.0
 20
193.0
 30
0.0
 11
105.3501679074778
 21
193.0
 31
0.0
  0
ARC
  5
1A4
  8
0
  6
CONTINUOUS
 62
     7
 10
61.49999999999997
 20
187.0
 30
0.0
 40
3.0
 50
41.81031489577776
 51
90.0
  0
ARC
  5
1A5
  8
0
  6
CONTINUOUS
 62
     7
 10
98.50000000000009
 20
187.0
 30
0.0
 40
2.999999999999995
 50
90.0
 51
138.1896851042226
  0
POLYLINE
  5
1A6
  8
0
  6
CONTINUOUS
 62
     7
 66
     1
 10
0.0
 20
0.0
 30
0.0
  0
VERTEX
  5
439
  8
0
  6
CONTINUOUS
 62
     7
 10
53.49128890376782
 20
193.9938294075728
 30
0.0
  0
VERTEX
  5
43A
  8
0
  6
CONTINUOUS
 62
     7
 10
53.51435145288782
 20
193.8200381329103
 30
0.0
  0
VERTEX
  5
43B
  8
0
  6
CONTINUOUS
 62
     7
 10
53.57980145192611
 20
193.6517301771328
 30
0.0
  0
VERTEX
  5
43C
  8
0
  6
CONTINUOUS
 62
     7
 10
53.68564468276552
 20
193.494033772167
 30
0.0
  0
VERTEX
  5
43D
  8
0
  6
CONTINUOUS
 62
     7
 10
53.82865617227204
 20
193.3517538230155
 30
0.0
  0
SEQEND
  5
90D
  8
0
  6
CONTINUOUS
 62
     7
  0
POLYLINE
  5
1A7
  8
0
  6
CONTINUOUS
 62
     7
 66
     1
 10
0.0
 20
0.0
 30
0.0
  0
VERTEX
  5
43E
  8
0
  6
CONTINUOUS
 62
     7
 10
106.171343827728
 20
193.3517538230155
 30
0.0
  0
VERTEX
  5
43F
  8
0
  6
CONTINUOUS
 62
     7
 10
106.3143553172345
 20
193.494033772167
 30
0.0
  0
VERTEX
  5
440
  8
0
  6
CONTINUOUS
 62
     7
 10
106.420198548074
 20
193.6517301771328
 30
0.0
  0
VERTEX
  5
441
  8
0
  6
CONTINUOUS
 62
     7
 10
106.4856485471122
 20
193.8200381329103
 30
0.0
  0
VERTEX
  5
442
  8
0
  6
CONTINUOUS
 62
     7
 10
106.5087110962322
 20
193.9938294075728
 30
0.0
  0
SEQEND
  5
90E
  8
0
  6
CONTINUOUS
 62
     7
  0
LINE
  5
1A8
  8
0
  6
CONTINUOUS
 62
     7
 10
64.49999999999997
 20
187.0
 30
0.0
 11
64.49999999999997
 21
186.0
 31
0.0
  0
ARC
  5
1A9
  8
0
  6
CONTINUOUS
 62
     7
 10
61.49999999999997
 20
187.0
 30
0.0
 40
3.0
 50
0.0
 51
41.8103148957772
  0
LINE
  5
1AA
  8
0
  6
CONTINUOUS
 62
     7
 10
64.49999999999997
 20
186.0
 30
0.0
 11
69.27618060337227
 21
186.0
 31
0.0
  0
LINE
  5
1AB
  8
0
  6
CONTINUOUS
 62
     7
 10
95.50000000000009
 20
187.0
 30
0.0
 11
95.50000000000009
 21
186.0
 31
0.0
  0
ARC
  5
1AC
  8
0
  6
CONTINUOUS
 62
     7
 10
98.50000000000009
 20
187.0
 30
0.0
 40
2.999999999999995
 50
138.1896851042226
 51
180.0
  0
LINE
  5
1AD
  8
0
  6
CONTINUOUS
 62
     7
 10
95.50000000000009
 20
186.0
 30
0.0
 11
90.72381939662776
 21
186.0
 31
0.0
  0
ARC
  5
1AE
  8
0
  6
CONTINUOUS
 62
     7
 10
52.65676027731385
 20
209.2
 30
0.0
 40
0.5000000000000004
 50
90.0
 51
174.9999999999999
  0
LINE
  5
1AF
  8
0
  6
CONTINUOUS
 62
     7
 10
52.65676027731385
 20
209.7
 30
0.0
 11
53.8122165886458
 21
209.7
 31
0.0
  0
LINE
  5
1B0
  8
0
  6
CONTINUOUS
 62
     7
 10
53.83323095633705
 20
209.6995582011643
 30
0.0
 11
53.8122165886458
 21
209.7
 31
0.0
  0
POLYLINE
  5
1B1
  8
0
  6
CONTINUOUS
 62
     7
 66
     1
 10
0.0
 20
0.0
 30
0.0
  0
VERTEX
  5
443
  8
0
  6
CONTINUOUS
 62
     7
 10
53.35858666340397
 20
209.2
 30
0.0
  0
VERTEX
  5
444
  8
0
  6
CONTINUOUS
 62
     7
 10
53.3589487781734
 20
209.2238777149572
 30
0.0
  0
VERTEX
  5
445
  8
0
  6
CONTINUOUS
 62
     7
 10
53.36045105150137
 20
209.2477009437665
 30
0.0
  0
VERTEX
  5
446
  8
0
  6
CONTINUOUS
 62
     7
 10
53.36309005537617
 20
209.271415324611
 30
0.0
  0
VERTEX
  5
447
  8
0
  6
CONTINUOUS
 62
     7
 10
53.36685976790015
 20
209.2949667440523
 30
0.0
  0
VERTEX
  5
448
  8
0
  6
CONTINUOUS
 62
     7
 10
53.37175158703101
 20
209.3183014605106
 30
0.0
  0
VERTEX
  5
449
  8
0
  6
CONTINUOUS
 62
     7
 10
53.37775435021065
 20
209.3413662268969
 30
0.0
  0
VERTEX
  5
44A
  8
0
  6
CONTINUOUS
 62
     7
 10
53.38485435983684
 20
209.3641084121168
 30
0.0
  0
VERTEX
  5
44B
  8
0
  6
CONTINUOUS
 62
     7
 10
53.39303541451947
 20
209.3864761211683
 30
0.0
  0
VERTEX
  5
44C
  8
0
  6
CONTINUOUS
 62
     7
 10
53.40227884605029
 20
209.40841831356
 30
0.0
  0
VERTEX
  5
44D
  8
0
  6
CONTINUOUS
 62
     7
 10
53.41256356200159
 20
209.4298849197797
 30
0.0
  0
VERTEX
  5
44E
  8
0
  6
CONTINUOUS
 62
     7
 10
53.4238660938566
 20
209.4508269555473
 30
0.0
  0
VERTEX
  5
44F
  8
0
  6
CONTINUOUS
 62
     7
 10
53.43616065056188
 20
209.4711966335909
 30
0.0
  0
VERTEX
  5
450
  8
0
  6
CONTINUOUS
 62
     7
 10
53.44941917737954
 20
209.4909474726917
 30
0.0
  0
VERTEX
  5
451
  8
0
  6
CONTINUOUS
 62
     7
 10
53.46361141990484
 20
209.5100344037491
 30
0.0
  0
VERTEX
  5
452
  8
0
  6
CONTINUOUS
 62
     7
 10
53.4787049931032
 20
209.5284138726227
 30
0.0
  0
VERTEX
  5
453
  8
0
  6
CONTINUOUS
 62
     7
 10
53.49466545520903
 20
209.5460439395181
 30
0.0
  0
VERTEX
  5
454
  8
0
  6
CONTINUOUS
 62
     7
 10
53.51145638631784
 20
209.5628843746882
 30
0.0
  0
VERTEX
  5
455
  8
0
  6
CONTINUOUS
 62
     7
 10
53.52903947149216
 20
209.5788967502331
 30
0.0
  0
VERTEX
  5
456
  8
0
  6
CONTINUOUS
 62
     7
 10
53.54737458819179
 20
209.594044527788
 30
0.0
  0
VERTEX
  5
457
  8
0
  6
CONTINUOUS
 62
     7
 10
53.56641989782866
 20
209.6082931418992
 30
0.0
  0
VERTEX
  5
458
  8
0
  6
CONTINUOUS
 62
     7
 10
53.58613194123766
 20
209.6216100788989
 30
0.0
  0
VERTEX
  5
459
  8
0
  6
CONTINUOUS
 62
     7
 10
53.60646573784532
 20
209.633964951097
 30
0.0
  0
VERTEX
  5
45A
  8
0
  6
CONTINUOUS
 62
     7
 10
53.62737488831021
 20
209.6453295661228
 30
0.0
  0
VERTEX
  5
45B
  8
0
  6
CONTINUOUS
 62
     7
 10
53.64881168040083
 20
209.6556779912564
 30
0.0
  0
VERTEX
  5
45C
  8
0
  6
CONTINUOUS
 62
     7
 10
53.67072719786929
 20
209.6649866126041
 30
0.0
  0
VERTEX
  5
45D
  8
0
  6
CONTINUOUS
 62
     7
 10
53.69307143207249
 20
209.6732341889825
 30
0.0
  0
VERTEX
  5
45E
  8
0
  6
CONTINUOUS
 62
     7
 10
53.71579339608598
 20
209.6804019003889
 30
0.0
  0
VERTEX
  5
45F
  8
0
  6
CONTINUOUS
 62
     7
 10
53.73884124105012
 20
209.6864733909456
 30
0.0
  0
VERTEX
  5
460
  8
0
  6
CONTINUOUS
 62
     7
 10
53.76216237448315
 20
209.6914348062224
 30
0.0
  0
VERTEX
  5
461
  8
0
  6
CONTINUOUS
 62
     7
 10
53.78570358029102
 20
209.6952748248511
 30
0.0
  0
VERTEX
  5
462
  8
0
  6
CONTINUOUS
 62
     7
 10
53.80941114020031
 20
209.6979846843591
 30
0.0
  0
VERTEX
  5
463
  8
0
  6
CONTINUOUS
 62
     7
 10
53.83323095633705
 20
209.6995582011643
 30
0.0
  0
SEQEND
  5
90F
  8
0
  6
CONTINUOUS
 62
     7
  0
LINE
  5
1B2
  8
0
  6
CONTINUOUS
 62
     7
 10
52.49999999999998
 20
190.0
 30
0.0
 11
50.99999999999998
 21
196.0
 31
0.0
  0
LINE
  5
1B3
  8
0
  6
CONTINUOUS
 62
     7
 10
53.0153882032023
 20
190.0
 30
0.0
 11
52.49999999999998
 21
190.0
 31
0.0
  0
LINE
  5
1B4
  8
0
  6
CONTINUOUS
 62
     7
 10
53.49128890376781
 20
193.9938294075728
 30
0.0
 11
53.35858666340397
 21
209.2
 31
0.0
  0
LINE
  5
1B5
  8
0
  6
CONTINUOUS
 62
     7
 10
54.94590744661073
 20
189.9999999999995
 30
0.0
 11
53.0153882032023
 21
189.9999999999995
 31
0.0
  0
POLYLINE
  5
1B6
  8
0
  6
CONTINUOUS
 62
     7
 66
     1
 10
0.0
 20
0.0
 30
0.0
  0
VERTEX
  5
464
  8
0
  6
CONTINUOUS
 62
     7
 10
53.83323095633705
 20
209.6995582011643
 30
0.0
  0
VERTEX
  5
465
  8
0
  6
CONTINUOUS
 62
     7
 10
53.85658832639304
 20
209.6980272571751
 30
0.0
  0
VERTEX
  5
466
  8
0
  6
CONTINUOUS
 62
     7
 10
53.87984844948048
 20
209.6954048156811
 30
0.0
  0
VERTEX
  5
467
  8
0
  6
CONTINUOUS
 62
     7
 10
53.90296034773429
 20
209.6916966241358
 30
0.0
  0
VERTEX
  5
468
  8
0
  6
CONTINUOUS
 62
     7
 10
53.92587336814521
 20
209.6869108095676
 30
0.0
  0
VERTEX
  5
469
  8
0
  6
CONTINUOUS
 62
     7
 10
53.94853729357303
 20
209.6810578607695
 30
0.0
  0
VERTEX
  5
46A
  8
0
  6
CONTINUOUS
 62
     7
 10
53.9709024528046
 20
209.6741506053104
 30
0.0
  0
VERTEX
  5
46B
  8
0
  6
CONTINUOUS
 62
     7
 10
53.99291982941533
 20
209.6662041814221
 30
0.0
  0
VERTEX
  5
46C
  8
0
  6
CONTINUOUS
 62
     7
 10
54.01454116919567
 20
209.6572360048217
 30
0.0
  0
VERTEX
  5
46D
  8
0
  6
CONTINUOUS
 62
     7
 10
54.03571908590706
 20
209.6472657305428
 30
0.0
  0
VERTEX
  5
46E
  8
0
  6
CONTINUOUS
 62
     7
 10
54.05640716513561
 20
209.6363152098582
 30
0.0
  0
VERTEX
  5
46F
  8
0
  6
CONTINUOUS
 62
     7
 10
54.07656006601589
 20
209.62440844239
 30
0.0
  0
VERTEX
  5
470
  8
0
  6
CONTINUOUS
 62
     7
 10
54.09613362060185
 20
209.6115715235111
 30
0.0
  0
VERTEX
  5
471
  8
0
  6
CONTINUOUS
 62
     7
 10
54.11508493066716
 20
209.5978325871535
 30
0.0
  0
VERTEX
  5
472
  8
0
  6
CONTINUOUS
 62
     7
 10
54.13337246172283
 20
209.5832217441484
 30
0.0
  0
VERTEX
  5
473
  8
0
  6
CONTINUOUS
 62
     7
 10
54.15095613404584
 20
209.5677710162345
 30
0.0
  0
VERTEX
  5
474
  8
0
  6
CONTINUOUS
 62
     7
 10
54.16779741051964
 20
209.5515142658777
 30
0.0
  0
VERTEX
  5
475
  8
0
  6
CONTINUOUS
 62
     7
 10
54.18385938109365
 20
209.5344871220564
 30
0.0
  0
VERTEX
  5
476
  8
0
  6
CONTINUOUS
 62
     7
 10
54.19910684367694
 20
209.5167269021759
 30
0.0
  0
VERTEX
  5
477
  8
0
  6
CONTINUOUS
 62
     7
 10
54.21350638128854
 20
209.4982725302819
 30
0.0
  0
VERTEX
  5
478
  8
0
  6
CONTINUOUS
 62
     7
 10
54.2270264352956
 20
209.4791644517527
 30
0.0
  0
VERTEX
  5
479
  8
0
  6
CONTINUOUS
 62
     7
 10
54.23963737457853
 20
209.4594445446577
 30
0.0
  0
VERTEX
  5
47A
  8
0
  6
CONTINUOUS
 62
     7
 10
54.25131156047185
 20
209.4391560279756
 30
0.0
  0
VERTEX
  5
47B
  8
0
  6
CONTINUOUS
 62
     7
 10
54.26202340733827
 20
209.4183433668738
 30
0.0
  0
VERTEX
  5
47C
  8
0
  6
CONTINUOUS
 62
     7
 10
54.2717494386432
 20
209.3970521752564
 30
0.0
  0
VERTEX
  5
47D
  8
0
  6
CONTINUOUS
 62
     7
 10
54.28046833840694
 20
209.3753291157955
 30
0.0
  0
VERTEX
  5
47E
  8
0
  6
CONTINUOUS
 62
     7
 10
54.28816099792171
 20
209.3532217976628
 30
0.0
  0
VERTEX
  5
47F
  8
0
  6
CONTINUOUS
 62
     7
 10
54.29481055763102
 20
209.3307786721874
 30
0.0
  0
VERTEX
  5
480
  8
0
  6
CONTINUOUS
 62
     7
 10
54.30040244407986
 20
209.3080489266681
 30
0.0
  0
VERTEX
  5
481
  8
0
  6
CONTINUOUS
 62
     7
 10
54.30492440185447
 20
209.2850823765719
 30
0.0
  0
VERTEX
  5
482
  8
0
  6
CONTINUOUS
 62
     7
 10
54.30836652044179
 20
209.2619293563573
 30
0.0
  0
VERTEX
  5
483
  8
0
  6
CONTINUOUS
 62
     7
 10
54.31072125594984
 20
209.2386406091578
 30
0.0
  0
VERTEX
  5
484
  8
0
  6
CONTINUOUS
 62
     7
 10
54.3119834476411
 20
209.2152671755725
 30
0.0
  0
SEQEND
  5
910
  8
0
  6
CONTINUOUS
 62
     7
  0
ARC
  5
1B7
  8
0
  6
CONTINUOUS
 62
     7
 10
80.00000000000007
 20
210.0
 30
0.0
 40
25.70000000000003
 50
181.749761419993
 51
184.1670770415679
  0
LINE
  5
1B8
  8
0
  6
CONTINUOUS
 62
     7
 10
50.99999999999998
 20
196.0
 30
0.0
 11
52.15866292826799
 21
209.2435778713738
 31
0.0
  0
ARC
  5
1B9
  8
0
  6
CONTINUOUS
 62
     7
 10
79.99999999999996
 20
210.0
 30
0.0
 40
25.70000000000012
 50
355.8329229584321
 51
358.2502385800069
  0
POLYLINE
  5
1BA
  8
0
  6
CONTINUOUS
 62
     7
 66
     1
 10
0.0
 20
0.0
 30
0.0
  0
VERTEX
  5
485
  8
0
  6
CONTINUOUS
 62
     7
 10
106.166769043663
 20
209.6995582011643
 30
0.0
  0
VERTEX
  5
486
  8
0
  6
CONTINUOUS
 62
     7
 10
106.143411673607
 20
209.698027257175
 30
0.0
  0
VERTEX
  5
487
  8
0
  6
CONTINUOUS
 62
     7
 10
106.1201515505196
 20
209.6954048156811
 30
0.0
  0
VERTEX
  5
488
  8
0
  6
CONTINUOUS
 62
     7
 10
106.0970396522658
 20
209.6916966241357
 30
0.0
  0
VERTEX
  5
489
  8
0
  6
CONTINUOUS
 62
     7
 10
106.0741266318549
 20
209.6869108095676
 30
0.0
  0
VERTEX
  5
48A
  8
0
  6
CONTINUOUS
 62
     7
 10
106.051462706427
 20
209.6810578607695
 30
0.0
  0
VERTEX
  5
48B
  8
0
  6
CONTINUOUS
 62
     7
 10
106.0290975471955
 20
209.6741506053103
 30
0.0
  0
VERTEX
  5
48C
  8
0
  6
CONTINUOUS
 62
     7
 10
106.0070801705847
 20
209.666204181422
 30
0.0
  0
VERTEX
  5
48D
  8
0
  6
CONTINUOUS
 62
     7
 10
105.9854588308044
 20
209.6572360048217
 30
0.0
  0
VERTEX
  5
48E
  8
0
  6
CONTINUOUS
 62
     7
 10
105.964280914093
 20
209.6472657305428
 30
0.0
  0
VERTEX
  5
48F
  8
0
  6
CONTINUOUS
 62
     7
 10
105.9435928348645
 20
209.6363152098581
 30
0.0
  0
VERTEX
  5
490
  8
0
  6
CONTINUOUS
 62
     7
 10
105.9234399339842
 20
209.6244084423899
 30
0.0
  0
VERTEX
  5
491
  8
0
  6
CONTINUOUS
 62
     7
 10
105.9038663793982
 20
209.6115715235111
 30
0.0
  0
VERTEX
  5
492
  8
0
  6
CONTINUOUS
 62
     7
 10
105.8849150693329
 20
209.5978325871534
 30
0.0
  0
VERTEX
  5
493
  8
0
  6
CONTINUOUS
 62
     7
 10
105.8666275382772
 20
209.5832217441484
 30
0.0
  0
VERTEX
  5
494
  8
0
  6
CONTINUOUS
 62
     7
 10
105.8490438659542
 20
209.5677710162345
 30
0.0
  0
VERTEX
  5
495
  8
0
  6
CONTINUOUS
 62
     7
 10
105.8322025894804
 20
209.5515142658776
 30
0.0
  0
VERTEX
  5
496
  8
0
  6
CONTINUOUS
 62
     7
 10
105.8161406189064
 20
209.5344871220564
 30
0.0
  0
VERTEX
  5
497
  8
0
  6
CONTINUOUS
 62
     7
 10
105.8008931563231
 20
209.5167269021759
 30
0.0
  0
VERTEX
  5
498
  8
0
  6
CONTINUOUS
 62
     7
 10
105.7864936187115
 20
209.4982725302818
 30
0.0
  0
VERTEX
  5
499
  8
0
  6
CONTINUOUS
 62
     7
 10
105.7729735647045
 20
209.4791644517527
 30
0.0
  0
VERTEX
  5
49A
  8
0
  6
CONTINUOUS
 62
     7
 10
105.7603626254215
 20
209.4594445446577
 30
0.0
  0
VERTEX
  5
49B
  8
0
  6
CONTINUOUS
 62
     7
 10
105.7486884395282
 20
209.4391560279756
 30
0.0
  0
VERTEX
  5
49C
  8
0
  6
CONTINUOUS
 62
     7
 10
105.7379765926618
 20
209.4183433668737
 30
0.0
  0
VERTEX
  5
49D
  8
0
  6
CONTINUOUS
 62
     7
 10
105.7282505613569
 20
209.3970521752563
 30
0.0
  0
VERTEX
  5
49E
  8
0
  6
CONTINUOUS
 62
     7
 10
105.7195316615931
 20
209.3753291157954
 30
0.0
  0
VERTEX
  5
49F
  8
0
  6
CONTINUOUS
 62
     7
 10
105.7118390020784
 20
209.3532217976627
 30
0.0
  0
VERTEX
  5
4A0
  8
0
  6
CONTINUOUS
 62
     7
 10
105.705189442369
 20
209.3307786721874
 30
0.0
  0
VERTEX
  5
4A1
  8
0
  6
CONTINUOUS
 62
     7
 10
105.6995975559202
 20
209.308048926668
 30
0.0
  0
VERTEX
  5
4A2
  8
0
  6
CONTINUOUS
 62
     7
 10
105.6950755981456
 20
209.2850823765719
 30
0.0
  0
VERTEX
  5
4A3
  8
0
  6
CONTINUOUS
 62
     7
 10
105.6916334795583
 20
209.2619293563572
 30
0.0
  0
VERTEX
  5
4A4
  8
0
  6
CONTINUOUS
 62
     7
 10
105.6892787440502
 20
209.2386406091578
 30
0.0
  0
VERTEX
  5
4A5
  8
0
  6
CONTINUOUS
 62
     7
 10
105.688016552359
 20
209.2152671755725
 30
0.0
  0
SEQEND
  5
911
  8
0
  6
CONTINUOUS
 62
     7
  0
POLYLINE
  5
1BB
  8
0
  6
CONTINUOUS
 62
     7
 66
     1
 10
0.0
 20
0.0
 30
0.0
  0
VERTEX
  5
4A6
  8
0
  6
CONTINUOUS
 62
     7
 10
106.6414133365961
 20
209.2
 30
0.0
  0
VERTEX
  5
4A7
  8
0
  6
CONTINUOUS
 62
     7
 10
106.6410512218267
 20
209.2238777149571
 30
0.0
  0
VERTEX
  5
4A8
  8
0
  6
CONTINUOUS
 62
     7
 10
106.6395489484987
 20
209.2477009437664
 30
0.0
  0
VERTEX
  5
4A9
  8
0
  6
CONTINUOUS
 62
     7
 10
106.6369099446239
 20
209.271415324611
 30
0.0
  0
VERTEX
  5
4AA
  8
0
  6
CONTINUOUS
 62
     7
 10
106.6331402320999
 20
209.2949667440523
 30
0.0
  0
VERTEX
  5
4AB
  8
0
  6
CONTINUOUS
 62
     7
 10
106.6282484129691
 20
209.3183014605105
 30
0.0
  0
VERTEX
  5
4AC
  8
0
  6
CONTINUOUS
 62
     7
 10
106.6222456497894
 20
209.3413662268969
 30
0.0
  0
VERTEX
  5
4AD
  8
0
  6
CONTINUOUS
 62
     7
 10
106.6151456401632
 20
209.3641084121168
 30
0.0
  0
VERTEX
  5
4AE
  8
0
  6
CONTINUOUS
 62
     7
 10
106.6069645854806
 20
209.3864761211682
 30
0.0
  0
VERTEX
  5
4AF
  8
0
  6
CONTINUOUS
 62
     7
 10
106.5977211539498
 20
209.4084183135599
 30
0.0
  0
VERTEX
  5
4B0
  8
0
  6
CONTINUOUS
 62
     7
 10
106.5874364379985
 20
209.4298849197797
 30
0.0
  0
VERTEX
  5
4B1
  8
0
  6
CONTINUOUS
 62
     7
 10
106.5761339061435
 20
209.4508269555473
 30
0.0
  0
VERTEX
  5
4B2
  8
0
  6
CONTINUOUS
 62
     7
 10
106.5638393494382
 20
209.4711966335908
 30
0.0
  0
VERTEX
  5
4B3
  8
0
  6
CONTINUOUS
 62
     7
 10
106.5505808226205
 20
209.4909474726916
 30
0.0
  0
VERTEX
  5
4B4
  8
0
  6
CONTINUOUS
 62
     7
 10
106.5363885800952
 20
209.510034403749
 30
0.0
  0
VERTEX
  5
4B5
  8
0
  6
CONTINUOUS
 62
     7
 10
106.5212950068969
 20
209.5284138726227
 30
0.0
  0
VERTEX
  5
4B6
  8
0
  6
CONTINUOUS
 62
     7
 10
106.505334544791
 20
209.5460439395181
 30
0.0
  0
VERTEX
  5
4B7
  8
0
  6
CONTINUOUS
 62
     7
 10
106.4885436136822
 20
209.5628843746882
 30
0.0
  0
VERTEX
  5
4B8
  8
0
  6
CONTINUOUS
 62
     7
 10
106.4709605285079
 20
209.5788967502331
 30
0.0
  0
VERTEX
  5
4B9
  8
0
  6
CONTINUOUS
 62
     7
 10
106.4526254118083
 20
209.594044527788
 30
0.0
  0
VERTEX
  5
4BA
  8
0
  6
CONTINUOUS
 62
     7
 10
106.4335801021714
 20
209.6082931418992
 30
0.0
  0
VERTEX
  5
4BB
  8
0
  6
CONTINUOUS
 62
     7
 10
106.4138680587624
 20
209.6216100788988
 30
0.0
  0
VERTEX
  5
4BC
  8
0
  6
CONTINUOUS
 62
     7
 10
106.3935342621548
 20
209.6339649510969
 30
0.0
  0
VERTEX
  5
4BD
  8
0
  6
CONTINUOUS
 62
     7
 10
106.3726251116899
 20
209.6453295661227
 30
0.0
  0
VERTEX
  5
4BE
  8
0
  6
CONTINUOUS
 62
     7
 10
106.3511883195992
 20
209.6556779912563
 30
0.0
  0
VERTEX
  5
4BF
  8
0
  6
CONTINUOUS
 62
     7
 10
106.3292728021308
 20
209.664986612604
 30
0.0
  0
VERTEX
  5
4C0
  8
0
  6
CONTINUOUS
 62
     7
 10
106.3069285679276
 20
209.6732341889825
 30
0.0
  0
VERTEX
  5
4C1
  8
0
  6
CONTINUOUS
 62
     7
 10
106.2842066039141
 20
209.6804019003889
 30
0.0
  0
VERTEX
  5
4C2
  8
0
  6
CONTINUOUS
 62
     7
 10
106.2611587589499
 20
209.6864733909456
 30
0.0
  0
VERTEX
  5
4C3
  8
0
  6
CONTINUOUS
 62
     7
 10
106.2378376255169
 20
209.6914348062224
 30
0.0
  0
VERTEX
  5
4C4
  8
0
  6
CONTINUOUS
 62
     7
 10
106.214296419709
 20
209.6952748248511
 30
0.0
  0
VERTEX
  5
4C5
  8
0
  6
CONTINUOUS
 62
     7
 10
106.1905888597998
 20
209.697984684359
 30
0.0
  0
VERTEX
  5
4C6
  8
0
  6
CONTINUOUS
 62
     7
 10
106.166769043663
 20
209.6995582011643
 30
0.0
  0
SEQEND
  5
912
  8
0
  6
CONTINUOUS
 62
     7
  0
LINE
  5
1BC
  8
0
  6
CONTINUOUS
 62
     7
 10
106.5087110962322
 20
193.9938294075728
 30
0.0
 11
106.6414133365961
 21
209.2
 31
0.0
  0
LINE
  5
1BD
  8
0
  6
CONTINUOUS
 62
     7
 10
107.5000000000001
 20
190.0
 30
0.0
 11
109.0000000000001
 21
196.0
 31
0.0
  0
LINE
  5
1BE
  8
0
  6
CONTINUOUS
 62
     7
 10
106.9846117967978
 20
190.0
 30
0.0
 11
107.5000000000001
 21
190.0
 31
0.0
  0
LINE
  5
1BF
  8
0
  6
CONTINUOUS
 62
     7
 10
106.166769043663
 20
209.6995582011643
 30
0.0
 11
106.1877834113543
 21
209.7
 31
0.0
  0
LINE
  5
1C0
  8
0
  6
CONTINUOUS
 62
     7
 10
107.3432397226862
 20
209.7
 30
0.0
 11
106.1877834113543
 21
209.7
 31
0.0
  0
LINE
  5
1C1
  8
0
  6
CONTINUOUS
 62
     7
 10
109.0000000000001
 20
196.0
 30
0.0
 11
107.8413370717321
 21
209.2435778713738
 31
0.0
  0
LINE
  5
1C2
  8
0
  6
CONTINUOUS
 62
     7
 10
105.0540925533893
 20
189.9999999999995
 30
0.0
 11
106.9846117967978
 21
189.9999999999995
 31
0.0
  0
ARC
  5
1C3
  8
0
  6
CONTINUOUS
 62
     7
 10
107.3432397226862
 20
209.2
 30
0.0
 40
0.5000000000000004
 50
5.000000000000114
 51
90.0
  0
LINE
  5
1C4
  8
0
  6
CONTINUOUS
 62
     7
 10
57.92938931297714
 20
196.8326865343811
 30
0.0
 11
58.00000000000002
 21
196.5765131206531
 31
0.0
  0
LINE
  5
1C5
  8
0
  6
CONTINUOUS
 62
     7
 10
58.00000000000002
 20
196.5765131206531
 30
0.0
 11
58.00000000000006
 21
196.3999999999999
 31
0.0
  0
ARC
  5
1C6
  8
0
  6
CONTINUOUS
 62
     7
 10
80.00000000000007
 20
210.0
 30
0.0
 40
25.70000000000002
 50
184.1670770415678
 51
210.8202775601297
  0
LINE
  5
1C7
  8
0
  6
CONTINUOUS
 62
     7
 10
102.0
 20
196.5765131206531
 30
0.0
 11
102.0
 21
196.3999999999999
 31
0.0
  0
LINE
  5
1C8
  8
0
  6
CONTINUOUS
 62
     7
 10
102.0706106870229
 20
196.8326865343811
 30
0.0
 11
102.0
 21
196.5765131206531
 31
0.0
  0
ARC
  5
1C9
  8
0
  6
CONTINUOUS
 62
     7
 10
79.99999999999996
 20
210.0
 30
0.0
 40
25.69999999999997
 50
329.1797224398702
 51
355.8329229584321
  0
ARC
  5
1CA
  8
0
  6
CONTINUOUS
 62
     7
 10
79.99999999999996
 20
210.0
 30
0.0
 40
19.99999999999999
 50
199.9484435888029
 51
211.6789951218491
  0
ARC
  5
1CB
  8
0
  6
CONTINUOUS
 62
     7
 10
79.99999999999996
 20
210.0
 30
0.0
 40
19.99999999999999
 50
183.064641085599
 51
196.9008904043371
  0
LINE
  5
1CC
  8
0
  6
CONTINUOUS
 62
     7
 10
102.0
 20
196.3999999999999
 30
0.0
 11
102.0
 21
196.0
 31
0.0
  0
ARC
  5
1CD
  8
0
  6
CONTINUOUS
 62
     7
 10
80.00000000000007
 20
210.0
 30
0.0
 40
19.99999999999995
 50
328.3210048781508
 51
340.0515564111972
  0
ARC
  5
1CE
  8
0
  6
CONTINUOUS
 62
     7
 10
80.00000000000007
 20
210.0
 30
0.0
 40
19.99999999999995
 50
343.0646410855989
 51
356.8998083380009
  0
LINE
  5
1CF
  8
0
  6
CONTINUOUS
 62
     7
 10
53.8122165886458
 20
209.7
 30
0.0
 11
54.50176476694909
 21
209.7
 31
0.0
  0
LINE
  5
1D0
  8
0
  6
CONTINUOUS
 62
     7
 10
106.1877834113543
 20
209.7
 30
0.0
 11
105.498235233051
 21
209.7
 31
0.0
  0
LINE
  5
1D1
  8
0
  6
CONTINUOUS
 62
     7
 10
103.1375865557257
 20
199.2807608303433
 30
0.0
 11
103.037457288076
 21
199.1373811371039
 31
0.0
  0
LINE
  5
1D2
  8
0
  6
CONTINUOUS
 62
     7
 10
103.037457288076
 20
199.1373811371039
 30
0.0
 11
101.8
 21
197.8999238490279
 31
0.0
  0
LINE
  5
1D3
  8
0
  6
CONTINUOUS
 62
     7
 10
101.8
 20
197.8999238490279
 30
0.0
 11
101.8
 21
196.0
 31
0.0
  0
LINE
  5
1D4
  8
0
  6
CONTINUOUS
 62
     7
 10
101.8
 20
196.0
 30
0.0
 11
104.8000190384679
 21
196.0
 31
0.0
  0
POLYLINE
  5
1D5
  8
0
  6
CONTINUOUS
 62
     7
 66
     1
 10
0.0
 20
0.0
 30
0.0
  0
VERTEX
  5
4C7
  8
0
  6
CONTINUOUS
 62
     7
 10
105.3
 20
195.5000190384679
 30
0.0
  0
VERTEX
  5
4C8
  8
0
  6
CONTINUOUS
 62
     7
 10
105.2903932029195
 20
195.5975625137189
 30
0.0
  0
VERTEX
  5
4C9
  8
0
  6
CONTINUOUS
 62
     7
 10
105.2619419598221
 20
195.6913563470398
 30
0.0
  0
VERTEX
  5
4CA
  8
0
  6
CONTINUOUS
 62
     7
 10
105.2157395303548
 20
195.7777964423722
 30
0.0
  0
VERTEX
  5
4CB
  8
0
  6
CONTINUOUS
 62
     7
 10
105.1535612763726
 20
195.8535612763725
 30
0.0
  0
VERTEX
  5
4CC
  8
0
  6
CONTINUOUS
 62
     7
 10
105.0777964423723
 20
195.9157395303547
 30
0.0
  0
VERTEX
  5
4CD
  8
0
  6
CONTINUOUS
 62
     7
 10
104.9913563470399
 20
195.9619419598221
 30
0.0
  0
VERTEX
  5
4CE
  8
0
  6
CONTINUOUS
 62
     7
 10
104.897562513719
 20
195.9903932029195
 30
0.0
  0
VERTEX
  5
4CF
  8
0
  6
CONTINUOUS
 62
     7
 10
104.8000190384679
 20
195.9999999999999
 30
0.0
  0
SEQEND
  5
913
  8
0
  6
CONTINUOUS
 62
     7
  0
LINE
  5
1D6
  8
0
  6
CONTINUOUS
 62
     7
 10
105.3
 20
195.5000190384679
 30
0.0
 11
105.3
 21
193.9999619230642
 31
0.0
  0
POLYLINE
  5
1D7
  8
0
  6
CONTINUOUS
 62
     7
 66
     1
 10
0.0
 20
0.0
 30
0.0
  0
VERTEX
  5
4D0
  8
0
  6
CONTINUOUS
 62
     7
 10
104.3000380769358
 20
193.0
 30
0.0
  0
VERTEX
  5
4D1
  8
0
  6
CONTINUOUS
 62
     7
 10
104.495125027438
 20
193.0192135941609
 30
0.0
  0
VERTEX
  5
4D2
  8
0
  6
CONTINUOUS
 62
     7
 10
104.6827126940797
 20
193.0761160803557
 30
0.0
  0
VERTEX
  5
4D3
  8
0
  6
CONTINUOUS
 62
     7
 10
104.8555928847446
 20
193.1685209392904
 30
0.0
  0
VERTEX
  5
4D4
  8
0
  6
CONTINUOUS
 62
     7
 10
105.0071225527452
 20
193.2928774472549
 30
0.0
  0
VERTEX
  5
4D5
  8
0
  6
CONTINUOUS
 62
     7
 10
105.1314790607096
 20
193.4444071152554
 30
0.0
  0
VERTEX
  5
4D6
  8
0
  6
CONTINUOUS
 62
     7
 10
105.2238839196443
 20
193.6172873059203
 30
0.0
  0
VERTEX
  5
4D7
  8
0
  6
CONTINUOUS
 62
     7
 10
105.2807864058391
 20
193.8048749725621
 30
0.0
  0
VERTEX
  5
4D8
  8
0
  6
CONTINUOUS
 62
     7
 10
105.3
 20
193.9999619230642
 30
0.0
  0
SEQEND
  5
914
  8
0
  6
CONTINUOUS
 62
     7
  0
POLYLINE
  5
1D8
  8
0
  6
CONTINUOUS
 62
     7
 66
     1
 10
0.0
 20
0.0
 30
0.0
  0
VERTEX
  5
4D9
  8
0
  6
CONTINUOUS
 62
     7
 10
100.6536374273446
 20
193.1464387236274
 30
0.0
  0
VERTEX
  5
4DA
  8
0
  6
CONTINUOUS
 62
     7
 10
100.729402261345
 20
193.0842604696452
 30
0.0
  0
VERTEX
  5
4DB
  8
0
  6
CONTINUOUS
 62
     7
 10
100.8158423566774
 20
193.0380580401778
 30
0.0
  0
VERTEX
  5
4DC
  8
0
  6
CONTINUOUS
 62
     7
 10
100.9096361899983
 20
193.0096067970805
 30
0.0
  0
VERTEX
  5
4DD
  8
0
  6
CONTINUOUS
 62
     7
 10
101.0071796652493
 20
193.0
 30
0.0
  0
SEQEND
  5
915
  8
0
  6
CONTINUOUS
 62
     7
  0
LINE
  5
1D9
  8
0
  6
CONTINUOUS
 62
     7
 10
100.6536374273447
 20
193.1464387236274
 30
0.0
 11
98.99293161659706
 21
194.807144534375
 31
0.0
  0
LINE
  5
1DA
  8
0
  6
CONTINUOUS
 62
     7
 10
98.80000000000003
 20
196.0
 30
0.0
 11
98.80000000000003
 21
203.1765111563072
 31
0.0
  0
ARC
  5
1DB
  8
0
  6
CONTINUOUS
 62
     7
 10
80.00000000000003
 20
210.0
 30
0.0
 40
20.0
 50
340.0515564111972
 51
343.0646410855987
  0
POLYLINE
  5
1DC
  8
0
  6
CONTINUOUS
 62
     7
 66
     1
 10
0.0
 20
0.0
 30
0.0
  0
VERTEX
  5
4DE
  8
0
  6
CONTINUOUS
 62
     7
 10
99.13268001951761
 20
204.1741476786007
 30
0.0
  0
VERTEX
  5
4DF
  8
0
  6
CONTINUOUS
 62
     7
 10
99.14023946823109
 20
204.1969510408142
 30
0.0
  0
VERTEX
  5
4E0
  8
0
  6
CONTINUOUS
 62
     7
 10
99.14892083423749
 20
204.2194256601171
 30
0.0
  0
VERTEX
  5
4E1
  8
0
  6
CONTINUOUS
 62
     7
 10
99.15868679861286
 20
204.2414969943951
 30
0.0
  0
VERTEX
  5
4E2
  8
0
  6
CONTINUOUS
 62
     7
 10
99.16950004243324
 20
204.2630905015342
 30
0.0
  0
VERTEX
  5
4E3
  8
0
  6
CONTINUOUS
 62
     7
 10
99.1813232467747
 20
204.2841316394201
 30
0.0
  0
VERTEX
  5
4E4
  8
0
  6
CONTINUOUS
 62
     7
 10
99.19411909271328
 20
204.3045458659387
 30
0.0
  0
VERTEX
  5
4E5
  8
0
  6
CONTINUOUS
 62
     7
 10
99.207850261325
 20
204.3242586389758
 30
0.0
  0
VERTEX
  5
4E6
  8
0
  6
CONTINUOUS
 62
     7
 10
99.22253158764626
 20
204.3432743882592
 30
0.0
  0
VERTEX
  5
4E7
  8
0
  6
CONTINUOUS
 62
     7
 10
99.23816282027903
 20
204.3616085333032
 30
0.0
  0
VERTEX
  5
4E8
  8
0
  6
CONTINUOUS
 62
     7
 10
99.25468406186495
 20
204.3792030864859
 30
0.0
  0
VERTEX
  5
4E9
  8
0
  6
CONTINUOUS
 62
     7
 10
99.27203541504565
 20
204.3960000601856
 30
0.0
  0
VERTEX
  5
4EA
  8
0
  6
CONTINUOUS
 62
     7
 10
99.2901569824627
 20
204.4119414667804
 30
0.0
  0
VERTEX
  5
4EB
  8
0
  6
CONTINUOUS
 62
     7
 10
99.30898886675776
 20
204.4269693186486
 30
0.0
  0
VERTEX
  5
4EC
  8
0
  6
CONTINUOUS
 62
     7
 10
99.32847117057241
 20
204.4410256281685
 30
0.0
  0
VERTEX
  5
4ED
  8
0
  6
CONTINUOUS
 62
     7
 10
99.34861881142778
 20
204.4541093366257
 30
0.0
  0
VERTEX
  5
4EE
  8
0
  6
CONTINUOUS
 62
     7
 10
99.36943715898641
 20
204.466235469716
 30
0.0
  0
VERTEX
  5
4EF
  8
0
  6
CONTINUOUS
 62
     7
 10
99.39085050134
 20
204.4773691441361
 30
0.0
  0
VERTEX
  5
4F0
  8
0
  6
CONTINUOUS
 62
     7
 10
99.41278312658021
 20
204.4874754765827
 30
0.0
  0
VERTEX
  5
4F1
  8
0
  6
CONTINUOUS
 62
     7
 10
99.43515932279873
 20
204.4965195837526
 30
0.0
  0
VERTEX
  5
4F2
  8
0
  6
CONTINUOUS
 62
     7
 10
99.45790337808724
 20
204.5044665823426
 30
0.0
  0
VERTEX
  5
4F3
  8
0
  6
CONTINUOUS
 62
     7
 10
99.48093958053738
 20
204.5112815890495
 30
0.0
  0
VERTEX
  5
4F4
  8
0
  6
CONTINUOUS
 62
     7
 10
99.50495401175412
 20
204.5171078081048
 30
0.0
  0
VERTEX
  5
4F5
  8
0
  6
CONTINUOUS
 62
     7
 10
99.52928765336428
 20
204.521745069419
 30
0.0
  0
VERTEX
  5
4F6
  8
0
  6
CONTINUOUS
 62
     7
 10
99.55385046612352
 20
204.525183026152
 30
0.0
  0
VERTEX
  5
4F7
  8
0
  6
CONTINUOUS
 62
     7
 10
99.57855241078757
 20
204.527411331464
 30
0.0
  0
VERTEX
  5
4F8
  8
0
  6
CONTINUOUS
 62
     7
 10
99.60330344811204
 20
204.528419638515
 30
0.0
  0
VERTEX
  5
4F9
  8
0
  6
CONTINUOUS
 62
     7
 10
99.62801353885263
 20
204.5281976004653
 30
0.0
  0
SEQEND
  5
916
  8
0
  6
CONTINUOUS
 62
     7
  0
ARC
  5
1DD
  8
0
  6
CONTINUOUS
 62
     7
 10
99.69615506024427
 20
206.5270364466614
 30
0.0
 40
1.999999999999991
 50
268.0475113360959
 51
71.95248866390409
  0
POLYLINE
  5
1DE
  8
0
  6
CONTINUOUS
 62
     7
 66
     1
 10
0.0
 20
0.0
 30
0.0
  0
VERTEX
  5
4FA
  8
0
  6
CONTINUOUS
 62
     7
 10
100.3157661240843
 20
208.4286363334849
 30
0.0
  0
VERTEX
  5
4FB
  8
0
  6
CONTINUOUS
 62
     7
 10
100.2931137827578
 20
208.436636960052
 30
0.0
  0
VERTEX
  5
4FC
  8
0
  6
CONTINUOUS
 62
     7
 10
100.2708118982691
 20
208.4457529118262
 30
0.0
  0
VERTEX
  5
4FD
  8
0
  6
CONTINUOUS
 62
     7
 10
100.2489342743484
 20
208.4559454300883
 30
0.0
  0
VERTEX
  5
4FE
  8
0
  6
CONTINUOUS
 62
     7
 10
100.2275547147256
 20
208.4671757561195
 30
0.0
  0
VERTEX
  5
4FF
  8
0
  6
CONTINUOUS
 62
     7
 10
100.2067470231308
 20
208.4794051312007
 30
0.0
  0
VERTEX
  5
500
  8
0
  6
CONTINUOUS
 62
     7
 10
100.186585003294
 20
208.4925947966129
 30
0.0
  0
VERTEX
  5
501
  8
0
  6
CONTINUOUS
 62
     7
 10
100.1671424589454
 20
208.5067059936371
 30
0.0
  0
VERTEX
  5
502
  8
0
  6
CONTINUOUS
 62
     7
 10
100.148415249132
 20
208.5217536404938
 30
0.0
  0
VERTEX
  5
503
  8
0
  6
CONTINUOUS
 62
     7
 10
100.1303879523653
 20
208.5377377851176
 30
0.0
  0
VERTEX
  5
504
  8
0
  6
CONTINUOUS
 62
     7
 10
100.113117382765
 20
208.5545974159226
 30
0.0
  0
VERTEX
  5
505
  8
0
  6
CONTINUOUS
 62
     7
 10
100.0966603544513
 20
208.5722715213232
 30
0.0
  0
VERTEX
  5
506
  8
0
  6
CONTINUOUS
 62
     7
 10
100.0810736815442
 20
208.5906990897335
 30
0.0
  0
VERTEX
  5
507
  8
0
  6
CONTINUOUS
 62
     7
 10
100.0664141781636
 20
208.6098191095679
 30
0.0
  0
VERTEX
  5
508
  8
0
  6
CONTINUOUS
 62
     7
 10
100.0527386584295
 20
208.6295705692407
 30
0.0
  0
VERTEX
  5
509
  8
0
  6
CONTINUOUS
 62
     7
 10
100.0400484703993
 20
208.6499683629119
 30
0.0
  0
VERTEX
  5
50A
  8
0
  6
CONTINUOUS
 62
     7
 10
100.0283286954292
 20
208.6710181508753
 30
0.0
  0
VERTEX
  5
50B
  8
0
  6
CONTINUOUS
 62
     7
 10
100.0176127407205
 20
208.6926435584179
 30
0.0
  0
VERTEX
  5
50C
  8
0
  6
CONTINUOUS
 62
     7
 10
100.0079340134747
 20
208.7147682108266
 30
0.0
  0
VERTEX
  5
50D
  8
0
  6
CONTINUOUS
 62
     7
 10
99.99932592089282
 20
208.7373157333883
 30
0.0
  0
VERTEX
  5
50E
  8
0
  6
CONTINUOUS
 62
     7
 10
99.99182187017638
 20
208.76020975139
 30
0.0
  0
VERTEX
  5
50F
  8
0
  6
CONTINUOUS
 62
     7
 10
99.98545526852664
 20
208.7833738901185
 30
0.0
  0
VERTEX
  5
510
  8
0
  6
CONTINUOUS
 62
     7
 10
99.98009625519008
 20
208.8074968814645
 30
0.0
  0
VERTEX
  5
511
  8
0
  6
CONTINUOUS
 62
     7
 10
99.97593217133172
 20
208.8319159459923
 30
0.0
  0
VERTEX
  5
512
  8
0
  6
CONTINUOUS
 62
     7
 10
99.97297161422539
 20
208.8565408605921
 30
0.0
  0
VERTEX
  5
513
  8
0
  6
CONTINUOUS
 62
     7
 10
99.97122318114504
 20
208.8812814021543
 30
0.0
  0
VERTEX
  5
514
  8
0
  6
CONTINUOUS
 62
     7
 10
99.97069546936456
 20
208.9060473475695
 30
0.0
  0
VERTEX
  5
515
  8
0
  6
CONTINUOUS
 62
     7
 10
99.97139707615783
 20
208.9307484737278
 30
0.0
  0
SEQEND
  5
917
  8
0
  6
CONTINUOUS
 62
     7
  0
ARC
  5
1DF
  8
0
  6
CONTINUOUS
 62
     7
 10
80.00000000000003
 20
210.0
 30
0.0
 40
20.0
 50
356.9353589144009
 51
358.6024553003429
  0
POLYLINE
  5
1E0
  8
0
  6
CONTINUOUS
 62
     7
 66
     1
 10
0.0
 20
0.0
 30
0.0
  0
VERTEX
  5
516
  8
0
  6
CONTINUOUS
 62
     7
 10
99.9940507171446
 20
209.5122132430559
 30
0.0
  0
VERTEX
  5
517
  8
0
  6
CONTINUOUS
 62
     7
 10
99.99522546923717
 20
209.5362085211208
 30
0.0
  0
VERTEX
  5
518
  8
0
  6
CONTINUOUS
 62
     7
 10
99.99756919899963
 20
209.5601876047503
 30
0.0
  0
VERTEX
  5
519
  8
0
  6
CONTINUOUS
 62
     7
 10
100.0010659225144
 20
209.5840686785074
 30
0.0
  0
VERTEX
  5
51A
  8
0
  6
CONTINUOUS
 62
     7
 10
100.005699655864
 20
209.6077699269551
 30
0.0
  0
VERTEX
  5
51B
  8
0
  6
CONTINUOUS
 62
     7
 10
100.0114544151307
 20
209.6312095346568
 30
0.0
  0
VERTEX
  5
51C
  8
0
  6
CONTINUOUS
 62
     7
 10
100.0183142163971
 20
209.6543056861755
 30
0.0
  0
VERTEX
  5
51D
  8
0
  6
CONTINUOUS
 62
     7
 10
100.0262630757456
 20
209.6769765660742
 30
0.0
  0
VERTEX
  5
51E
  8
0
  6
CONTINUOUS
 62
     7
 10
100.0353141101205
 20
209.6992304296603
 30
0.0
  0
VERTEX
  5
51F
  8
0
  6
CONTINUOUS
 62
     7
 10
100.0454629456336
 20
209.7210820490646
 30
0.0
  0
VERTEX
  5
520
  8
0
  6
CONTINUOUS
 62
     7
 10
100.0566674082721
 20
209.7424595060548
 30
0.0
  0
VERTEX
  5
521
  8
0
  6
CONTINUOUS
 62
     7
 10
100.0688853240234
 20
209.7632908823986
 30
0.0
  0
VERTEX
  5
522
  8
0
  6
CONTINUOUS
 62
     7
 10
100.0820745188745
 20
209.7835042598636
 30
0.0
  0
VERTEX
  5
523
  8
0
  6
CONTINUOUS
 62
     7
 10
100.0961928188128
 20
209.8030277202174
 30
0.0
  0
VERTEX
  5
524
  8
0
  6
CONTINUOUS
 62
     7
 10
100.1111980498255
 20
209.8217893452276
 30
0.0
  0
VERTEX
  5
525
  8
0
  6
CONTINUOUS
 62
     7
 10
100.1271046262285
 20
209.8397918442895
 30
0.0
  0
VERTEX
  5
526
  8
0
  6
CONTINUOUS
 62
     7
 10
100.1439139163221
 20
209.8570514176211
 30
0.0
  0
VERTEX
  5
527
  8
0
  6
CONTINUOUS
 62
     7
 10
100.1615623183613
 20
209.8735141726231
 30
0.0
  0
VERTEX
  5
528
  8
0
  6
CONTINUOUS
 62
     7
 10
100.1799862306009
 20
209.8891262166964
 30
0.0
  0
VERTEX
  5
529
  8
0
  6
CONTINUOUS
 62
     7
 10
100.1991220512955
 20
209.9038336572418
 30
0.0
  0
VERTEX
  5
52A
  8
0
  6
CONTINUOUS
 62
     7
 10
100.2189061787002
 20
209.9175826016602
 30
0.0
  0
VERTEX
  5
52B
  8
0
  6
CONTINUOUS
 62
     7
 10
100.2392750110698
 20
209.9303191573522
 30
0.0
  0
VERTEX
  5
52C
  8
0
  6
CONTINUOUS
 62
     7
 10
100.2602435602409
 20
209.9420413928178
 30
0.0
  0
VERTEX
  5
52D
  8
0
  6
CONTINUOUS
 62
     7
 10
100.2818179844594
 20
209.9527638248136
 30
0.0
  0
VERTEX
  5
52E
  8
0
  6
CONTINUOUS
 62
     7
 10
100.3039204349341
 20
209.9624566611665
 30
0.0
  0
VERTEX
  5
52F
  8
0
  6
CONTINUOUS
 62
     7
 10
100.3264730628736
 20
209.9710901097031
 30
0.0
  0
VERTEX
  5
530
  8
0
  6
CONTINUOUS
 62
     7
 10
100.3493980194868
 20
209.9786343782502
 30
0.0
  0
VERTEX
  5
531
  8
0
  6
CONTINUOUS
 62
     7
 10
100.3726174559824
 20
209.9850596746345
 30
0.0
  0
VERTEX
  5
532
  8
0
  6
CONTINUOUS
 62
     7
 10
100.3960535235694
 20
209.9903362066828
 30
0.0
  0
VERTEX
  5
533
  8
0
  6
CONTINUOUS
 62
     7
 10
100.4202883321324
 20
209.9945509708288
 30
0.0
  0
VERTEX
  5
534
  8
0
  6
CONTINUOUS
 62
     7
 10
100.4447307380957
 20
209.9975723668438
 30
0.0
  0
VERTEX
  5
535
  8
0
  6
CONTINUOUS
 62
     7
 10
100.4692918939707
 20
209.9993916311076
 30
0.0
  0
VERTEX
  5
536
  8
0
  6
CONTINUOUS
 62
     7
 10
100.4938829522686
 20
210.0
 30
0.0
  0
SEQEND
  5
918
  8
0
  6
CONTINUOUS
 62
     7
  0
LINE
  5
1E1
  8
0
  6
CONTINUOUS
 62
     7
 10
100.4938829522686
 20
210.0
 30
0.0
 11
101.4767714860058
 21
210.0
 31
0.0
  0
POLYLINE
  5
1E2
  8
0
  6
CONTINUOUS
 62
     7
 66
     1
 10
0.0
 20
0.0
 30
0.0
  0
VERTEX
  5
537
  8
0
  6
CONTINUOUS
 62
     7
 10
101.4767714860058
 20
210.0
 30
0.0
  0
VERTEX
  5
538
  8
0
  6
CONTINUOUS
 62
     7
 10
101.5248053461131
 20
210.0011783480688
 30
0.0
  0
VERTEX
  5
539
  8
0
  6
CONTINUOUS
 62
     7
 10
101.5728638491911
 20
210.004694748817
 30
0.0
  0
VERTEX
  5
53A
  8
0
  6
CONTINUOUS
 62
     7
 10
101.6207826326942
 20
210.0105212370571
 30
0.0
  0
VERTEX
  5
53B
  8
0
  6
CONTINUOUS
 62
     7
 10
101.6683973340766
 20
210.018629847602
 30
0.0
  0
VERTEX
  5
53C
  8
0
  6
CONTINUOUS
 62
     7
 10
101.715543590793
 20
210.0289926152641
 30
0.0
  0
VERTEX
  5
53D
  8
0
  6
CONTINUOUS
 62
     7
 10
101.7620570402974
 20
210.0415815748562
 30
0.0
  0
VERTEX
  5
53E
  8
0
  6
CONTINUOUS
 62
     7
 10
101.8077733200445
 20
210.0563687611908
 30
0.0
  0
VERTEX
  5
53F
  8
0
  6
CONTINUOUS
 62
     7
 10
101.8527095856687
 20
210.0733800052307
 30
0.0
  0
VERTEX
  5
540
  8
0
  6
CONTINUOUS
 62
     7
 10
101.8968951472778
 20
210.092605840725
 30
0.0
  0
VERTEX
  5
541
  8
0
  6
CONTINUOUS
 62
     7
 10
101.9401841502564
 20
210.1139654535564
 30
0.0
  0
VERTEX
  5
542
  8
0
  6
CONTINUOUS
 62
     7
 10
101.9824307399891
 20
210.1373780296078
 30
0.0
  0
VERTEX
  5
543
  8
0
  6
CONTINUOUS
 62
     7
 10
102.0234890618605
 20
210.1627627547621
 30
0.0
  0
VERTEX
  5
544
  8
0
  6
CONTINUOUS
 62
     7
 10
102.0632132612552
 20
210.190038814902
 30
0.0
  0
VERTEX
  5
545
  8
0
  6
CONTINUOUS
 62
     7
 10
102.1014574835578
 20
210.2191253959103
 30
0.0
  0
VERTEX
  5
546
  8
0
  6
CONTINUOUS
 62
     7
 10
102.138227648867
 20
210.2500510131264
 30
0.0
  0
VERTEX
  5
547
  8
0
  6
CONTINUOUS
 62
     7
 10
102.1735564281363
 20
210.282817768645
 30
0.0
  0
VERTEX
  5
548
  8
0
  6
CONTINUOUS
 62
     7
 10
102.207332963385
 20
210.3173011247086
 30
0.0
  0
VERTEX
  5
549
  8
0
  6
CONTINUOUS
 62
     7
 10
102.2394463966325
 20
210.3533765435594
 30
0.0
  0
VERTEX
  5
54A
  8
0
  6
CONTINUOUS
 62
     7
 10
102.2697858698982
 20
210.3909194874397
 30
0.0
  0
VERTEX
  5
54B
  8
0
  6
CONTINUOUS
 62
     7
 10
102.2982405252014
 20
210.4298054185918
 30
0.0
  0
VERTEX
  5
54C
  8
0
  6
CONTINUOUS
 62
     7
 10
102.3246995045614
 20
210.4699097992579
 30
0.0
  0
VERTEX
  5
54D
  8
0
  6
CONTINUOUS
 62
     7
 10
102.3491595234516
 20
210.5112624647996
 30
0.0
  0
VERTEX
  5
54E
  8
0
  6
CONTINUOUS
 62
     7
 10
102.3716500862396
 20
210.5538752779406
 30
0.0
  0
VERTEX
  5
54F
  8
0
  6
CONTINUOUS
 62
     7
 10
102.3921078296027
 20
210.5975940405103
 30
0.0
  0
VERTEX
  5
550
  8
0
  6
CONTINUOUS
 62
     7
 10
102.4104693902181
 20
210.6422645543385
 30
0.0
  0
VERTEX
  5
551
  8
0
  6
CONTINUOUS
 62
     7
 10
102.426671404763
 20
210.6877326212546
 30
0.0
  0
VERTEX
  5
552
  8
0
  6
CONTINUOUS
 62
     7
 10
102.4406505099146
 20
210.7338440430881
 30
0.0
  0
VERTEX
  5
553
  8
0
  6
CONTINUOUS
 62
     7
 10
102.4523433423501
 20
210.7804446216688
 30
0.0
  0
VERTEX
  5
554
  8
0
  6
CONTINUOUS
 62
     7
 10
102.4611420133222
 20
210.8241293757767
 30
0.0
  0
VERTEX
  5
555
  8
0
  6
CONTINUOUS
 62
     7
 10
102.4679905107177
 20
210.868251693281
 30
0.0
  0
VERTEX
  5
556
  8
0
  6
CONTINUOUS
 62
     7
 10
102.4728772605684
 20
210.9126792406503
 30
0.0
  0
VERTEX
  5
557
  8
0
  6
CONTINUOUS
 62
     7
 10
102.4757906889064
 20
210.9572796843529
 30
0.0
  0
VERTEX
  5
558
  8
0
  6
CONTINUOUS
 62
     7
 10
102.4767192217637
 20
211.0019206908572
 30
0.0
  0
VERTEX
  5
559
  8
0
  6
CONTINUOUS
 62
     7
 10
102.4756512851721
 20
211.0464699266314
 30
0.0
  0
SEQEND
  5
919
  8
0
  6
CONTINUOUS
 62
     7
  0
ARC
  5
1E3
  8
0
  6
CONTINUOUS
 62
     7
 10
80.00000000000003
 20
210.0
 30
0.0
 40
22.49999999999999
 50
2.665775458376991
 51
17.33422454162339
  0
POLYLINE
  5
1E4
  8
0
  6
CONTINUOUS
 62
     7
 66
     1
 10
0.0
 20
0.0
 30
0.0
  0
VERTEX
  5
55A
  8
0
  6
CONTINUOUS
 62
     7
 10
101.478117454326
 20
216.7037654059624
 30
0.0
  0
VERTEX
  5
55B
  8
0
  6
CONTINUOUS
 62
     7
 10
101.4626811686398
 20
216.7492666290807
 30
0.0
  0
VERTEX
  5
55C
  8
0
  6
CONTINUOUS
 62
     7
 10
101.445005675364
 20
216.7940947645521
 30
0.0
  0
VERTEX
  5
55D
  8
0
  6
CONTINUOUS
 62
     7
 10
101.4251666406108
 20
216.8381012467765
 30
0.0
  0
VERTEX
  5
55E
  8
0
  6
CONTINUOUS
 62
     7
 10
101.4032397304928
 20
216.8811375101536
 30
0.0
  0
VERTEX
  5
55F
  8
0
  6
CONTINUOUS
 62
     7
 10
101.3793006111222
 20
216.9230549890833
 30
0.0
  0
VERTEX
  5
560
  8
0
  6
CONTINUOUS
 62
     7
 10
101.3534249486117
 20
216.9637051179655
 30
0.0
  0
VERTEX
  5
561
  8
0
  6
CONTINUOUS
 62
     7
 10
101.3256884090735
 20
217.0029393312001
 30
0.0
  0
VERTEX
  5
562
  8
0
  6
CONTINUOUS
 62
     7
 10
101.2960612232725
 20
217.0407663090542
 30
0.0
  0
VERTEX
  5
563
  8
0
  6
CONTINUOUS
 62
     7
 10
101.2645436947269
 20
217.0772168508823
 30
0.0
  0
VERTEX
  5
564
  8
0
  6
CONTINUOUS
 62
     7
 10
101.2312564238909
 20
217.1121758045209
 30
0.0
  0
VERTEX
  5
565
  8
0
  6
CONTINUOUS
 62
     7
 10
101.1963200112191
 20
217.1455280178066
 30
0.0
  0
VERTEX
  5
566
  8
0
  6
CONTINUOUS
 62
     7
 10
101.159855057166
 20
217.177158338576
 30
0.0
  0
VERTEX
  5
567
  8
0
  6
CONTINUOUS
 62
     7
 10
101.1219821621858
 20
217.2069516146656
 30
0.0
  0
VERTEX
  5
568
  8
0
  6
CONTINUOUS
 62
     7
 10
101.0828219267331
 20
217.234792693912
 30
0.0
  0
VERTEX
  5
569
  8
0
  6
CONTINUOUS
 62
     7
 10
101.0423453666791
 20
217.260678731538
 30
0.0
  0
VERTEX
  5
56A
  8
0
  6
CONTINUOUS
 62
     7
 10
101.0005407412539
 20
217.284640288367
 30
0.0
  0
VERTEX
  5
56B
  8
0
  6
CONTINUOUS
 62
     7
 10
100.9575599616791
 20
217.3066086466736
 30
0.0
  0
VERTEX
  5
56C
  8
0
  6
CONTINUOUS
 62
     7
 10
100.9135549391761
 20
217.3265150887325
 30
0.0
  0
VERTEX
  5
56D
  8
0
  6
CONTINUOUS
 62
     7
 10
100.8686775849665
 20
217.3442908968186
 30
0.0
  0
VERTEX
  5
56E
  8
0
  6
CONTINUOUS
 62
     7
 10
100.8230798102718
 20
217.3598673532063
 30
0.0
  0
VERTEX
  5
56F
  8
0
  6
CONTINUOUS
 62
     7
 10
100.7769135263136
 20
217.3731757401705
 30
0.0
  0
VERTEX
  5
570
  8
0
  6
CONTINUOUS
 62
     7
 10
100.7301512313798
 20
217.3842040330552
 30
0.0
  0
VERTEX
  5
571
  8
0
  6
CONTINUOUS
 62
     7
 10
100.6827728108256
 20
217.3929768617899
 30
0.0
  0
VERTEX
  5
572
  8
0
  6
CONTINUOUS
 62
     7
 10
100.6349443383963
 20
217.3994796834181
 30
0.0
  0
VERTEX
  5
573
  8
0
  6
CONTINUOUS
 62
     7
 10
100.586831887837
 20
217.4036979549827
 30
0.0
  0
VERTEX
  5
574
  8
0
  6
CONTINUOUS
 62
     7
 10
100.538601532893
 20
217.4056171335271
 30
0.0
  0
VERTEX
  5
575
  8
0
  6
CONTINUOUS
 62
     7
 10
100.4904193473095
 20
217.4052226760944
 30
0.0
  0
VERTEX
  5
576
  8
0
  6
CONTINUOUS
 62
     7
 10
100.4424514048318
 20
217.4025000397278
 30
0.0
  0
VERTEX
  5
577
  8
0
  6
CONTINUOUS
 62
     7
 10
100.39812916014
 20
217.3978834417353
 30
0.0
  0
VERTEX
  5
578
  8
0
  6
CONTINUOUS
 62
     7
 10
100.3539702695876
 20
217.3912748713214
 30
0.0
  0
VERTEX
  5
579
  8
0
  6
CONTINUOUS
 62
     7
 10
100.3101045049213
 20
217.3827027083044
 30
0.0
  0
VERTEX
  5
57A
  8
0
  6
CONTINUOUS
 62
     7
 10
100.2666616378877
 20
217.3721953325024
 30
0.0
  0
VERTEX
  5
57B
  8
0
  6
CONTINUOUS
 62
     7
 10
100.2237714402333
 20
217.3597811237337
 30
0.0
  0
VERTEX
  5
57C
  8
0
  6
CONTINUOUS
 62
     7
 10
100.1815636837049
 20
217.3454884618163
 30
0.0
  0
SEQEND
  5
91A
  8
0
  6
CONTINUOUS
 62
     7
  0
LINE
  5
1E5
  8
0
  6
CONTINUOUS
 62
     7
 10
100.1815636837049
 20
217.3454884618163
 30
0.0
 11
99.2579505814969
 21
217.0093207846344
 31
0.0
  0
POLYLINE
  5
1E6
  8
0
  6
CONTINUOUS
 62
     7
 66
     1
 10
0.0
 20
0.0
 30
0.0
  0
VERTEX
  5
57D
  8
0
  6
CONTINUOUS
 62
     7
 10
99.2579505814969
 20
217.0093207846344
 30
0.0
  0
VERTEX
  5
57E
  8
0
  6
CONTINUOUS
 62
     7
 10
99.23518067023464
 20
217.0016602002563
 30
0.0
  0
VERTEX
  5
57F
  8
0
  6
CONTINUOUS
 62
     7
 10
99.21199935097671
 20
216.9950939259413
 30
0.0
  0
VERTEX
  5
580
  8
0
  6
CONTINUOUS
 62
     7
 10
99.1884886312634
 20
216.989636928809
 30
0.0
  0
VERTEX
  5
581
  8
0
  6
CONTINUOUS
 62
     7
 10
99.16473051863493
 20
216.9853041759793
 30
0.0
  0
VERTEX
  5
582
  8
0
  6
CONTINUOUS
 62
     7
 10
99.14080702063154
 20
216.9821106345719
 30
0.0
  0
VERTEX
  5
583
  8
0
  6
CONTINUOUS
 62
     7
 10
99.11680014479352
 20
216.9800712717069
 30
0.0
  0
VERTEX
  5
584
  8
0
  6
CONTINUOUS
 62
     7
 10
99.09279189866108
 20
216.9792010545039
 30
0.0
  0
VERTEX
  5
585
  8
0
  6
CONTINUOUS
 62
     7
 10
99.06876981040838
 20
216.9795091839349
 30
0.0
  0
VERTEX
  5
586
  8
0
  6
CONTINUOUS
 62
     7
 10
99.04472172188159
 20
216.9809861981788
 30
0.0
  0
VERTEX
  5
587
  8
0
  6
CONTINUOUS
 62
     7
 10
99.02072998072913
 20
216.9836190686405
 30
0.0
  0
VERTEX
  5
588
  8
0
  6
CONTINUOUS
 62
     7
 10
98.99687693459946
 20
216.9873947667246
 30
0.0
  0
VERTEX
  5
589
  8
0
  6
CONTINUOUS
 62
     7
 10
98.97324493114098
 20
216.9923002638357
 30
0.0
  0
VERTEX
  5
58A
  8
0
  6
CONTINUOUS
 62
     7
 10
98.94991631800214
 20
216.9983225313785
 30
0.0
  0
VERTEX
  5
58B
  8
0
  6
CONTINUOUS
 62
     7
 10
98.92697344283134
 20
217.0054485407578
 30
0.0
  0
VERTEX
  5
58C
  8
0
  6
CONTINUOUS
 62
     7
 10
98.90440852411281
 20
217.0136907242446
 30
0.0
  0
VERTEX
  5
58D
  8
0
  6
CONTINUOUS
 62
     7
 10
98.88220597908075
 20
217.0230444453869
 30
0.0
  0
VERTEX
  5
58E
  8
0
  6
CONTINUOUS
 62
     7
 10
98.86043918985834
 20
217.0334701484237
 30
0.0
  0
VERTEX
  5
58F
  8
0
  6
CONTINUOUS
 62
     7
 10
98.8391815385688
 20
217.0449282775938
 30
0.0
  0
VERTEX
  5
590
  8
0
  6
CONTINUOUS
 62
     7
 10
98.81850640733528
 20
217.0573792771361
 30
0.0
  0
VERTEX
  5
591
  8
0
  6
CONTINUOUS
 62
     7
 10
98.79848717828094
 20
217.0707835912895
 30
0.0
  0
VERTEX
  5
592
  8
0
  6
CONTINUOUS
 62
     7
 10
98.77919723352899
 20
217.0851016642927
 30
0.0
  0
VERTEX
  5
593
  8
0
  6
CONTINUOUS
 62
     7
 10
98.76063289457362
 20
217.10034817792
 30
0.0
  0
VERTEX
  5
594
  8
0
  6
CONTINUOUS
 62
     7
 10
98.74277839852047
 20
217.1165235696905
 30
0.0
  0
VERTEX
  5
595
  8
0
  6
CONTINUOUS
 62
     7
 10
98.72568988612207
 20
217.1335662261013
 30
0.0
  0
VERTEX
  5
596
  8
0
  6
CONTINUOUS
 62
     7
 10
98.70942349813089
 20
217.1514145336488
 30
0.0
  0
VERTEX
  5
597
  8
0
  6
CONTINUOUS
 62
     7
 10
98.69403537529942
 20
217.1700068788299
 30
0.0
  0
VERTEX
  5
598
  8
0
  6
CONTINUOUS
 62
     7
 10
98.67958165838022
 20
217.1892816481411
 30
0.0
  0
VERTEX
  5
599
  8
0
  6
CONTINUOUS
 62
     7
 10
98.66611848812573
 20
217.2091772280792
 30
0.0
  0
VERTEX
  5
59A
  8
0
  6
CONTINUOUS
 62
     7
 10
98.65335248948372
 20
217.2302038650298
 30
0.0
  0
VERTEX
  5
59B
  8
0
  6
CONTINUOUS
 62
     7
 10
98.64162186264998
 20
217.2518591747049
 30
0.0
  0
VERTEX
  5
59C
  8
0
  6
CONTINUOUS
 62
     7
 10
98.6309671820221
 20
217.2740636310364
 30
0.0
  0
VERTEX
  5
59D
  8
0
  6
CONTINUOUS
 62
     7
 10
98.62142902199761
 20
217.2967377079559
 30
0.0
  0
SEQEND
  5
91B
  8
0
  6
CONTINUOUS
 62
     7
  0
ARC
  5
1E7
  8
0
  6
CONTINUOUS
 62
     7
 10
80.00000000000003
 20
210.0
 30
0.0
 40
20.0
 50
21.39754469965711
 51
23.06464108559902
  0
POLYLINE
  5
1E8
  8
0
  6
CONTINUOUS
 62
     7
 66
     1
 10
0.0
 20
0.0
 30
0.0
  0
VERTEX
  5
59E
  8
0
  6
CONTINUOUS
 62
     7
 10
98.40126889898396
 20
217.8353878594034
 30
0.0
  0
VERTEX
  5
59F
  8
0
  6
CONTINUOUS
 62
     7
 10
98.39240205397395
 20
217.8577153682806
 30
0.0
  0
VERTEX
  5
5A0
  8
0
  6
CONTINUOUS
 62
     7
 10
98.38460595934153
 20
217.8805122000128
 30
0.0
  0
VERTEX
  5
5A1
  8
0
  6
CONTINUOUS
 62
     7
 10
98.37789994187982
 20
217.9036972638859
 30
0.0
  0
VERTEX
  5
5A2
  8
0
  6
CONTINUOUS
 62
     7
 10
98.37230332838185
 20
217.9271894691855
 30
0.0
  0
VERTEX
  5
5A3
  8
0
  6
CONTINUOUS
 62
     7
 10
98.36783544564071
 20
217.9509077251973
 30
0.0
  0
VERTEX
  5
5A4
  8
0
  6
CONTINUOUS
 62
     7
 10
98.36451562044948
 20
217.9747709412073
 30
0.0
  0
VERTEX
  5
5A5
  8
0
  6
CONTINUOUS
 62
     7
 10
98.36236317960122
 20
217.9986980265009
 30
0.0
  0
VERTEX
  5
5A6
  8
0
  6
CONTINUOUS
 62
     7
 10
98.36138664001892
 20
218.0227019102243
 30
0.0
  0
VERTEX
  5
5A7
  8
0
  6
CONTINUOUS
 62
     7
 10
98.3615758976479
 20
218.0467942428151
 30
0.0
  0
VERTEX
  5
5A8
  8
0
  6
CONTINUOUS
 62
     7
 10
98.3629223421744
 20
218.0708921018979
 30
0.0
  0
VERTEX
  5
5A9
  8
0
  6
CONTINUOUS
 62
     7
 10
98.3654173632847
 20
218.0949125650976
 30
0.0
  0
VERTEX
  5
5AA
  8
0
  6
CONTINUOUS
 62
     7
 10
98.36905235066502
 20
218.1187727100389
 30
0.0
  0
VERTEX
  5
5AB
  8
0
  6
CONTINUOUS
 62
     7
 10
98.3738186940016
 20
218.1423896143465
 30
0.0
  0
VERTEX
  5
5AC
  8
0
  6
CONTINUOUS
 62
     7
 10
98.3797077829807
 20
218.1656803556451
 30
0.0
  0
VERTEX
  5
5AD
  8
0
  6
CONTINUOUS
 62
     7
 10
98.38673172561482
 20
218.1886537117104
 30
0.0
  0
VERTEX
  5
5AE
  8
0
  6
CONTINUOUS
 62
     7
 10
98.39488497697317
 20
218.2113246444456
 30
0.0
  0
VERTEX
  5
5AF
  8
0
  6
CONTINUOUS
 62
     7
 10
98.40413196092425
 20
218.2336177650134
 30
0.0
  0
VERTEX
  5
5B0
  8
0
  6
CONTINUOUS
 62
     7
 10
98.41443710133647
 20
218.2554576845768
 30
0.0
  0
VERTEX
  5
5B1
  8
0
  6
CONTINUOUS
 62
     7
 10
98.4257648220783
 20
218.2767690142985
 30
0.0
  0
VERTEX
  5
5B2
  8
0
  6
CONTINUOUS
 62
     7
 10
98.4380795470182
 20
218.2974763653413
 30
0.0
  0
VERTEX
  5
5B3
  8
0
  6
CONTINUOUS
 62
     7
 10
98.4513457000246
 20
218.3175043488681
 30
0.0
  0
VERTEX
  5
5B4
  8
0
  6
CONTINUOUS
 62
     7
 10
98.46599680019274
 20
218.3374036704396
 30
0.0
  0
VERTEX
  5
5B5
  8
0
  6
CONTINUOUS
 62
     7
 10
98.48165667701346
 20
218.3565973820261
 30
0.0
  0
VERTEX
  5
5B6
  8
0
  6
CONTINUOUS
 62
     7
 10
98.49826300724446
 20
218.3750196813778
 30
0.0
  0
VERTEX
  5
5B7
  8
0
  6
CONTINUOUS
 62
     7
 10
98.51575346764342
 20
218.3926047662448
 30
0.0
  0
VERTEX
  5
5B8
  8
0
  6
CONTINUOUS
 62
     7
 10
98.53406573496807
 20
218.4092868343773
 30
0.0
  0
VERTEX
  5
5B9
  8
0
  6
CONTINUOUS
 62
     7
 10
98.55313748597611
 20
218.4250000835254
 30
0.0
  0
SEQEND
  5
91C
  8
0
  6
CONTINUOUS
 62
     7
  0
ARC
  5
1E9
  8
0
  6
CONTINUOUS
 62
     7
 10
97.32050807568882
 20
220.0
 30
0.0
 40
2.000000000000012
 50
308.0475113360973
 51
111.9524886639026
  0
POLYLINE
  5
1EA
  8
0
  6
CONTINUOUS
 62
     7
 66
     1
 10
0.0
 20
0.0
 30
0.0
  0
VERTEX
  5
5BA
  8
0
  6
CONTINUOUS
 62
     7
 10
96.57283284220713
 20
221.8549883409979
 30
0.0
  0
VERTEX
  5
5BB
  8
0
  6
CONTINUOUS
 62
     7
 10
96.55033743838321
 20
221.846556532186
 30
0.0
  0
VERTEX
  5
5BC
  8
0
  6
CONTINUOUS
 62
     7
 10
96.52739358284866
 20
221.8392043813644
 30
0.0
  0
VERTEX
  5
5BD
  8
0
  6
CONTINUOUS
 62
     7
 10
96.50408272616508
 20
221.8329496377549
 30
0.0
  0
VERTEX
  5
5BE
  8
0
  6
CONTINUOUS
 62
     7
 10
96.48048631889411
 20
221.8278100505794
 30
0.0
  0
VERTEX
  5
5BF
  8
0
  6
CONTINUOUS
 62
     7
 10
96.45668581159738
 20
221.8238033690599
 30
0.0
  0
VERTEX
  5
5C0
  8
0
  6
CONTINUOUS
 62
     7
 10
96.43276265483654
 20
221.8209473424182
 30
0.0
  0
VERTEX
  5
5C1
  8
0
  6
CONTINUOUS
 62
     7
 10
96.40879829917317
 20
221.8192597198762
 30
0.0
  0
VERTEX
  5
5C2
  8
0
  6
CONTINUOUS
 62
     7
 10
96.38477998320606
 20
221.8187492677008
 30
0.0
  0
VERTEX
  5
5C3
  8
0
  6
CONTINUOUS
 62
     7
 10
96.36069586257781
 20
221.81940610987
 30
0.0
  0
VERTEX
  5
5C4
  8
0
  6
CONTINUOUS
 62
     7
 10
96.33662867692071
 20
221.82122002821
 30
0.0
  0
VERTEX
  5
5C5
  8
0
  6
CONTINUOUS
 62
     7
 10
96.312661165867
 20
221.8241808045469
 30
0.0
  0
VERTEX
  5
5C6
  8
0
  6
CONTINUOUS
 62
     7
 10
96.28887606904894
 20
221.8282782207069
 30
0.0
  0
VERTEX
  5
5C7
  8
0
  6
CONTINUOUS
 62
     7
 10
96.26535612609882
 20
221.8335020585162
 30
0.0
  0
VERTEX
  5
5C8
  8
0
  6
CONTINUOUS
 62
     7
 10
96.24218407664885
 20
221.8398420998009
 30
0.0
  0
VERTEX
  5
5C9
  8
0
  6
CONTINUOUS
 62
     7
 10
96.21935137958944
 20
221.8473106206642
 30
0.0
  0
VERTEX
  5
5CA
  8
0
  6
CONTINUOUS
 62
     7
 10
96.19684296820958
 20
221.8559023676233
 30
0.0
  0
VERTEX
  5
5CB
  8
0
  6
CONTINUOUS
 62
     7
 10
96.1747335266295
 20
221.8655803079888
 30
0.0
  0
VERTEX
  5
5CC
  8
0
  6
CONTINUOUS
 62
     7
 10
96.1530977389694
 20
221.8763074090712
 30
0.0
  0
VERTEX
  5
5CD
  8
0
  6
CONTINUOUS
 62
     7
 10
96.13201028934942
 20
221.8880466381811
 30
0.0
  0
VERTEX
  5
5CE
  8
0
  6
CONTINUOUS
 62
     7
 10
96.11154586188978
 20
221.9007609626289
 30
0.0
  0
VERTEX
  5
5CF
  8
0
  6
CONTINUOUS
 62
     7
 10
96.0917791407107
 20
221.9144133497253
 30
0.0
  0
VERTEX
  5
5D0
  8
0
  6
CONTINUOUS
 62
     7
 10
96.07216793837782
 20
221.9294479258245
 30
0.0
  0
VERTEX
  5
5D1
  8
0
  6
CONTINUOUS
 62
     7
 10
96.05328179295887
 20
221.9454773930022
 30
0.0
  0
VERTEX
  5
5D2
  8
0
  6
CONTINUOUS
 62
     7
 10
96.03518528464468
 20
221.962438162568
 30
0.0
  0
VERTEX
  5
5D3
  8
0
  6
CONTINUOUS
 62
     7
 10
96.01794299362618
 20
221.9802666458311
 30
0.0
  0
VERTEX
  5
5D4
  8
0
  6
CONTINUOUS
 62
     7
 10
96.00161950009417
 20
221.9988992541009
 30
0.0
  0
VERTEX
  5
5D5
  8
0
  6
CONTINUOUS
 62
     7
 10
95.98627938423955
 20
222.0182723986868
 30
0.0
  0
SEQEND
  5
91D
  8
0
  6
CONTINUOUS
 62
     7
  0
ARC
  5
1EB
  8
0
  6
CONTINUOUS
 62
     7
 10
80.00000000000003
 20
210.0
 30
0.0
 40
20.0
 50
36.93535891440091
 51
38.60245530034283
  0
POLYLINE
  5
1EC
  8
0
  6
CONTINUOUS
 62
     7
 66
     1
 10
0.0
 20
0.0
 30
0.0
  0
VERTEX
  5
5D6
  8
0
  6
CONTINUOUS
 62
     7
 10
95.6298747308405
 20
222.4782617338407
 30
0.0
  0
VERTEX
  5
5D7
  8
0
  6
CONTINUOUS
 62
     7
 10
95.61535077572192
 20
222.4973982993531
 30
0.0
  0
VERTEX
  5
5D8
  8
0
  6
CONTINUOUS
 62
     7
 10
95.60173271903398
 20
222.5172738635702
 30
0.0
  0
VERTEX
  5
5D9
  8
0
  6
CONTINUOUS
 62
     7
 10
95.58906090633457
 20
222.5378154779673
 30
0.0
  0
VERTEX
  5
5DA
  8
0
  6
CONTINUOUS
 62
     7
 10
95.57737568318154
 20
222.5589501940195
 30
0.0
  0
VERTEX
  5
5DB
  8
0
  6
CONTINUOUS
 62
     7
 10
95.56671739513278
 20
222.5806050632016
 30
0.0
  0
VERTEX
  5
5DC
  8
0
  6
CONTINUOUS
 62
     7
 10
95.55712638774615
 20
222.6027071369889
 30
0.0
  0
VERTEX
  5
5DD
  8
0
  6
CONTINUOUS
 62
     7
 10
95.54864300657954
 20
222.6251834668562
 30
0.0
  0
VERTEX
  5
5DE
  8
0
  6
CONTINUOUS
 62
     7
 10
95.54127199338619
 20
222.6480488081453
 30
0.0
  0
VERTEX
  5
5DF
  8
0
  6
CONTINUOUS
 62
     7
 10
95.53500050223046
 20
222.6713116654837
 30
0.0
  0
VERTEX
  5
5E0
  8
0
  6
CONTINUOUS
 62
     7
 10
95.52984245409291
 20
222.6948898373763
 30
0.0
  0
VERTEX
  5
5E1
  8
0
  6
CONTINUOUS
 62
     7
 10
95.52581176995413
 20
222.7187011223281
 30
0.0
  0
VERTEX
  5
5E2
  8
0
  6
CONTINUOUS
 62
     7
 10
95.52292237079465
 20
222.7426633188439
 30
0.0
  0
VERTEX
  5
5E3
  8
0
  6
CONTINUOUS
 62
     7
 10
95.52118817759502
 20
222.7666942254285
 30
0.0
  0
VERTEX
  5
5E4
  8
0
  6
CONTINUOUS
 62
     7
 10
95.52062311133584
 20
222.7907116405869
 30
0.0
  0
VERTEX
  5
5E5
  8
0
  6
CONTINUOUS
 62
     7
 10
95.52123647245804
 20
222.8147269051799
 30
0.0
  0
VERTEX
  5
5E6
  8
0
  6
CONTINUOUS
 62
     7
 10
95.52301889584106
 20
222.838753308821
 30
0.0
  0
VERTEX
  5
5E7
  8
0
  6
CONTINUOUS
 62
     7
 10
95.52595630121651
 20
222.8627086849703
 30
0.0
  0
VERTEX
  5
5E8
  8
0
  6
CONTINUOUS
 62
     7
 10
95.53003460831589
 20
222.8865108670879
 30
0.0
  0
VERTEX
  5
5E9
  8
0
  6
CONTINUOUS
 62
     7
 10
95.53523973687078
 20
222.910077688634
 30
0.0
  0
VERTEX
  5
5EA
  8
0
  6
CONTINUOUS
 62
     7
 10
95.54155760661274
 20
222.9333269830686
 30
0.0
  0
VERTEX
  5
5EB
  8
0
  6
CONTINUOUS
 62
     7
 10
95.54897413727332
 20
222.9561765838518
 30
0.0
  0
VERTEX
  5
5EC
  8
0
  6
CONTINUOUS
 62
     7
 10
95.55750207013104
 20
222.9786346607915
 30
0.0
  0
VERTEX
  5
5ED
  8
0
  6
CONTINUOUS
 62
     7
 10
95.56713679148447
 20
223.0007162928124
 30
0.0
  0
VERTEX
  5
5EE
  8
0
  6
CONTINUOUS
 62
     7
 10
95.57783781573953
 20
223.0223486175474
 30
0.0
  0
VERTEX
  5
5EF
  8
0
  6
CONTINUOUS
 62
     7
 10
95.58956465730215
 20
223.0434587726292
 30
0.0
  0
VERTEX
  5
5F0
  8
0
  6
CONTINUOUS
 62
     7
 10
95.60227683057822
 20
223.0639738956907
 30
0.0
  0
VERTEX
  5
5F1
  8
0
  6
CONTINUOUS
 62
     7
 10
95.61593384997369
 20
223.0838211243646
 30
0.0
  0
VERTEX
  5
5F2
  8
0
  6
CONTINUOUS
 62
     7
 10
95.63049522989448
 20
223.1029275962838
 30
0.0
  0
VERTEX
  5
5F3
  8
0
  6
CONTINUOUS
 62
     7
 10
95.64635097215343
 20
223.1217341276043
 30
0.0
  0
VERTEX
  5
5F4
  8
0
  6
CONTINUOUS
 62
     7
 10
95.6631328254957
 20
223.1397599269362
 30
0.0
  0
VERTEX
  5
5F5
  8
0
  6
CONTINUOUS
 62
     7
 10
95.68077836194277
 20
223.156941170892
 30
0.0
  0
VERTEX
  5
5F6
  8
0
  6
CONTINUOUS
 62
     7
 10
95.6992251535161
 20
223.1732140360844
 30
0.0
  0
SEQEND
  5
91E
  8
0
  6
CONTINUOUS
 62
     7
  0
LINE
  5
1ED
  8
0
  6
CONTINUOUS
 62
     7
 10
95.6992251535161
 20
223.1732140360844
 30
0.0
 11
96.45216145299091
 21
223.8050026072737
 31
0.0
  0
POLYLINE
  5
1EE
  8
0
  6
CONTINUOUS
 62
     7
 66
     1
 10
0.0
 20
0.0
 30
0.0
  0
VERTEX
  5
5F7
  8
0
  6
CONTINUOUS
 62
     7
 10
96.45216145299091
 20
223.8050026072737
 30
0.0
  0
VERTEX
  5
5F8
  8
0
  6
CONTINUOUS
 62
     7
 10
96.48820009706913
 20
223.8367808443862
 30
0.0
  0
VERTEX
  5
5F9
  8
0
  6
CONTINUOUS
 62
     7
 10
96.52275474746502
 20
223.8703659739577
 30
0.0
  0
VERTEX
  5
5FA
  8
0
  6
CONTINUOUS
 62
     7
 10
96.55571747083978
 20
223.9056309232041
 30
0.0
  0
VERTEX
  5
5FB
  8
0
  6
CONTINUOUS
 62
     7
 10
96.58698033385461
 20
223.9424486193409
 30
0.0
  0
VERTEX
  5
5FC
  8
0
  6
CONTINUOUS
 62
     7
 10
96.61643540317071
 20
223.9806919895842
 30
0.0
  0
VERTEX
  5
5FD
  8
0
  6
CONTINUOUS
 62
     7
 10
96.6439747454493
 20
224.0202339611496
 30
0.0
  0
VERTEX
  5
5FE
  8
0
  6
CONTINUOUS
 62
     7
 10
96.66949042735156
 20
224.0609474612531
 30
0.0
  0
VERTEX
  5
5FF
  8
0
  6
CONTINUOUS
 62
     7
 10
96.6929789870333
 20
224.1028633049891
 30
0.0
  0
VERTEX
  5
600
  8
0
  6
CONTINUOUS
 62
     7
 10
96.71446896212842
 20
224.1459930809632
 30
0.0
  0
VERTEX
  5
601
  8
0
  6
CONTINUOUS
 62
     7
 10
96.73390056783259
 20
224.1901811284302
 30
0.0
  0
VERTEX
  5
602
  8
0
  6
CONTINUOUS
 62
     7
 10
96.75121401934136
 20
224.2352717866451
 30
0.0
  0
VERTEX
  5
603
  8
0
  6
CONTINUOUS
 62
     7
 10
96.76634953185028
 20
224.2811093948631
 30
0.0
  0
VERTEX
  5
604
  8
0
  6
CONTINUOUS
 62
     7
 10
96.77924732055497
 20
224.3275382923391
 30
0.0
  0
VERTEX
  5
605
  8
0
  6
CONTINUOUS
 62
     7
 10
96.78984760065099
 20
224.3744028183281
 30
0.0
  0
VERTEX
  5
606
  8
0
  6
CONTINUOUS
 62
     7
 10
96.7981365778903
 20
224.4217286222134
 30
0.0
  0
VERTEX
  5
607
  8
0
  6
CONTINUOUS
 62
     7
 10
96.80413792847469
 20
224.4695383147771
 30
0.0
  0
VERTEX
  5
608
  8
0
  6
CONTINUOUS
 62
     7
 10
96.80784678159168
 20
224.5176652364257
 30
0.0
  0
VERTEX
  5
609
  8
0
  6
CONTINUOUS
 62
     7
 10
96.80925826642886
 20
224.5659427275656
 30
0.0
  0
VERTEX
  5
60A
  8
0
  6
CONTINUOUS
 62
     7
 10
96.80836751217376
 20
224.614204128603
 30
0.0
  0
VERTEX
  5
60B
  8
0
  6
CONTINUOUS
 62
     7
 10
96.80516964801399
 20
224.6622827799443
 30
0.0
  0
VERTEX
  5
60C
  8
0
  6
CONTINUOUS
 62
     7
 10
96.79965980313706
 20
224.7100120219959
 30
0.0
  0
VERTEX
  5
60D
  8
0
  6
CONTINUOUS
 62
     7
 10
96.7918162836487
 20
224.7574125987177
 30
0.0
  0
VERTEX
  5
60E
  8
0
  6
CONTINUOUS
 62
     7
 10
96.78165406599418
 20
224.804512562525
 30
0.0
  0
VERTEX
  5
60F
  8
0
  6
CONTINUOUS
 62
     7
 10
96.76922372772557
 20
224.8511530616075
 30
0.0
  0
VERTEX
  5
610
  8
0
  6
CONTINUOUS
 62
     7
 10
96.75457584639493
 20
224.8971752441549
 30
0.0
  0
VERTEX
  5
611
  8
0
  6
CONTINUOUS
 62
     7
 10
96.73776099955433
 20
224.9424202583567
 30
0.0
  0
VERTEX
  5
612
  8
0
  6
CONTINUOUS
 62
     7
 10
96.71882976475582
 20
224.9867292524027
 30
0.0
  0
VERTEX
  5
613
  8
0
  6
CONTINUOUS
 62
     7
 10
96.69783271955146
 20
225.0299433744822
 30
0.0
  0
VERTEX
  5
614
  8
0
  6
CONTINUOUS
 62
     7
 10
96.67649287388377
 20
225.0690635142981
 30
0.0
  0
VERTEX
  5
615
  8
0
  6
CONTINUOUS
 62
     7
 10
96.6533778482548
 20
225.1072652997106
 30
0.0
  0
VERTEX
  5
616
  8
0
  6
CONTINUOUS
 62
     7
 10
96.62856383884514
 20
225.14443991775
 30
0.0
  0
VERTEX
  5
617
  8
0
  6
CONTINUOUS
 62
     7
 10
96.60212704183535
 20
225.1804785554464
 30
0.0
  0
VERTEX
  5
618
  8
0
  6
CONTINUOUS
 62
     7
 10
96.57414365340603
 20
225.21527239983
 30
0.0
  0
VERTEX
  5
619
  8
0
  6
CONTINUOUS
 62
     7
 10
96.54468986973774
 20
225.248712637931
 30
0.0
  0
SEQEND
  5
91F
  8
0
  6
CONTINUOUS
 62
     7
  0
ARC
  5
1EF
  8
0
  6
CONTINUOUS
 62
     7
 10
80.00000000000003
 20
210.0
 30
0.0
 40
22.50000000000001
 50
42.66577545837678
 51
57.33422454162329
  0
POLYLINE
  5
1F0
  8
0
  6
CONTINUOUS
 62
     7
 66
     1
 10
0.0
 20
0.0
 30
0.0
  0
VERTEX
  5
61A
  8
0
  6
CONTINUOUS
 62
     7
 10
92.14409518334529
 20
228.9412500162437
 30
0.0
  0
VERTEX
  5
61B
  8
0
  6
CONTINUOUS
 62
     7
 10
92.10302268002695
 20
228.96618372219
 30
0.0
  0
VERTEX
  5
61C
  8
0
  6
CONTINUOUS
 62
     7
 10
92.06066749657721
 20
228.9891624781904
 30
0.0
  0
VERTEX
  5
61D
  8
0
  6
CONTINUOUS
 62
     7
 10
92.01718309272799
 20
229.0101211136321
 30
0.0
  0
VERTEX
  5
61E
  8
0
  6
CONTINUOUS
 62
     7
 10
91.97272292821128
 20
229.0289944579021
 30
0.0
  0
VERTEX
  5
61F
  8
0
  6
CONTINUOUS
 62
     7
 10
91.927440462759
 20
229.0457173403877
 30
0.0
  0
VERTEX
  5
620
  8
0
  6
CONTINUOUS
 62
     7
 10
91.88148915610311
 20
229.0602245904757
 30
0.0
  0
VERTEX
  5
621
  8
0
  6
CONTINUOUS
 62
     7
 10
91.83502246797556
 20
229.0724510375534
 30
0.0
  0
VERTEX
  5
622
  8
0
  6
CONTINUOUS
 62
     7
 10
91.788012014251
 20
229.0823841957958
 30
0.0
  0
VERTEX
  5
623
  8
0
  6
CONTINUOUS
 62
     7
 10
91.74043822999428
 20
229.0900478539748
 30
0.0
  0
VERTEX
  5
624
  8
0
  6
CONTINUOUS
 62
     7
 10
91.69246751889732
 20
229.0954313208933
 30
0.0
  0
VERTEX
  5
625
  8
0
  6
CONTINUOUS
 62
     7
 10
91.6442662846519
 20
229.0985239053542
 30
0.0
  0
VERTEX
  5
626
  8
0
  6
CONTINUOUS
 62
     7
 10
91.5960009309499
 20
229.0993149161605
 30
0.0
  0
VERTEX
  5
627
  8
0
  6
CONTINUOUS
 62
     7
 10
91.54783786148315
 20
229.097793662115
 30
0.0
  0
VERTEX
  5
628
  8
0
  6
CONTINUOUS
 62
     7
 10
91.49994347994345
 20
229.0939494520208
 30
0.0
  0
VERTEX
  5
629
  8
0
  6
CONTINUOUS
 62
     7
 10
91.45229741178767
 20
229.0877614760131
 30
0.0
  0
VERTEX
  5
62A
  8
0
  6
CONTINUOUS
 62
     7
 10
91.4048710189456
 20
229.0792455982195
 30
0.0
  0
VERTEX
  5
62B
  8
0
  6
CONTINUOUS
 62
     7
 10
91.35782484306671
 20
229.0684468244594
 30
0.0
  0
VERTEX
  5
62C
  8
0
  6
CONTINUOUS
 62
     7
 10
91.31131942580052
 20
229.055410160552
 30
0.0
  0
VERTEX
  5
62D
  8
0
  6
CONTINUOUS
 62
     7
 10
91.26551530879651
 20
229.0401806123168
 30
0.0
  0
VERTEX
  5
62E
  8
0
  6
CONTINUOUS
 62
     7
 10
91.22057303370418
 20
229.0228031855731
 30
0.0
  0
VERTEX
  5
62F
  8
0
  6
CONTINUOUS
 62
     7
 10
91.17665314217304
 20
229.0033228861403
 30
0.0
  0
VERTEX
  5
630
  8
0
  6
CONTINUOUS
 62
     7
 10
91.13374229596928
 20
228.9817128248378
 30
0.0
  0
VERTEX
  5
631
  8
0
  6
CONTINUOUS
 62
     7
 10
91.09180925456738
 20
228.9579789398417
 30
0.0
  0
VERTEX
  5
632
  8
0
  6
CONTINUOUS
 62
     7
 10
91.05099058586943
 20
228.9322168407467
 30
0.0
  0
VERTEX
  5
633
  8
0
  6
CONTINUOUS
 62
     7
 10
91.01142285777759
 20
228.9045221371472
 30
0.0
  0
VERTEX
  5
634
  8
0
  6
CONTINUOUS
 62
     7
 10
90.97324263819398
 20
228.8749904386377
 30
0.0
  0
VERTEX
  5
635
  8
0
  6
CONTINUOUS
 62
     7
 10
90.93658649502073
 20
228.8437173548126
 30
0.0
  0
VERTEX
  5
636
  8
0
  6
CONTINUOUS
 62
     7
 10
90.90159099616
 20
228.8107984952666
 30
0.0
  0
VERTEX
  5
637
  8
0
  6
CONTINUOUS
 62
     7
 10
90.8706056788958
 20
228.7787721863069
 30
0.0
  0
VERTEX
  5
638
  8
0
  6
CONTINUOUS
 62
     7
 10
90.84102591335363
 20
228.7453249399598
 30
0.0
  0
VERTEX
  5
639
  8
0
  6
CONTINUOUS
 62
     7
 10
90.81293286826336
 20
228.7105619120981
 30
0.0
  0
VERTEX
  5
63A
  8
0
  6
CONTINUOUS
 62
     7
 10
90.7864077123549
 20
228.6745882585948
 30
0.0
  0
VERTEX
  5
63B
  8
0
  6
CONTINUOUS
 62
     7
 10
90.76153161435812
 20
228.6375091353226
 30
0.0
  0
VERTEX
  5
63C
  8
0
  6
CONTINUOUS
 62
     7
 10
90.73838574300291
 20
228.5994296981543
 30
0.0
  0
SEQEND
  5
920
  8
0
  6
CONTINUOUS
 62
     7
  0
LINE
  5
1F1
  8
0
  6
CONTINUOUS
 62
     7
 10
90.73838574300291
 20
228.5994296981543
 30
0.0
 11
90.24694147613428
 21
227.7482232588494
 31
0.0
  0
POLYLINE
  5
1F2
  8
0
  6
CONTINUOUS
 62
     7
 66
     1
 10
0.0
 20
0.0
 30
0.0
  0
VERTEX
  5
63D
  8
0
  6
CONTINUOUS
 62
     7
 10
90.24694147613428
 20
227.7482232588494
 30
0.0
  0
VERTEX
  5
63E
  8
0
  6
CONTINUOUS
 62
     7
 10
90.23442284086265
 20
227.7277186939226
 30
0.0
  0
VERTEX
  5
63F
  8
0
  6
CONTINUOUS
 62
     7
 10
90.22088563983247
 20
227.7077879711763
 30
0.0
  0
VERTEX
  5
640
  8
0
  6
CONTINUOUS
 62
     7
 10
90.2063830737851
 20
227.6884952695204
 30
0.0
  0
VERTEX
  5
641
  8
0
  6
CONTINUOUS
 62
     7
 10
90.19096834346185
 20
227.6699047678647
 30
0.0
  0
VERTEX
  5
642
  8
0
  6
CONTINUOUS
 62
     7
 10
90.17469464960404
 20
227.6520806451189
 30
0.0
  0
VERTEX
  5
643
  8
0
  6
CONTINUOUS
 62
     7
 10
90.15761519295297
 20
227.6350870801926
 30
0.0
  0
VERTEX
  5
644
  8
0
  6
CONTINUOUS
 62
     7
 10
90.13978317425
 20
227.6189882519957
 30
0.0
  0
VERTEX
  5
645
  8
0
  6
CONTINUOUS
 62
     7
 10
90.1211831252515
 20
227.6037831921464
 30
0.0
  0
VERTEX
  5
646
  8
0
  6
CONTINUOUS
 62
     7
 10
90.10181181421258
 20
227.5894568373588
 30
0.0
  0
VERTEX
  5
647
  8
0
  6
CONTINUOUS
 62
     7
 10
90.08174069771131
 20
227.5760521391978
 30
0.0
  0
VERTEX
  5
648
  8
0
  6
CONTINUOUS
 62
     7
 10
90.06104123232586
 20
227.5636120492285
 30
0.0
  0
VERTEX
  5
649
  8
0
  6
CONTINUOUS
 62
     7
 10
90.03978487463435
 20
227.5521795190161
 30
0.0
  0
VERTEX
  5
64A
  8
0
  6
CONTINUOUS
 62
     7
 10
90.01804308121491
 20
227.5417975001254
 30
0.0
  0
VERTEX
  5
64B
  8
0
  6
CONTINUOUS
 62
     7
 10
89.99588730864569
 20
227.5325089441216
 30
0.0
  0
VERTEX
  5
64C
  8
0
  6
CONTINUOUS
 62
     7
 10
89.97330360462982
 20
227.524318372815
 30
0.0
  0
VERTEX
  5
64D
  8
0
  6
CONTINUOUS
 62
     7
 10
89.95028301233015
 20
227.5172122180685
 30
0.0
  0
VERTEX
  5
64E
  8
0
  6
CONTINUOUS
 62
     7
 10
89.92690717166745
 20
227.5112073475306
 30
0.0
  0
VERTEX
  5
64F
  8
0
  6
CONTINUOUS
 62
     7
 10
89.9032577225626
 20
227.5063206288499
 30
0.0
  0
VERTEX
  5
650
  8
0
  6
CONTINUOUS
 62
     7
 10
89.87941630493643
 20
227.502568929675
 30
0.0
  0
VERTEX
  5
651
  8
0
  6
CONTINUOUS
 62
     7
 10
89.85546455870971
 20
227.4999691176544
 30
0.0
  0
VERTEX
  5
652
  8
0
  6
CONTINUOUS
 62
     7
 10
89.83148412380332
 20
227.4985380604367
 30
0.0
  0
VERTEX
  5
653
  8
0
  6
CONTINUOUS
 62
     7
 10
89.80746274505591
 20
227.4982846404152
 30
0.0
  0
VERTEX
  5
654
  8
0
  6
CONTINUOUS
 62
     7
 10
89.78338806615774
 20
227.4991990605562
 30
0.0
  0
VERTEX
  5
655
  8
0
  6
CONTINUOUS
 62
     7
 10
89.75934269781679
 20
227.5012702087579
 30
0.0
  0
VERTEX
  5
656
  8
0
  6
CONTINUOUS
 62
     7
 10
89.7354092507411
 20
227.5044869729187
 30
0.0
  0
VERTEX
  5
657
  8
0
  6
CONTINUOUS
 62
     7
 10
89.71167033563863
 20
227.5088382409368
 30
0.0
  0
VERTEX
  5
658
  8
0
  6
CONTINUOUS
 62
     7
 10
89.68820856321743
 20
227.5143129007105
 30
0.0
  0
VERTEX
  5
659
  8
0
  6
CONTINUOUS
 62
     7
 10
89.66510654418546
 20
227.520899840138
 30
0.0
  0
VERTEX
  5
65A
  8
0
  6
CONTINUOUS
 62
     7
 10
89.6418115601597
 20
227.5288013527791
 30
0.0
  0
VERTEX
  5
65B
  8
0
  6
CONTINUOUS
 62
     7
 10
89.61890561391628
 20
227.5378499808372
 30
0.0
  0
VERTEX
  5
65C
  8
0
  6
CONTINUOUS
 62
     7
 10
89.59647090561836
 20
227.5480108845296
 30
0.0
  0
VERTEX
  5
65D
  8
0
  6
CONTINUOUS
 62
     7
 10
89.57458963542908
 20
227.5592492240737
 30
0.0
  0
SEQEND
  5
921
  8
0
  6
CONTINUOUS
 62
     7
  0
ARC
  5
1F3
  8
0
  6
CONTINUOUS
 62
     7
 10
80.00000000000003
 20
210.0
 30
0.0
 40
20.00000000000001
 50
61.39754469965717
 51
63.06464108559904
  0
POLYLINE
  5
1F4
  8
0
  6
CONTINUOUS
 62
     7
 66
     1
 10
0.0
 20
0.0
 30
0.0
  0
VERTEX
  5
65E
  8
0
  6
CONTINUOUS
 62
     7
 10
89.05969955329186
 20
227.830362980155
 30
0.0
  0
VERTEX
  5
65F
  8
0
  6
CONTINUOUS
 62
     7
 10
89.03855530988255
 20
227.8417673461496
 30
0.0
  0
VERTEX
  5
660
  8
0
  6
CONTINUOUS
 62
     7
 10
89.01792963393379
 20
227.8542194993852
 30
0.0
  0
VERTEX
  5
661
  8
0
  6
CONTINUOUS
 62
     7
 10
88.99788945473438
 20
227.8676697437937
 30
0.0
  0
VERTEX
  5
662
  8
0
  6
CONTINUOUS
 62
     7
 10
88.97850170157321
 20
227.8820683833074
 30
0.0
  0
VERTEX
  5
663
  8
0
  6
CONTINUOUS
 62
     7
 10
88.95983330373902
 20
227.8973657218583
 30
0.0
  0
VERTEX
  5
664
  8
0
  6
CONTINUOUS
 62
     7
 10
88.94195119052071
 20
227.9135120633783
 30
0.0
  0
VERTEX
  5
665
  8
0
  6
CONTINUOUS
 62
     7
 10
88.92492229120707
 20
227.9304577117997
 30
0.0
  0
VERTEX
  5
666
  8
0
  6
CONTINUOUS
 62
     7
 10
88.90874481944482
 20
227.9482180459955
 30
0.0
  0
VERTEX
  5
667
  8
0
  6
CONTINUOUS
 62
     7
 10
88.89340354632202
 20
227.9667954959573
 30
0.0
  0
VERTEX
  5
668
  8
0
  6
CONTINUOUS
 62
     7
 10
88.8789451774311
 20
227.9861210048576
 30
0.0
  0
VERTEX
  5
669
  8
0
  6
CONTINUOUS
 62
     7
 10
88.86541641836443
 20
228.0061255158684
 30
0.0
  0
VERTEX
  5
66A
  8
0
  6
CONTINUOUS
 62
     7
 10
88.85286397471437
 20
228.0267399721621
 30
0.0
  0
VERTEX
  5
66B
  8
0
  6
CONTINUOUS
 62
     7
 10
88.84133455207328
 20
228.0478953169109
 30
0.0
  0
VERTEX
  5
66C
  8
0
  6
CONTINUOUS
 62
     7
 10
88.83087485603356
 20
228.0695224932869
 30
0.0
  0
VERTEX
  5
66D
  8
0
  6
CONTINUOUS
 62
     7
 10
88.82148851962552
 20
228.0916360083369
 30
0.0
  0
VERTEX
  5
66E
  8
0
  6
CONTINUOUS
 62
     7
 10
88.81316167785972
 20
228.1142437593308
 30
0.0
  0
VERTEX
  5
66F
  8
0
  6
CONTINUOUS
 62
     7
 10
88.80591553684879
 20
228.1372651271723
 30
0.0
  0
VERTEX
  5
670
  8
0
  6
CONTINUOUS
 62
     7
 10
88.79977130270527
 20
228.1606194927651
 30
0.0
  0
VERTEX
  5
671
  8
0
  6
CONTINUOUS
 62
     7
 10
88.79475018154172
 20
228.1842262370127
 30
0.0
  0
VERTEX
  5
672
  8
0
  6
CONTINUOUS
 62
     7
 10
88.7908733794707
 20
228.2080047408188
 30
0.0
  0
VERTEX
  5
673
  8
0
  6
CONTINUOUS
 62
     7
 10
88.78816210260479
 20
228.2318743850871
 30
0.0
  0
VERTEX
  5
674
  8
0
  6
CONTINUOUS
 62
     7
 10
88.78659445912685
 20
228.2565356954552
 30
0.0
  0
VERTEX
  5
675
  8
0
  6
CONTINUOUS
 62
     7
 10
88.78625314075356
 20
228.2813049063484
 30
0.0
  0
VERTEX
  5
676
  8
0
  6
CONTINUOUS
 62
     7
 10
88.78713270198239
 20
228.3060915497111
 30
0.0
  0
VERTEX
  5
677
  8
0
  6
CONTINUOUS
 62
     7
 10
88.7892276973108
 20
228.3308051574874
 30
0.0
  0
VERTEX
  5
678
  8
0
  6
CONTINUOUS
 62
     7
 10
88.79253268123624
 20
228.3553552616216
 30
0.0
  0
VERTEX
  5
679
  8
0
  6
CONTINUOUS
 62
     7
 10
88.79704220825617
 20
228.3796513940578
 30
0.0
  0
SEQEND
  5
922
  8
0
  6
CONTINUOUS
 62
     7
  0
ARC
  5
1F5
  8
0
  6
CONTINUOUS
 62
     7
 10
86.84040286651337
 20
228.793852415718
 30
0.0
 40
2.00000000000001
 50
348.0475113361005
 51
151.9524886638995
  0
POLYLINE
  5
1F6
  8
0
  6
CONTINUOUS
 62
     7
 66
     1
 10
0.0
 20
0.0
 30
0.0
  0
VERTEX
  5
67A
  8
0
  6
CONTINUOUS
 62
     7
 10
85.07528688694066
 20
229.7342595502386
 30
0.0
  0
VERTEX
  5
67B
  8
0
  6
CONTINUOUS
 62
     7
 10
85.06347427007714
 20
229.7133406430999
 30
0.0
  0
VERTEX
  5
67C
  8
0
  6
CONTINUOUS
 62
     7
 10
85.05062412849385
 20
229.6929605427619
 30
0.0
  0
VERTEX
  5
67D
  8
0
  6
CONTINUOUS
 62
     7
 10
85.036787447961
 20
229.6731852013294
 30
0.0
  0
VERTEX
  5
67E
  8
0
  6
CONTINUOUS
 62
     7
 10
85.02201521424882
 20
229.6540805709068
 30
0.0
  0
VERTEX
  5
67F
  8
0
  6
CONTINUOUS
 62
     7
 10
85.00635841312746
 20
229.6357126035988
 30
0.0
  0
VERTEX
  5
680
  8
0
  6
CONTINUOUS
 62
     7
 10
84.98986803036718
 20
229.6181472515101
 30
0.0
  0
VERTEX
  5
681
  8
0
  6
CONTINUOUS
 62
     7
 10
84.97259505173815
 20
229.6014504667452
 30
0.0
  0
VERTEX
  5
682
  8
0
  6
CONTINUOUS
 62
     7
 10
84.95452406659213
 20
229.5856207617836
 30
0.0
  0
VERTEX
  5
683
  8
0
  6
CONTINUOUS
 62
     7
 10
84.93565234980956
 20
229.5706429577473
 30
0.0
  0
VERTEX
  5
684
  8
0
  6
CONTINUOUS
 62
     7
 10
84.91604985174152
 20
229.5565624110714
 30
0.0
  0
VERTEX
  5
685
  8
0
  6
CONTINUOUS
 62
     7
 10
84.89578652273902
 20
229.5434244781913
 30
0.0
  0
VERTEX
  5
686
  8
0
  6
CONTINUOUS
 62
     7
 10
84.87493231315314
 20
229.531274515542
 30
0.0
  0
VERTEX
  5
687
  8
0
  6
CONTINUOUS
 62
     7
 10
84.8535571733349
 20
229.5201578795586
 30
0.0
  0
VERTEX
  5
688
  8
0
  6
CONTINUOUS
 62
     7
 10
84.83173105363538
 20
229.5101199266765
 30
0.0
  0
VERTEX
  5
689
  8
0
  6
CONTINUOUS
 62
     7
 10
84.80943952025798
 20
229.5011645708165
 30
0.0
  0
VERTEX
  5
68A
  8
0
  6
CONTINUOUS
 62
     7
 10
84.78667440830613
 20
229.4932781028826
 30
0.0
  0
VERTEX
  5
68B
  8
0
  6
CONTINUOUS
 62
     7
 10
84.76351673328901
 20
229.4864801602156
 30
0.0
  0
VERTEX
  5
68C
  8
0
  6
CONTINUOUS
 62
     7
 10
84.74004751071583
 20
229.4807903801569
 30
0.0
  0
VERTEX
  5
68D
  8
0
  6
CONTINUOUS
 62
     7
 10
84.7163477560958
 20
229.4762284000474
 30
0.0
  0
VERTEX
  5
68E
  8
0
  6
CONTINUOUS
 62
     7
 10
84.69249848493813
 20
229.4728138572283
 30
0.0
  0
VERTEX
  5
68F
  8
0
  6
CONTINUOUS
 62
     7
 10
84.66858071275202
 20
229.4705663890407
 30
0.0
  0
VERTEX
  5
690
  8
0
  6
CONTINUOUS
 62
     7
 10
84.64389362094859
 20
229.4694777046455
 30
0.0
  0
VERTEX
  5
691
  8
0
  6
CONTINUOUS
 62
     7
 10
84.61912245130674
 20
229.4696172086332
 30
0.0
  0
VERTEX
  5
692
  8
0
  6
CONTINUOUS
 62
     7
 10
84.59435754914519
 20
229.4709777005871
 30
0.0
  0
VERTEX
  5
693
  8
0
  6
CONTINUOUS
 62
     7
 10
84.56968925978278
 20
229.4735519800907
 30
0.0
  0
VERTEX
  5
694
  8
0
  6
CONTINUOUS
 62
     7
 10
84.54520792853832
 20
229.4773328467275
 30
0.0
  0
VERTEX
  5
695
  8
0
  6
CONTINUOUS
 62
     7
 10
84.52100390073056
 20
229.4823131000808
 30
0.0
  0
SEQEND
  5
923
  8
0
  6
CONTINUOUS
 62
     7
  0
ARC
  5
1F7
  8
0
  6
CONTINUOUS
 62
     7
 10
80.00000000000003
 20
210.0
 30
0.0
 40
20.0
 50
76.93535891440087
 51
78.60245530034285
  0
POLYLINE
  5
1F8
  8
0
  6
CONTINUOUS
 62
     7
 66
     1
 10
0.0
 20
0.0
 30
0.0
  0
VERTEX
  5
696
  8
0
  6
CONTINUOUS
 62
     7
 10
83.95230665126759
 20
229.6055928789299
 30
0.0
  0
VERTEX
  5
697
  8
0
  6
CONTINUOUS
 62
     7
 10
83.92887990895363
 20
229.6109165202071
 30
0.0
  0
VERTEX
  5
698
  8
0
  6
CONTINUOUS
 62
     7
 10
83.90567210588742
 20
229.6173885676225
 30
0.0
  0
VERTEX
  5
699
  8
0
  6
CONTINUOUS
 62
     7
 10
83.88276103896736
 20
229.6249790729887
 30
0.0
  0
VERTEX
  5
69A
  8
0
  6
CONTINUOUS
 62
     7
 10
83.86022450509184
 20
229.6336580881181
 30
0.0
  0
VERTEX
  5
69B
  8
0
  6
CONTINUOUS
 62
     7
 10
83.83814030115926
 20
229.6433956648233
 30
0.0
  0
VERTEX
  5
69C
  8
0
  6
CONTINUOUS
 62
     7
 10
83.81658622406799
 20
229.6541618549169
 30
0.0
  0
VERTEX
  5
69D
  8
0
  6
CONTINUOUS
 62
     7
 10
83.79564007071647
 20
229.6659267102114
 30
0.0
  0
VERTEX
  5
69E
  8
0
  6
CONTINUOUS
 62
     7
 10
83.7752959889477
 20
229.6787045818944
 30
0.0
  0
VERTEX
  5
69F
  8
0
  6
CONTINUOUS
 62
     7
 10
83.75553867153475
 20
229.6924937276804
 30
0.0
  0
VERTEX
  5
6A0
  8
0
  6
CONTINUOUS
 62
     7
 10
83.73643162067
 20
229.7072401258046
 30
0.0
  0
VERTEX
  5
6A1
  8
0
  6
CONTINUOUS
 62
     7
 10
83.7180383385458
 20
229.7228897545025
 30
0.0
  0
VERTEX
  5
6A2
  8
0
  6
CONTINUOUS
 62
     7
 10
83.70042232735452
 20
229.7393885920091
 30
0.0
  0
VERTEX
  5
6A3
  8
0
  6
CONTINUOUS
 62
     7
 10
83.6836470892885
 20
229.7566826165599
 30
0.0
  0
VERTEX
  5
6A4
  8
0
  6
CONTINUOUS
 62
     7
 10
83.66777612654012
 20
229.7747178063901
 30
0.0
  0
VERTEX
  5
6A5
  8
0
  6
CONTINUOUS
 62
     7
 10
83.6528092738957
 20
229.7935088273112
 30
0.0
  0
VERTEX
  5
6A6
  8
0
  6
CONTINUOUS
 62
     7
 10
83.63873081485774
 20
229.8130598399744
 30
0.0
  0
VERTEX
  5
6A7
  8
0
  6
CONTINUOUS
 62
     7
 10
83.62558277894863
 20
229.8332988505363
 30
0.0
  0
VERTEX
  5
6A8
  8
0
  6
CONTINUOUS
 62
     7
 10
83.61340719569073
 20
229.8541538651536
 30
0.0
  0
VERTEX
  5
6A9
  8
0
  6
CONTINUOUS
 62
     7
 10
83.60224609460643
 20
229.8755528899829
 30
0.0
  0
VERTEX
  5
6AA
  8
0
  6
CONTINUOUS
 62
     7
 10
83.5921415052181
 20
229.8974239311807
 30
0.0
  0
VERTEX
  5
6AB
  8
0
  6
CONTINUOUS
 62
     7
 10
83.58313545704812
 20
229.9196949949036
 30
0.0
  0
VERTEX
  5
6AC
  8
0
  6
CONTINUOUS
 62
     7
 10
83.57523245903083
 20
229.9423805295236
 30
0.0
  0
VERTEX
  5
6AD
  8
0
  6
CONTINUOUS
 62
     7
 10
83.56841928431992
 20
229.965489120537
 30
0.0
  0
VERTEX
  5
6AE
  8
0
  6
CONTINUOUS
 62
     7
 10
83.56271175417784
 20
229.9889389284941
 30
0.0
  0
VERTEX
  5
6AF
  8
0
  6
CONTINUOUS
 62
     7
 10
83.55812568986707
 20
230.0126481139451
 30
0.0
  0
VERTEX
  5
6B0
  8
0
  6
CONTINUOUS
 62
     7
 10
83.55467691265008
 20
230.0365348374402
 30
0.0
  0
VERTEX
  5
6B1
  8
0
  6
CONTINUOUS
 62
     7
 10
83.55238124378934
 20
230.0605172595299
 30
0.0
  0
VERTEX
  5
6B2
  8
0
  6
CONTINUOUS
 62
     7
 10
83.55125450454732
 20
230.0845135407642
 30
0.0
  0
VERTEX
  5
6B3
  8
0
  6
CONTINUOUS
 62
     7
 10
83.55131210248229
 20
230.109112054243
 30
0.0
  0
VERTEX
  5
6B4
  8
0
  6
CONTINUOUS
 62
     7
 10
83.55258098751514
 20
230.13370778505
 30
0.0
  0
VERTEX
  5
6B5
  8
0
  6
CONTINUOUS
 62
     7
 10
83.55505436192247
 20
230.1582117137027
 30
0.0
  0
VERTEX
  5
6B6
  8
0
  6
CONTINUOUS
 62
     7
 10
83.55872542798083
 20
230.1825348207188
 30
0.0
  0
SEQEND
  5
924
  8
0
  6
CONTINUOUS
 62
     7
  0
LINE
  5
1F9
  8
0
  6
CONTINUOUS
 62
     7
 10
83.55872542798083
 20
230.1825348207188
 30
0.0
 11
83.72940223071403
 21
231.15049106909
 31
0.0
  0
POLYLINE
  5
1FA
  8
0
  6
CONTINUOUS
 62
     7
 66
     1
 10
0.0
 20
0.0
 30
0.0
  0
VERTEX
  5
6B7
  8
0
  6
CONTINUOUS
 62
     7
 10
83.72940223071403
 20
231.15049106909
 30
0.0
  0
VERTEX
  5
6B8
  8
0
  6
CONTINUOUS
 62
     7
 10
83.73658277667406
 20
231.1979998049256
 30
0.0
  0
VERTEX
  5
6B9
  8
0
  6
CONTINUOUS
 62
     7
 10
83.74146506943548
 20
231.2459388079369
 30
0.0
  0
VERTEX
  5
6BA
  8
0
  6
CONTINUOUS
 62
     7
 10
83.74404810807503
 20
231.2941413565107
 30
0.0
  0
VERTEX
  5
6BB
  8
0
  6
CONTINUOUS
 62
     7
 10
83.74433089166955
 20
231.342440729034
 30
0.0
  0
VERTEX
  5
6BC
  8
0
  6
CONTINUOUS
 62
     7
 10
83.74231241929581
 20
231.3906702038939
 30
0.0
  0
VERTEX
  5
6BD
  8
0
  6
CONTINUOUS
 62
     7
 10
83.73799169003064
 20
231.4386630594771
 30
0.0
  0
VERTEX
  5
6BE
  8
0
  6
CONTINUOUS
 62
     7
 10
83.73136770295082
 20
231.4862525741707
 30
0.0
  0
VERTEX
  5
6BF
  8
0
  6
CONTINUOUS
 62
     7
 10
83.72241799856874
 20
231.5334601284762
 30
0.0
  0
VERTEX
  5
6C0
  8
0
  6
CONTINUOUS
 62
     7
 10
83.71115698896847
 20
231.5803129434177
 30
0.0
  0
VERTEX
  5
6C1
  8
0
  6
CONTINUOUS
 62
     7
 10
83.69763893313099
 20
231.626653347015
 30
0.0
  0
VERTEX
  5
6C2
  8
0
  6
CONTINUOUS
 62
     7
 10
83.68191809003729
 20
231.672323667288
 30
0.0
  0
VERTEX
  5
6C3
  8
0
  6
CONTINUOUS
 62
     7
 10
83.66404871866834
 20
231.7171662322562
 30
0.0
  0
VERTEX
  5
6C4
  8
0
  6
CONTINUOUS
 62
     7
 10
83.6440850780051
 20
231.7610233699395
 30
0.0
  0
VERTEX
  5
6C5
  8
0
  6
CONTINUOUS
 62
     7
 10
83.6220814270286
 20
231.8037374083577
 30
0.0
  0
VERTEX
  5
6C6
  8
0
  6
CONTINUOUS
 62
     7
 10
83.59801071162603
 20
231.8453191293066
 30
0.0
  0
VERTEX
  5
6C7
  8
0
  6
CONTINUOUS
 62
     7
 10
83.5718765348895
 20
231.8858010724193
 30
0.0
  0
VERTEX
  5
6C8
  8
0
  6
CONTINUOUS
 62
     7
 10
83.54378229228202
 20
231.9250524381424
 30
0.0
  0
VERTEX
  5
6C9
  8
0
  6
CONTINUOUS
 62
     7
 10
83.51383137926663
 20
231.9629424269224
 30
0.0
  0
VERTEX
  5
6CA
  8
0
  6
CONTINUOUS
 62
     7
 10
83.48212719130638
 20
231.9993402392058
 30
0.0
  0
VERTEX
  5
6CB
  8
0
  6
CONTINUOUS
 62
     7
 10
83.44877312386429
 20
232.0341150754391
 30
0.0
  0
VERTEX
  5
6CC
  8
0
  6
CONTINUOUS
 62
     7
 10
83.41387257240339
 20
232.0671361360688
 30
0.0
  0
VERTEX
  5
6CD
  8
0
  6
CONTINUOUS
 62
     7
 10
83.37739558447612
 20
232.0984053673237
 30
0.0
  0
VERTEX
  5
6CE
  8
0
  6
CONTINUOUS
 62
     7
 10
83.33933560096007
 20
232.1279538852741
 30
0.0
  0
VERTEX
  5
6CF
  8
0
  6
CONTINUOUS
 62
     7
 10
83.29983347448345
 20
232.1556925129973
 30
0.0
  0
VERTEX
  5
6D0
  8
0
  6
CONTINUOUS
 62
     7
 10
83.25903005767447
 20
232.1815320735705
 30
0.0
  0
VERTEX
  5
6D1
  8
0
  6
CONTINUOUS
 62
     7
 10
83.21706620316128
 20
232.2053833900708
 30
0.0
  0
VERTEX
  5
6D2
  8
0
  6
CONTINUOUS
 62
     7
 10
83.17408276357213
 20
232.2271572855752
 30
0.0
  0
VERTEX
  5
6D3
  8
0
  6
CONTINUOUS
 62
     7
 10
83.1302205915352
 20
232.2467645831611
 30
0.0
  0
VERTEX
  5
6D4
  8
0
  6
CONTINUOUS
 62
     7
 10
83.0887273801816
 20
232.2630153604933
 30
0.0
  0
VERTEX
  5
6D5
  8
0
  6
CONTINUOUS
 62
     7
 10
83.04646460891489
 20
232.277421573854
 30
0.0
  0
VERTEX
  5
6D6
  8
0
  6
CONTINUOUS
 62
     7
 10
83.00356059102458
 20
232.2899488456329
 30
0.0
  0
VERTEX
  5
6D7
  8
0
  6
CONTINUOUS
 62
     7
 10
82.96014363980014
 20
232.3005627982201
 30
0.0
  0
VERTEX
  5
6D8
  8
0
  6
CONTINUOUS
 62
     7
 10
82.91634206853105
 20
232.3092290540055
 30
0.0
  0
VERTEX
  5
6D9
  8
0
  6
CONTINUOUS
 62
     7
 10
82.8722841905068
 20
232.315913235379
 30
0.0
  0
SEQEND
  5
925
  8
0
  6
CONTINUOUS
 62
     7
  0
ARC
  5
1FB
  8
0
  6
CONTINUOUS
 62
     7
 10
80.00000000000001
 20
210.0
 30
0.0
 40
22.50000000000001
 50
82.66577545837674
 51
97.3342245416232
  0
POLYLINE
  5
1FC
  8
0
  6
CONTINUOUS
 62
     7
 66
     1
 10
0.0
 20
0.0
 30
0.0
  0
VERTEX
  5
6DA
  8
0
  6
CONTINUOUS
 62
     7
 10
76.27059776928601
 20
231.15049106909
 30
0.0
  0
VERTEX
  5
6DB
  8
0
  6
CONTINUOUS
 62
     7
 10
76.26341722332597
 20
231.1979998049256
 30
0.0
  0
VERTEX
  5
6DC
  8
0
  6
CONTINUOUS
 62
     7
 10
76.25853493056457
 20
231.2459388079369
 30
0.0
  0
VERTEX
  5
6DD
  8
0
  6
CONTINUOUS
 62
     7
 10
76.25595189192501
 20
231.2941413565107
 30
0.0
  0
VERTEX
  5
6DE
  8
0
  6
CONTINUOUS
 62
     7
 10
76.2556691083305
 20
231.342440729034
 30
0.0
  0
VERTEX
  5
6DF
  8
0
  6
CONTINUOUS
 62
     7
 10
76.25768758070423
 20
231.3906702038939
 30
0.0
  0
VERTEX
  5
6E0
  8
0
  6
CONTINUOUS
 62
     7
 10
76.2620083099694
 20
231.4386630594771
 30
0.0
  0
VERTEX
  5
6E1
  8
0
  6
CONTINUOUS
 62
     7
 10
76.26863229704922
 20
231.4862525741707
 30
0.0
  0
VERTEX
  5
6E2
  8
0
  6
CONTINUOUS
 62
     7
 10
76.2775820014313
 20
231.5334601284762
 30
0.0
  0
VERTEX
  5
6E3
  8
0
  6
CONTINUOUS
 62
     7
 10
76.28884301103157
 20
231.5803129434177
 30
0.0
  0
VERTEX
  5
6E4
  8
0
  6
CONTINUOUS
 62
     7
 10
76.30236106686905
 20
231.626653347015
 30
0.0
  0
VERTEX
  5
6E5
  8
0
  6
CONTINUOUS
 62
     7
 10
76.31808190996276
 20
231.672323667288
 30
0.0
  0
VERTEX
  5
6E6
  8
0
  6
CONTINUOUS
 62
     7
 10
76.3359512813317
 20
231.7171662322562
 30
0.0
  0
VERTEX
  5
6E7
  8
0
  6
CONTINUOUS
 62
     7
 10
76.35591492199494
 20
231.7610233699395
 30
0.0
  0
VERTEX
  5
6E8
  8
0
  6
CONTINUOUS
 62
     7
 10
76.37791857297144
 20
231.8037374083577
 30
0.0
  0
VERTEX
  5
6E9
  8
0
  6
CONTINUOUS
 62
     7
 10
76.40198928837401
 20
231.8453191293066
 30
0.0
  0
VERTEX
  5
6EA
  8
0
  6
CONTINUOUS
 62
     7
 10
76.42812346511054
 20
231.8858010724193
 30
0.0
  0
VERTEX
  5
6EB
  8
0
  6
CONTINUOUS
 62
     7
 10
76.45621770771803
 20
231.9250524381424
 30
0.0
  0
VERTEX
  5
6EC
  8
0
  6
CONTINUOUS
 62
     7
 10
76.48616862073341
 20
231.9629424269224
 30
0.0
  0
VERTEX
  5
6ED
  8
0
  6
CONTINUOUS
 62
     7
 10
76.51787280869367
 20
231.9993402392058
 30
0.0
  0
VERTEX
  5
6EE
  8
0
  6
CONTINUOUS
 62
     7
 10
76.55122687613576
 20
232.0341150754391
 30
0.0
  0
VERTEX
  5
6EF
  8
0
  6
CONTINUOUS
 62
     7
 10
76.58612742759665
 20
232.0671361360688
 30
0.0
  0
VERTEX
  5
6F0
  8
0
  6
CONTINUOUS
 62
     7
 10
76.62260441552391
 20
232.0984053673237
 30
0.0
  0
VERTEX
  5
6F1
  8
0
  6
CONTINUOUS
 62
     7
 10
76.66066439903997
 20
232.1279538852741
 30
0.0
  0
VERTEX
  5
6F2
  8
0
  6
CONTINUOUS
 62
     7
 10
76.7001665255166
 20
232.1556925129973
 30
0.0
  0
VERTEX
  5
6F3
  8
0
  6
CONTINUOUS
 62
     7
 10
76.74096994232558
 20
232.1815320735705
 30
0.0
  0
VERTEX
  5
6F4
  8
0
  6
CONTINUOUS
 62
     7
 10
76.78293379683876
 20
232.2053833900708
 30
0.0
  0
VERTEX
  5
6F5
  8
0
  6
CONTINUOUS
 62
     7
 10
76.82591723642791
 20
232.2271572855752
 30
0.0
  0
VERTEX
  5
6F6
  8
0
  6
CONTINUOUS
 62
     7
 10
76.86977940846482
 20
232.2467645831611
 30
0.0
  0
VERTEX
  5
6F7
  8
0
  6
CONTINUOUS
 62
     7
 10
76.91127261981845
 20
232.2630153604933
 30
0.0
  0
VERTEX
  5
6F8
  8
0
  6
CONTINUOUS
 62
     7
 10
76.95353539108515
 20
232.277421573854
 30
0.0
  0
VERTEX
  5
6F9
  8
0
  6
CONTINUOUS
 62
     7
 10
76.99643940897546
 20
232.2899488456329
 30
0.0
  0
VERTEX
  5
6FA
  8
0
  6
CONTINUOUS
 62
     7
 10
77.0398563601999
 20
232.3005627982201
 30
0.0
  0
VERTEX
  5
6FB
  8
0
  6
CONTINUOUS
 62
     7
 10
77.08365793146898
 20
232.3092290540055
 30
0.0
  0
VERTEX
  5
6FC
  8
0
  6
CONTINUOUS
 62
     7
 10
77.12771580949324
 20
232.315913235379
 30
0.0
  0
SEQEND
  5
926
  8
0
  6
CONTINUOUS
 62
     7
  0
LINE
  5
1FD
  8
0
  6
CONTINUOUS
 62
     7
 10
76.44127457201921
 20
230.1825348207188
 30
0.0
 11
76.27059776928601
 21
231.15049106909
 31
0.0
  0
POLYLINE
  5
1FE
  8
0
  6
CONTINUOUS
 62
     7
 66
     1
 10
0.0
 20
0.0
 30
0.0
  0
VERTEX
  5
6FD
  8
0
  6
CONTINUOUS
 62
     7
 10
76.04769334873244
 20
229.6055928789299
 30
0.0
  0
VERTEX
  5
6FE
  8
0
  6
CONTINUOUS
 62
     7
 10
76.07112009104641
 20
229.6109165202071
 30
0.0
  0
VERTEX
  5
6FF
  8
0
  6
CONTINUOUS
 62
     7
 10
76.09432789411262
 20
229.6173885676225
 30
0.0
  0
VERTEX
  5
700
  8
0
  6
CONTINUOUS
 62
     7
 10
76.11723896103268
 20
229.6249790729887
 30
0.0
  0
VERTEX
  5
701
  8
0
  6
CONTINUOUS
 62
     7
 10
76.1397754949082
 20
229.6336580881181
 30
0.0
  0
VERTEX
  5
702
  8
0
  6
CONTINUOUS
 62
     7
 10
76.16185969884079
 20
229.6433956648233
 30
0.0
  0
VERTEX
  5
703
  8
0
  6
CONTINUOUS
 62
     7
 10
76.18341377593204
 20
229.6541618549169
 30
0.0
  0
VERTEX
  5
704
  8
0
  6
CONTINUOUS
 62
     7
 10
76.20435992928357
 20
229.6659267102114
 30
0.0
  0
VERTEX
  5
705
  8
0
  6
CONTINUOUS
 62
     7
 10
76.22470401105234
 20
229.6787045818944
 30
0.0
  0
VERTEX
  5
706
  8
0
  6
CONTINUOUS
 62
     7
 10
76.24446132846529
 20
229.6924937276804
 30
0.0
  0
VERTEX
  5
707
  8
0
  6
CONTINUOUS
 62
     7
 10
76.26356837933004
 20
229.7072401258046
 30
0.0
  0
VERTEX
  5
708
  8
0
  6
CONTINUOUS
 62
     7
 10
76.28196166145425
 20
229.7228897545025
 30
0.0
  0
VERTEX
  5
709
  8
0
  6
CONTINUOUS
 62
     7
 10
76.29957767264553
 20
229.7393885920091
 30
0.0
  0
VERTEX
  5
70A
  8
0
  6
CONTINUOUS
 62
     7
 10
76.31635291071153
 20
229.7566826165599
 30
0.0
  0
VERTEX
  5
70B
  8
0
  6
CONTINUOUS
 62
     7
 10
76.33222387345992
 20
229.7747178063901
 30
0.0
  0
VERTEX
  5
70C
  8
0
  6
CONTINUOUS
 62
     7
 10
76.34719072610434
 20
229.7935088273112
 30
0.0
  0
VERTEX
  5
70D
  8
0
  6
CONTINUOUS
 62
     7
 10
76.3612691851423
 20
229.8130598399744
 30
0.0
  0
VERTEX
  5
70E
  8
0
  6
CONTINUOUS
 62
     7
 10
76.37441722105142
 20
229.8332988505363
 30
0.0
  0
VERTEX
  5
70F
  8
0
  6
CONTINUOUS
 62
     7
 10
76.38659280430932
 20
229.8541538651536
 30
0.0
  0
VERTEX
  5
710
  8
0
  6
CONTINUOUS
 62
     7
 10
76.39775390539361
 20
229.8755528899829
 30
0.0
  0
VERTEX
  5
711
  8
0
  6
CONTINUOUS
 62
     7
 10
76.40785849478195
 20
229.8974239311807
 30
0.0
  0
VERTEX
  5
712
  8
0
  6
CONTINUOUS
 62
     7
 10
76.41686454295193
 20
229.9196949949036
 30
0.0
  0
VERTEX
  5
713
  8
0
  6
CONTINUOUS
 62
     7
 10
76.42476754096921
 20
229.9423805295236
 30
0.0
  0
VERTEX
  5
714
  8
0
  6
CONTINUOUS
 62
     7
 10
76.43158071568013
 20
229.965489120537
 30
0.0
  0
VERTEX
  5
715
  8
0
  6
CONTINUOUS
 62
     7
 10
76.4372882458222
 20
229.9889389284941
 30
0.0
  0
VERTEX
  5
716
  8
0
  6
CONTINUOUS
 62
     7
 10
76.44187431013296
 20
230.0126481139451
 30
0.0
  0
VERTEX
  5
717
  8
0
  6
CONTINUOUS
 62
     7
 10
76.44532308734995
 20
230.0365348374402
 30
0.0
  0
VERTEX
  5
718
  8
0
  6
CONTINUOUS
 62
     7
 10
76.4476187562107
 20
230.0605172595299
 30
0.0
  0
VERTEX
  5
719
  8
0
  6
CONTINUOUS
 62
     7
 10
76.44874549545271
 20
230.0845135407642
 30
0.0
  0
VERTEX
  5
71A
  8
0
  6
CONTINUOUS
 62
     7
 10
76.44868789751776
 20
230.109112054243
 30
0.0
  0
VERTEX
  5
71B
  8
0
  6
CONTINUOUS
 62
     7
 10
76.4474190124849
 20
230.13370778505
 30
0.0
  0
VERTEX
  5
71C
  8
0
  6
CONTINUOUS
 62
     7
 10
76.44494563807757
 20
230.1582117137027
 30
0.0
  0
VERTEX
  5
71D
  8
0
  6
CONTINUOUS
 62
     7
 10
76.44127457201921
 20
230.1825348207188
 30
0.0
  0
SEQEND
  5
927
  8
0
  6
CONTINUOUS
 62
     7
  0
ARC
  5
1FF
  8
0
  6
CONTINUOUS
 62
     7
 10
80.00000000000001
 20
210.0
 30
0.0
 40
20.0
 50
101.3975446996571
 51
103.0646410855991
  0
POLYLINE
  5
200
  8
0
  6
CONTINUOUS
 62
     7
 66
     1
 10
0.0
 20
0.0
 30
0.0
  0
VERTEX
  5
71E
  8
0
  6
CONTINUOUS
 62
     7
 10
74.92471311305938
 20
229.7342595502386
 30
0.0
  0
VERTEX
  5
71F
  8
0
  6
CONTINUOUS
 62
     7
 10
74.9365257299229
 20
229.7133406430999
 30
0.0
  0
VERTEX
  5
720
  8
0
  6
CONTINUOUS
 62
     7
 10
74.94937587150618
 20
229.6929605427619
 30
0.0
  0
VERTEX
  5
721
  8
0
  6
CONTINUOUS
 62
     7
 10
74.96321255203904
 20
229.6731852013294
 30
0.0
  0
VERTEX
  5
722
  8
0
  6
CONTINUOUS
 62
     7
 10
74.97798478575122
 20
229.6540805709068
 30
0.0
  0
VERTEX
  5
723
  8
0
  6
CONTINUOUS
 62
     7
 10
74.99364158687257
 20
229.6357126035988
 30
0.0
  0
VERTEX
  5
724
  8
0
  6
CONTINUOUS
 62
     7
 10
75.01013196963287
 20
229.6181472515101
 30
0.0
  0
VERTEX
  5
725
  8
0
  6
CONTINUOUS
 62
     7
 10
75.02740494826189
 20
229.6014504667452
 30
0.0
  0
VERTEX
  5
726
  8
0
  6
CONTINUOUS
 62
     7
 10
75.04547593340791
 20
229.5856207617836
 30
0.0
  0
VERTEX
  5
727
  8
0
  6
CONTINUOUS
 62
     7
 10
75.06434765019048
 20
229.5706429577473
 30
0.0
  0
VERTEX
  5
728
  8
0
  6
CONTINUOUS
 62
     7
 10
75.08395014825852
 20
229.5565624110714
 30
0.0
  0
VERTEX
  5
729
  8
0
  6
CONTINUOUS
 62
     7
 10
75.10421347726103
 20
229.5434244781913
 30
0.0
  0
VERTEX
  5
72A
  8
0
  6
CONTINUOUS
 62
     7
 10
75.1250676868469
 20
229.531274515542
 30
0.0
  0
VERTEX
  5
72B
  8
0
  6
CONTINUOUS
 62
     7
 10
75.14644282666514
 20
229.5201578795586
 30
0.0
  0
VERTEX
  5
72C
  8
0
  6
CONTINUOUS
 62
     7
 10
75.16826894636466
 20
229.5101199266765
 30
0.0
  0
VERTEX
  5
72D
  8
0
  6
CONTINUOUS
 62
     7
 10
75.19056047974205
 20
229.5011645708165
 30
0.0
  0
VERTEX
  5
72E
  8
0
  6
CONTINUOUS
 62
     7
 10
75.21332559169392
 20
229.4932781028826
 30
0.0
  0
VERTEX
  5
72F
  8
0
  6
CONTINUOUS
 62
     7
 10
75.23648326671103
 20
229.4864801602156
 30
0.0
  0
VERTEX
  5
730
  8
0
  6
CONTINUOUS
 62
     7
 10
75.25995248928422
 20
229.4807903801569
 30
0.0
  0
VERTEX
  5
731
  8
0
  6
CONTINUOUS
 62
     7
 10
75.28365224390423
 20
229.4762284000474
 30
0.0
  0
VERTEX
  5
732
  8
0
  6
CONTINUOUS
 62
     7
 10
75.30750151506192
 20
229.4728138572283
 30
0.0
  0
VERTEX
  5
733
  8
0
  6
CONTINUOUS
 62
     7
 10
75.33141928724802
 20
229.4705663890407
 30
0.0
  0
VERTEX
  5
734
  8
0
  6
CONTINUOUS
 62
     7
 10
75.35610637905144
 20
229.4694777046455
 30
0.0
  0
VERTEX
  5
735
  8
0
  6
CONTINUOUS
 62
     7
 10
75.3808775486933
 20
229.4696172086332
 30
0.0
  0
VERTEX
  5
736
  8
0
  6
CONTINUOUS
 62
     7
 10
75.40564245085486
 20
229.4709777005871
 30
0.0
  0
VERTEX
  5
737
  8
0
  6
CONTINUOUS
 62
     7
 10
75.43031074021727
 20
229.4735519800907
 30
0.0
  0
VERTEX
  5
738
  8
0
  6
CONTINUOUS
 62
     7
 10
75.45479207146172
 20
229.4773328467275
 30
0.0
  0
VERTEX
  5
739
  8
0
  6
CONTINUOUS
 62
     7
 10
75.47899609926947
 20
229.4823131000808
 30
0.0
  0
SEQEND
  5
928
  8
0
  6
CONTINUOUS
 62
     7
  0
ARC
  5
201
  8
0
  6
CONTINUOUS
 62
     7
 10
73.15959713348667
 20
228.793852415718
 30
0.0
 40
2.00000000000001
 50
28.04751133610063
 51
191.9524886638995
  0
POLYLINE
  5
202
  8
0
  6
CONTINUOUS
 62
     7
 66
     1
 10
0.0
 20
0.0
 30
0.0
  0
VERTEX
  5
73A
  8
0
  6
CONTINUOUS
 62
     7
 10
70.94030044670818
 20
227.830362980155
 30
0.0
  0
VERTEX
  5
73B
  8
0
  6
CONTINUOUS
 62
     7
 10
70.96144469011749
 20
227.8417673461496
 30
0.0
  0
VERTEX
  5
73C
  8
0
  6
CONTINUOUS
 62
     7
 10
70.98207036606625
 20
227.8542194993852
 30
0.0
  0
VERTEX
  5
73D
  8
0
  6
CONTINUOUS
 62
     7
 10
71.00211054526564
 20
227.8676697437937
 30
0.0
  0
VERTEX
  5
73E
  8
0
  6
CONTINUOUS
 62
     7
 10
71.02149829842683
 20
227.8820683833074
 30
0.0
  0
VERTEX
  5
73F
  8
0
  6
CONTINUOUS
 62
     7
 10
71.04016669626101
 20
227.8973657218583
 30
0.0
  0
VERTEX
  5
740
  8
0
  6
CONTINUOUS
 62
     7
 10
71.05804880947933
 20
227.9135120633783
 30
0.0
  0
VERTEX
  5
741
  8
0
  6
CONTINUOUS
 62
     7
 10
71.07507770879296
 20
227.9304577117997
 30
0.0
  0
VERTEX
  5
742
  8
0
  6
CONTINUOUS
 62
     7
 10
71.09125518055522
 20
227.9482180459955
 30
0.0
  0
VERTEX
  5
743
  8
0
  6
CONTINUOUS
 62
     7
 10
71.10659645367801
 20
227.9667954959573
 30
0.0
  0
VERTEX
  5
744
  8
0
  6
CONTINUOUS
 62
     7
 10
71.12105482256894
 20
227.9861210048576
 30
0.0
  0
VERTEX
  5
745
  8
0
  6
CONTINUOUS
 62
     7
 10
71.1345835816356
 20
228.0061255158684
 30
0.0
  0
VERTEX
  5
746
  8
0
  6
CONTINUOUS
 62
     7
 10
71.14713602528568
 20
228.0267399721621
 30
0.0
  0
VERTEX
  5
747
  8
0
  6
CONTINUOUS
 62
     7
 10
71.15866544792677
 20
228.0478953169109
 30
0.0
  0
VERTEX
  5
748
  8
0
  6
CONTINUOUS
 62
     7
 10
71.16912514396648
 20
228.0695224932869
 30
0.0
  0
VERTEX
  5
749
  8
0
  6
CONTINUOUS
 62
     7
 10
71.17851148037452
 20
228.0916360083369
 30
0.0
  0
VERTEX
  5
74A
  8
0
  6
CONTINUOUS
 62
     7
 10
71.18683832214032
 20
228.1142437593308
 30
0.0
  0
VERTEX
  5
74B
  8
0
  6
CONTINUOUS
 62
     7
 10
71.19408446315126
 20
228.1372651271723
 30
0.0
  0
VERTEX
  5
74C
  8
0
  6
CONTINUOUS
 62
     7
 10
71.20022869729478
 20
228.1606194927651
 30
0.0
  0
VERTEX
  5
74D
  8
0
  6
CONTINUOUS
 62
     7
 10
71.20524981845833
 20
228.1842262370127
 30
0.0
  0
VERTEX
  5
74E
  8
0
  6
CONTINUOUS
 62
     7
 10
71.20912662052935
 20
228.2080047408188
 30
0.0
  0
VERTEX
  5
74F
  8
0
  6
CONTINUOUS
 62
     7
 10
71.21183789739526
 20
228.2318743850871
 30
0.0
  0
VERTEX
  5
750
  8
0
  6
CONTINUOUS
 62
     7
 10
71.2134055408732
 20
228.2565356954552
 30
0.0
  0
VERTEX
  5
751
  8
0
  6
CONTINUOUS
 62
     7
 10
71.21374685924648
 20
228.2813049063484
 30
0.0
  0
VERTEX
  5
752
  8
0
  6
CONTINUOUS
 62
     7
 10
71.21286729801766
 20
228.3060915497111
 30
0.0
  0
VERTEX
  5
753
  8
0
  6
CONTINUOUS
 62
     7
 10
71.21077230268924
 20
228.3308051574874
 30
0.0
  0
VERTEX
  5
754
  8
0
  6
CONTINUOUS
 62
     7
 10
71.2074673187638
 20
228.3553552616216
 30
0.0
  0
VERTEX
  5
755
  8
0
  6
CONTINUOUS
 62
     7
 10
71.20295779174387
 20
228.3796513940578
 30
0.0
  0
SEQEND
  5
929
  8
0
  6
CONTINUOUS
 62
     7
  0
ARC
  5
203
  8
0
  6
CONTINUOUS
 62
     7
 10
80.00000000000001
 20
210.0
 30
0.0
 40
20.00000000000001
 50
116.9353589144009
 51
118.6024553003429
  0
POLYLINE
  5
204
  8
0
  6
CONTINUOUS
 62
     7
 66
     1
 10
0.0
 20
0.0
 30
0.0
  0
VERTEX
  5
756
  8
0
  6
CONTINUOUS
 62
     7
 10
69.75305852386576
 20
227.7482232588494
 30
0.0
  0
VERTEX
  5
757
  8
0
  6
CONTINUOUS
 62
     7
 10
69.7655771591374
 20
227.7277186939226
 30
0.0
  0
VERTEX
  5
758
  8
0
  6
CONTINUOUS
 62
     7
 10
69.77911436016757
 20
227.7077879711763
 30
0.0
  0
VERTEX
  5
759
  8
0
  6
CONTINUOUS
 62
     7
 10
69.79361692621494
 20
227.6884952695204
 30
0.0
  0
VERTEX
  5
75A
  8
0
  6
CONTINUOUS
 62
     7
 10
69.8090316565382
 20
227.6699047678647
 30
0.0
  0
VERTEX
  5
75B
  8
0
  6
CONTINUOUS
 62
     7
 10
69.82530535039601
 20
227.6520806451189
 30
0.0
  0
VERTEX
  5
75C
  8
0
  6
CONTINUOUS
 62
     7
 10
69.84238480704707
 20
227.6350870801926
 30
0.0
  0
VERTEX
  5
75D
  8
0
  6
CONTINUOUS
 62
     7
 10
69.86021682575004
 20
227.6189882519957
 30
0.0
  0
VERTEX
  5
75E
  8
0
  6
CONTINUOUS
 62
     7
 10
69.87881687474852
 20
227.6037831921464
 30
0.0
  0
VERTEX
  5
75F
  8
0
  6
CONTINUOUS
 62
     7
 10
69.89818818578746
 20
227.5894568373588
 30
0.0
  0
VERTEX
  5
760
  8
0
  6
CONTINUOUS
 62
     7
 10
69.91825930228873
 20
227.5760521391978
 30
0.0
  0
VERTEX
  5
761
  8
0
  6
CONTINUOUS
 62
     7
 10
69.93895876767418
 20
227.5636120492285
 30
0.0
  0
VERTEX
  5
762
  8
0
  6
CONTINUOUS
 62
     7
 10
69.96021512536568
 20
227.5521795190161
 30
0.0
  0
VERTEX
  5
763
  8
0
  6
CONTINUOUS
 62
     7
 10
69.98195691878513
 20
227.5417975001254
 30
0.0
  0
VERTEX
  5
764
  8
0
  6
CONTINUOUS
 62
     7
 10
70.00411269135435
 20
227.5325089441216
 30
0.0
  0
VERTEX
  5
765
  8
0
  6
CONTINUOUS
 62
     7
 10
70.02669639537021
 20
227.524318372815
 30
0.0
  0
VERTEX
  5
766
  8
0
  6
CONTINUOUS
 62
     7
 10
70.0497169876699
 20
227.5172122180685
 30
0.0
  0
VERTEX
  5
767
  8
0
  6
CONTINUOUS
 62
     7
 10
70.07309282833258
 20
227.5112073475306
 30
0.0
  0
VERTEX
  5
768
  8
0
  6
CONTINUOUS
 62
     7
 10
70.09674227743743
 20
227.5063206288499
 30
0.0
  0
VERTEX
  5
769
  8
0
  6
CONTINUOUS
 62
     7
 10
70.12058369506362
 20
227.502568929675
 30
0.0
  0
VERTEX
  5
76A
  8
0
  6
CONTINUOUS
 62
     7
 10
70.14453544129033
 20
227.4999691176544
 30
0.0
  0
VERTEX
  5
76B
  8
0
  6
CONTINUOUS
 62
     7
 10
70.16851587619672
 20
227.4985380604367
 30
0.0
  0
VERTEX
  5
76C
  8
0
  6
CONTINUOUS
 62
     7
 10
70.19253725494413
 20
227.4982846404152
 30
0.0
  0
VERTEX
  5
76D
  8
0
  6
CONTINUOUS
 62
     7
 10
70.2166119338423
 20
227.4991990605562
 30
0.0
  0
VERTEX
  5
76E
  8
0
  6
CONTINUOUS
 62
     7
 10
70.24065730218325
 20
227.5012702087579
 30
0.0
  0
VERTEX
  5
76F
  8
0
  6
CONTINUOUS
 62
     7
 10
70.26459074925894
 20
227.5044869729187
 30
0.0
  0
VERTEX
  5
770
  8
0
  6
CONTINUOUS
 62
     7
 10
70.28832966436141
 20
227.5088382409368
 30
0.0
  0
VERTEX
  5
771
  8
0
  6
CONTINUOUS
 62
     7
 10
70.31179143678261
 20
227.5143129007105
 30
0.0
  0
VERTEX
  5
772
  8
0
  6
CONTINUOUS
 62
     7
 10
70.33489345581458
 20
227.520899840138
 30
0.0
  0
VERTEX
  5
773
  8
0
  6
CONTINUOUS
 62
     7
 10
70.35818843984035
 20
227.5288013527791
 30
0.0
  0
VERTEX
  5
774
  8
0
  6
CONTINUOUS
 62
     7
 10
70.38109438608375
 20
227.5378499808372
 30
0.0
  0
VERTEX
  5
775
  8
0
  6
CONTINUOUS
 62
     7
 10
70.40352909438165
 20
227.5480108845296
 30
0.0
  0
VERTEX
  5
776
  8
0
  6
CONTINUOUS
 62
     7
 10
70.42541036457096
 20
227.5592492240737
 30
0.0
  0
SEQEND
  5
92A
  8
0
  6
CONTINUOUS
 62
     7
  0
LINE
  5
205
  8
0
  6
CONTINUOUS
 62
     7
 10
69.26161425699713
 20
228.5994296981543
 30
0.0
 11
69.75305852386576
 21
227.7482232588494
 31
0.0
  0
POLYLINE
  5
206
  8
0
  6
CONTINUOUS
 62
     7
 66
     1
 10
0.0
 20
0.0
 30
0.0
  0
VERTEX
  5
777
  8
0
  6
CONTINUOUS
 62
     7
 10
67.85590481665476
 20
228.9412500162437
 30
0.0
  0
VERTEX
  5
778
  8
0
  6
CONTINUOUS
 62
     7
 10
67.89697731997309
 20
228.96618372219
 30
0.0
  0
VERTEX
  5
779
  8
0
  6
CONTINUOUS
 62
     7
 10
67.93933250342283
 20
228.9891624781904
 30
0.0
  0
VERTEX
  5
77A
  8
0
  6
CONTINUOUS
 62
     7
 10
67.98281690727205
 20
229.0101211136321
 30
0.0
  0
VERTEX
  5
77B
  8
0
  6
CONTINUOUS
 62
     7
 10
68.02727707178876
 20
229.0289944579021
 30
0.0
  0
VERTEX
  5
77C
  8
0
  6
CONTINUOUS
 62
     7
 10
68.07255953724105
 20
229.0457173403877
 30
0.0
  0
VERTEX
  5
77D
  8
0
  6
CONTINUOUS
 62
     7
 10
68.11851084389693
 20
229.0602245904757
 30
0.0
  0
VERTEX
  5
77E
  8
0
  6
CONTINUOUS
 62
     7
 10
68.16497753202448
 20
229.0724510375534
 30
0.0
  0
VERTEX
  5
77F
  8
0
  6
CONTINUOUS
 62
     7
 10
68.21198798574905
 20
229.0823841957958
 30
0.0
  0
VERTEX
  5
780
  8
0
  6
CONTINUOUS
 62
     7
 10
68.25956177000575
 20
229.0900478539748
 30
0.0
  0
VERTEX
  5
781
  8
0
  6
CONTINUOUS
 62
     7
 10
68.30753248110273
 20
229.0954313208933
 30
0.0
  0
VERTEX
  5
782
  8
0
  6
CONTINUOUS
 62
     7
 10
68.35573371534814
 20
229.0985239053542
 30
0.0
  0
VERTEX
  5
783
  8
0
  6
CONTINUOUS
 62
     7
 10
68.40399906905014
 20
229.0993149161605
 30
0.0
  0
VERTEX
  5
784
  8
0
  6
CONTINUOUS
 62
     7
 10
68.4521621385169
 20
229.097793662115
 30
0.0
  0
VERTEX
  5
785
  8
0
  6
CONTINUOUS
 62
     7
 10
68.50005652005659
 20
229.0939494520208
 30
0.0
  0
VERTEX
  5
786
  8
0
  6
CONTINUOUS
 62
     7
 10
68.54770258821236
 20
229.0877614760131
 30
0.0
  0
VERTEX
  5
787
  8
0
  6
CONTINUOUS
 62
     7
 10
68.59512898105443
 20
229.0792455982195
 30
0.0
  0
VERTEX
  5
788
  8
0
  6
CONTINUOUS
 62
     7
 10
68.64217515693332
 20
229.0684468244594
 30
0.0
  0
VERTEX
  5
789
  8
0
  6
CONTINUOUS
 62
     7
 10
68.68868057419952
 20
229.055410160552
 30
0.0
  0
VERTEX
  5
78A
  8
0
  6
CONTINUOUS
 62
     7
 10
68.73448469120352
 20
229.0401806123168
 30
0.0
  0
VERTEX
  5
78B
  8
0
  6
CONTINUOUS
 62
     7
 10
68.77942696629586
 20
229.0228031855731
 30
0.0
  0
VERTEX
  5
78C
  8
0
  6
CONTINUOUS
 62
     7
 10
68.823346857827
 20
229.0033228861403
 30
0.0
  0
VERTEX
  5
78D
  8
0
  6
CONTINUOUS
 62
     7
 10
68.86625770403076
 20
228.9817128248378
 30
0.0
  0
VERTEX
  5
78E
  8
0
  6
CONTINUOUS
 62
     7
 10
68.90819074543266
 20
228.9579789398417
 30
0.0
  0
VERTEX
  5
78F
  8
0
  6
CONTINUOUS
 62
     7
 10
68.94900941413061
 20
228.9322168407467
 30
0.0
  0
VERTEX
  5
790
  8
0
  6
CONTINUOUS
 62
     7
 10
68.98857714222245
 20
228.9045221371472
 30
0.0
  0
VERTEX
  5
791
  8
0
  6
CONTINUOUS
 62
     7
 10
69.02675736180606
 20
228.8749904386377
 30
0.0
  0
VERTEX
  5
792
  8
0
  6
CONTINUOUS
 62
     7
 10
69.0634135049793
 20
228.8437173548126
 30
0.0
  0
VERTEX
  5
793
  8
0
  6
CONTINUOUS
 62
     7
 10
69.09840900384005
 20
228.8107984952666
 30
0.0
  0
VERTEX
  5
794
  8
0
  6
CONTINUOUS
 62
     7
 10
69.12939432110423
 20
228.7787721863069
 30
0.0
  0
VERTEX
  5
795
  8
0
  6
CONTINUOUS
 62
     7
 10
69.15897408664641
 20
228.7453249399598
 30
0.0
  0
VERTEX
  5
796
  8
0
  6
CONTINUOUS
 62
     7
 10
69.18706713173668
 20
228.7105619120981
 30
0.0
  0
VERTEX
  5
797
  8
0
  6
CONTINUOUS
 62
     7
 10
69.21359228764514
 20
228.6745882585948
 30
0.0
  0
VERTEX
  5
798
  8
0
  6
CONTINUOUS
 62
     7
 10
69.23846838564192
 20
228.6375091353226
 30
0.0
  0
VERTEX
  5
799
  8
0
  6
CONTINUOUS
 62
     7
 10
69.26161425699713
 20
228.5994296981543
 30
0.0
  0
SEQEND
  5
92B
  8
0
  6
CONTINUOUS
 62
     7
  0
ARC
  5
207
  8
0
  6
CONTINUOUS
 62
     7
 10
80.00000000000001
 20
210.0
 30
0.0
 40
22.50000000000001
 50
122.6657754583767
 51
137.3342245416233
  0
POLYLINE
  5
208
  8
0
  6
CONTINUOUS
 62
     7
 66
     1
 10
0.0
 20
0.0
 30
0.0
  0
VERTEX
  5
79A
  8
0
  6
CONTINUOUS
 62
     7
 10
63.54783854700914
 20
223.8050026072737
 30
0.0
  0
VERTEX
  5
79B
  8
0
  6
CONTINUOUS
 62
     7
 10
63.5117999029309
 20
223.8367808443862
 30
0.0
  0
VERTEX
  5
79C
  8
0
  6
CONTINUOUS
 62
     7
 10
63.47724525253502
 20
223.8703659739577
 30
0.0
  0
VERTEX
  5
79D
  8
0
  6
CONTINUOUS
 62
     7
 10
63.44428252916026
 20
223.9056309232041
 30
0.0
  0
VERTEX
  5
79E
  8
0
  6
CONTINUOUS
 62
     7
 10
63.41301966614543
 20
223.9424486193409
 30
0.0
  0
VERTEX
  5
79F
  8
0
  6
CONTINUOUS
 62
     7
 10
63.38356459682932
 20
223.9806919895842
 30
0.0
  0
VERTEX
  5
7A0
  8
0
  6
CONTINUOUS
 62
     7
 10
63.35602525455074
 20
224.0202339611496
 30
0.0
  0
VERTEX
  5
7A1
  8
0
  6
CONTINUOUS
 62
     7
 10
63.33050957264846
 20
224.0609474612531
 30
0.0
  0
VERTEX
  5
7A2
  8
0
  6
CONTINUOUS
 62
     7
 10
63.30702101296676
 20
224.1028633049891
 30
0.0
  0
VERTEX
  5
7A3
  8
0
  6
CONTINUOUS
 62
     7
 10
63.2855310378716
 20
224.1459930809632
 30
0.0
  0
VERTEX
  5
7A4
  8
0
  6
CONTINUOUS
 62
     7
 10
63.26609943216744
 20
224.1901811284302
 30
0.0
  0
VERTEX
  5
7A5
  8
0
  6
CONTINUOUS
 62
     7
 10
63.2487859806587
 20
224.2352717866451
 30
0.0
  0
VERTEX
  5
7A6
  8
0
  6
CONTINUOUS
 62
     7
 10
63.23365046814975
 20
224.2811093948631
 30
0.0
  0
VERTEX
  5
7A7
  8
0
  6
CONTINUOUS
 62
     7
 10
63.22075267944507
 20
224.3275382923391
 30
0.0
  0
VERTEX
  5
7A8
  8
0
  6
CONTINUOUS
 62
     7
 10
63.21015239934906
 20
224.3744028183281
 30
0.0
  0
VERTEX
  5
7A9
  8
0
  6
CONTINUOUS
 62
     7
 10
63.20186342210973
 20
224.4217286222134
 30
0.0
  0
VERTEX
  5
7AA
  8
0
  6
CONTINUOUS
 62
     7
 10
63.19586207152536
 20
224.4695383147771
 30
0.0
  0
VERTEX
  5
7AB
  8
0
  6
CONTINUOUS
 62
     7
 10
63.19215321840836
 20
224.5176652364257
 30
0.0
  0
VERTEX
  5
7AC
  8
0
  6
CONTINUOUS
 62
     7
 10
63.19074173357119
 20
224.5659427275656
 30
0.0
  0
VERTEX
  5
7AD
  8
0
  6
CONTINUOUS
 62
     7
 10
63.19163248782628
 20
224.614204128603
 30
0.0
  0
VERTEX
  5
7AE
  8
0
  6
CONTINUOUS
 62
     7
 10
63.19483035198606
 20
224.6622827799443
 30
0.0
  0
VERTEX
  5
7AF
  8
0
  6
CONTINUOUS
 62
     7
 10
63.20034019686297
 20
224.7100120219959
 30
0.0
  0
VERTEX
  5
7B0
  8
0
  6
CONTINUOUS
 62
     7
 10
63.20818371635134
 20
224.7574125987177
 30
0.0
  0
VERTEX
  5
7B1
  8
0
  6
CONTINUOUS
 62
     7
 10
63.21834593400585
 20
224.804512562525
 30
0.0
  0
VERTEX
  5
7B2
  8
0
  6
CONTINUOUS
 62
     7
 10
63.23077627227447
 20
224.8511530616075
 30
0.0
  0
VERTEX
  5
7B3
  8
0
  6
CONTINUOUS
 62
     7
 10
63.24542415360509
 20
224.8971752441549
 30
0.0
  0
VERTEX
  5
7B4
  8
0
  6
CONTINUOUS
 62
     7
 10
63.26223900044571
 20
224.9424202583567
 30
0.0
  0
VERTEX
  5
7B5
  8
0
  6
CONTINUOUS
 62
     7
 10
63.28117023524423
 20
224.9867292524027
 30
0.0
  0
VERTEX
  5
7B6
  8
0
  6
CONTINUOUS
 62
     7
 10
63.30216728044859
 20
225.0299433744822
 30
0.0
  0
VERTEX
  5
7B7
  8
0
  6
CONTINUOUS
 62
     7
 10
63.32350712611625
 20
225.0690635142981
 30
0.0
  0
VERTEX
  5
7B8
  8
0
  6
CONTINUOUS
 62
     7
 10
63.34662215174523
 20
225.1072652997106
 30
0.0
  0
VERTEX
  5
7B9
  8
0
  6
CONTINUOUS
 62
     7
 10
63.3714361611549
 20
225.14443991775
 30
0.0
  0
VERTEX
  5
7BA
  8
0
  6
CONTINUOUS
 62
     7
 10
63.39787295816468
 20
225.1804785554464
 30
0.0
  0
VERTEX
  5
7BB
  8
0
  6
CONTINUOUS
 62
     7
 10
63.425856346594
 20
225.21527239983
 30
0.0
  0
VERTEX
  5
7BC
  8
0
  6
CONTINUOUS
 62
     7
 10
63.4553101302623
 20
225.248712637931
 30
0.0
  0
SEQEND
  5
92C
  8
0
  6
CONTINUOUS
 62
     7
  0
LINE
  5
209
  8
0
  6
CONTINUOUS
 62
     7
 10
64.30077484648395
 20
223.1732140360844
 30
0.0
 11
63.54783854700914
 21
223.8050026072737
 31
0.0
  0
POLYLINE
  5
20A
  8
0
  6
CONTINUOUS
 62
     7
 66
     1
 10
0.0
 20
0.0
 30
0.0
  0
VERTEX
  5
7BD
  8
0
  6
CONTINUOUS
 62
     7
 10
64.37012526915953
 20
222.4782617338407
 30
0.0
  0
VERTEX
  5
7BE
  8
0
  6
CONTINUOUS
 62
     7
 10
64.38464922427812
 20
222.4973982993531
 30
0.0
  0
VERTEX
  5
7BF
  8
0
  6
CONTINUOUS
 62
     7
 10
64.39826728096607
 20
222.5172738635702
 30
0.0
  0
VERTEX
  5
7C0
  8
0
  6
CONTINUOUS
 62
     7
 10
64.41093909366548
 20
222.5378154779673
 30
0.0
  0
VERTEX
  5
7C1
  8
0
  6
CONTINUOUS
 62
     7
 10
64.4226243168185
 20
222.5589501940195
 30
0.0
  0
VERTEX
  5
7C2
  8
0
  6
CONTINUOUS
 62
     7
 10
64.43328260486726
 20
222.5806050632016
 30
0.0
  0
VERTEX
  5
7C3
  8
0
  6
CONTINUOUS
 62
     7
 10
64.44287361225388
 20
222.6027071369889
 30
0.0
  0
VERTEX
  5
7C4
  8
0
  6
CONTINUOUS
 62
     7
 10
64.4513569934205
 20
222.6251834668562
 30
0.0
  0
VERTEX
  5
7C5
  8
0
  6
CONTINUOUS
 62
     7
 10
64.45872800661385
 20
222.6480488081453
 30
0.0
  0
VERTEX
  5
7C6
  8
0
  6
CONTINUOUS
 62
     7
 10
64.46499949776958
 20
222.6713116654837
 30
0.0
  0
VERTEX
  5
7C7
  8
0
  6
CONTINUOUS
 62
     7
 10
64.47015754590713
 20
222.6948898373763
 30
0.0
  0
VERTEX
  5
7C8
  8
0
  6
CONTINUOUS
 62
     7
 10
64.47418823004591
 20
222.7187011223281
 30
0.0
  0
VERTEX
  5
7C9
  8
0
  6
CONTINUOUS
 62
     7
 10
64.4770776292054
 20
222.7426633188439
 30
0.0
  0
VERTEX
  5
7CA
  8
0
  6
CONTINUOUS
 62
     7
 10
64.47881182240502
 20
222.7666942254285
 30
0.0
  0
VERTEX
  5
7CB
  8
0
  6
CONTINUOUS
 62
     7
 10
64.4793768886642
 20
222.7907116405869
 30
0.0
  0
VERTEX
  5
7CC
  8
0
  6
CONTINUOUS
 62
     7
 10
64.478763527542
 20
222.8147269051799
 30
0.0
  0
VERTEX
  5
7CD
  8
0
  6
CONTINUOUS
 62
     7
 10
64.47698110415898
 20
222.838753308821
 30
0.0
  0
VERTEX
  5
7CE
  8
0
  6
CONTINUOUS
 62
     7
 10
64.47404369878353
 20
222.8627086849703
 30
0.0
  0
VERTEX
  5
7CF
  8
0
  6
CONTINUOUS
 62
     7
 10
64.46996539168416
 20
222.8865108670879
 30
0.0
  0
VERTEX
  5
7D0
  8
0
  6
CONTINUOUS
 62
     7
 10
64.46476026312926
 20
222.910077688634
 30
0.0
  0
VERTEX
  5
7D1
  8
0
  6
CONTINUOUS
 62
     7
 10
64.4584423933873
 20
222.9333269830686
 30
0.0
  0
VERTEX
  5
7D2
  8
0
  6
CONTINUOUS
 62
     7
 10
64.45102586272672
 20
222.9561765838518
 30
0.0
  0
VERTEX
  5
7D3
  8
0
  6
CONTINUOUS
 62
     7
 10
64.44249792986899
 20
222.9786346607915
 30
0.0
  0
VERTEX
  5
7D4
  8
0
  6
CONTINUOUS
 62
     7
 10
64.43286320851557
 20
223.0007162928124
 30
0.0
  0
VERTEX
  5
7D5
  8
0
  6
CONTINUOUS
 62
     7
 10
64.42216218426051
 20
223.0223486175474
 30
0.0
  0
VERTEX
  5
7D6
  8
0
  6
CONTINUOUS
 62
     7
 10
64.4104353426979
 20
223.0434587726292
 30
0.0
  0
VERTEX
  5
7D7
  8
0
  6
CONTINUOUS
 62
     7
 10
64.39772316942182
 20
223.0639738956907
 30
0.0
  0
VERTEX
  5
7D8
  8
0
  6
CONTINUOUS
 62
     7
 10
64.38406615002636
 20
223.0838211243646
 30
0.0
  0
VERTEX
  5
7D9
  8
0
  6
CONTINUOUS
 62
     7
 10
64.36950477010556
 20
223.1029275962838
 30
0.0
  0
VERTEX
  5
7DA
  8
0
  6
CONTINUOUS
 62
     7
 10
64.35364902784661
 20
223.1217341276043
 30
0.0
  0
VERTEX
  5
7DB
  8
0
  6
CONTINUOUS
 62
     7
 10
64.33686717450435
 20
223.1397599269362
 30
0.0
  0
VERTEX
  5
7DC
  8
0
  6
CONTINUOUS
 62
     7
 10
64.31922163805727
 20
223.156941170892
 30
0.0
  0
VERTEX
  5
7DD
  8
0
  6
CONTINUOUS
 62
     7
 10
64.30077484648395
 20
223.1732140360844
 30
0.0
  0
SEQEND
  5
92D
  8
0
  6
CONTINUOUS
 62
     7
  0
ARC
  5
20B
  8
0
  6
CONTINUOUS
 62
     7
 10
80.00000000000001
 20
210.0
 30
0.0
 40
20.0
 50
141.3975446996571
 51
143.0646410855991
  0
POLYLINE
  5
20C
  8
0
  6
CONTINUOUS
 62
     7
 66
     1
 10
0.0
 20
0.0
 30
0.0
  0
VERTEX
  5
7DE
  8
0
  6
CONTINUOUS
 62
     7
 10
63.42716715779291
 20
221.8549883409979
 30
0.0
  0
VERTEX
  5
7DF
  8
0
  6
CONTINUOUS
 62
     7
 10
63.44966256161683
 20
221.846556532186
 30
0.0
  0
VERTEX
  5
7E0
  8
0
  6
CONTINUOUS
 62
     7
 10
63.47260641715138
 20
221.8392043813644
 30
0.0
  0
VERTEX
  5
7E1
  8
0
  6
CONTINUOUS
 62
     7
 10
63.49591727383497
 20
221.8329496377549
 30
0.0
  0
VERTEX
  5
7E2
  8
0
  6
CONTINUOUS
 62
     7
 10
63.51951368110592
 20
221.8278100505794
 30
0.0
  0
VERTEX
  5
7E3
  8
0
  6
CONTINUOUS
 62
     7
 10
63.54331418840264
 20
221.8238033690599
 30
0.0
  0
VERTEX
  5
7E4
  8
0
  6
CONTINUOUS
 62
     7
 10
63.56723734516351
 20
221.8209473424182
 30
0.0
  0
VERTEX
  5
7E5
  8
0
  6
CONTINUOUS
 62
     7
 10
63.59120170082685
 20
221.8192597198762
 30
0.0
  0
VERTEX
  5
7E6
  8
0
  6
CONTINUOUS
 62
     7
 10
63.61522001679398
 20
221.8187492677008
 30
0.0
  0
VERTEX
  5
7E7
  8
0
  6
CONTINUOUS
 62
     7
 10
63.63930413742222
 20
221.81940610987
 30
0.0
  0
VERTEX
  5
7E8
  8
0
  6
CONTINUOUS
 62
     7
 10
63.66337132307934
 20
221.82122002821
 30
0.0
  0
VERTEX
  5
7E9
  8
0
  6
CONTINUOUS
 62
     7
 10
63.68733883413305
 20
221.8241808045469
 30
0.0
  0
VERTEX
  5
7EA
  8
0
  6
CONTINUOUS
 62
     7
 10
63.7111239309511
 20
221.8282782207069
 30
0.0
  0
VERTEX
  5
7EB
  8
0
  6
CONTINUOUS
 62
     7
 10
63.73464387390122
 20
221.8335020585162
 30
0.0
  0
VERTEX
  5
7EC
  8
0
  6
CONTINUOUS
 62
     7
 10
63.75781592335117
 20
221.8398420998009
 30
0.0
  0
VERTEX
  5
7ED
  8
0
  6
CONTINUOUS
 62
     7
 10
63.78064862041061
 20
221.8473106206642
 30
0.0
  0
VERTEX
  5
7EE
  8
0
  6
CONTINUOUS
 62
     7
 10
63.80315703179046
 20
221.8559023676233
 30
0.0
  0
VERTEX
  5
7EF
  8
0
  6
CONTINUOUS
 62
     7
 10
63.82526647337054
 20
221.8655803079888
 30
0.0
  0
VERTEX
  5
7F0
  8
0
  6
CONTINUOUS
 62
     7
 10
63.84690226103065
 20
221.8763074090712
 30
0.0
  0
VERTEX
  5
7F1
  8
0
  6
CONTINUOUS
 62
     7
 10
63.86798971065062
 20
221.8880466381811
 30
0.0
  0
VERTEX
  5
7F2
  8
0
  6
CONTINUOUS
 62
     7
 10
63.88845413811026
 20
221.9007609626289
 30
0.0
  0
VERTEX
  5
7F3
  8
0
  6
CONTINUOUS
 62
     7
 10
63.90822085928935
 20
221.9144133497253
 30
0.0
  0
VERTEX
  5
7F4
  8
0
  6
CONTINUOUS
 62
     7
 10
63.92783206162223
 20
221.9294479258245
 30
0.0
  0
VERTEX
  5
7F5
  8
0
  6
CONTINUOUS
 62
     7
 10
63.94671820704117
 20
221.9454773930022
 30
0.0
  0
VERTEX
  5
7F6
  8
0
  6
CONTINUOUS
 62
     7
 10
63.96481471535534
 20
221.962438162568
 30
0.0
  0
VERTEX
  5
7F7
  8
0
  6
CONTINUOUS
 62
     7
 10
63.98205700637386
 20
221.9802666458311
 30
0.0
  0
VERTEX
  5
7F8
  8
0
  6
CONTINUOUS
 62
     7
 10
63.99838049990587
 20
221.9988992541009
 30
0.0
  0
VERTEX
  5
7F9
  8
0
  6
CONTINUOUS
 62
     7
 10
64.01372061576049
 20
222.0182723986868
 30
0.0
  0
SEQEND
  5
92E
  8
0
  6
CONTINUOUS
 62
     7
  0
ARC
  5
20D
  8
0
  6
CONTINUOUS
 62
     7
 10
62.67949192431121
 20
220.0
 30
0.0
 40
2.000000000000004
 50
68.04751133609739
 51
231.9524886639026
  0
POLYLINE
  5
20E
  8
0
  6
CONTINUOUS
 62
     7
 66
     1
 10
0.0
 20
0.0
 30
0.0
  0
VERTEX
  5
7FA
  8
0
  6
CONTINUOUS
 62
     7
 10
61.59873110101609
 20
217.8353878594034
 30
0.0
  0
VERTEX
  5
7FB
  8
0
  6
CONTINUOUS
 62
     7
 10
61.60759794602609
 20
217.8577153682806
 30
0.0
  0
VERTEX
  5
7FC
  8
0
  6
CONTINUOUS
 62
     7
 10
61.61539404065849
 20
217.8805122000128
 30
0.0
  0
VERTEX
  5
7FD
  8
0
  6
CONTINUOUS
 62
     7
 10
61.62210005812023
 20
217.9036972638859
 30
0.0
  0
VERTEX
  5
7FE
  8
0
  6
CONTINUOUS
 62
     7
 10
61.6276966716182
 20
217.9271894691855
 30
0.0
  0
VERTEX
  5
7FF
  8
0
  6
CONTINUOUS
 62
     7
 10
61.63216455435933
 20
217.9509077251973
 30
0.0
  0
VERTEX
  5
800
  8
0
  6
CONTINUOUS
 62
     7
 10
61.63548437955057
 20
217.9747709412073
 30
0.0
  0
VERTEX
  5
801
  8
0
  6
CONTINUOUS
 62
     7
 10
61.63763682039882
 20
217.9986980265009
 30
0.0
  0
VERTEX
  5
802
  8
0
  6
CONTINUOUS
 62
     7
 10
61.63861335998112
 20
218.0227019102243
 30
0.0
  0
VERTEX
  5
803
  8
0
  6
CONTINUOUS
 62
     7
 10
61.63842410235215
 20
218.0467942428151
 30
0.0
  0
VERTEX
  5
804
  8
0
  6
CONTINUOUS
 62
     7
 10
61.63707765782563
 20
218.0708921018979
 30
0.0
  0
VERTEX
  5
805
  8
0
  6
CONTINUOUS
 62
     7
 10
61.63458263671534
 20
218.0949125650976
 30
0.0
  0
VERTEX
  5
806
  8
0
  6
CONTINUOUS
 62
     7
 10
61.63094764933502
 20
218.1187727100389
 30
0.0
  0
VERTEX
  5
807
  8
0
  6
CONTINUOUS
 62
     7
 10
61.62618130599844
 20
218.1423896143465
 30
0.0
  0
VERTEX
  5
808
  8
0
  6
CONTINUOUS
 62
     7
 10
61.62029221701933
 20
218.1656803556451
 30
0.0
  0
VERTEX
  5
809
  8
0
  6
CONTINUOUS
 62
     7
 10
61.61326827438522
 20
218.1886537117104
 30
0.0
  0
VERTEX
  5
80A
  8
0
  6
CONTINUOUS
 62
     7
 10
61.60511502302687
 20
218.2113246444456
 30
0.0
  0
VERTEX
  5
80B
  8
0
  6
CONTINUOUS
 62
     7
 10
61.5958680390758
 20
218.2336177650134
 30
0.0
  0
VERTEX
  5
80C
  8
0
  6
CONTINUOUS
 62
     7
 10
61.58556289866357
 20
218.2554576845768
 30
0.0
  0
VERTEX
  5
80D
  8
0
  6
CONTINUOUS
 62
     7
 10
61.57423517792174
 20
218.2767690142985
 30
0.0
  0
VERTEX
  5
80E
  8
0
  6
CONTINUOUS
 62
     7
 10
61.56192045298184
 20
218.2974763653413
 30
0.0
  0
VERTEX
  5
80F
  8
0
  6
CONTINUOUS
 62
     7
 10
61.54865429997543
 20
218.3175043488681
 30
0.0
  0
VERTEX
  5
810
  8
0
  6
CONTINUOUS
 62
     7
 10
61.53400319980729
 20
218.3374036704396
 30
0.0
  0
VERTEX
  5
811
  8
0
  6
CONTINUOUS
 62
     7
 10
61.51834332298657
 20
218.3565973820261
 30
0.0
  0
VERTEX
  5
812
  8
0
  6
CONTINUOUS
 62
     7
 10
61.50173699275559
 20
218.3750196813778
 30
0.0
  0
VERTEX
  5
813
  8
0
  6
CONTINUOUS
 62
     7
 10
61.48424653235662
 20
218.3926047662448
 30
0.0
  0
VERTEX
  5
814
  8
0
  6
CONTINUOUS
 62
     7
 10
61.46593426503198
 20
218.4092868343773
 30
0.0
  0
VERTEX
  5
815
  8
0
  6
CONTINUOUS
 62
     7
 10
61.44686251402394
 20
218.4250000835254
 30
0.0
  0
SEQEND
  5
92F
  8
0
  6
CONTINUOUS
 62
     7
  0
ARC
  5
20F
  8
0
  6
CONTINUOUS
 62
     7
 10
80.00000000000001
 20
210.0
 30
0.0
 40
20.0
 50
156.9353589144009
 51
158.6024553003429
  0
POLYLINE
  5
210
  8
0
  6
CONTINUOUS
 62
     7
 66
     1
 10
0.0
 20
0.0
 30
0.0
  0
VERTEX
  5
816
  8
0
  6
CONTINUOUS
 62
     7
 10
60.74204941850314
 20
217.0093207846344
 30
0.0
  0
VERTEX
  5
817
  8
0
  6
CONTINUOUS
 62
     7
 10
60.76481932976539
 20
217.0016602002563
 30
0.0
  0
VERTEX
  5
818
  8
0
  6
CONTINUOUS
 62
     7
 10
60.78800064902332
 20
216.9950939259413
 30
0.0
  0
VERTEX
  5
819
  8
0
  6
CONTINUOUS
 62
     7
 10
60.81151136873664
 20
216.989636928809
 30
0.0
  0
VERTEX
  5
81A
  8
0
  6
CONTINUOUS
 62
     7
 10
60.83526948136511
 20
216.9853041759793
 30
0.0
  0
VERTEX
  5
81B
  8
0
  6
CONTINUOUS
 62
     7
 10
60.85919297936849
 20
216.9821106345719
 30
0.0
  0
VERTEX
  5
81C
  8
0
  6
CONTINUOUS
 62
     7
 10
60.88319985520652
 20
216.9800712717069
 30
0.0
  0
VERTEX
  5
81D
  8
0
  6
CONTINUOUS
 62
     7
 10
60.90720810133896
 20
216.9792010545039
 30
0.0
  0
VERTEX
  5
81E
  8
0
  6
CONTINUOUS
 62
     7
 10
60.93123018959167
 20
216.9795091839349
 30
0.0
  0
VERTEX
  5
81F
  8
0
  6
CONTINUOUS
 62
     7
 10
60.95527827811846
 20
216.9809861981788
 30
0.0
  0
VERTEX
  5
820
  8
0
  6
CONTINUOUS
 62
     7
 10
60.97927001927091
 20
216.9836190686405
 30
0.0
  0
VERTEX
  5
821
  8
0
  6
CONTINUOUS
 62
     7
 10
61.00312306540058
 20
216.9873947667246
 30
0.0
  0
VERTEX
  5
822
  8
0
  6
CONTINUOUS
 62
     7
 10
61.02675506885906
 20
216.9923002638357
 30
0.0
  0
VERTEX
  5
823
  8
0
  6
CONTINUOUS
 62
     7
 10
61.0500836819979
 20
216.9983225313785
 30
0.0
  0
VERTEX
  5
824
  8
0
  6
CONTINUOUS
 62
     7
 10
61.0730265571687
 20
217.0054485407578
 30
0.0
  0
VERTEX
  5
825
  8
0
  6
CONTINUOUS
 62
     7
 10
61.09559147588723
 20
217.0136907242446
 30
0.0
  0
VERTEX
  5
826
  8
0
  6
CONTINUOUS
 62
     7
 10
61.1177940209193
 20
217.0230444453869
 30
0.0
  0
VERTEX
  5
827
  8
0
  6
CONTINUOUS
 62
     7
 10
61.13956081014169
 20
217.0334701484237
 30
0.0
  0
VERTEX
  5
828
  8
0
  6
CONTINUOUS
 62
     7
 10
61.16081846143124
 20
217.0449282775938
 30
0.0
  0
VERTEX
  5
829
  8
0
  6
CONTINUOUS
 62
     7
 10
61.18149359266476
 20
217.0573792771361
 30
0.0
  0
VERTEX
  5
82A
  8
0
  6
CONTINUOUS
 62
     7
 10
61.2015128217191
 20
217.0707835912895
 30
0.0
  0
VERTEX
  5
82B
  8
0
  6
CONTINUOUS
 62
     7
 10
61.22080276647105
 20
217.0851016642927
 30
0.0
  0
VERTEX
  5
82C
  8
0
  6
CONTINUOUS
 62
     7
 10
61.23936710542642
 20
217.10034817792
 30
0.0
  0
VERTEX
  5
82D
  8
0
  6
CONTINUOUS
 62
     7
 10
61.25722160147956
 20
217.1165235696905
 30
0.0
  0
VERTEX
  5
82E
  8
0
  6
CONTINUOUS
 62
     7
 10
61.27431011387797
 20
217.1335662261013
 30
0.0
  0
VERTEX
  5
82F
  8
0
  6
CONTINUOUS
 62
     7
 10
61.29057650186915
 20
217.1514145336488
 30
0.0
  0
VERTEX
  5
830
  8
0
  6
CONTINUOUS
 62
     7
 10
61.30596462470061
 20
217.1700068788299
 30
0.0
  0
VERTEX
  5
831
  8
0
  6
CONTINUOUS
 62
     7
 10
61.32041834161983
 20
217.1892816481411
 30
0.0
  0
VERTEX
  5
832
  8
0
  6
CONTINUOUS
 62
     7
 10
61.33388151187431
 20
217.2091772280792
 30
0.0
  0
VERTEX
  5
833
  8
0
  6
CONTINUOUS
 62
     7
 10
61.34664751051631
 20
217.2302038650298
 30
0.0
  0
VERTEX
  5
834
  8
0
  6
CONTINUOUS
 62
     7
 10
61.35837813735004
 20
217.2518591747049
 30
0.0
  0
VERTEX
  5
835
  8
0
  6
CONTINUOUS
 62
     7
 10
61.36903281797794
 20
217.2740636310364
 30
0.0
  0
VERTEX
  5
836
  8
0
  6
CONTINUOUS
 62
     7
 10
61.37857097800244
 20
217.2967377079559
 30
0.0
  0
SEQEND
  5
930
  8
0
  6
CONTINUOUS
 62
     7
  0
LINE
  5
211
  8
0
  6
CONTINUOUS
 62
     7
 10
59.81843631629514
 20
217.3454884618163
 30
0.0
 11
60.74204941850314
 21
217.0093207846344
 31
0.0
  0
POLYLINE
  5
212
  8
0
  6
CONTINUOUS
 62
     7
 66
     1
 10
0.0
 20
0.0
 30
0.0
  0
VERTEX
  5
837
  8
0
  6
CONTINUOUS
 62
     7
 10
58.52188254567405
 20
216.7037654059624
 30
0.0
  0
VERTEX
  5
838
  8
0
  6
CONTINUOUS
 62
     7
 10
58.5373188313602
 20
216.7492666290807
 30
0.0
  0
VERTEX
  5
839
  8
0
  6
CONTINUOUS
 62
     7
 10
58.55499432463606
 20
216.7940947645521
 30
0.0
  0
VERTEX
  5
83A
  8
0
  6
CONTINUOUS
 62
     7
 10
58.57483335938923
 20
216.8381012467765
 30
0.0
  0
VERTEX
  5
83B
  8
0
  6
CONTINUOUS
 62
     7
 10
58.59676026950729
 20
216.8811375101536
 30
0.0
  0
VERTEX
  5
83C
  8
0
  6
CONTINUOUS
 62
     7
 10
58.62069938887781
 20
216.9230549890833
 30
0.0
  0
VERTEX
  5
83D
  8
0
  6
CONTINUOUS
 62
     7
 10
58.64657505138837
 20
216.9637051179655
 30
0.0
  0
VERTEX
  5
83E
  8
0
  6
CONTINUOUS
 62
     7
 10
58.67431159092658
 20
217.0029393312001
 30
0.0
  0
VERTEX
  5
83F
  8
0
  6
CONTINUOUS
 62
     7
 10
58.70393877672751
 20
217.0407663090542
 30
0.0
  0
VERTEX
  5
840
  8
0
  6
CONTINUOUS
 62
     7
 10
58.73545630527317
 20
217.0772168508823
 30
0.0
  0
VERTEX
  5
841
  8
0
  6
CONTINUOUS
 62
     7
 10
58.7687435761091
 20
217.1121758045209
 30
0.0
  0
VERTEX
  5
842
  8
0
  6
CONTINUOUS
 62
     7
 10
58.80367998878089
 20
217.1455280178066
 30
0.0
  0
VERTEX
  5
843
  8
0
  6
CONTINUOUS
 62
     7
 10
58.84014494283409
 20
217.177158338576
 30
0.0
  0
VERTEX
  5
844
  8
0
  6
CONTINUOUS
 62
     7
 10
58.87801783781426
 20
217.2069516146656
 30
0.0
  0
VERTEX
  5
845
  8
0
  6
CONTINUOUS
 62
     7
 10
58.91717807326696
 20
217.234792693912
 30
0.0
  0
VERTEX
  5
846
  8
0
  6
CONTINUOUS
 62
     7
 10
58.95765463332092
 20
217.260678731538
 30
0.0
  0
VERTEX
  5
847
  8
0
  6
CONTINUOUS
 62
     7
 10
58.9994592587461
 20
217.284640288367
 30
0.0
  0
VERTEX
  5
848
  8
0
  6
CONTINUOUS
 62
     7
 10
59.04244003832095
 20
217.3066086466736
 30
0.0
  0
VERTEX
  5
849
  8
0
  6
CONTINUOUS
 62
     7
 10
59.08644506082395
 20
217.3265150887325
 30
0.0
  0
VERTEX
  5
84A
  8
0
  6
CONTINUOUS
 62
     7
 10
59.13132241503355
 20
217.3442908968186
 30
0.0
  0
VERTEX
  5
84B
  8
0
  6
CONTINUOUS
 62
     7
 10
59.17692018972824
 20
217.3598673532063
 30
0.0
  0
VERTEX
  5
84C
  8
0
  6
CONTINUOUS
 62
     7
 10
59.22308647368646
 20
217.3731757401705
 30
0.0
  0
VERTEX
  5
84D
  8
0
  6
CONTINUOUS
 62
     7
 10
59.26984876862022
 20
217.3842040330552
 30
0.0
  0
VERTEX
  5
84E
  8
0
  6
CONTINUOUS
 62
     7
 10
59.3172271891744
 20
217.3929768617899
 30
0.0
  0
VERTEX
  5
84F
  8
0
  6
CONTINUOUS
 62
     7
 10
59.36505566160377
 20
217.3994796834181
 30
0.0
  0
VERTEX
  5
850
  8
0
  6
CONTINUOUS
 62
     7
 10
59.41316811216307
 20
217.4036979549827
 30
0.0
  0
VERTEX
  5
851
  8
0
  6
CONTINUOUS
 62
     7
 10
59.46139846710707
 20
217.4056171335271
 30
0.0
  0
VERTEX
  5
852
  8
0
  6
CONTINUOUS
 62
     7
 10
59.50958065269053
 20
217.4052226760944
 30
0.0
  0
VERTEX
  5
853
  8
0
  6
CONTINUOUS
 62
     7
 10
59.55754859516821
 20
217.4025000397278
 30
0.0
  0
VERTEX
  5
854
  8
0
  6
CONTINUOUS
 62
     7
 10
59.60187083986
 20
217.3978834417353
 30
0.0
  0
VERTEX
  5
855
  8
0
  6
CONTINUOUS
 62
     7
 10
59.64602973041239
 20
217.3912748713214
 30
0.0
  0
VERTEX
  5
856
  8
0
  6
CONTINUOUS
 62
     7
 10
59.68989549507873
 20
217.3827027083044
 30
0.0
  0
VERTEX
  5
857
  8
0
  6
CONTINUOUS
 62
     7
 10
59.73333836211238
 20
217.3721953325024
 30
0.0
  0
VERTEX
  5
858
  8
0
  6
CONTINUOUS
 62
     7
 10
59.77622855976674
 20
217.3597811237337
 30
0.0
  0
VERTEX
  5
859
  8
0
  6
CONTINUOUS
 62
     7
 10
59.81843631629514
 20
217.3454884618163
 30
0.0
  0
SEQEND
  5
931
  8
0
  6
CONTINUOUS
 62
     7
  0
ARC
  5
213
  8
0
  6
CONTINUOUS
 62
     7
 10
80.00000000000001
 20
210.0
 30
0.0
 40
22.49999999999999
 50
162.6657754583766
 51
177.334224541623
  0
POLYLINE
  5
214
  8
0
  6
CONTINUOUS
 62
     7
 66
     1
 10
0.0
 20
0.0
 30
0.0
  0
VERTEX
  5
85A
  8
0
  6
CONTINUOUS
 62
     7
 10
58.52322851399421
 20
210.0
 30
0.0
  0
VERTEX
  5
85B
  8
0
  6
CONTINUOUS
 62
     7
 10
58.47519465388689
 20
210.0011783480688
 30
0.0
  0
VERTEX
  5
85C
  8
0
  6
CONTINUOUS
 62
     7
 10
58.42713615080891
 20
210.004694748817
 30
0.0
  0
VERTEX
  5
85D
  8
0
  6
CONTINUOUS
 62
     7
 10
58.37921736730588
 20
210.0105212370571
 30
0.0
  0
VERTEX
  5
85E
  8
0
  6
CONTINUOUS
 62
     7
 10
58.33160266592339
 20
210.018629847602
 30
0.0
  0
VERTEX
  5
85F
  8
0
  6
CONTINUOUS
 62
     7
 10
58.28445640920708
 20
210.0289926152641
 30
0.0
  0
VERTEX
  5
860
  8
0
  6
CONTINUOUS
 62
     7
 10
58.23794295970259
 20
210.0415815748562
 30
0.0
  0
VERTEX
  5
861
  8
0
  6
CONTINUOUS
 62
     7
 10
58.19222667995551
 20
210.0563687611908
 30
0.0
  0
VERTEX
  5
862
  8
0
  6
CONTINUOUS
 62
     7
 10
58.14729041433134
 20
210.0733800052307
 30
0.0
  0
VERTEX
  5
863
  8
0
  6
CONTINUOUS
 62
     7
 10
58.10310485272227
 20
210.092605840725
 30
0.0
  0
VERTEX
  5
864
  8
0
  6
CONTINUOUS
 62
     7
 10
58.05981584974369
 20
210.1139654535564
 30
0.0
  0
VERTEX
  5
865
  8
0
  6
CONTINUOUS
 62
     7
 10
58.01756926001099
 20
210.1373780296078
 30
0.0
  0
VERTEX
  5
866
  8
0
  6
CONTINUOUS
 62
     7
 10
57.97651093813959
 20
210.1627627547621
 30
0.0
  0
VERTEX
  5
867
  8
0
  6
CONTINUOUS
 62
     7
 10
57.93678673874487
 20
210.190038814902
 30
0.0
  0
VERTEX
  5
868
  8
0
  6
CONTINUOUS
 62
     7
 10
57.89854251644226
 20
210.2191253959103
 30
0.0
  0
VERTEX
  5
869
  8
0
  6
CONTINUOUS
 62
     7
 10
57.86177235113303
 20
210.2500510131264
 30
0.0
  0
VERTEX
  5
86A
  8
0
  6
CONTINUOUS
 62
     7
 10
57.82644357186376
 20
210.282817768645
 30
0.0
  0
VERTEX
  5
86B
  8
0
  6
CONTINUOUS
 62
     7
 10
57.79266703661505
 20
210.3173011247086
 30
0.0
  0
VERTEX
  5
86C
  8
0
  6
CONTINUOUS
 62
     7
 10
57.76055360336753
 20
210.3533765435594
 30
0.0
  0
VERTEX
  5
86D
  8
0
  6
CONTINUOUS
 62
     7
 10
57.73021413010187
 20
210.3909194874397
 30
0.0
  0
VERTEX
  5
86E
  8
0
  6
CONTINUOUS
 62
     7
 10
57.70175947479868
 20
210.4298054185918
 30
0.0
  0
VERTEX
  5
86F
  8
0
  6
CONTINUOUS
 62
     7
 10
57.67530049543861
 20
210.4699097992579
 30
0.0
  0
VERTEX
  5
870
  8
0
  6
CONTINUOUS
 62
     7
 10
57.65084047654844
 20
210.5112624647996
 30
0.0
  0
VERTEX
  5
871
  8
0
  6
CONTINUOUS
 62
     7
 10
57.62834991376042
 20
210.5538752779406
 30
0.0
  0
VERTEX
  5
872
  8
0
  6
CONTINUOUS
 62
     7
 10
57.60789217039731
 20
210.5975940405103
 30
0.0
  0
VERTEX
  5
873
  8
0
  6
CONTINUOUS
 62
     7
 10
57.58953060978192
 20
210.6422645543385
 30
0.0
  0
VERTEX
  5
874
  8
0
  6
CONTINUOUS
 62
     7
 10
57.57332859523703
 20
210.6877326212546
 30
0.0
  0
VERTEX
  5
875
  8
0
  6
CONTINUOUS
 62
     7
 10
57.55934949008545
 20
210.7338440430881
 30
0.0
  0
VERTEX
  5
876
  8
0
  6
CONTINUOUS
 62
     7
 10
57.54765665764997
 20
210.7804446216688
 30
0.0
  0
VERTEX
  5
877
  8
0
  6
CONTINUOUS
 62
     7
 10
57.53885798667783
 20
210.8241293757767
 30
0.0
  0
VERTEX
  5
878
  8
0
  6
CONTINUOUS
 62
     7
 10
57.53200948928237
 20
210.8682516932811
 30
0.0
  0
VERTEX
  5
879
  8
0
  6
CONTINUOUS
 62
     7
 10
57.52712273943162
 20
210.9126792406503
 30
0.0
  0
VERTEX
  5
87A
  8
0
  6
CONTINUOUS
 62
     7
 10
57.5242093110936
 20
210.9572796843529
 30
0.0
  0
VERTEX
  5
87B
  8
0
  6
CONTINUOUS
 62
     7
 10
57.52328077823638
 20
211.0019206908572
 30
0.0
  0
VERTEX
  5
87C
  8
0
  6
CONTINUOUS
 62
     7
 10
57.52434871482797
 20
211.0464699266314
 30
0.0
  0
SEQEND
  5
932
  8
0
  6
CONTINUOUS
 62
     7
  0
LINE
  5
215
  8
0
  6
CONTINUOUS
 62
     7
 10
59.50611704773146
 20
210.0
 30
0.0
 11
58.52322851399421
 21
210.0
 31
0.0
  0
POLYLINE
  5
216
  8
0
  6
CONTINUOUS
 62
     7
 66
     1
 10
0.0
 20
0.0
 30
0.0
  0
VERTEX
  5
87D
  8
0
  6
CONTINUOUS
 62
     7
 10
60.00594928285543
 20
209.5122132430559
 30
0.0
  0
VERTEX
  5
87E
  8
0
  6
CONTINUOUS
 62
     7
 10
60.00477453076287
 20
209.5362085211208
 30
0.0
  0
VERTEX
  5
87F
  8
0
  6
CONTINUOUS
 62
     7
 10
60.00243080100041
 20
209.5601876047503
 30
0.0
  0
VERTEX
  5
880
  8
0
  6
CONTINUOUS
 62
     7
 10
59.99893407748561
 20
209.5840686785074
 30
0.0
  0
VERTEX
  5
881
  8
0
  6
CONTINUOUS
 62
     7
 10
59.99430034413605
 20
209.6077699269551
 30
0.0
  0
VERTEX
  5
882
  8
0
  6
CONTINUOUS
 62
     7
 10
59.98854558486929
 20
209.6312095346568
 30
0.0
  0
VERTEX
  5
883
  8
0
  6
CONTINUOUS
 62
     7
 10
59.98168578360291
 20
209.6543056861755
 30
0.0
  0
VERTEX
  5
884
  8
0
  6
CONTINUOUS
 62
     7
 10
59.97373692425447
 20
209.6769765660742
 30
0.0
  0
VERTEX
  5
885
  8
0
  6
CONTINUOUS
 62
     7
 10
59.96468588987955
 20
209.6992304296603
 30
0.0
  0
VERTEX
  5
886
  8
0
  6
CONTINUOUS
 62
     7
 10
59.95453705436645
 20
209.7210820490646
 30
0.0
  0
VERTEX
  5
887
  8
0
  6
CONTINUOUS
 62
     7
 10
59.9433325917279
 20
209.7424595060548
 30
0.0
  0
VERTEX
  5
888
  8
0
  6
CONTINUOUS
 62
     7
 10
59.93111467597668
 20
209.7632908823986
 30
0.0
  0
VERTEX
  5
889
  8
0
  6
CONTINUOUS
 62
     7
 10
59.91792548112554
 20
209.7835042598636
 30
0.0
  0
VERTEX
  5
88A
  8
0
  6
CONTINUOUS
 62
     7
 10
59.90380718118725
 20
209.8030277202174
 30
0.0
  0
VERTEX
  5
88B
  8
0
  6
CONTINUOUS
 62
     7
 10
59.88880195017455
 20
209.8217893452276
 30
0.0
  0
VERTEX
  5
88C
  8
0
  6
CONTINUOUS
 62
     7
 10
59.87289537377156
 20
209.8397918442895
 30
0.0
  0
VERTEX
  5
88D
  8
0
  6
CONTINUOUS
 62
     7
 10
59.8560860836779
 20
209.8570514176211
 30
0.0
  0
VERTEX
  5
88E
  8
0
  6
CONTINUOUS
 62
     7
 10
59.83843768163871
 20
209.8735141726231
 30
0.0
  0
VERTEX
  5
88F
  8
0
  6
CONTINUOUS
 62
     7
 10
59.82001376939918
 20
209.8891262166964
 30
0.0
  0
VERTEX
  5
890
  8
0
  6
CONTINUOUS
 62
     7
 10
59.80087794870448
 20
209.9038336572419
 30
0.0
  0
VERTEX
  5
891
  8
0
  6
CONTINUOUS
 62
     7
 10
59.78109382129979
 20
209.9175826016602
 30
0.0
  0
VERTEX
  5
892
  8
0
  6
CONTINUOUS
 62
     7
 10
59.76072498893028
 20
209.9303191573522
 30
0.0
  0
VERTEX
  5
893
  8
0
  6
CONTINUOUS
 62
     7
 10
59.73975643975911
 20
209.9420413928178
 30
0.0
  0
VERTEX
  5
894
  8
0
  6
CONTINUOUS
 62
     7
 10
59.71818201554061
 20
209.9527638248136
 30
0.0
  0
VERTEX
  5
895
  8
0
  6
CONTINUOUS
 62
     7
 10
59.69607956506599
 20
209.9624566611665
 30
0.0
  0
VERTEX
  5
896
  8
0
  6
CONTINUOUS
 62
     7
 10
59.67352693712647
 20
209.9710901097031
 30
0.0
  0
VERTEX
  5
897
  8
0
  6
CONTINUOUS
 62
     7
 10
59.65060198051327
 20
209.9786343782502
 30
0.0
  0
VERTEX
  5
898
  8
0
  6
CONTINUOUS
 62
     7
 10
59.62738254401759
 20
209.9850596746345
 30
0.0
  0
VERTEX
  5
899
  8
0
  6
CONTINUOUS
 62
     7
 10
59.60394647643065
 20
209.9903362066828
 30
0.0
  0
VERTEX
  5
89A
  8
0
  6
CONTINUOUS
 62
     7
 10
59.57971166786763
 20
209.9945509708288
 30
0.0
  0
VERTEX
  5
89B
  8
0
  6
CONTINUOUS
 62
     7
 10
59.5552692619043
 20
209.9975723668438
 30
0.0
  0
VERTEX
  5
89C
  8
0
  6
CONTINUOUS
 62
     7
 10
59.53070810602936
 20
209.9993916311076
 30
0.0
  0
VERTEX
  5
89D
  8
0
  6
CONTINUOUS
 62
     7
 10
59.50611704773146
 20
210.0
 30
0.0
  0
SEQEND
  5
933
  8
0
  6
CONTINUOUS
 62
     7
  0
ARC
  5
217
  8
0
  6
CONTINUOUS
 62
     7
 10
80.00000000000001
 20
210.0
 30
0.0
 40
20.0
 50
181.3975446996571
 51
183.0646410855989
  0
POLYLINE
  5
218
  8
0
  6
CONTINUOUS
 62
     7
 66
     1
 10
0.0
 20
0.0
 30
0.0
  0
VERTEX
  5
89E
  8
0
  6
CONTINUOUS
 62
     7
 10
59.68423387591572
 20
208.4286363334849
 30
0.0
  0
VERTEX
  5
89F
  8
0
  6
CONTINUOUS
 62
     7
 10
59.70688621724225
 20
208.436636960052
 30
0.0
  0
VERTEX
  5
8A0
  8
0
  6
CONTINUOUS
 62
     7
 10
59.72918810173092
 20
208.4457529118262
 30
0.0
  0
VERTEX
  5
8A1
  8
0
  6
CONTINUOUS
 62
     7
 10
59.75106572565167
 20
208.4559454300883
 30
0.0
  0
VERTEX
  5
8A2
  8
0
  6
CONTINUOUS
 62
     7
 10
59.77244528527446
 20
208.4671757561195
 30
0.0
  0
VERTEX
  5
8A3
  8
0
  6
CONTINUOUS
 62
     7
 10
59.79325297686925
 20
208.4794051312007
 30
0.0
  0
VERTEX
  5
8A4
  8
0
  6
CONTINUOUS
 62
     7
 10
59.81341499670599
 20
208.4925947966129
 30
0.0
  0
VERTEX
  5
8A5
  8
0
  6
CONTINUOUS
 62
     7
 10
59.83285754105465
 20
208.5067059936371
 30
0.0
  0
VERTEX
  5
8A6
  8
0
  6
CONTINUOUS
 62
     7
 10
59.85158475086799
 20
208.5217536404938
 30
0.0
  0
VERTEX
  5
8A7
  8
0
  6
CONTINUOUS
 62
     7
 10
59.86961204763479
 20
208.5377377851176
 30
0.0
  0
VERTEX
  5
8A8
  8
0
  6
CONTINUOUS
 62
     7
 10
59.88688261723503
 20
208.5545974159226
 30
0.0
  0
VERTEX
  5
8A9
  8
0
  6
CONTINUOUS
 62
     7
 10
59.90333964554871
 20
208.5722715213232
 30
0.0
  0
VERTEX
  5
8AA
  8
0
  6
CONTINUOUS
 62
     7
 10
59.91892631845585
 20
208.5906990897335
 30
0.0
  0
VERTEX
  5
8AB
  8
0
  6
CONTINUOUS
 62
     7
 10
59.93358582183647
 20
208.6098191095679
 30
0.0
  0
VERTEX
  5
8AC
  8
0
  6
CONTINUOUS
 62
     7
 10
59.94726134157056
 20
208.6295705692407
 30
0.0
  0
VERTEX
  5
8AD
  8
0
  6
CONTINUOUS
 62
     7
 10
59.95995152960077
 20
208.6499683629119
 30
0.0
  0
VERTEX
  5
8AE
  8
0
  6
CONTINUOUS
 62
     7
 10
59.97167130457085
 20
208.6710181508753
 30
0.0
  0
VERTEX
  5
8AF
  8
0
  6
CONTINUOUS
 62
     7
 10
59.9823872592795
 20
208.6926435584179
 30
0.0
  0
VERTEX
  5
8B0
  8
0
  6
CONTINUOUS
 62
     7
 10
59.99206598652538
 20
208.7147682108266
 30
0.0
  0
VERTEX
  5
8B1
  8
0
  6
CONTINUOUS
 62
     7
 10
60.00067407910721
 20
208.7373157333883
 30
0.0
  0
VERTEX
  5
8B2
  8
0
  6
CONTINUOUS
 62
     7
 10
60.00817812982366
 20
208.76020975139
 30
0.0
  0
VERTEX
  5
8B3
  8
0
  6
CONTINUOUS
 62
     7
 10
60.01454473147341
 20
208.7833738901185
 30
0.0
  0
VERTEX
  5
8B4
  8
0
  6
CONTINUOUS
 62
     7
 10
60.01990374480994
 20
208.8074968814645
 30
0.0
  0
VERTEX
  5
8B5
  8
0
  6
CONTINUOUS
 62
     7
 10
60.02406782866833
 20
208.8319159459923
 30
0.0
  0
VERTEX
  5
8B6
  8
0
  6
CONTINUOUS
 62
     7
 10
60.02702838577464
 20
208.8565408605921
 30
0.0
  0
VERTEX
  5
8B7
  8
0
  6
CONTINUOUS
 62
     7
 10
60.02877681885499
 20
208.8812814021544
 30
0.0
  0
VERTEX
  5
8B8
  8
0
  6
CONTINUOUS
 62
     7
 10
60.02930453063549
 20
208.9060473475695
 30
0.0
  0
VERTEX
  5
8B9
  8
0
  6
CONTINUOUS
 62
     7
 10
60.02860292384221
 20
208.9307484737278
 30
0.0
  0
SEQEND
  5
934
  8
0
  6
CONTINUOUS
 62
     7
  0
ARC
  5
219
  8
0
  6
CONTINUOUS
 62
     7
 10
60.30384493975577
 20
206.5270364466614
 30
0.0
 40
1.999999999999991
 50
108.0475113360959
 51
271.9524886639041
  0
POLYLINE
  5
21A
  8
0
  6
CONTINUOUS
 62
     7
 66
     1
 10
0.0
 20
0.0
 30
0.0
  0
VERTEX
  5
8BA
  8
0
  6
CONTINUOUS
 62
     7
 10
60.86731998048243
 20
204.1741476786007
 30
0.0
  0
VERTEX
  5
8BB
  8
0
  6
CONTINUOUS
 62
     7
 10
60.85976053176895
 20
204.1969510408142
 30
0.0
  0
VERTEX
  5
8BC
  8
0
  6
CONTINUOUS
 62
     7
 10
60.85107916576254
 20
204.2194256601171
 30
0.0
  0
VERTEX
  5
8BD
  8
0
  6
CONTINUOUS
 62
     7
 10
60.84131320138718
 20
204.2414969943951
 30
0.0
  0
VERTEX
  5
8BE
  8
0
  6
CONTINUOUS
 62
     7
 10
60.83049995756679
 20
204.2630905015342
 30
0.0
  0
VERTEX
  5
8BF
  8
0
  6
CONTINUOUS
 62
     7
 10
60.81867675322534
 20
204.2841316394201
 30
0.0
  0
VERTEX
  5
8C0
  8
0
  6
CONTINUOUS
 62
     7
 10
60.80588090728676
 20
204.3045458659387
 30
0.0
  0
VERTEX
  5
8C1
  8
0
  6
CONTINUOUS
 62
     7
 10
60.79214973867503
 20
204.3242586389758
 30
0.0
  0
VERTEX
  5
8C2
  8
0
  6
CONTINUOUS
 62
     7
 10
60.77746841235379
 20
204.3432743882592
 30
0.0
  0
VERTEX
  5
8C3
  8
0
  6
CONTINUOUS
 62
     7
 10
60.76183717972101
 20
204.3616085333032
 30
0.0
  0
VERTEX
  5
8C4
  8
0
  6
CONTINUOUS
 62
     7
 10
60.74531593813509
 20
204.3792030864859
 30
0.0
  0
VERTEX
  5
8C5
  8
0
  6
CONTINUOUS
 62
     7
 10
60.72796458495439
 20
204.3960000601856
 30
0.0
  0
VERTEX
  5
8C6
  8
0
  6
CONTINUOUS
 62
     7
 10
60.70984301753732
 20
204.4119414667804
 30
0.0
  0
VERTEX
  5
8C7
  8
0
  6
CONTINUOUS
 62
     7
 10
60.69101113324226
 20
204.4269693186486
 30
0.0
  0
VERTEX
  5
8C8
  8
0
  6
CONTINUOUS
 62
     7
 10
60.67152882942761
 20
204.4410256281685
 30
0.0
  0
VERTEX
  5
8C9
  8
0
  6
CONTINUOUS
 62
     7
 10
60.65138118857226
 20
204.4541093366257
 30
0.0
  0
VERTEX
  5
8CA
  8
0
  6
CONTINUOUS
 62
     7
 10
60.63056284101363
 20
204.466235469716
 30
0.0
  0
VERTEX
  5
8CB
  8
0
  6
CONTINUOUS
 62
     7
 10
60.60914949866005
 20
204.4773691441361
 30
0.0
  0
VERTEX
  5
8CC
  8
0
  6
CONTINUOUS
 62
     7
 10
60.58721687341983
 20
204.4874754765827
 30
0.0
  0
VERTEX
  5
8CD
  8
0
  6
CONTINUOUS
 62
     7
 10
60.5648406772013
 20
204.4965195837526
 30
0.0
  0
VERTEX
  5
8CE
  8
0
  6
CONTINUOUS
 62
     7
 10
60.5420966219128
 20
204.5044665823426
 30
0.0
  0
VERTEX
  5
8CF
  8
0
  6
CONTINUOUS
 62
     7
 10
60.51906041946265
 20
204.5112815890495
 30
0.0
  0
VERTEX
  5
8D0
  8
0
  6
CONTINUOUS
 62
     7
 10
60.49504598824592
 20
204.5171078081048
 30
0.0
  0
VERTEX
  5
8D1
  8
0
  6
CONTINUOUS
 62
     7
 10
60.47071234663576
 20
204.521745069419
 30
0.0
  0
VERTEX
  5
8D2
  8
0
  6
CONTINUOUS
 62
     7
 10
60.4461495338765
 20
204.525183026152
 30
0.0
  0
VERTEX
  5
8D3
  8
0
  6
CONTINUOUS
 62
     7
 10
60.42144758921247
 20
204.527411331464
 30
0.0
  0
VERTEX
  5
8D4
  8
0
  6
CONTINUOUS
 62
     7
 10
60.39669655188799
 20
204.528419638515
 30
0.0
  0
VERTEX
  5
8D5
  8
0
  6
CONTINUOUS
 62
     7
 10
60.37198646114741
 20
204.5281976004653
 30
0.0
  0
SEQEND
  5
935
  8
0
  6
CONTINUOUS
 62
     7
  0
ARC
  5
21B
  8
0
  6
CONTINUOUS
 62
     7
 10
80.00000000000001
 20
210.0
 30
0.0
 40
20.0
 50
196.9353589144013
 51
199.9484435888027
  0
LINE
  5
21C
  8
0
  6
CONTINUOUS
 62
     7
 10
61.20000000000002
 20
196.0
 30
0.0
 11
61.20000000000002
 21
203.1765111563072
 31
0.0
  0
LINE
  5
21D
  8
0
  6
CONTINUOUS
 62
     7
 10
59.34636257265538
 20
193.1464387236274
 30
0.0
 11
61.00706838340299
 21
194.807144534375
 31
0.0
  0
POLYLINE
  5
21E
  8
0
  6
CONTINUOUS
 62
     7
 66
     1
 10
0.0
 20
0.0
 30
0.0
  0
VERTEX
  5
8D6
  8
0
  6
CONTINUOUS
 62
     7
 10
58.99282033475072
 20
193.0
 30
0.0
  0
VERTEX
  5
8D7
  8
0
  6
CONTINUOUS
 62
     7
 10
59.09036381000178
 20
193.0096067970804
 30
0.0
  0
VERTEX
  5
8D8
  8
0
  6
CONTINUOUS
 62
     7
 10
59.18415764332266
 20
193.0380580401778
 30
0.0
  0
VERTEX
  5
8D9
  8
0
  6
CONTINUOUS
 62
     7
 10
59.27059773865508
 20
193.0842604696452
 30
0.0
  0
VERTEX
  5
8DA
  8
0
  6
CONTINUOUS
 62
     7
 10
59.34636257265539
 20
193.1464387236274
 30
0.0
  0
SEQEND
  5
936
  8
0
  6
CONTINUOUS
 62
     7
  0
POLYLINE
  5
21F
  8
0
  6
CONTINUOUS
 62
     7
 66
     1
 10
0.0
 20
0.0
 30
0.0
  0
VERTEX
  5
8DB
  8
0
  6
CONTINUOUS
 62
     7
 10
54.7
 20
193.9999619230642
 30
0.0
  0
VERTEX
  5
8DC
  8
0
  6
CONTINUOUS
 62
     7
 10
54.7195799280862
 20
193.8030421773107
 30
0.0
  0
VERTEX
  5
8DD
  8
0
  6
CONTINUOUS
 62
     7
 10
54.77755299437242
 20
193.6138364689717
 30
0.0
  0
VERTEX
  5
8DE
  8
0
  6
CONTINUOUS
 62
     7
 10
54.87164906836394
 20
193.4397537842506
 30
0.0
  0
VERTEX
  5
8DF
  8
0
  6
CONTINUOUS
 62
     7
 10
54.99818350164234
 20
193.2876109164707
 30
0.0
  0
VERTEX
  5
8E0
  8
0
  6
CONTINUOUS
 62
     7
 10
55.15220141267346
 20
193.1633655315936
 30
0.0
  0
VERTEX
  5
8E1
  8
0
  6
CONTINUOUS
 62
     7
 10
55.32767171186752
 20
193.0718828757603
 30
0.0
  0
VERTEX
  5
8E2
  8
0
  6
CONTINUOUS
 62
     7
 10
55.51772326918709
 20
193.0167452602071
 30
0.0
  0
SEQEND
  5
937
  8
0
  6
CONTINUOUS
 62
     7
  0
LINE
  5
220
  8
0
  6
CONTINUOUS
 62
     7
 10
55.51772326918709
 20
193.0167452602071
 30
0.0
 11
55.69996192306418
 21
193.0
 31
0.0
  0
LINE
  5
221
  8
0
  6
CONTINUOUS
 62
     7
 10
54.70000000000002
 20
195.5000190384679
 30
0.0
 11
54.70000000000002
 21
193.9999619230642
 31
0.0
  0
POLYLINE
  5
222
  8
0
  6
CONTINUOUS
 62
     7
 66
     1
 10
0.0
 20
0.0
 30
0.0
  0
VERTEX
  5
8E3
  8
0
  6
CONTINUOUS
 62
     7
 10
55.19998096153211
 20
195.9999999999999
 30
0.0
  0
VERTEX
  5
8E4
  8
0
  6
CONTINUOUS
 62
     7
 10
55.10243748628105
 20
195.9903932029195
 30
0.0
  0
VERTEX
  5
8E5
  8
0
  6
CONTINUOUS
 62
     7
 10
55.00864365296018
 20
195.9619419598221
 30
0.0
  0
VERTEX
  5
8E6
  8
0
  6
CONTINUOUS
 62
     7
 10
54.92220355762776
 20
195.9157395303547
 30
0.0
  0
VERTEX
  5
8E7
  8
0
  6
CONTINUOUS
 62
     7
 10
54.84643872362746
 20
195.8535612763725
 30
0.0
  0
VERTEX
  5
8E8
  8
0
  6
CONTINUOUS
 62
     7
 10
54.78426046964525
 20
195.7777964423722
 30
0.0
  0
VERTEX
  5
8E9
  8
0
  6
CONTINUOUS
 62
     7
 10
54.73805804017789
 20
195.6913563470398
 30
0.0
  0
VERTEX
  5
8EA
  8
0
  6
CONTINUOUS
 62
     7
 10
54.7096067970805
 20
195.5975625137189
 30
0.0
  0
VERTEX
  5
8EB
  8
0
  6
CONTINUOUS
 62
     7
 10
54.70000000000003
 20
195.5000190384679
 30
0.0
  0
SEQEND
  5
938
  8
0
  6
CONTINUOUS
 62
     7
  0
LINE
  5
223
  8
0
  6
CONTINUOUS
 62
     7
 10
58.20000000000002
 20
196.0
 30
0.0
 11
55.19998096153211
 21
196.0
 31
0.0
  0
LINE
  5
224
  8
0
  6
CONTINUOUS
 62
     7
 10
58.20000000000002
 20
197.8999238490279
 30
0.0
 11
58.20000000000002
 21
196.0
 31
0.0
  0
LINE
  5
225
  8
0
  6
CONTINUOUS
 62
     7
 10
56.96254271192401
 20
199.1373811371039
 30
0.0
 11
58.20000000000002
 21
197.8999238490279
 31
0.0
  0
LINE
  5
226
  8
0
  6
CONTINUOUS
 62
     7
 10
56.86241344427435
 20
199.2807608303433
 30
0.0
 11
56.96254271192401
 21
199.1373811371039
 31
0.0
  0
ARC
  5
227
  8
0
  6
CONTINUOUS
 62
     7
 10
80.00000000000001
 20
210.0
 30
0.0
 40
25.50000000000001
 50
335.1425356002841
 51
204.857464399716
  0
LINE
  5
228
  8
0
  6
CONTINUOUS
 62
     7
 10
55.49131121059499
 20
193.0
 30
0.0
 11
55.35043125660283
 21
193.0062969478081
 31
0.0
  0
ENDBLK
  8
0
  0
ENDSEC
  0
SECTION
  2
ENTITIES
  0
INSERT
  5
B5
  8
0
  6
DOT
 62
     7
  2
D_FRAME_VIEW_5888
 10
0.0
 20
0.0
 30
0.0
  0
INSERT
  5
179
  8
0
  6
DOT
 62
     7
  2
D_FRAME_VIEW_6235
 10
0.0
 20
0.0
 30
0.0
  0
TEXT
  5
17A
  8
0
  6
CONTINUOUS
 62
     7
 10
138.8990777791672
 20
168.3284200325122
 30
0.0
 40
3.0
  1
RMSU-40
  0
INSERT
  5
229
  8
0
  6
DOT
 62
     7
  2
D_FRAME_VIEW_5485
 10
0.0
 20
0.0
 30
0.0
  0
LINE
  5
22A
  8
0
  6
CENTER
 62
     1
 10
79.99999999999999
 20
130.0
 30
0.0
 11
79.99999999999999
 21
165.0
 31
0.0
  0
LINE
  5
22C
  8
0
  6
CENTER
 62
     1
 10
45.0
 20
210.0
 30
0.0
 11
115.0
 21
210.0
 31
0.0
  0
LINE
  5
22D
  8
0
  6
CENTER
 62
     1
 10
45.0
 20
150.2500000000001
 30
0.0
 11
115.0
 21
150.2500000000001
 31
0.0
  0
LINE
  5
22E
  8
0
  6
CENTER
 62
     1
 10
80.00000000000001
 20
180.0
 30
0.0
 11
80.00000000000001
 21
240.0
 31
0.0
  0
LINE
  5
22F
  8
0
  6
CENTER
 62
     1
 10
160.0883630828997
 20
210.6847838052124
 30
0.0
 11
142.8301988197323
 21
210.7600872304138
 31
0.0
  0
ENDSEC
  0
EOF
