  0
SECTION
  2
HEADER
  9
$ACADVER
  1
AC1006
  9
$DWGCODEPAGE
  3
ansi_932
  9
$INSBASE
 10
0.0
 20
0.0
 30
0.0
  9
$EXTMIN
 10
40.00000000000001
 20
94.99999999999997
  9
$EXTMAX
 10
182.5
 20
255.0
  9
$LIMMIN
 10
0.0
 20
0.0
  9
$LIMMAX
 10
12.0
 20
9.0
  9
$ORTHOMODE
 70
     0
  9
$REGENMODE
 70
     1
  9
$FILLMODE
 70
     1
  9
$QTEXTMODE
 70
     0
  9
$MIRRTEXT
 70
     1
  9
$DRAGMODE
 70
     2
  9
$LTSCALE
 40
1.0
  9
$OSMODE
 70
    37
  9
$ATTMODE
 70
     1
  9
$TEXTSIZE
 40
0.2
  9
$TRACEWID
 40
0.05
  9
$TEXTSTYLE
  7
STANDARD
  9
$CLAYER
  8
0
  9
$CELTYPE
  6
BYLAYER
  9
$CECOLOR
 62
   256
  9
$DIMSCALE
 40
1.0
  9
$DIMASZ
 40
3.0
  9
$DIMEXO
 40
0.0625
  9
$DIMDLI
 40
0.38
  9
$DIMRND
 40
0.0
  9
$DIMDLE
 40
0.0
  9
$DIMEXE
 40
1.5
  9
$DIMTP
 40
0.0
  9
$DIMTM
 40
0.0
  9
$DIMTXT
 40
3.0
  9
$DIMCEN
 40
0.09
  9
$DIMTSZ
 40
0.0
  9
$DIMTOL
 70
     0
  9
$DIMLIM
 70
     0
  9
$DIMTIH
 70
     1
  9
$DIMTOH
 70
     1
  9
$DIMSE1
 70
     0
  9
$DIMSE2
 70
     0
  9
$DIMTAD
 70
     1
  9
$DIMZIN
 70
     0
  9
$DIMBLK
  1

  9
$DIMASO
 70
     1
  9
$DIMSHO
 70
     1
  9
$DIMPOST
  1

  9
$DIMAPOST
  1

  9
$DIMALT
 70
     0
  9
$DIMALTD
 70
     2
  9
$DIMALTF
 40
25.4
  9
$DIMLFAC
 40
1.0
  9
$DIMTOFL
 70
     0
  9
$DIMTVP
 40
0.0
  9
$DIMTIX
 70
     0
  9
$DIMSOXD
 70
     0
  9
$DIMSAH
 70
     0
  9
$DIMBLK1
  1

  9
$DIMBLK2
  1

  9
$LUNITS
 70
     2
  9
$LUPREC
 70
     4
  9
$SKETCHINC
 40
0.1
  9
$FILLETRAD
 40
0.5
  9
$AUNITS
 70
     0
  9
$AUPREC
 70
     0
  9
$MENU
  1
.
  9
$ELEVATION
 40
0.0
  9
$THICKNESS
 40
0.0
  9
$LIMCHECK
 70
     0
  9
$CHAMFERA
 40
0.0
  9
$CHAMFERB
 40
0.0
  9
$SKPOLY
 70
     0
  9
$TDCREATE
 40
2460606.327551852
  9
$TDUPDATE
 40
2460606.32755213
  9
$TDINDWG
 40
0.0000000116
  9
$TDUSRTIMER
 40
0.0000000116
  9
$USRTIMER
 70
     1
  9
$ANGBASE
 50
0.0
  9
$ANGDIR
 70
     0
  9
$PDMODE
 70
     0
  9
$PDSIZE
 40
0.0
  9
$PLINEWID
 40
0.0
  9
$COORDS
 70
     1
  9
$SPLFRAME
 70
     0
  9
$SPLINETYPE
 70
     6
  9
$SPLINESEGS
 70
     8
  9
$ATTDIA
 70
     0
  9
$ATTREQ
 70
     1
  9
$HANDLING
 70
     1
  9
$HANDSEED
  5
513
  9
$SURFTAB1
 70
     6
  9
$SURFTAB2
 70
     6
  9
$SURFTYPE
 70
     6
  9
$SURFU
 70
     6
  9
$SURFV
 70
     6
  9
$UCSNAME
  2

  9
$UCSORG
 10
0.0
 20
0.0
 30
0.0
  9
$UCSXDIR
 10
1.0
 20
0.0
 30
0.0
  9
$UCSYDIR
 10
0.0
 20
1.0
 30
0.0
  9
$USERI1
 70
     0
  9
$USERI2
 70
     0
  9
$USERI3
 70
     0
  9
$USERI4
 70
     0
  9
$USERI5
 70
     0
  9
$USERR1
 40
0.0
  9
$USERR2
 40
0.0
  9
$USERR3
 40
0.0
  9
$USERR4
 40
0.0
  9
$USERR5
 40
0.0
  9
$WORLDVIEW
 70
     1
  0
ENDSEC
  0
SECTION
  2
TABLES
  0
TABLE
  2
VPORT
 70
     1
  0
VPORT
  2
*ACTIVE
 70
     0
 10
0.0
 20
0.0
 11
1.0
 21
1.0
 12
111.25
 22
175.0
 13
0.0
 23
0.0
 14
0.5
 24
0.5
 15
0.5
 25
0.5
 16
0.0
 26
0.0
 36
1.0
 17
0.0
 27
0.0
 37
0.0
 40
160.0
 41
1.6
 42
50.0
 43
0.0
 44
0.0
 50
0.0
 51
0.0
 71
     0
 72
   100
 73
     1
 74
     3
 75
     0
 76
     0
 77
     0
 78
     0
  0
ENDTAB
  0
TABLE
  2
LTYPE
 70
     2
  0
LTYPE
  2
CONTINUOUS
 70
     0
  3
Solid line
 72
    65
 73
     0
 40
0.0
  0
LTYPE
  2
CENTER
 70
     0
  3

 72
    65
 73
     0
 40
0.0
  0
ENDTAB
  0
TABLE
  2
LAYER
 70
     1
  0
LAYER
  2
0
 70
     0
 62
     7
  6
CONTINUOUS
  0
ENDTAB
  0
TABLE
  2
STYLE
 70
     2
  0
STYLE
  2
STANDARD
 70
     0
 40
0.0
 41
1.0
 50
0.0
 71
     0
 42
0.2
  3
txt
  4

  0
STYLE
  2
ＭＳ_ゴシック
 70
     0
 40
0.0
 41
1.0
 50
0.0
 71
     0
 42
0.2
  3
ＭＳ ゴシック.shx
  4

  0
ENDTAB
  0
TABLE
  2
VIEW
 70
     0
  0
ENDTAB
  0
TABLE
  2
UCS
 70
     0
  0
ENDTAB
  0
ENDSEC
  0
SECTION
  2
BLOCKS
  0
BLOCK
  8
0
  2
D_FRAME_VIEW_4378
 70
     0
 10
0.0
 20
0.0
 30
0.0
  0
LINE
  5
70
  8
0
  6
CONTINUOUS
 62
     7
 10
42.50000000000001
 20
147.5
 30
0.0
 11
42.55050772621105
 21
147.5
 31
0.0
  0
LINE
  5
71
  8
0
  6
CONTINUOUS
 62
     7
 10
42.87677728321096
 20
117.4999999999999
 30
0.0
 11
42.81610036367461
 21
117.6501906331515
 31
0.0
  0
LINE
  5
72
  8
0
  6
CONTINUOUS
 62
     7
 10
97.12322271678906
 20
117.4999999999999
 30
0.0
 11
97.18389963632538
 21
117.6501906331515
 31
0.0
  0
LINE
  5
73
  8
0
  6
CONTINUOUS
 62
     7
 10
97.44949227378896
 20
147.5
 30
0.0
 11
97.49999999999997
 21
147.5
 31
0.0
  0
LINE
  5
74
  8
0
  6
CONTINUOUS
 62
     7
 10
94.69045296526427
 20
117.6029593942593
 30
0.0
 11
94.63528035261035
 21
117.4999999999999
 31
0.0
  0
LINE
  5
75
  8
0
  6
CONTINUOUS
 62
     7
 10
51.49999999999997
 20
117.4999999999999
 30
0.0
 11
45.36471964738966
 21
117.4999999999999
 31
0.0
  0
LINE
  5
76
  8
0
  6
CONTINUOUS
 62
     7
 10
94.63528035261034
 20
117.4999999999999
 30
0.0
 11
88.50000000000006
 21
117.4999999999999
 31
0.0
  0
LINE
  5
77
  8
0
  6
CONTINUOUS
 62
     7
 10
45.30954703473574
 20
117.6029593942594
 30
0.0
 11
45.36471964738966
 21
117.4999999999999
 31
0.0
  0
LINE
  5
78
  8
0
  6
CONTINUOUS
 62
     7
 10
45.36471964738966
 20
117.4999999999999
 30
0.0
 11
42.87677728321096
 21
117.4999999999999
 31
0.0
  0
LINE
  5
79
  8
0
  6
CONTINUOUS
 62
     7
 10
94.63528035261035
 20
117.4999999999999
 30
0.0
 11
97.12322271678906
 21
117.4999999999999
 31
0.0
  0
LINE
  5
7A
  8
0
  6
CONTINUOUS
 62
     7
 10
82.99999999999996
 20
136.5000000000002
 30
0.0
 11
77.93725393319374
 21
136.5000000000002
 31
0.0
  0
ARC
  5
7B
  8
0
  6
CONTINUOUS
 62
     7
 10
69.99999999999991
 20
137.5000000000002
 30
0.0
 40
8.000000000000046
 50
277.1807557814583
 51
352.8192442185418
  0
LINE
  5
7C
  8
0
  6
CONTINUOUS
 62
     7
 10
70.99999999999991
 20
129.5627460668064
 30
0.0
 11
70.99999999999991
 21
119.5000000000001
 31
0.0
  0
LINE
  5
7D
  8
0
  6
CONTINUOUS
 62
     7
 10
70.99999999999991
 20
119.5000000000001
 30
0.0
 11
78.49999999999994
 21
119.5000000000001
 31
0.0
  0
LINE
  5
7E
  8
0
  6
CONTINUOUS
 62
     7
 10
78.49999999999994
 20
119.5000000000001
 30
0.0
 11
78.49999999999994
 21
127.5000000000001
 31
0.0
  0
LINE
  5
7F
  8
0
  6
CONTINUOUS
 62
     7
 10
82.99999999999996
 20
127.5000000000001
 30
0.0
 11
78.49999999999994
 21
127.5000000000001
 31
0.0
  0
LINE
  5
80
  8
0
  6
CONTINUOUS
 62
     7
 10
82.99999999999996
 20
136.5000000000002
 30
0.0
 11
82.99999999999996
 21
127.5000000000001
 31
0.0
  0
LINE
  5
81
  8
0
  6
CONTINUOUS
 62
     7
 10
57.00000000000007
 20
127.5000000000002
 30
0.0
 11
61.50000000000008
 21
127.5000000000002
 31
0.0
  0
LINE
  5
82
  8
0
  6
CONTINUOUS
 62
     7
 10
61.50000000000008
 20
119.5000000000001
 30
0.0
 11
61.50000000000008
 21
127.5000000000002
 31
0.0
  0
LINE
  5
83
  8
0
  6
CONTINUOUS
 62
     7
 10
69.0000000000001
 20
119.5000000000001
 30
0.0
 11
61.50000000000008
 21
119.5000000000001
 31
0.0
  0
LINE
  5
84
  8
0
  6
CONTINUOUS
 62
     7
 10
69.0000000000001
 20
129.5627460668064
 30
0.0
 11
69.0000000000001
 21
119.5000000000001
 31
0.0
  0
ARC
  5
85
  8
0
  6
CONTINUOUS
 62
     7
 10
70.0000000000001
 20
137.5000000000003
 30
0.0
 40
8.000000000000046
 50
187.1807557814583
 51
262.8192442185417
  0
LINE
  5
86
  8
0
  6
CONTINUOUS
 62
     7
 10
57.00000000000007
 20
136.5000000000003
 30
0.0
 11
62.06274606680628
 21
136.5000000000003
 31
0.0
  0
LINE
  5
87
  8
0
  6
CONTINUOUS
 62
     7
 10
57.00000000000007
 20
136.5000000000003
 30
0.0
 11
57.00000000000007
 21
127.5000000000002
 31
0.0
  0
LINE
  5
88
  8
0
  6
CONTINUOUS
 62
     7
 10
57.00000000000008
 20
147.6331455450187
 30
0.0
 11
57.00000000000007
 21
138.5
 31
0.0
  0
LINE
  5
89
  8
0
  6
CONTINUOUS
 62
     7
 10
57.00000000000007
 20
138.5
 30
0.0
 11
62.06274606680618
 21
138.5000000000001
 31
0.0
  0
ARC
  5
8A
  8
0
  6
CONTINUOUS
 62
     7
 10
70.00000000000001
 20
137.5000000000001
 30
0.0
 40
8.000000000000068
 50
97.18075578145829
 51
172.8192442185418
  0
LINE
  5
8B
  8
0
  6
CONTINUOUS
 62
     7
 10
69.00000000000001
 20
145.437253933194
 30
0.0
 11
69.00000000000001
 21
165.5000000000002
 31
0.0
  0
LINE
  5
8C
  8
0
  6
CONTINUOUS
 62
     7
 10
69.00000000000001
 20
165.5000000000002
 30
0.0
 11
61.49999999999996
 21
165.5000000000002
 31
0.0
  0
LINE
  5
8D
  8
0
  6
CONTINUOUS
 62
     7
 10
61.49999999999996
 20
165.5000000000002
 30
0.0
 11
61.49999999999996
 21
154.3668544549813
 31
0.0
  0
LINE
  5
8E
  8
0
  6
CONTINUOUS
 62
     7
 10
59.50000000000001
 20
167.4999999999999
 30
0.0
 11
59.50000000000001
 21
154.3668544549813
 31
0.0
  0
LINE
  5
8F
  8
0
  6
CONTINUOUS
 62
     7
 10
80.50000000000001
 20
167.4999999999999
 30
0.0
 11
59.50000000000001
 21
167.4999999999999
 31
0.0
  0
LINE
  5
90
  8
0
  6
CONTINUOUS
 62
     7
 10
80.50000000000001
 20
167.4999999999999
 30
0.0
 11
80.50000000000001
 21
154.3668544549812
 31
0.0
  0
LINE
  5
91
  8
0
  6
CONTINUOUS
 62
     7
 10
78.50000000000007
 20
165.5000000000002
 30
0.0
 11
78.50000000000007
 21
154.3668544549812
 31
0.0
  0
LINE
  5
92
  8
0
  6
CONTINUOUS
 62
     7
 10
70.99999999999999
 20
165.5000000000002
 30
0.0
 11
78.50000000000007
 21
165.5000000000002
 31
0.0
  0
LINE
  5
93
  8
0
  6
CONTINUOUS
 62
     7
 10
70.99999999999999
 20
145.4372539331939
 30
0.0
 11
70.99999999999999
 21
165.5000000000002
 31
0.0
  0
ARC
  5
94
  8
0
  6
CONTINUOUS
 62
     7
 10
69.99999999999999
 20
137.5000000000001
 30
0.0
 40
8.00000000000006
 50
7.180755781458209
 51
82.81924421854168
  0
LINE
  5
95
  8
0
  6
CONTINUOUS
 62
     7
 10
82.99999999999996
 20
138.5
 30
0.0
 11
77.93725393319384
 21
138.5000000000001
 31
0.0
  0
LINE
  5
96
  8
0
  6
CONTINUOUS
 62
     7
 10
82.99999999999996
 20
147.6331455450186
 30
0.0
 11
82.99999999999996
 21
138.5
 31
0.0
  0
LINE
  5
97
  8
0
  6
CONTINUOUS
 62
     7
 10
86.50000000000001
 20
167.4999999999999
 30
0.0
 11
88.50000000000006
 21
167.4999999999999
 31
0.0
  0
LINE
  5
98
  8
0
  6
CONTINUOUS
 62
     7
 10
88.50000000000006
 20
147.9454661239058
 30
0.0
 11
88.50000000000006
 21
167.4999999999999
 31
0.0
  0
LINE
  5
99
  8
0
  6
CONTINUOUS
 62
     7
 10
88.50000000000006
 20
147.9454661239058
 30
0.0
 11
85.05453387609418
 21
147.9454661239058
 31
0.0
  0
LINE
  5
9A
  8
0
  6
CONTINUOUS
 62
     7
 10
85.05453387609417
 20
127.0545338760941
 30
0.0
 11
85.05453387609418
 21
147.9454661239058
 31
0.0
  0
LINE
  5
9B
  8
0
  6
CONTINUOUS
 62
     7
 10
88.50000000000006
 20
127.0545338760941
 30
0.0
 11
85.05453387609417
 21
127.0545338760941
 31
0.0
  0
LINE
  5
9C
  8
0
  6
CONTINUOUS
 62
     7
 10
88.50000000000006
 20
117.4999999999999
 30
0.0
 11
88.50000000000006
 21
127.0545338760941
 31
0.0
  0
LINE
  5
9D
  8
0
  6
CONTINUOUS
 62
     7
 10
86.99996192306416
 20
117.4999999999999
 30
0.0
 11
88.50000000000006
 21
117.4999999999999
 31
0.0
  0
POLYLINE
  5
9E
  8
0
  6
CONTINUOUS
 62
     7
 66
     1
 10
0.0
 20
0.0
 30
0.0
  0
VERTEX
  5
25D
  8
0
  6
CONTINUOUS
 62
     7
 10
86.99996192306416
 20
117.4999999999999
 30
0.0
  0
VERTEX
  5
25E
  8
0
  6
CONTINUOUS
 62
     7
 10
86.80487497256205
 20
117.480786405839
 30
0.0
  0
VERTEX
  5
25F
  8
0
  6
CONTINUOUS
 62
     7
 10
86.61728730592029
 20
117.4238839196442
 30
0.0
  0
VERTEX
  5
260
  8
0
  6
CONTINUOUS
 62
     7
 10
86.44440711525544
 20
117.3314790607095
 30
0.0
  0
VERTEX
  5
261
  8
0
  6
CONTINUOUS
 62
     7
 10
86.29287744725484
 20
117.2071225527451
 30
0.0
  0
VERTEX
  5
262
  8
0
  6
CONTINUOUS
 62
     7
 10
86.16852093929043
 20
117.0555928847445
 30
0.0
  0
VERTEX
  5
263
  8
0
  6
CONTINUOUS
 62
     7
 10
86.07611608035569
 20
116.8827126940796
 30
0.0
  0
VERTEX
  5
264
  8
0
  6
CONTINUOUS
 62
     7
 10
86.01921359416092
 20
116.6951250274379
 30
0.0
  0
VERTEX
  5
265
  8
0
  6
CONTINUOUS
 62
     7
 10
85.99999999999999
 20
116.5000380769358
 30
0.0
  0
SEQEND
  5
4F1
  8
0
  6
CONTINUOUS
 62
     7
  0
LINE
  5
9F
  8
0
  6
CONTINUOUS
 62
     7
 10
85.99999999999999
 20
116.5000380769358
 30
0.0
 11
85.99999999999999
 21
103.4999619230641
 31
0.0
  0
POLYLINE
  5
A0
  8
0
  6
CONTINUOUS
 62
     7
 66
     1
 10
0.0
 20
0.0
 30
0.0
  0
VERTEX
  5
266
  8
0
  6
CONTINUOUS
 62
     7
 10
85.00003807693582
 20
102.5
 30
0.0
  0
VERTEX
  5
267
  8
0
  6
CONTINUOUS
 62
     7
 10
85.19512502743794
 20
102.5192135941609
 30
0.0
  0
VERTEX
  5
268
  8
0
  6
CONTINUOUS
 62
     7
 10
85.3827126940797
 20
102.5761160803557
 30
0.0
  0
VERTEX
  5
269
  8
0
  6
CONTINUOUS
 62
     7
 10
85.55559288474454
 20
102.6685209392904
 30
0.0
  0
VERTEX
  5
26A
  8
0
  6
CONTINUOUS
 62
     7
 10
85.70712255274515
 20
102.7928774472548
 30
0.0
  0
VERTEX
  5
26B
  8
0
  6
CONTINUOUS
 62
     7
 10
85.83147906070955
 20
102.9444071152554
 30
0.0
  0
VERTEX
  5
26C
  8
0
  6
CONTINUOUS
 62
     7
 10
85.92388391964428
 20
103.1172873059203
 30
0.0
  0
VERTEX
  5
26D
  8
0
  6
CONTINUOUS
 62
     7
 10
85.98078640583905
 20
103.304874972562
 30
0.0
  0
VERTEX
  5
26E
  8
0
  6
CONTINUOUS
 62
     7
 10
86.0
 20
103.4999619230641
 30
0.0
  0
SEQEND
  5
4F2
  8
0
  6
CONTINUOUS
 62
     7
  0
LINE
  5
A1
  8
0
  6
CONTINUOUS
 62
     7
 10
81.99996192306415
 20
102.5
 30
0.0
 11
85.00003807693582
 21
102.5
 31
0.0
  0
POLYLINE
  5
A2
  8
0
  6
CONTINUOUS
 62
     7
 66
     1
 10
0.0
 20
0.0
 30
0.0
  0
VERTEX
  5
26F
  8
0
  6
CONTINUOUS
 62
     7
 10
80.99999999999997
 20
103.4999619230641
 30
0.0
  0
VERTEX
  5
270
  8
0
  6
CONTINUOUS
 62
     7
 10
81.01921359416092
 20
103.304874972562
 30
0.0
  0
VERTEX
  5
271
  8
0
  6
CONTINUOUS
 62
     7
 10
81.07611608035567
 20
103.1172873059203
 30
0.0
  0
VERTEX
  5
272
  8
0
  6
CONTINUOUS
 62
     7
 10
81.16852093929042
 20
102.9444071152554
 30
0.0
  0
VERTEX
  5
273
  8
0
  6
CONTINUOUS
 62
     7
 10
81.29287744725482
 20
102.7928774472548
 30
0.0
  0
VERTEX
  5
274
  8
0
  6
CONTINUOUS
 62
     7
 10
81.44440711525543
 20
102.6685209392904
 30
0.0
  0
VERTEX
  5
275
  8
0
  6
CONTINUOUS
 62
     7
 10
81.61728730592027
 20
102.5761160803557
 30
0.0
  0
VERTEX
  5
276
  8
0
  6
CONTINUOUS
 62
     7
 10
81.80487497256205
 20
102.5192135941609
 30
0.0
  0
VERTEX
  5
277
  8
0
  6
CONTINUOUS
 62
     7
 10
81.99996192306415
 20
102.5
 30
0.0
  0
SEQEND
  5
4F3
  8
0
  6
CONTINUOUS
 62
     7
  0
LINE
  5
A3
  8
0
  6
CONTINUOUS
 62
     7
 10
80.99999999999997
 20
116.5000380769358
 30
0.0
 11
80.99999999999997
 21
103.4999619230641
 31
0.0
  0
POLYLINE
  5
A4
  8
0
  6
CONTINUOUS
 62
     7
 66
     1
 10
0.0
 20
0.0
 30
0.0
  0
VERTEX
  5
278
  8
0
  6
CONTINUOUS
 62
     7
 10
80.99999999999996
 20
116.5000380769357
 30
0.0
  0
VERTEX
  5
279
  8
0
  6
CONTINUOUS
 62
     7
 10
80.98078640583903
 20
116.6951250274379
 30
0.0
  0
VERTEX
  5
27A
  8
0
  6
CONTINUOUS
 62
     7
 10
80.92388391964425
 20
116.8827126940796
 30
0.0
  0
VERTEX
  5
27B
  8
0
  6
CONTINUOUS
 62
     7
 10
80.83147906070951
 20
117.0555928847445
 30
0.0
  0
VERTEX
  5
27C
  8
0
  6
CONTINUOUS
 62
     7
 10
80.70712255274512
 20
117.2071225527451
 30
0.0
  0
VERTEX
  5
27D
  8
0
  6
CONTINUOUS
 62
     7
 10
80.5555928847445
 20
117.3314790607095
 30
0.0
  0
VERTEX
  5
27E
  8
0
  6
CONTINUOUS
 62
     7
 10
80.38271269407966
 20
117.4238839196442
 30
0.0
  0
VERTEX
  5
27F
  8
0
  6
CONTINUOUS
 62
     7
 10
80.1951250274379
 20
117.480786405839
 30
0.0
  0
VERTEX
  5
280
  8
0
  6
CONTINUOUS
 62
     7
 10
80.0000380769358
 20
117.4999999999999
 30
0.0
  0
SEQEND
  5
4F4
  8
0
  6
CONTINUOUS
 62
     7
  0
LINE
  5
A5
  8
0
  6
CONTINUOUS
 62
     7
 10
80.00003807693581
 20
117.4999999999999
 30
0.0
 11
59.99996192306423
 21
117.5
 31
0.0
  0
POLYLINE
  5
A6
  8
0
  6
CONTINUOUS
 62
     7
 66
     1
 10
0.0
 20
0.0
 30
0.0
  0
VERTEX
  5
281
  8
0
  6
CONTINUOUS
 62
     7
 10
59.99996192306422
 20
117.5
 30
0.0
  0
VERTEX
  5
282
  8
0
  6
CONTINUOUS
 62
     7
 10
59.80487497256212
 20
117.480786405839
 30
0.0
  0
VERTEX
  5
283
  8
0
  6
CONTINUOUS
 62
     7
 10
59.61728730592035
 20
117.4238839196443
 30
0.0
  0
VERTEX
  5
284
  8
0
  6
CONTINUOUS
 62
     7
 10
59.44440711525552
 20
117.3314790607095
 30
0.0
  0
VERTEX
  5
285
  8
0
  6
CONTINUOUS
 62
     7
 10
59.2928774472549
 20
117.2071225527451
 30
0.0
  0
VERTEX
  5
286
  8
0
  6
CONTINUOUS
 62
     7
 10
59.1685209392905
 20
117.0555928847445
 30
0.0
  0
VERTEX
  5
287
  8
0
  6
CONTINUOUS
 62
     7
 10
59.07611608035576
 20
116.8827126940797
 30
0.0
  0
VERTEX
  5
288
  8
0
  6
CONTINUOUS
 62
     7
 10
59.01921359416099
 20
116.6951250274379
 30
0.0
  0
VERTEX
  5
289
  8
0
  6
CONTINUOUS
 62
     7
 10
59.00000000000005
 20
116.5000380769358
 30
0.0
  0
SEQEND
  5
4F5
  8
0
  6
CONTINUOUS
 62
     7
  0
LINE
  5
A7
  8
0
  6
CONTINUOUS
 62
     7
 10
59.00000000000005
 20
116.5000380769358
 30
0.0
 11
59.00000000000005
 21
103.4999619230642
 31
0.0
  0
POLYLINE
  5
A8
  8
0
  6
CONTINUOUS
 62
     7
 66
     1
 10
0.0
 20
0.0
 30
0.0
  0
VERTEX
  5
28A
  8
0
  6
CONTINUOUS
 62
     7
 10
58.00003807693588
 20
102.5
 30
0.0
  0
VERTEX
  5
28B
  8
0
  6
CONTINUOUS
 62
     7
 10
58.19512502743799
 20
102.519213594161
 30
0.0
  0
VERTEX
  5
28C
  8
0
  6
CONTINUOUS
 62
     7
 10
58.38271269407976
 20
102.5761160803557
 30
0.0
  0
VERTEX
  5
28D
  8
0
  6
CONTINUOUS
 62
     7
 10
58.5555928847446
 20
102.6685209392905
 30
0.0
  0
VERTEX
  5
28E
  8
0
  6
CONTINUOUS
 62
     7
 10
58.7071225527452
 20
102.7928774472549
 30
0.0
  0
VERTEX
  5
28F
  8
0
  6
CONTINUOUS
 62
     7
 10
58.83147906070961
 20
102.9444071152555
 30
0.0
  0
VERTEX
  5
290
  8
0
  6
CONTINUOUS
 62
     7
 10
58.92388391964435
 20
103.1172873059203
 30
0.0
  0
VERTEX
  5
291
  8
0
  6
CONTINUOUS
 62
     7
 10
58.98078640583912
 20
103.3048749725621
 30
0.0
  0
VERTEX
  5
292
  8
0
  6
CONTINUOUS
 62
     7
 10
59.00000000000006
 20
103.4999619230642
 30
0.0
  0
SEQEND
  5
4F6
  8
0
  6
CONTINUOUS
 62
     7
  0
LINE
  5
A9
  8
0
  6
CONTINUOUS
 62
     7
 10
58.00003807693588
 20
102.5
 30
0.0
 11
54.99996192306421
 21
102.5
 31
0.0
  0
POLYLINE
  5
AA
  8
0
  6
CONTINUOUS
 62
     7
 66
     1
 10
0.0
 20
0.0
 30
0.0
  0
VERTEX
  5
293
  8
0
  6
CONTINUOUS
 62
     7
 10
54.00000000000004
 20
103.4999619230642
 30
0.0
  0
VERTEX
  5
294
  8
0
  6
CONTINUOUS
 62
     7
 10
54.01921359416097
 20
103.3048749725621
 30
0.0
  0
VERTEX
  5
295
  8
0
  6
CONTINUOUS
 62
     7
 10
54.07611608035575
 20
103.1172873059203
 30
0.0
  0
VERTEX
  5
296
  8
0
  6
CONTINUOUS
 62
     7
 10
54.16852093929049
 20
102.9444071152555
 30
0.0
  0
VERTEX
  5
297
  8
0
  6
CONTINUOUS
 62
     7
 10
54.29287744725489
 20
102.7928774472549
 30
0.0
  0
VERTEX
  5
298
  8
0
  6
CONTINUOUS
 62
     7
 10
54.44440711525549
 20
102.6685209392905
 30
0.0
  0
VERTEX
  5
299
  8
0
  6
CONTINUOUS
 62
     7
 10
54.61728730592034
 20
102.5761160803557
 30
0.0
  0
VERTEX
  5
29A
  8
0
  6
CONTINUOUS
 62
     7
 10
54.8048749725621
 20
102.519213594161
 30
0.0
  0
VERTEX
  5
29B
  8
0
  6
CONTINUOUS
 62
     7
 10
54.99996192306421
 20
102.5
 30
0.0
  0
SEQEND
  5
4F7
  8
0
  6
CONTINUOUS
 62
     7
  0
LINE
  5
AB
  8
0
  6
CONTINUOUS
 62
     7
 10
54.00000000000004
 20
116.5000380769358
 30
0.0
 11
54.00000000000004
 21
103.4999619230642
 31
0.0
  0
POLYLINE
  5
AC
  8
0
  6
CONTINUOUS
 62
     7
 66
     1
 10
0.0
 20
0.0
 30
0.0
  0
VERTEX
  5
29C
  8
0
  6
CONTINUOUS
 62
     7
 10
54.00000000000004
 20
116.5000380769358
 30
0.0
  0
VERTEX
  5
29D
  8
0
  6
CONTINUOUS
 62
     7
 10
53.9807864058391
 20
116.6951250274379
 30
0.0
  0
VERTEX
  5
29E
  8
0
  6
CONTINUOUS
 62
     7
 10
53.92388391964433
 20
116.8827126940797
 30
0.0
  0
VERTEX
  5
29F
  8
0
  6
CONTINUOUS
 62
     7
 10
53.83147906070959
 20
117.0555928847445
 30
0.0
  0
VERTEX
  5
2A0
  8
0
  6
CONTINUOUS
 62
     7
 10
53.70712255274519
 20
117.2071225527451
 30
0.0
  0
VERTEX
  5
2A1
  8
0
  6
CONTINUOUS
 62
     7
 10
53.55559288474458
 20
117.3314790607095
 30
0.0
  0
VERTEX
  5
2A2
  8
0
  6
CONTINUOUS
 62
     7
 10
53.38271269407974
 20
117.4238839196443
 30
0.0
  0
VERTEX
  5
2A3
  8
0
  6
CONTINUOUS
 62
     7
 10
53.19512502743797
 20
117.480786405839
 30
0.0
  0
VERTEX
  5
2A4
  8
0
  6
CONTINUOUS
 62
     7
 10
53.00003807693587
 20
117.5
 30
0.0
  0
SEQEND
  5
4F8
  8
0
  6
CONTINUOUS
 62
     7
  0
LINE
  5
AD
  8
0
  6
CONTINUOUS
 62
     7
 10
53.00003807693587
 20
117.5
 30
0.0
 11
51.49999999999997
 21
117.5
 31
0.0
  0
LINE
  5
AE
  8
0
  6
CONTINUOUS
 62
     7
 10
51.49999999999997
 20
117.5
 30
0.0
 11
51.49999999999998
 21
127.0545338760941
 31
0.0
  0
LINE
  5
AF
  8
0
  6
CONTINUOUS
 62
     7
 10
51.49999999999998
 20
127.0545338760941
 30
0.0
 11
54.94546612390585
 21
127.0545338760941
 31
0.0
  0
LINE
  5
B0
  8
0
  6
CONTINUOUS
 62
     7
 10
54.94546612390585
 20
127.0545338760941
 30
0.0
 11
54.94546612390585
 21
147.9454661239058
 31
0.0
  0
LINE
  5
B1
  8
0
  6
CONTINUOUS
 62
     7
 10
51.49999999999998
 20
147.9454661239058
 30
0.0
 11
54.94546612390585
 21
147.9454661239058
 31
0.0
  0
LINE
  5
B2
  8
0
  6
CONTINUOUS
 62
     7
 10
51.49999999999998
 20
147.9454661239058
 30
0.0
 11
51.49999999999997
 21
167.4999999999999
 31
0.0
  0
LINE
  5
B3
  8
0
  6
CONTINUOUS
 62
     7
 10
53.50000000000002
 20
167.4999999999999
 30
0.0
 11
51.49999999999997
 21
167.4999999999999
 31
0.0
  0
CIRCLE
  5
B4
  8
0
  6
CONTINUOUS
 62
     7
 10
70.0
 20
137.5
 30
0.0
 40
2.762217614907081
  0
LINE
  5
B5
  8
0
  6
CONTINUOUS
 62
     7
 10
82.99999999999996
 20
138.5
 30
0.0
 11
82.96683790239507
 21
138.5331620976049
 31
0.0
  0
LINE
  5
B6
  8
0
  6
CONTINUOUS
 62
     7
 10
82.96683790239507
 20
147.8322951062942
 30
0.0
 11
82.96683790239507
 21
138.5331620976049
 31
0.0
  0
LINE
  5
B7
  8
0
  6
CONTINUOUS
 62
     7
 10
82.99999999999996
 20
147.6331455450186
 30
0.0
 11
82.96683790239507
 21
147.8322951062942
 31
0.0
  0
LINE
  5
B8
  8
0
  6
CONTINUOUS
 62
     7
 10
78.46683790239518
 20
138.533162097605
 30
0.0
 11
78.44327535936013
 21
138.5567246406401
 31
0.0
  0
LINE
  5
B9
  8
0
  6
CONTINUOUS
 62
     7
 10
82.96683790239507
 20
138.5331620976049
 30
0.0
 11
78.46683790239518
 21
138.533162097605
 31
0.0
  0
LINE
  5
BA
  8
0
  6
CONTINUOUS
 62
     7
 10
77.93725393319384
 20
138.5000000000001
 30
0.0
 11
77.98712369811312
 21
138.5567246406401
 31
0.0
  0
LINE
  5
BB
  8
0
  6
CONTINUOUS
 62
     7
 10
78.44327535936013
 20
138.5567246406401
 30
0.0
 11
77.98712369811312
 21
138.5567246406401
 31
0.0
  0
LINE
  5
BC
  8
0
  6
CONTINUOUS
 62
     7
 10
77.93725393319374
 20
136.5000000000002
 30
0.0
 11
77.98712369811301
 21
136.4432753593603
 31
0.0
  0
LINE
  5
BD
  8
0
  6
CONTINUOUS
 62
     7
 10
82.99999999999996
 20
136.5000000000002
 30
0.0
 11
82.96683790239507
 21
136.4668379023953
 31
0.0
  0
LINE
  5
BE
  8
0
  6
CONTINUOUS
 62
     7
 10
78.46683790239506
 20
136.4668379023953
 30
0.0
 11
82.96683790239507
 21
136.4668379023953
 31
0.0
  0
LINE
  5
BF
  8
0
  6
CONTINUOUS
 62
     7
 10
78.46683790239506
 20
136.4668379023953
 30
0.0
 11
78.44327535936
 21
136.4432753593603
 31
0.0
  0
LINE
  5
C0
  8
0
  6
CONTINUOUS
 62
     7
 10
78.44327535936
 20
136.4432753593603
 30
0.0
 11
77.98712369811301
 21
136.4432753593603
 31
0.0
  0
LINE
  5
C1
  8
0
  6
CONTINUOUS
 62
     7
 10
82.99999999999996
 20
127.5000000000001
 30
0.0
 11
82.96683790239507
 21
127.533162097605
 31
0.0
  0
LINE
  5
C2
  8
0
  6
CONTINUOUS
 62
     7
 10
82.96683790239507
 20
136.4668379023953
 30
0.0
 11
82.96683790239507
 21
127.533162097605
 31
0.0
  0
LINE
  5
C3
  8
0
  6
CONTINUOUS
 62
     7
 10
82.96683790239507
 20
127.533162097605
 30
0.0
 11
78.46683790239506
 21
127.533162097605
 31
0.0
  0
LINE
  5
C4
  8
0
  6
CONTINUOUS
 62
     7
 10
78.49999999999994
 20
127.5000000000001
 30
0.0
 11
78.46683790239506
 21
127.533162097605
 31
0.0
  0
LINE
  5
C5
  8
0
  6
CONTINUOUS
 62
     7
 10
78.46683790239506
 20
127.533162097605
 30
0.0
 11
78.46683790239506
 21
136.4668379023953
 31
0.0
  0
LINE
  5
C6
  8
0
  6
CONTINUOUS
 62
     7
 10
78.49999999999994
 20
119.5000000000001
 30
0.0
 11
78.44327535936
 21
119.55672464064
 31
0.0
  0
LINE
  5
C7
  8
0
  6
CONTINUOUS
 62
     7
 10
78.44327535936
 20
119.55672464064
 30
0.0
 11
78.44327535936
 21
136.4432753593603
 31
0.0
  0
LINE
  5
C8
  8
0
  6
CONTINUOUS
 62
     7
 10
57.03316209760496
 20
147.8322951062942
 30
0.0
 11
57.03316209760496
 21
138.5331620976049
 31
0.0
  0
LINE
  5
C9
  8
0
  6
CONTINUOUS
 62
     7
 10
57.00000000000007
 20
138.5
 30
0.0
 11
57.03316209760496
 21
138.5331620976049
 31
0.0
  0
LINE
  5
CA
  8
0
  6
CONTINUOUS
 62
     7
 10
57.00000000000008
 20
147.6331455450187
 30
0.0
 11
57.03316209760496
 21
147.8322951062942
 31
0.0
  0
LINE
  5
CB
  8
0
  6
CONTINUOUS
 62
     7
 10
62.06274606680618
 20
138.5000000000001
 30
0.0
 11
62.0128763018869
 21
138.5567246406401
 31
0.0
  0
LINE
  5
CC
  8
0
  6
CONTINUOUS
 62
     7
 10
57.03316209760496
 20
138.5331620976049
 30
0.0
 11
61.53316209760484
 21
138.533162097605
 31
0.0
  0
LINE
  5
CD
  8
0
  6
CONTINUOUS
 62
     7
 10
61.53316209760484
 20
138.533162097605
 30
0.0
 11
61.55672464063989
 21
138.5567246406401
 31
0.0
  0
LINE
  5
CE
  8
0
  6
CONTINUOUS
 62
     7
 10
61.55672464063989
 20
138.5567246406401
 30
0.0
 11
62.0128763018869
 21
138.5567246406401
 31
0.0
  0
LINE
  5
CF
  8
0
  6
CONTINUOUS
 62
     7
 10
57.00000000000007
 20
127.5000000000002
 30
0.0
 11
57.03316209760496
 21
127.5331620976051
 31
0.0
  0
LINE
  5
D0
  8
0
  6
CONTINUOUS
 62
     7
 10
57.00000000000007
 20
136.5000000000003
 30
0.0
 11
57.03316209760496
 21
136.4668379023954
 31
0.0
  0
LINE
  5
D1
  8
0
  6
CONTINUOUS
 62
     7
 10
57.03316209760496
 20
136.4668379023954
 30
0.0
 11
57.03316209760496
 21
127.5331620976051
 31
0.0
  0
LINE
  5
D2
  8
0
  6
CONTINUOUS
 62
     7
 10
61.53316209760496
 20
136.4668379023954
 30
0.0
 11
61.55672464064002
 21
136.4432753593603
 31
0.0
  0
LINE
  5
D3
  8
0
  6
CONTINUOUS
 62
     7
 10
61.53316209760496
 20
136.4668379023954
 30
0.0
 11
57.03316209760496
 21
136.4668379023954
 31
0.0
  0
LINE
  5
D4
  8
0
  6
CONTINUOUS
 62
     7
 10
62.06274606680628
 20
136.5000000000003
 30
0.0
 11
62.012876301887
 21
136.4432753593603
 31
0.0
  0
LINE
  5
D5
  8
0
  6
CONTINUOUS
 62
     7
 10
61.55672464064002
 20
136.4432753593603
 30
0.0
 11
62.012876301887
 21
136.4432753593603
 31
0.0
  0
LINE
  5
D6
  8
0
  6
CONTINUOUS
 62
     7
 10
61.55672464064001
 20
119.55672464064
 30
0.0
 11
61.55672464064002
 21
136.4432753593603
 31
0.0
  0
LINE
  5
D7
  8
0
  6
CONTINUOUS
 62
     7
 10
61.50000000000008
 20
119.5000000000001
 30
0.0
 11
61.55672464064001
 21
119.55672464064
 31
0.0
  0
LINE
  5
D8
  8
0
  6
CONTINUOUS
 62
     7
 10
61.50000000000008
 20
127.5000000000002
 30
0.0
 11
61.53316209760496
 21
127.5331620976051
 31
0.0
  0
LINE
  5
D9
  8
0
  6
CONTINUOUS
 62
     7
 10
61.53316209760496
 20
127.5331620976051
 30
0.0
 11
61.53316209760496
 21
136.4668379023954
 31
0.0
  0
LINE
  5
DA
  8
0
  6
CONTINUOUS
 62
     7
 10
57.03316209760496
 20
127.5331620976051
 30
0.0
 11
61.53316209760496
 21
127.5331620976051
 31
0.0
  0
LINE
  5
DB
  8
0
  6
CONTINUOUS
 62
     7
 10
80.53316209760489
 20
167.4668379023951
 30
0.0
 11
80.50000000000001
 21
167.4999999999999
 31
0.0
  0
LINE
  5
DC
  8
0
  6
CONTINUOUS
 62
     7
 10
80.53316209760489
 20
167.4668379023951
 30
0.0
 11
80.53316209760489
 21
154.1677048937057
 31
0.0
  0
LINE
  5
DD
  8
0
  6
CONTINUOUS
 62
     7
 10
80.50000000000001
 20
154.3668544549812
 30
0.0
 11
80.53316209760489
 21
154.1677048937057
 31
0.0
  0
LINE
  5
DE
  8
0
  6
CONTINUOUS
 62
     7
 10
88.50000000000007
 20
147.8406505653397
 30
0.0
 11
88.78658631924996
 21
147.7865863192496
 31
0.0
  0
LINE
  5
DF
  8
0
  6
CONTINUOUS
 62
     7
 10
88.50000000000006
 20
147.8406505653397
 30
0.0
 11
88.50000000000006
 21
147.9454661239058
 31
0.0
  0
LINE
  5
E0
  8
0
  6
CONTINUOUS
 62
     7
 10
78.50000000000007
 20
154.3668544549812
 30
0.0
 11
78.44327535936013
 21
154.0262038896415
 31
0.0
  0
LINE
  5
E1
  8
0
  6
CONTINUOUS
 62
     7
 10
78.44327535936013
 20
165.4432753593603
 30
0.0
 11
78.44327535936013
 21
154.0262038896415
 31
0.0
  0
LINE
  5
E2
  8
0
  6
CONTINUOUS
 62
     7
 10
78.50000000000007
 20
165.5000000000002
 30
0.0
 11
78.44327535936013
 21
165.4432753593603
 31
0.0
  0
LINE
  5
E3
  8
0
  6
CONTINUOUS
 62
     7
 10
83.06288933513966
 20
147.9371106648603
 30
0.0
 11
83.06288933513966
 21
154.0628893351396
 31
0.0
  0
LINE
  5
E4
  8
0
  6
CONTINUOUS
 62
     7
 10
83.16770489370576
 20
154.1677048937057
 30
0.0
 11
83.06288933513966
 21
154.0628893351396
 31
0.0
  0
LINE
  5
E5
  8
0
  6
CONTINUOUS
 62
     7
 10
83.16770489370576
 20
154.1677048937057
 30
0.0
 11
83.16770489370576
 21
151.5331620976048
 31
0.0
  0
LINE
  5
E6
  8
0
  6
CONTINUOUS
 62
     7
 10
86.46683790239513
 20
151.5331620976048
 30
0.0
 11
83.16770489370576
 21
151.5331620976048
 31
0.0
  0
LINE
  5
E7
  8
0
  6
CONTINUOUS
 62
     7
 10
80.96857689411698
 20
147.9999999999999
 30
0.0
 11
77.02620388964154
 21
147.9999999999999
 31
0.0
  0
LINE
  5
E8
  8
0
  6
CONTINUOUS
 62
     7
 10
80.98724977297306
 20
147.9626286166372
 30
0.0
 11
80.96857689411698
 21
147.9999999999999
 31
0.0
  0
LINE
  5
E9
  8
0
  6
CONTINUOUS
 62
     7
 10
81.48707843546083
 20
147.9371106648603
 30
0.0
 11
80.98724977297306
 21
147.9626286166372
 31
0.0
  0
LINE
  5
EA
  8
0
  6
CONTINUOUS
 62
     7
 10
83.06288933513966
 20
147.9371106648603
 30
0.0
 11
81.48707843546083
 21
147.9371106648603
 31
0.0
  0
LINE
  5
EB
  8
0
  6
CONTINUOUS
 62
     7
 10
82.96683790239507
 20
147.8322951062942
 30
0.0
 11
78.46683790239518
 21
147.8322951062942
 31
0.0
  0
LINE
  5
EC
  8
0
  6
CONTINUOUS
 62
     7
 10
78.46683790239518
 20
147.8322951062942
 30
0.0
 11
78.44327535936013
 21
147.9737961103584
 31
0.0
  0
LINE
  5
ED
  8
0
  6
CONTINUOUS
 62
     7
 10
77.02620388964154
 20
147.9737961103584
 30
0.0
 11
78.44327535936013
 21
147.9737961103584
 31
0.0
  0
LINE
  5
EE
  8
0
  6
CONTINUOUS
 62
     7
 10
83.06288933513966
 20
154.0628893351396
 30
0.0
 11
81.48707843546083
 21
154.0628893351396
 31
0.0
  0
LINE
  5
EF
  8
0
  6
CONTINUOUS
 62
     7
 10
81.48707843546083
 20
154.0628893351396
 30
0.0
 11
80.98724977297306
 21
154.0373713833627
 31
0.0
  0
LINE
  5
F0
  8
0
  6
CONTINUOUS
 62
     7
 10
80.98724977297306
 20
154.0373713833627
 30
0.0
 11
80.96857689411698
 21
153.9999999999999
 31
0.0
  0
LINE
  5
F1
  8
0
  6
CONTINUOUS
 62
     7
 10
80.96857689411698
 20
153.9999999999999
 30
0.0
 11
79.00000000000003
 21
153.9999999999999
 31
0.0
  0
LINE
  5
F2
  8
0
  6
CONTINUOUS
 62
     7
 10
79.00000000000003
 20
153.9999999999999
 30
0.0
 11
77.02620388964154
 21
153.9999999999999
 31
0.0
  0
LINE
  5
F3
  8
0
  6
CONTINUOUS
 62
     7
 10
77.02620388964154
 20
154.0262038896415
 30
0.0
 11
78.44327535936013
 21
154.0262038896415
 31
0.0
  0
LINE
  5
F4
  8
0
  6
CONTINUOUS
 62
     7
 10
80.53316209760489
 20
154.1677048937057
 30
0.0
 11
83.16770489370576
 21
154.1677048937057
 31
0.0
  0
LINE
  5
F5
  8
0
  6
CONTINUOUS
 62
     7
 10
59.46683790239513
 20
167.4668379023951
 30
0.0
 11
59.46683790239513
 21
154.1677048937057
 31
0.0
  0
LINE
  5
F6
  8
0
  6
CONTINUOUS
 62
     7
 10
59.46683790239513
 20
167.4668379023951
 30
0.0
 11
59.50000000000001
 21
167.4999999999999
 31
0.0
  0
LINE
  5
F7
  8
0
  6
CONTINUOUS
 62
     7
 10
59.50000000000001
 20
154.3668544549813
 30
0.0
 11
59.46683790239513
 21
154.1677048937057
 31
0.0
  0
LINE
  5
F8
  8
0
  6
CONTINUOUS
 62
     7
 10
61.49999999999996
 20
165.5000000000002
 30
0.0
 11
61.55672464063989
 21
165.4432753593603
 31
0.0
  0
LINE
  5
F9
  8
0
  6
CONTINUOUS
 62
     7
 10
61.55672464063989
 20
165.4432753593603
 30
0.0
 11
61.55672464063989
 21
154.0262038896415
 31
0.0
  0
LINE
  5
FA
  8
0
  6
CONTINUOUS
 62
     7
 10
61.49999999999996
 20
154.3668544549813
 30
0.0
 11
61.55672464063989
 21
154.0262038896415
 31
0.0
  0
LINE
  5
FB
  8
0
  6
CONTINUOUS
 62
     7
 10
88.78658631924995
 20
127.2134136807503
 30
0.0
 11
88.50000000000007
 21
127.1593494346601
 31
0.0
  0
LINE
  5
FC
  8
0
  6
CONTINUOUS
 62
     7
 10
88.50000000000006
 20
127.1593494346601
 30
0.0
 11
88.50000000000006
 21
127.0545338760941
 31
0.0
  0
LINE
  5
FD
  8
0
  6
CONTINUOUS
 62
     7
 10
62.97379611035849
 20
154.0262038896415
 30
0.0
 11
61.55672464063989
 21
154.0262038896415
 31
0.0
  0
LINE
  5
FE
  8
0
  6
CONTINUOUS
 62
     7
 10
61.0
 20
153.9999999999999
 30
0.0
 11
62.97379611035849
 21
153.9999999999999
 31
0.0
  0
LINE
  5
FF
  8
0
  6
CONTINUOUS
 62
     7
 10
59.03142310588305
 20
153.9999999999999
 30
0.0
 11
61.0
 21
153.9999999999999
 31
0.0
  0
LINE
  5
100
  8
0
  6
CONTINUOUS
 62
     7
 10
59.01275022702697
 20
154.0373713833627
 30
0.0
 11
59.03142310588305
 21
153.9999999999999
 31
0.0
  0
LINE
  5
101
  8
0
  6
CONTINUOUS
 62
     7
 10
58.51292156453919
 20
154.0628893351396
 30
0.0
 11
59.01275022702697
 21
154.0373713833627
 31
0.0
  0
LINE
  5
102
  8
0
  6
CONTINUOUS
 62
     7
 10
56.93711066486036
 20
154.0628893351396
 30
0.0
 11
58.51292156453919
 21
154.0628893351396
 31
0.0
  0
LINE
  5
103
  8
0
  6
CONTINUOUS
 62
     7
 10
56.83229510629427
 20
154.1677048937057
 30
0.0
 11
56.93711066486036
 21
154.0628893351396
 31
0.0
  0
LINE
  5
104
  8
0
  6
CONTINUOUS
 62
     7
 10
59.46683790239513
 20
154.1677048937057
 30
0.0
 11
56.83229510629427
 21
154.1677048937057
 31
0.0
  0
LINE
  5
105
  8
0
  6
CONTINUOUS
 62
     7
 10
56.93711066486036
 20
147.9371106648603
 30
0.0
 11
56.93711066486036
 21
154.0628893351396
 31
0.0
  0
LINE
  5
106
  8
0
  6
CONTINUOUS
 62
     7
 10
56.83229510629427
 20
154.1677048937057
 30
0.0
 11
56.83229510629427
 21
151.5331620976048
 31
0.0
  0
LINE
  5
107
  8
0
  6
CONTINUOUS
 62
     7
 10
53.5331620976049
 20
151.5331620976048
 30
0.0
 11
56.83229510629427
 21
151.5331620976048
 31
0.0
  0
LINE
  5
108
  8
0
  6
CONTINUOUS
 62
     7
 10
62.97379611035849
 20
147.9737961103584
 30
0.0
 11
61.55672464063989
 21
147.9737961103584
 31
0.0
  0
LINE
  5
109
  8
0
  6
CONTINUOUS
 62
     7
 10
61.53316209760484
 20
147.8322951062942
 30
0.0
 11
61.55672464063989
 21
147.9737961103584
 31
0.0
  0
LINE
  5
10A
  8
0
  6
CONTINUOUS
 62
     7
 10
57.03316209760496
 20
147.8322951062942
 30
0.0
 11
61.53316209760484
 21
147.8322951062942
 31
0.0
  0
LINE
  5
10B
  8
0
  6
CONTINUOUS
 62
     7
 10
56.93711066486036
 20
147.9371106648603
 30
0.0
 11
58.51292156453919
 21
147.9371106648603
 31
0.0
  0
LINE
  5
10C
  8
0
  6
CONTINUOUS
 62
     7
 10
58.51292156453919
 20
147.9371106648603
 30
0.0
 11
59.01275022702697
 21
147.9626286166372
 31
0.0
  0
LINE
  5
10D
  8
0
  6
CONTINUOUS
 62
     7
 10
59.01275022702697
 20
147.9626286166372
 30
0.0
 11
59.03142310588305
 21
148.0
 31
0.0
  0
LINE
  5
10E
  8
0
  6
CONTINUOUS
 62
     7
 10
59.03142310588305
 20
148.0
 30
0.0
 11
62.97379611035849
 21
148.0
 31
0.0
  0
LINE
  5
10F
  8
0
  6
CONTINUOUS
 62
     7
 10
51.49999999999998
 20
147.8406505653397
 30
0.0
 11
51.21341368075009
 21
147.7865863192496
 31
0.0
  0
LINE
  5
110
  8
0
  6
CONTINUOUS
 62
     7
 10
51.49999999999998
 20
147.8406505653397
 30
0.0
 11
51.49999999999998
 21
147.9454661239058
 31
0.0
  0
LINE
  5
111
  8
0
  6
CONTINUOUS
 62
     7
 10
51.49999999999998
 20
127.1593494346602
 30
0.0
 11
51.49999999999998
 21
127.0545338760941
 31
0.0
  0
LINE
  5
112
  8
0
  6
CONTINUOUS
 62
     7
 10
51.21341368075009
 20
127.2134136807503
 30
0.0
 11
51.49999999999998
 21
127.1593494346602
 31
0.0
  0
LINE
  5
113
  8
0
  6
CONTINUOUS
 62
     7
 10
86.46683790239513
 20
167.4668379023951
 30
0.0
 11
86.46683790239513
 21
151.5331620976048
 31
0.0
  0
LINE
  5
114
  8
0
  6
CONTINUOUS
 62
     7
 10
86.50000000000001
 20
167.4999999999999
 30
0.0
 11
86.46683790239513
 21
167.4668379023951
 31
0.0
  0
LINE
  5
115
  8
0
  6
CONTINUOUS
 62
     7
 10
70.99999999999999
 20
165.5000000000002
 30
0.0
 11
71.05672464063993
 21
165.4432753593603
 31
0.0
  0
LINE
  5
116
  8
0
  6
CONTINUOUS
 62
     7
 10
71.05672464063993
 20
165.4432753593603
 30
0.0
 11
78.44327535936013
 21
165.4432753593603
 31
0.0
  0
LINE
  5
117
  8
0
  6
CONTINUOUS
 62
     7
 10
70.99999999999999
 20
145.4372539331939
 30
0.0
 11
71.05672464063993
 21
145.4871236981133
 31
0.0
  0
LINE
  5
118
  8
0
  6
CONTINUOUS
 62
     7
 10
71.05672464063993
 20
145.4871236981133
 30
0.0
 11
71.05672464063993
 21
165.4432753593603
 31
0.0
  0
LINE
  5
119
  8
0
  6
CONTINUOUS
 62
     7
 10
53.5331620976049
 20
167.4668379023951
 30
0.0
 11
53.5331620976049
 21
151.5331620976048
 31
0.0
  0
LINE
  5
11A
  8
0
  6
CONTINUOUS
 62
     7
 10
53.50000000000002
 20
167.4999999999999
 30
0.0
 11
53.5331620976049
 21
167.4668379023951
 31
0.0
  0
LINE
  5
11B
  8
0
  6
CONTINUOUS
 62
     7
 10
69.00000000000001
 20
165.5000000000002
 30
0.0
 11
68.94327535936009
 21
165.4432753593603
 31
0.0
  0
LINE
  5
11C
  8
0
  6
CONTINUOUS
 62
     7
 10
69.00000000000001
 20
145.437253933194
 30
0.0
 11
68.94327535936009
 21
145.4871236981133
 31
0.0
  0
LINE
  5
11D
  8
0
  6
CONTINUOUS
 62
     7
 10
68.94327535936009
 20
145.4871236981133
 30
0.0
 11
68.94327535936009
 21
165.4432753593603
 31
0.0
  0
LINE
  5
11E
  8
0
  6
CONTINUOUS
 62
     7
 10
68.94327535936009
 20
165.4432753593603
 30
0.0
 11
61.55672464063989
 21
165.4432753593603
 31
0.0
  0
LINE
  5
11F
  8
0
  6
CONTINUOUS
 62
     7
 10
70.99999999999991
 20
129.5627460668064
 30
0.0
 11
71.05672464063984
 21
129.5128763018871
 31
0.0
  0
ARC
  5
120
  8
0
  6
CONTINUOUS
 62
     7
 10
69.99999999999999
 20
137.5
 30
0.0
 40
2.750000000000002
 50
303.0557311508538
 51
56.94426884914616
  0
ARC
  5
121
  8
0
  6
CONTINUOUS
 62
     7
 10
70.0
 20
137.5
 30
0.0
 40
2.744763879325566
 50
56.87310740700029
 51
123.1268925929994
  0
ARC
  5
122
  8
0
  6
CONTINUOUS
 62
     7
 10
70.00000000000001
 20
137.5
 30
0.0
 40
2.750000000000002
 50
123.0557311508538
 51
236.9442688491462
  0
ARC
  5
123
  8
0
  6
CONTINUOUS
 62
     7
 10
70.0
 20
137.5
 30
0.0
 40
2.744763879325582
 50
236.8731074070006
 51
303.1268925929991
  0
LINE
  5
124
  8
0
  6
CONTINUOUS
 62
     7
 10
69.0000000000001
 20
129.5627460668064
 30
0.0
 11
68.94327535936016
 21
129.5128763018872
 31
0.0
  0
LINE
  5
125
  8
0
  6
CONTINUOUS
 62
     7
 10
70.99999999999991
 20
119.5000000000001
 30
0.0
 11
71.05672464063984
 21
119.55672464064
 31
0.0
  0
LINE
  5
126
  8
0
  6
CONTINUOUS
 62
     7
 10
71.05672464063984
 20
119.55672464064
 30
0.0
 11
78.44327535936
 21
119.55672464064
 31
0.0
  0
LINE
  5
127
  8
0
  6
CONTINUOUS
 62
     7
 10
71.05672464063984
 20
129.5128763018871
 30
0.0
 11
71.05672464063984
 21
119.55672464064
 31
0.0
  0
LINE
  5
128
  8
0
  6
CONTINUOUS
 62
     7
 10
69.0000000000001
 20
119.5000000000001
 30
0.0
 11
68.94327535936016
 21
119.55672464064
 31
0.0
  0
LINE
  5
129
  8
0
  6
CONTINUOUS
 62
     7
 10
68.94327535936016
 20
129.5128763018872
 30
0.0
 11
68.94327535936016
 21
119.55672464064
 31
0.0
  0
LINE
  5
12A
  8
0
  6
CONTINUOUS
 62
     7
 10
68.94327535936016
 20
119.55672464064
 30
0.0
 11
61.55672464064001
 21
119.55672464064
 31
0.0
  0
LINE
  5
12B
  8
0
  6
CONTINUOUS
 62
     7
 10
71.49999999999999
 20
135.1951138856767
 30
0.0
 11
71.5
 21
139.8048861143232
 31
0.0
  0
LINE
  5
12C
  8
0
  6
CONTINUOUS
 62
     7
 10
68.50000000000001
 20
135.1951138856768
 30
0.0
 11
68.5
 21
139.8048861143233
 31
0.0
  0
LINE
  5
12D
  8
0
  6
CONTINUOUS
 62
     7
 10
88.78658631924966
 20
147.7865863192496
 30
0.0
 11
88.78658631924966
 21
127.2134136807503
 31
0.0
  0
LINE
  5
12E
  8
0
  6
CONTINUOUS
 62
     7
 10
88.50000000000007
 20
117.5174537355815
 30
0.0
 11
90.50000000000007
 21
117.534907471163
 31
0.0
  0
LINE
  5
12F
  8
0
  6
CONTINUOUS
 62
     7
 10
90.50000000000007
 20
167.4650925288369
 30
0.0
 11
88.50000000000007
 21
167.4825462644184
 31
0.0
  0
LINE
  5
130
  8
0
  6
CONTINUOUS
 62
     7
 10
51.21341368075037
 20
147.7865863192496
 30
0.0
 11
51.21341368075037
 21
127.2134136807503
 31
0.0
  0
LINE
  5
131
  8
0
  6
CONTINUOUS
 62
     7
 10
51.49999999999998
 20
117.5174537355815
 30
0.0
 11
49.49999999999997
 21
117.534907471163
 31
0.0
  0
LINE
  5
132
  8
0
  6
CONTINUOUS
 62
     7
 10
49.49999999999997
 20
167.4650925288369
 30
0.0
 11
51.49999999999998
 21
167.4825462644184
 31
0.0
  0
LINE
  5
133
  8
0
  6
CONTINUOUS
 62
     7
 10
78.46683790239518
 20
147.8322951062942
 30
0.0
 11
78.46683790239518
 21
138.533162097605
 31
0.0
  0
LINE
  5
134
  8
0
  6
CONTINUOUS
 62
     7
 10
78.44327535936013
 20
147.9737961103584
 30
0.0
 11
78.44327535936013
 21
138.5567246406401
 31
0.0
  0
LINE
  5
135
  8
0
  6
CONTINUOUS
 62
     7
 10
61.55672464063989
 20
147.9737961103584
 30
0.0
 11
61.55672464063989
 21
138.5567246406401
 31
0.0
  0
LINE
  5
136
  8
0
  6
CONTINUOUS
 62
     7
 10
61.53316209760484
 20
147.8322951062942
 30
0.0
 11
61.53316209760484
 21
138.533162097605
 31
0.0
  0
LINE
  5
137
  8
0
  6
CONTINUOUS
 62
     7
 10
86.46683790239513
 20
167.4668379023951
 30
0.0
 11
80.53316209760489
 21
167.4668379023951
 31
0.0
  0
LINE
  5
138
  8
0
  6
CONTINUOUS
 62
     7
 10
53.5331620976049
 20
167.4668379023951
 30
0.0
 11
59.46683790239513
 21
167.4668379023951
 31
0.0
  0
LINE
  5
139
  8
0
  6
CONTINUOUS
 62
     7
 10
90.50000000000007
 20
117.534907471163
 30
0.0
 11
91.18555332430181
 21
117.534907471163
 31
0.0
  0
LINE
  5
13A
  8
0
  6
CONTINUOUS
 62
     7
 10
90.50000000000007
 20
167.4650925288369
 30
0.0
 11
91.18555332430181
 21
167.4650925288369
 31
0.0
  0
LINE
  5
13B
  8
0
  6
CONTINUOUS
 62
     7
 10
91.25391210654291
 20
167.4537095230482
 30
0.0
 11
91.27988732701128
 21
166.9537285615161
 31
0.0
  0
LINE
  5
13C
  8
0
  6
CONTINUOUS
 62
     7
 10
91.27988732701128
 20
166.9537285615161
 30
0.0
 11
91.27988732701128
 21
152.9870784354608
 31
0.0
  0
LINE
  5
13D
  8
0
  6
CONTINUOUS
 62
     7
 10
91.27988732701128
 20
152.9870784354608
 30
0.0
 11
91.30540527878819
 21
152.487249772973
 31
0.0
  0
LINE
  5
13E
  8
0
  6
CONTINUOUS
 62
     7
 10
91.30540527878819
 20
152.487249772973
 30
0.0
 11
91.48579194713099
 21
152.3971182845953
 31
0.0
  0
LINE
  5
13F
  8
0
  6
CONTINUOUS
 62
     7
 10
91.48579194713099
 20
149.514208052869
 30
0.0
 11
91.50000000000004
 21
149.4999999999999
 31
0.0
  0
LINE
  5
140
  8
0
  6
CONTINUOUS
 62
     7
 10
91.50000000000007
 20
128.4999999999999
 30
0.0
 11
91.48579194713099
 21
128.4857919471308
 31
0.0
  0
LINE
  5
141
  8
0
  6
CONTINUOUS
 62
     7
 10
91.18555332430181
 20
117.534907471163
 30
0.0
 11
91.48579194713099
 21
117.5849027734435
 31
0.0
  0
LINE
  5
142
  8
0
  6
CONTINUOUS
 62
     7
 10
91.18555332430181
 20
167.4650925288369
 30
0.0
 11
91.25391210654291
 21
167.4537095230482
 31
0.0
  0
LINE
  5
143
  8
0
  6
CONTINUOUS
 62
     7
 10
49.49999999999997
 20
117.534907471163
 30
0.0
 11
48.81444667569822
 21
117.534907471163
 31
0.0
  0
LINE
  5
144
  8
0
  6
CONTINUOUS
 62
     7
 10
49.49999999999997
 20
167.4650925288369
 30
0.0
 11
48.81444667569822
 21
167.4650925288369
 31
0.0
  0
LINE
  5
145
  8
0
  6
CONTINUOUS
 62
     7
 10
48.49999999999997
 20
128.4999999999999
 30
0.0
 11
48.51420805286904
 21
128.4857919471309
 31
0.0
  0
LINE
  5
146
  8
0
  6
CONTINUOUS
 62
     7
 10
48.51420805286904
 20
149.514208052869
 30
0.0
 11
48.5
 21
149.4999999999999
 31
0.0
  0
LINE
  5
147
  8
0
  6
CONTINUOUS
 62
     7
 10
48.69459472121185
 20
152.487249772973
 30
0.0
 11
48.51420805286904
 21
152.3971182845953
 31
0.0
  0
LINE
  5
148
  8
0
  6
CONTINUOUS
 62
     7
 10
48.72011267298875
 20
152.9870784354608
 30
0.0
 11
48.69459472121185
 21
152.487249772973
 31
0.0
  0
LINE
  5
149
  8
0
  6
CONTINUOUS
 62
     7
 10
48.72011267298875
 20
166.9537285615161
 30
0.0
 11
48.72011267298875
 21
152.9870784354608
 31
0.0
  0
LINE
  5
14A
  8
0
  6
CONTINUOUS
 62
     7
 10
48.74608789345712
 20
167.4537095230482
 30
0.0
 11
48.72011267298875
 21
166.9537285615161
 31
0.0
  0
LINE
  5
14B
  8
0
  6
CONTINUOUS
 62
     7
 10
48.81444667569822
 20
117.534907471163
 30
0.0
 11
48.51420805286904
 21
117.5849027734436
 31
0.0
  0
LINE
  5
14C
  8
0
  6
CONTINUOUS
 62
     7
 10
48.81444667569822
 20
167.4650925288369
 30
0.0
 11
48.74608789345712
 21
167.4537095230482
 31
0.0
  0
LINE
  5
14D
  8
0
  6
CONTINUOUS
 62
     7
 10
77.02620388964154
 20
147.9737961103584
 30
0.0
 11
77.02620388964154
 21
154.0262038896415
 31
0.0
  0
LINE
  5
14E
  8
0
  6
CONTINUOUS
 62
     7
 10
62.97379611035849
 20
147.9737961103584
 30
0.0
 11
62.97379611035849
 21
154.0262038896415
 31
0.0
  0
POLYLINE
  5
14F
  8
0
  6
CONTINUOUS
 62
     7
 66
     1
 10
0.0
 20
0.0
 30
0.0
  0
VERTEX
  5
2A5
  8
0
  6
CONTINUOUS
 62
     7
 10
79.00000000000001
 20
149.9999619230641
 30
0.0
  0
VERTEX
  5
2A6
  8
0
  6
CONTINUOUS
 62
     7
 10
79.01921359416095
 20
149.804874972562
 30
0.0
  0
VERTEX
  5
2A7
  8
0
  6
CONTINUOUS
 62
     7
 10
79.07611608035572
 20
149.6172873059203
 30
0.0
  0
VERTEX
  5
2A8
  8
0
  6
CONTINUOUS
 62
     7
 10
79.16852093929046
 20
149.4444071152554
 30
0.0
  0
VERTEX
  5
2A9
  8
0
  6
CONTINUOUS
 62
     7
 10
79.29287744725487
 20
149.2928774472548
 30
0.0
  0
VERTEX
  5
2AA
  8
0
  6
CONTINUOUS
 62
     7
 10
79.44440711525547
 20
149.1685209392904
 30
0.0
  0
VERTEX
  5
2AB
  8
0
  6
CONTINUOUS
 62
     7
 10
79.61728730592031
 20
149.0761160803557
 30
0.0
  0
VERTEX
  5
2AC
  8
0
  6
CONTINUOUS
 62
     7
 10
79.80487497256208
 20
149.0192135941609
 30
0.0
  0
VERTEX
  5
2AD
  8
0
  6
CONTINUOUS
 62
     7
 10
79.99996192306419
 20
148.9999999999999
 30
0.0
  0
SEQEND
  5
4F9
  8
0
  6
CONTINUOUS
 62
     7
  0
LINE
  5
150
  8
0
  6
CONTINUOUS
 62
     7
 10
79.00000000000001
 20
149.9999619230641
 30
0.0
 11
79.00000000000003
 21
153.9999999999999
 31
0.0
  0
LINE
  5
151
  8
0
  6
CONTINUOUS
 62
     7
 10
80.9895277586511
 20
150.9999999999999
 30
0.0
 11
80.9895277586511
 21
153.9999999999999
 31
0.0
  0
LINE
  5
152
  8
0
  6
CONTINUOUS
 62
     7
 10
81.49996192161427
 20
150.9999999999999
 30
0.0
 11
80.9895277586511
 21
150.9999999999999
 31
0.0
  0
POLYLINE
  5
153
  8
0
  6
CONTINUOUS
 62
     7
 66
     1
 10
0.0
 20
0.0
 30
0.0
  0
VERTEX
  5
2AE
  8
0
  6
CONTINUOUS
 62
     7
 10
82.50000000000001
 20
149.9999999999999
 30
0.0
  0
VERTEX
  5
2AF
  8
0
  6
CONTINUOUS
 62
     7
 10
82.48078454873773
 20
150.1950903220161
 30
0.0
  0
VERTEX
  5
2B0
  8
0
  6
CONTINUOUS
 62
     7
 10
82.42387663396677
 20
150.382683432365
 30
0.0
  0
VERTEX
  5
2B1
  8
0
  6
CONTINUOUS
 62
     7
 10
82.33146319493744
 20
150.5555702330196
 30
0.0
  0
VERTEX
  5
2B2
  8
0
  6
CONTINUOUS
 62
     7
 10
82.20709562828559
 20
150.7071067811865
 30
0.0
  0
VERTEX
  5
2B3
  8
0
  6
CONTINUOUS
 62
     7
 10
82.0555533098515
 20
150.8314696123025
 30
0.0
  0
VERTEX
  5
2B4
  8
0
  6
CONTINUOUS
 62
     7
 10
81.88265992594671
 20
150.9238795325112
 30
0.0
  0
VERTEX
  5
2B5
  8
0
  6
CONTINUOUS
 62
     7
 10
81.69505967235493
 20
150.9807852804032
 30
0.0
  0
VERTEX
  5
2B6
  8
0
  6
CONTINUOUS
 62
     7
 10
81.49996192161427
 20
150.9999999999999
 30
0.0
  0
SEQEND
  5
4FA
  8
0
  6
CONTINUOUS
 62
     7
  0
POLYLINE
  5
154
  8
0
  6
CONTINUOUS
 62
     7
 66
     1
 10
0.0
 20
0.0
 30
0.0
  0
VERTEX
  5
2B7
  8
0
  6
CONTINUOUS
 62
     7
 10
81.50003807693584
 20
148.9999999999999
 30
0.0
  0
VERTEX
  5
2B8
  8
0
  6
CONTINUOUS
 62
     7
 10
81.69512502743794
 20
149.0192135941609
 30
0.0
  0
VERTEX
  5
2B9
  8
0
  6
CONTINUOUS
 62
     7
 10
81.88271269407973
 20
149.0761160803557
 30
0.0
  0
VERTEX
  5
2BA
  8
0
  6
CONTINUOUS
 62
     7
 10
82.05559288474457
 20
149.1685209392904
 30
0.0
  0
VERTEX
  5
2BB
  8
0
  6
CONTINUOUS
 62
     7
 10
82.20712255274518
 20
149.2928774472548
 30
0.0
  0
VERTEX
  5
2BC
  8
0
  6
CONTINUOUS
 62
     7
 10
82.33147906070958
 20
149.4444071152554
 30
0.0
  0
VERTEX
  5
2BD
  8
0
  6
CONTINUOUS
 62
     7
 10
82.42388391964433
 20
149.6172873059203
 30
0.0
  0
VERTEX
  5
2BE
  8
0
  6
CONTINUOUS
 62
     7
 10
82.4807864058391
 20
149.804874972562
 30
0.0
  0
VERTEX
  5
2BF
  8
0
  6
CONTINUOUS
 62
     7
 10
82.50000000000004
 20
149.9999619230641
 30
0.0
  0
SEQEND
  5
4FB
  8
0
  6
CONTINUOUS
 62
     7
  0
LINE
  5
155
  8
0
  6
CONTINUOUS
 62
     7
 10
79.99996192306419
 20
148.9999999999999
 30
0.0
 11
81.50003807693584
 21
148.9999999999999
 31
0.0
  0
LINE
  5
156
  8
0
  6
CONTINUOUS
 62
     7
 10
80.96857689411698
 20
153.9999999999999
 30
0.0
 11
80.9895277586511
 21
153.9999999999999
 31
0.0
  0
POLYLINE
  5
157
  8
0
  6
CONTINUOUS
 62
     7
 66
     1
 10
0.0
 20
0.0
 30
0.0
  0
VERTEX
  5
2C0
  8
0
  6
CONTINUOUS
 62
     7
 10
57.5
 20
149.9999619230641
 30
0.0
  0
VERTEX
  5
2C1
  8
0
  6
CONTINUOUS
 62
     7
 10
57.51921359416094
 20
149.804874972562
 30
0.0
  0
VERTEX
  5
2C2
  8
0
  6
CONTINUOUS
 62
     7
 10
57.57611608035571
 20
149.6172873059203
 30
0.0
  0
VERTEX
  5
2C3
  8
0
  6
CONTINUOUS
 62
     7
 10
57.66852093929045
 20
149.4444071152554
 30
0.0
  0
VERTEX
  5
2C4
  8
0
  6
CONTINUOUS
 62
     7
 10
57.79287744725485
 20
149.2928774472548
 30
0.0
  0
VERTEX
  5
2C5
  8
0
  6
CONTINUOUS
 62
     7
 10
57.94440711525547
 20
149.1685209392904
 30
0.0
  0
VERTEX
  5
2C6
  8
0
  6
CONTINUOUS
 62
     7
 10
58.11728730592031
 20
149.0761160803557
 30
0.0
  0
VERTEX
  5
2C7
  8
0
  6
CONTINUOUS
 62
     7
 10
58.30487497256207
 20
149.0192135941609
 30
0.0
  0
VERTEX
  5
2C8
  8
0
  6
CONTINUOUS
 62
     7
 10
58.49996192306418
 20
149.0
 30
0.0
  0
SEQEND
  5
4FC
  8
0
  6
CONTINUOUS
 62
     7
  0
POLYLINE
  5
158
  8
0
  6
CONTINUOUS
 62
     7
 66
     1
 10
0.0
 20
0.0
 30
0.0
  0
VERTEX
  5
2C9
  8
0
  6
CONTINUOUS
 62
     7
 10
58.50003807838574
 20
151.0
 30
0.0
  0
VERTEX
  5
2CA
  8
0
  6
CONTINUOUS
 62
     7
 10
58.30494032764508
 20
150.9807852804032
 30
0.0
  0
VERTEX
  5
2CB
  8
0
  6
CONTINUOUS
 62
     7
 10
58.1173400740533
 20
150.9238795325113
 30
0.0
  0
VERTEX
  5
2CC
  8
0
  6
CONTINUOUS
 62
     7
 10
57.9444466901485
 20
150.8314696123025
 30
0.0
  0
VERTEX
  5
2CD
  8
0
  6
CONTINUOUS
 62
     7
 10
57.79290437171442
 20
150.7071067811865
 30
0.0
  0
VERTEX
  5
2CE
  8
0
  6
CONTINUOUS
 62
     7
 10
57.66853680506257
 20
150.5555702330196
 30
0.0
  0
VERTEX
  5
2CF
  8
0
  6
CONTINUOUS
 62
     7
 10
57.57612336603324
 20
150.3826834323651
 30
0.0
  0
VERTEX
  5
2D0
  8
0
  6
CONTINUOUS
 62
     7
 10
57.51921545126228
 20
150.1950903220161
 30
0.0
  0
VERTEX
  5
2D1
  8
0
  6
CONTINUOUS
 62
     7
 10
57.50000000000001
 20
150.0
 30
0.0
  0
SEQEND
  5
4FD
  8
0
  6
CONTINUOUS
 62
     7
  0
LINE
  5
159
  8
0
  6
CONTINUOUS
 62
     7
 10
58.50003807838574
 20
151.0
 30
0.0
 11
59.01047224134892
 21
151.0
 31
0.0
  0
LINE
  5
15A
  8
0
  6
CONTINUOUS
 62
     7
 10
59.01047224134892
 20
151.0
 30
0.0
 11
59.01047224134892
 21
153.9999999999999
 31
0.0
  0
LINE
  5
15B
  8
0
  6
CONTINUOUS
 62
     7
 10
59.03142310588305
 20
153.9999999999999
 30
0.0
 11
59.01047224134892
 21
153.9999999999999
 31
0.0
  0
LINE
  5
15C
  8
0
  6
CONTINUOUS
 62
     7
 10
61.00000000000001
 20
149.9999619230641
 30
0.0
 11
61.0
 21
153.9999999999999
 31
0.0
  0
POLYLINE
  5
15D
  8
0
  6
CONTINUOUS
 62
     7
 66
     1
 10
0.0
 20
0.0
 30
0.0
  0
VERTEX
  5
2D2
  8
0
  6
CONTINUOUS
 62
     7
 10
60.00003807693584
 20
149.0
 30
0.0
  0
VERTEX
  5
2D3
  8
0
  6
CONTINUOUS
 62
     7
 10
60.19512502743794
 20
149.0192135941609
 30
0.0
  0
VERTEX
  5
2D4
  8
0
  6
CONTINUOUS
 62
     7
 10
60.3827126940797
 20
149.0761160803557
 30
0.0
  0
VERTEX
  5
2D5
  8
0
  6
CONTINUOUS
 62
     7
 10
60.55559288474454
 20
149.1685209392904
 30
0.0
  0
VERTEX
  5
2D6
  8
0
  6
CONTINUOUS
 62
     7
 10
60.70712255274515
 20
149.2928774472548
 30
0.0
  0
VERTEX
  5
2D7
  8
0
  6
CONTINUOUS
 62
     7
 10
60.83147906070955
 20
149.4444071152554
 30
0.0
  0
VERTEX
  5
2D8
  8
0
  6
CONTINUOUS
 62
     7
 10
60.9238839196443
 20
149.6172873059203
 30
0.0
  0
VERTEX
  5
2D9
  8
0
  6
CONTINUOUS
 62
     7
 10
60.98078640583907
 20
149.804874972562
 30
0.0
  0
VERTEX
  5
2DA
  8
0
  6
CONTINUOUS
 62
     7
 10
61.0
 20
149.9999619230641
 30
0.0
  0
SEQEND
  5
4FE
  8
0
  6
CONTINUOUS
 62
     7
  0
LINE
  5
15E
  8
0
  6
CONTINUOUS
 62
     7
 10
60.00003807693584
 20
149.0
 30
0.0
 11
58.49996192306418
 21
149.0
 31
0.0
  0
LINE
  5
15F
  8
0
  6
CONTINUOUS
 62
     7
 10
91.5599878445513
 20
149.4400121554487
 30
0.0
 11
91.50000000000004
 21
149.4999999999999
 31
0.0
  0
LINE
  5
160
  8
0
  6
CONTINUOUS
 62
     7
 10
91.48579194713099
 20
149.514208052869
 30
0.0
 11
91.73510671450828
 21
149.4928862243831
 31
0.0
  0
LINE
  5
161
  8
0
  6
CONTINUOUS
 62
     7
 10
97.50000000000004
 20
149.3184541271397
 30
0.0
 11
91.73510671450828
 21
149.4928862243831
 31
0.0
  0
LINE
  5
162
  8
0
  6
CONTINUOUS
 62
     7
 10
97.44949227378903
 20
149.0151382260833
 30
0.0
 11
97.50000000000004
 21
149.3184541271397
 31
0.0
  0
LINE
  5
163
  8
0
  6
CONTINUOUS
 62
     7
 10
97.50000000000004
 20
128.6815458728601
 30
0.0
 11
91.73510671450828
 21
128.5071137756167
 31
0.0
  0
LINE
  5
164
  8
0
  6
CONTINUOUS
 62
     7
 10
91.73510671450828
 20
128.5071137756167
 30
0.0
 11
91.48579194713099
 21
128.4857919471308
 31
0.0
  0
LINE
  5
165
  8
0
  6
CONTINUOUS
 62
     7
 10
91.5599878445513
 20
128.5599878445512
 30
0.0
 11
91.50000000000007
 21
128.4999999999999
 31
0.0
  0
LINE
  5
166
  8
0
  6
CONTINUOUS
 62
     7
 10
97.44949227378903
 20
128.9848617739166
 30
0.0
 11
97.50000000000004
 21
128.6815458728601
 31
0.0
  0
LINE
  5
167
  8
0
  6
CONTINUOUS
 62
     7
 10
91.48579194713099
 20
117.5849027734435
 30
0.0
 11
91.73510671450828
 21
117.5884532535593
 31
0.0
  0
LINE
  5
168
  8
0
  6
CONTINUOUS
 62
     7
 10
91.73510671450828
 20
152.3864646805678
 30
0.0
 11
91.48579194713099
 21
152.3971182845953
 31
0.0
  0
LINE
  5
169
  8
0
  6
CONTINUOUS
 62
     7
 10
48.51420805286904
 20
149.514208052869
 30
0.0
 11
48.26489328549176
 21
149.4928862243832
 31
0.0
  0
LINE
  5
16A
  8
0
  6
CONTINUOUS
 62
     7
 10
48.26489328549176
 20
152.3864646805678
 30
0.0
 11
48.51420805286904
 21
152.3971182845953
 31
0.0
  0
LINE
  5
16B
  8
0
  6
CONTINUOUS
 62
     7
 10
42.55050772621102
 20
149.0151382260833
 30
0.0
 11
42.5
 21
149.3184541271398
 31
0.0
  0
LINE
  5
16C
  8
0
  6
CONTINUOUS
 62
     7
 10
42.5
 20
149.3184541271398
 30
0.0
 11
48.26489328549176
 21
149.4928862243832
 31
0.0
  0
LINE
  5
16D
  8
0
  6
CONTINUOUS
 62
     7
 10
48.44001215544874
 20
149.4400121554487
 30
0.0
 11
48.5
 21
149.4999999999999
 31
0.0
  0
LINE
  5
16E
  8
0
  6
CONTINUOUS
 62
     7
 10
48.44001215544874
 20
128.5599878445512
 30
0.0
 11
48.49999999999997
 21
128.4999999999999
 31
0.0
  0
LINE
  5
16F
  8
0
  6
CONTINUOUS
 62
     7
 10
48.26489328549176
 20
128.5071137756167
 30
0.0
 11
48.51420805286904
 21
128.4857919471309
 31
0.0
  0
LINE
  5
170
  8
0
  6
CONTINUOUS
 62
     7
 10
42.50000000000001
 20
128.6815458728601
 30
0.0
 11
48.26489328549176
 21
128.5071137756167
 31
0.0
  0
LINE
  5
171
  8
0
  6
CONTINUOUS
 62
     7
 10
42.55050772621102
 20
128.9848617739166
 30
0.0
 11
42.50000000000001
 21
128.6815458728601
 31
0.0
  0
LINE
  5
172
  8
0
  6
CONTINUOUS
 62
     7
 10
48.51420805286904
 20
117.5849027734436
 30
0.0
 11
48.26489328549176
 21
117.5884532535593
 31
0.0
  0
LINE
  5
173
  8
0
  6
CONTINUOUS
 62
     7
 10
91.5599878445513
 20
128.5599878445512
 30
0.0
 11
91.5599878445513
 21
149.4400121554487
 31
0.0
  0
LINE
  5
174
  8
0
  6
CONTINUOUS
 62
     7
 10
48.44001215544874
 20
128.5599878445512
 30
0.0
 11
48.44001215544874
 21
149.4400121554487
 31
0.0
  0
POLYLINE
  5
175
  8
0
  6
CONTINUOUS
 62
     7
 66
     1
 10
0.0
 20
0.0
 30
0.0
  0
VERTEX
  5
2DB
  8
0
  6
CONTINUOUS
 62
     7
 10
97.50000000000003
 20
118.1174803962487
 30
0.0
  0
VERTEX
  5
2DC
  8
0
  6
CONTINUOUS
 62
     7
 10
97.49940078268676
 20
118.0929438401704
 30
0.0
  0
VERTEX
  5
2DD
  8
0
  6
CONTINUOUS
 62
     7
 10
97.49760457417398
 20
118.0684604425341
 30
0.0
  0
VERTEX
  5
2DE
  8
0
  6
CONTINUOUS
 62
     7
 10
97.49461570126586
 20
118.0440891802713
 30
0.0
  0
VERTEX
  5
2DF
  8
0
  6
CONTINUOUS
 62
     7
 10
97.49044136372103
 20
118.0198887601961
 30
0.0
  0
VERTEX
  5
2E0
  8
0
  6
CONTINUOUS
 62
     7
 10
97.48509161690941
 20
117.9959174775885
 30
0.0
  0
VERTEX
  5
2E1
  8
0
  6
CONTINUOUS
 62
     7
 10
97.47857934759033
 20
117.9722330757699
 30
0.0
  0
VERTEX
  5
2E2
  8
0
  6
CONTINUOUS
 62
     7
 10
97.47092024287014
 20
117.9488926070077
 30
0.0
  0
VERTEX
  5
2E3
  8
0
  6
CONTINUOUS
 62
     7
 10
97.46213275241432
 20
117.9259522950846
 30
0.0
  0
VERTEX
  5
2E4
  8
0
  6
CONTINUOUS
 62
     7
 10
97.45223804400487
 20
117.9034673998642
 30
0.0
  0
VERTEX
  5
2E5
  8
0
  6
CONTINUOUS
 62
     7
 10
97.44125995255033
 20
117.8814920841775
 30
0.0
  0
VERTEX
  5
2E6
  8
0
  6
CONTINUOUS
 62
     7
 10
97.42922492267081
 20
117.8600792833528
 30
0.0
  0
VERTEX
  5
2E7
  8
0
  6
CONTINUOUS
 62
     7
 10
97.41616194499683
 20
117.8392805777023
 30
0.0
  0
VERTEX
  5
2E8
  8
0
  6
CONTINUOUS
 62
     7
 10
97.40210248633518
 20
117.8191460682724
 30
0.0
  0
VERTEX
  5
2E9
  8
0
  6
CONTINUOUS
 62
     7
 10
97.38708041386988
 20
117.7997242561579
 30
0.0
  0
VERTEX
  5
2EA
  8
0
  6
CONTINUOUS
 62
     7
 10
97.37113191358112
 20
117.7810619256696
 30
0.0
  0
VERTEX
  5
2EB
  8
0
  6
CONTINUOUS
 62
     7
 10
97.35429540307852
 20
117.7632040316381
 30
0.0
  0
VERTEX
  5
2EC
  8
0
  6
CONTINUOUS
 62
     7
 10
97.3366114390587
 20
117.7461935911238
 30
0.0
  0
VERTEX
  5
2ED
  8
0
  6
CONTINUOUS
 62
     7
 10
97.31812261961011
 20
117.7300715797953
 30
0.0
  0
VERTEX
  5
2EE
  8
0
  6
CONTINUOUS
 62
     7
 10
97.29887348160048
 20
117.7148768332251
 30
0.0
  0
VERTEX
  5
2EF
  8
0
  6
CONTINUOUS
 62
     7
 10
97.27891039339401
 20
117.7006459533401
 30
0.0
  0
VERTEX
  5
2F0
  8
0
  6
CONTINUOUS
 62
     7
 10
97.25828144315669
 20
117.6874132202529
 30
0.0
  0
VERTEX
  5
2F1
  8
0
  6
CONTINUOUS
 62
     7
 10
97.23703632301897
 20
117.6752105096864
 30
0.0
  0
VERTEX
  5
2F2
  8
0
  6
CONTINUOUS
 62
     7
 10
97.21522620937468
 20
117.6640672161895
 30
0.0
  0
VERTEX
  5
2F3
  8
0
  6
CONTINUOUS
 62
     7
 10
97.19290363960455
 20
117.6540101823298
 30
0.0
  0
VERTEX
  5
2F4
  8
0
  6
CONTINUOUS
 62
     7
 10
97.17012238552132
 20
117.6450636340341
 30
0.0
  0
VERTEX
  5
2F5
  8
0
  6
CONTINUOUS
 62
     7
 10
97.14693732384127
 20
117.6372491222317
 30
0.0
  0
VERTEX
  5
2F6
  8
0
  6
CONTINUOUS
 62
     7
 10
97.12340430399432
 20
117.6305854709409
 30
0.0
  0
VERTEX
  5
2F7
  8
0
  6
CONTINUOUS
 62
     7
 10
97.09958001359077
 20
117.6250887319253
 30
0.0
  0
VERTEX
  5
2F8
  8
0
  6
CONTINUOUS
 62
     7
 10
97.07552184186918
 20
117.6207721460268
 30
0.0
  0
VERTEX
  5
2F9
  8
0
  6
CONTINUOUS
 62
     7
 10
97.05128774145412
 20
117.617646111271
 30
0.0
  0
VERTEX
  5
2FA
  8
0
  6
CONTINUOUS
 62
     7
 10
97.02693608875667
 20
117.6157181578193
 30
0.0
  0
VERTEX
  5
2FB
  8
0
  6
CONTINUOUS
 62
     7
 10
97.0025255433542
 20
117.6149929298303
 30
0.0
  0
SEQEND
  5
4FF
  8
0
  6
CONTINUOUS
 62
     7
  0
LINE
  5
176
  8
0
  6
CONTINUOUS
 62
     7
 10
97.50000000000003
 20
118.1174803962487
 30
0.0
 11
97.50000000000004
 21
128.6815458728601
 31
0.0
  0
LINE
  5
177
  8
0
  6
CONTINUOUS
 62
     7
 10
91.73510671450828
 20
117.5884532535593
 30
0.0
 11
97.0025255433542
 21
117.6149929298303
 31
0.0
  0
POLYLINE
  5
178
  8
0
  6
CONTINUOUS
 62
     7
 66
     1
 10
0.0
 20
0.0
 30
0.0
  0
VERTEX
  5
2FC
  8
0
  6
CONTINUOUS
 62
     7
 10
97.00260130535318
 20
152.3068283329392
 30
0.0
  0
VERTEX
  5
2FD
  8
0
  6
CONTINUOUS
 62
     7
 10
97.02700939425512
 20
152.3058570173272
 30
0.0
  0
VERTEX
  5
2FE
  8
0
  6
CONTINUOUS
 62
     7
 10
97.05135842532049
 20
152.3036834388212
 30
0.0
  0
VERTEX
  5
2FF
  8
0
  6
CONTINUOUS
 62
     7
 10
97.07558975665711
 20
152.3003128322397
 30
0.0
  0
VERTEX
  5
300
  8
0
  6
CONTINUOUS
 62
     7
 10
97.09964502983931
 20
152.295753315308
 30
0.0
  0
VERTEX
  5
301
  8
0
  6
CONTINUOUS
 62
     7
 10
97.12346631045756
 20
152.290015869108
 30
0.0
  0
VERTEX
  5
302
  8
0
  6
CONTINUOUS
 62
     7
 10
97.14699622764707
 20
152.283114311631
 30
0.0
  0
VERTEX
  5
303
  8
0
  6
CONTINUOUS
 62
     7
 10
97.17017811225891
 20
152.2750652644989
 30
0.0
  0
VERTEX
  5
304
  8
0
  6
CONTINUOUS
 62
     7
 10
97.19295613334133
 20
152.265888112933
 30
0.0
  0
VERTEX
  5
305
  8
0
  6
CONTINUOUS
 62
     7
 10
97.21527543260233
 20
152.2556049590667
 30
0.0
  0
VERTEX
  5
306
  8
0
  6
CONTINUOUS
 62
     7
 10
97.23708225652959
 20
152.244240568715
 30
0.0
  0
VERTEX
  5
307
  8
0
  6
CONTINUOUS
 62
     7
 10
97.25832408584978
 20
152.2318223117291
 30
0.0
  0
VERTEX
  5
308
  8
0
  6
CONTINUOUS
 62
     7
 10
97.2789497620153
 20
152.2183800960787
 30
0.0
  0
VERTEX
  5
309
  8
0
  6
CONTINUOUS
 62
     7
 10
97.29890961041383
 20
152.2039462958227
 30
0.0
  0
VERTEX
  5
30A
  8
0
  6
CONTINUOUS
 62
     7
 10
97.31815556000409
 20
152.1885556731392
 30
0.0
  0
VERTEX
  5
30B
  8
0
  6
CONTINUOUS
 62
     7
 10
97.33664125908943
 20
152.1722452946053
 30
0.0
  0
VERTEX
  5
30C
  8
0
  6
CONTINUOUS
 62
     7
 10
97.35432218695075
 20
152.1550544419262
 30
0.0
  0
VERTEX
  5
30D
  8
0
  6
CONTINUOUS
 62
     7
 10
97.37115576106956
 20
152.1370245173296
 30
0.0
  0
VERTEX
  5
30E
  8
0
  6
CONTINUOUS
 62
     7
 10
97.38710143968316
 20
152.1181989438534
 30
0.0
  0
VERTEX
  5
30F
  8
0
  6
CONTINUOUS
 62
     7
 10
97.40212081942501
 20
152.0986230607655
 30
0.0
  0
VERTEX
  5
310
  8
0
  6
CONTINUOUS
 62
     7
 10
97.41617772781471
 20
152.0783440143704
 30
0.0
  0
VERTEX
  5
311
  8
0
  6
CONTINUOUS
 62
     7
 10
97.42923831037552
 20
152.0574106444616
 30
0.0
  0
VERTEX
  5
312
  8
0
  6
CONTINUOUS
 62
     7
 10
97.44127111216896
 20
152.035873366697
 30
0.0
  0
VERTEX
  5
313
  8
0
  6
CONTINUOUS
 62
     7
 10
97.45224715355047
 20
152.0137840511785
 30
0.0
  0
VERTEX
  5
314
  8
0
  6
CONTINUOUS
 62
     7
 10
97.46213999996363
 20
151.9911958975286
 30
0.0
  0
VERTEX
  5
315
  8
0
  6
CONTINUOUS
 62
     7
 10
97.4709258256048
 20
151.9681633067649
 30
0.0
  0
VERTEX
  5
316
  8
0
  6
CONTINUOUS
 62
     7
 10
97.47858347080486
 20
151.9447417502818
 30
0.0
  0
VERTEX
  5
317
  8
0
  6
CONTINUOUS
 62
     7
 10
97.48509449298999
 20
151.9209876362538
 30
0.0
  0
VERTEX
  5
318
  8
0
  6
CONTINUOUS
 62
     7
 10
97.49044321109834
 20
151.8969581737825
 30
0.0
  0
VERTEX
  5
319
  8
0
  6
CONTINUOUS
 62
     7
 10
97.49461674334626
 20
151.8727112351151
 30
0.0
  0
VERTEX
  5
31A
  8
0
  6
CONTINUOUS
 62
     7
 10
97.49760503825253
 20
151.848305216266
 30
0.0
  0
VERTEX
  5
31B
  8
0
  6
CONTINUOUS
 62
     7
 10
97.49940089884629
 20
151.8237988963758
 30
0.0
  0
VERTEX
  5
31C
  8
0
  6
CONTINUOUS
 62
     7
 10
97.50000000000003
 20
151.7992512961493
 30
0.0
  0
SEQEND
  5
500
  8
0
  6
CONTINUOUS
 62
     7
  0
LINE
  5
179
  8
0
  6
CONTINUOUS
 62
     7
 10
97.50000000000004
 20
149.3184541271397
 30
0.0
 11
97.50000000000003
 21
151.7992512961493
 31
0.0
  0
LINE
  5
17A
  8
0
  6
CONTINUOUS
 62
     7
 10
91.73510671450828
 20
152.3864646805678
 30
0.0
 11
97.00260130535318
 21
152.3068283329392
 31
0.0
  0
POLYLINE
  5
17B
  8
0
  6
CONTINUOUS
 62
     7
 66
     1
 10
0.0
 20
0.0
 30
0.0
  0
VERTEX
  5
31D
  8
0
  6
CONTINUOUS
 62
     7
 10
42.50000000000001
 20
118.1174803962487
 30
0.0
  0
VERTEX
  5
31E
  8
0
  6
CONTINUOUS
 62
     7
 10
42.50059921731329
 20
118.0929438401705
 30
0.0
  0
VERTEX
  5
31F
  8
0
  6
CONTINUOUS
 62
     7
 10
42.50239542582607
 20
118.0684604425341
 30
0.0
  0
VERTEX
  5
320
  8
0
  6
CONTINUOUS
 62
     7
 10
42.50538429873419
 20
118.0440891802714
 30
0.0
  0
VERTEX
  5
321
  8
0
  6
CONTINUOUS
 62
     7
 10
42.50955863627902
 20
118.0198887601962
 30
0.0
  0
VERTEX
  5
322
  8
0
  6
CONTINUOUS
 62
     7
 10
42.51490838309063
 20
117.9959174775886
 30
0.0
  0
VERTEX
  5
323
  8
0
  6
CONTINUOUS
 62
     7
 10
42.52142065240972
 20
117.97223307577
 30
0.0
  0
VERTEX
  5
324
  8
0
  6
CONTINUOUS
 62
     7
 10
42.52907975712991
 20
117.9488926070077
 30
0.0
  0
VERTEX
  5
325
  8
0
  6
CONTINUOUS
 62
     7
 10
42.53786724758574
 20
117.9259522950847
 30
0.0
  0
VERTEX
  5
326
  8
0
  6
CONTINUOUS
 62
     7
 10
42.54776195599517
 20
117.9034673998642
 30
0.0
  0
VERTEX
  5
327
  8
0
  6
CONTINUOUS
 62
     7
 10
42.55874004744972
 20
117.8814920841775
 30
0.0
  0
VERTEX
  5
328
  8
0
  6
CONTINUOUS
 62
     7
 10
42.57077507732924
 20
117.8600792833528
 30
0.0
  0
VERTEX
  5
329
  8
0
  6
CONTINUOUS
 62
     7
 10
42.58383805500321
 20
117.8392805777023
 30
0.0
  0
VERTEX
  5
32A
  8
0
  6
CONTINUOUS
 62
     7
 10
42.59789751366486
 20
117.8191460682725
 30
0.0
  0
VERTEX
  5
32B
  8
0
  6
CONTINUOUS
 62
     7
 10
42.61291958613017
 20
117.7997242561579
 30
0.0
  0
VERTEX
  5
32C
  8
0
  6
CONTINUOUS
 62
     7
 10
42.62886808641893
 20
117.7810619256697
 30
0.0
  0
VERTEX
  5
32D
  8
0
  6
CONTINUOUS
 62
     7
 10
42.64570459692153
 20
117.7632040316381
 30
0.0
  0
VERTEX
  5
32E
  8
0
  6
CONTINUOUS
 62
     7
 10
42.66338856094134
 20
117.7461935911238
 30
0.0
  0
VERTEX
  5
32F
  8
0
  6
CONTINUOUS
 62
     7
 10
42.68187738038993
 20
117.7300715797954
 30
0.0
  0
VERTEX
  5
330
  8
0
  6
CONTINUOUS
 62
     7
 10
42.70112651839955
 20
117.7148768332252
 30
0.0
  0
VERTEX
  5
331
  8
0
  6
CONTINUOUS
 62
     7
 10
42.72108960660603
 20
117.7006459533401
 30
0.0
  0
VERTEX
  5
332
  8
0
  6
CONTINUOUS
 62
     7
 10
42.74171855684335
 20
117.687413220253
 30
0.0
  0
VERTEX
  5
333
  8
0
  6
CONTINUOUS
 62
     7
 10
42.76296367698107
 20
117.6752105096865
 30
0.0
  0
VERTEX
  5
334
  8
0
  6
CONTINUOUS
 62
     7
 10
42.78477379062535
 20
117.6640672161895
 30
0.0
  0
VERTEX
  5
335
  8
0
  6
CONTINUOUS
 62
     7
 10
42.80709636039549
 20
117.6540101823298
 30
0.0
  0
VERTEX
  5
336
  8
0
  6
CONTINUOUS
 62
     7
 10
42.82987761447873
 20
117.6450636340341
 30
0.0
  0
VERTEX
  5
337
  8
0
  6
CONTINUOUS
 62
     7
 10
42.85306267615876
 20
117.6372491222317
 30
0.0
  0
VERTEX
  5
338
  8
0
  6
CONTINUOUS
 62
     7
 10
42.87659569600572
 20
117.630585470941
 30
0.0
  0
VERTEX
  5
339
  8
0
  6
CONTINUOUS
 62
     7
 10
42.90041998640928
 20
117.6250887319253
 30
0.0
  0
VERTEX
  5
33A
  8
0
  6
CONTINUOUS
 62
     7
 10
42.92447815813086
 20
117.6207721460269
 30
0.0
  0
VERTEX
  5
33B
  8
0
  6
CONTINUOUS
 62
     7
 10
42.94871225854592
 20
117.6176461112711
 30
0.0
  0
VERTEX
  5
33C
  8
0
  6
CONTINUOUS
 62
     7
 10
42.97306391124338
 20
117.6157181578194
 30
0.0
  0
VERTEX
  5
33D
  8
0
  6
CONTINUOUS
 62
     7
 10
42.99747445664584
 20
117.6149929298304
 30
0.0
  0
SEQEND
  5
501
  8
0
  6
CONTINUOUS
 62
     7
  0
LINE
  5
17C
  8
0
  6
CONTINUOUS
 62
     7
 10
42.50000000000001
 20
118.1174803962487
 30
0.0
 11
42.50000000000001
 21
128.6815458728601
 31
0.0
  0
LINE
  5
17D
  8
0
  6
CONTINUOUS
 62
     7
 10
48.26489328549176
 20
117.5884532535593
 30
0.0
 11
42.99747445664584
 21
117.6149929298304
 31
0.0
  0
LINE
  5
17E
  8
0
  6
CONTINUOUS
 62
     7
 10
42.5
 20
149.3184541271398
 30
0.0
 11
42.50000000000001
 21
151.7992512961493
 31
0.0
  0
POLYLINE
  5
17F
  8
0
  6
CONTINUOUS
 62
     7
 66
     1
 10
0.0
 20
0.0
 30
0.0
  0
VERTEX
  5
33E
  8
0
  6
CONTINUOUS
 62
     7
 10
42.99739869464686
 20
152.3068283329392
 30
0.0
  0
VERTEX
  5
33F
  8
0
  6
CONTINUOUS
 62
     7
 10
42.97299060574493
 20
152.3058570173272
 30
0.0
  0
VERTEX
  5
340
  8
0
  6
CONTINUOUS
 62
     7
 10
42.94864157467956
 20
152.3036834388212
 30
0.0
  0
VERTEX
  5
341
  8
0
  6
CONTINUOUS
 62
     7
 10
42.92441024334293
 20
152.3003128322397
 30
0.0
  0
VERTEX
  5
342
  8
0
  6
CONTINUOUS
 62
     7
 10
42.90035497016073
 20
152.2957533153081
 30
0.0
  0
VERTEX
  5
343
  8
0
  6
CONTINUOUS
 62
     7
 10
42.87653368954247
 20
152.2900158691081
 30
0.0
  0
VERTEX
  5
344
  8
0
  6
CONTINUOUS
 62
     7
 10
42.85300377235297
 20
152.283114311631
 30
0.0
  0
VERTEX
  5
345
  8
0
  6
CONTINUOUS
 62
     7
 10
42.82982188774114
 20
152.2750652644989
 30
0.0
  0
VERTEX
  5
346
  8
0
  6
CONTINUOUS
 62
     7
 10
42.80704386665871
 20
152.265888112933
 30
0.0
  0
VERTEX
  5
347
  8
0
  6
CONTINUOUS
 62
     7
 10
42.78472456739771
 20
152.2556049590667
 30
0.0
  0
VERTEX
  5
348
  8
0
  6
CONTINUOUS
 62
     7
 10
42.76291774347045
 20
152.244240568715
 30
0.0
  0
VERTEX
  5
349
  8
0
  6
CONTINUOUS
 62
     7
 10
42.74167591415026
 20
152.2318223117291
 30
0.0
  0
VERTEX
  5
34A
  8
0
  6
CONTINUOUS
 62
     7
 10
42.72105023798474
 20
152.2183800960787
 30
0.0
  0
VERTEX
  5
34B
  8
0
  6
CONTINUOUS
 62
     7
 10
42.70109038958621
 20
152.2039462958227
 30
0.0
  0
VERTEX
  5
34C
  8
0
  6
CONTINUOUS
 62
     7
 10
42.68184443999596
 20
152.1885556731392
 30
0.0
  0
VERTEX
  5
34D
  8
0
  6
CONTINUOUS
 62
     7
 10
42.66335874091062
 20
152.1722452946053
 30
0.0
  0
VERTEX
  5
34E
  8
0
  6
CONTINUOUS
 62
     7
 10
42.6456778130493
 20
152.1550544419262
 30
0.0
  0
VERTEX
  5
34F
  8
0
  6
CONTINUOUS
 62
     7
 10
42.6288442389305
 20
152.1370245173297
 30
0.0
  0
VERTEX
  5
350
  8
0
  6
CONTINUOUS
 62
     7
 10
42.61289856031688
 20
152.1181989438534
 30
0.0
  0
VERTEX
  5
351
  8
0
  6
CONTINUOUS
 62
     7
 10
42.59787918057504
 20
152.0986230607656
 30
0.0
  0
VERTEX
  5
352
  8
0
  6
CONTINUOUS
 62
     7
 10
42.58382227218534
 20
152.0783440143704
 30
0.0
  0
VERTEX
  5
353
  8
0
  6
CONTINUOUS
 62
     7
 10
42.57076168962452
 20
152.0574106444616
 30
0.0
  0
VERTEX
  5
354
  8
0
  6
CONTINUOUS
 62
     7
 10
42.55872888783107
 20
152.035873366697
 30
0.0
  0
VERTEX
  5
355
  8
0
  6
CONTINUOUS
 62
     7
 10
42.54775284644957
 20
152.0137840511786
 30
0.0
  0
VERTEX
  5
356
  8
0
  6
CONTINUOUS
 62
     7
 10
42.53786000003642
 20
151.9911958975286
 30
0.0
  0
VERTEX
  5
357
  8
0
  6
CONTINUOUS
 62
     7
 10
42.52907417439526
 20
151.9681633067649
 30
0.0
  0
VERTEX
  5
358
  8
0
  6
CONTINUOUS
 62
     7
 10
42.52141652919518
 20
151.9447417502819
 30
0.0
  0
VERTEX
  5
359
  8
0
  6
CONTINUOUS
 62
     7
 10
42.51490550701006
 20
151.9209876362538
 30
0.0
  0
VERTEX
  5
35A
  8
0
  6
CONTINUOUS
 62
     7
 10
42.50955678890171
 20
151.8969581737825
 30
0.0
  0
VERTEX
  5
35B
  8
0
  6
CONTINUOUS
 62
     7
 10
42.50538325665379
 20
151.8727112351151
 30
0.0
  0
VERTEX
  5
35C
  8
0
  6
CONTINUOUS
 62
     7
 10
42.50239496174751
 20
151.848305216266
 30
0.0
  0
VERTEX
  5
35D
  8
0
  6
CONTINUOUS
 62
     7
 10
42.50059910115376
 20
151.8237988963758
 30
0.0
  0
VERTEX
  5
35E
  8
0
  6
CONTINUOUS
 62
     7
 10
42.50000000000001
 20
151.7992512961493
 30
0.0
  0
SEQEND
  5
502
  8
0
  6
CONTINUOUS
 62
     7
  0
LINE
  5
180
  8
0
  6
CONTINUOUS
 62
     7
 10
48.26489328549176
 20
152.3864646805678
 30
0.0
 11
42.99739869464686
 21
152.3068283329392
 31
0.0
  0
LINE
  5
181
  8
0
  6
CONTINUOUS
 62
     7
 10
97.44949227378903
 20
149.0151382260833
 30
0.0
 11
97.44949227378903
 21
128.9848617739166
 31
0.0
  0
LINE
  5
182
  8
0
  6
CONTINUOUS
 62
     7
 10
42.55050772621102
 20
149.0151382260833
 30
0.0
 11
42.55050772621102
 21
128.9848617739166
 31
0.0
  0
LINE
  5
183
  8
0
  6
CONTINUOUS
 62
     7
 10
42.50000000000001
 20
147.5
 30
0.0
 11
42.55050772621102
 21
141.7123878323785
 31
0.0
  0
LINE
  5
184
  8
0
  6
CONTINUOUS
 62
     7
 10
97.44949227378903
 20
141.7123878323841
 30
0.0
 11
97.5
 21
147.5
 31
0.0
  0
ENDBLK
  8
0
  0
BLOCK
  8
0
  2
D_FRAME_VIEW_3966
 70
     0
 10
0.0
 20
0.0
 30
0.0
  0
LINE
  5
189
  8
0
  6
CONTINUOUS
 62
     7
 10
167.5
 20
225.25
 30
0.0
 11
167.5
 21
249.9881939662773
 31
0.0
  0
ARC
  5
18A
  8
0
  6
CONTINUOUS
 62
     7
 10
165.4999709356645
 20
225.2500290643355
 30
0.0
 40
2.000029064546677
 50
270.0008326197792
 51
359.9991673802208
  0
LINE
  5
18B
  8
0
  6
CONTINUOUS
 62
     7
 10
157.5
 20
223.25
 30
0.0
 11
165.5
 21
223.25
 31
0.0
  0
LINE
  5
18C
  8
0
  6
CONTINUOUS
 62
     7
 10
157.5
 20
214.7499999999999
 30
0.0
 11
157.5
 21
223.25
 31
0.0
  0
LINE
  5
18D
  8
0
  6
CONTINUOUS
 62
     7
 10
137.5
 20
214.7499999999999
 30
0.0
 11
137.5
 21
250.25
 31
0.0
  0
POLYLINE
  5
18E
  8
0
  6
CONTINUOUS
 62
     7
 66
     1
 10
0.0
 20
0.0
 30
0.0
  0
VERTEX
  5
35F
  8
0
  6
CONTINUOUS
 62
     7
 10
132.6931716670608
 20
202.9269283448889
 30
0.0
  0
VERTEX
  5
360
  8
0
  6
CONTINUOUS
 62
     7
 10
132.6941429826728
 20
202.9410203615868
 30
0.0
  0
VERTEX
  5
361
  8
0
  6
CONTINUOUS
 62
     7
 10
132.6963165611788
 20
202.9550782812269
 30
0.0
  0
VERTEX
  5
362
  8
0
  6
CONTINUOUS
 62
     7
 10
132.6996871677603
 20
202.9690682468969
 30
0.0
  0
VERTEX
  5
363
  8
0
  6
CONTINUOUS
 62
     7
 10
132.7042466846919
 20
202.9829565653441
 30
0.0
  0
VERTEX
  5
364
  8
0
  6
CONTINUOUS
 62
     7
 10
132.7099841308919
 20
202.9967097881215
 30
0.0
  0
VERTEX
  5
365
  8
0
  6
CONTINUOUS
 62
     7
 10
132.716885688369
 20
203.0102947921449
 30
0.0
  0
VERTEX
  5
366
  8
0
  6
CONTINUOUS
 62
     7
 10
132.7249347355011
 20
203.0236788594658
 30
0.0
  0
VERTEX
  5
367
  8
0
  6
CONTINUOUS
 62
     7
 10
132.734111887067
 20
203.0368297560694
 30
0.0
  0
VERTEX
  5
368
  8
0
  6
CONTINUOUS
 62
     7
 10
132.7443950409333
 20
203.0497158095058
 30
0.0
  0
VERTEX
  5
369
  8
0
  6
CONTINUOUS
 62
     7
 10
132.755759431285
 20
203.0623059851704
 30
0.0
  0
VERTEX
  5
36A
  8
0
  6
CONTINUOUS
 62
     7
 10
132.7681776882709
 20
203.0745699610465
 30
0.0
  0
VERTEX
  5
36B
  8
0
  6
CONTINUOUS
 62
     7
 10
132.7816199039213
 20
203.0864782007329
 30
0.0
  0
VERTEX
  5
36C
  8
0
  6
CONTINUOUS
 62
     7
 10
132.7960537041773
 20
203.0980020245788
 30
0.0
  0
VERTEX
  5
36D
  8
0
  6
CONTINUOUS
 62
     7
 10
132.8114443268608
 20
203.1091136787555
 30
0.0
  0
VERTEX
  5
36E
  8
0
  6
CONTINUOUS
 62
     7
 10
132.8277547053947
 20
203.1197864020986
 30
0.0
  0
VERTEX
  5
36F
  8
0
  6
CONTINUOUS
 62
     7
 10
132.8449455580738
 20
203.1299944905588
 30
0.0
  0
VERTEX
  5
370
  8
0
  6
CONTINUOUS
 62
     7
 10
132.8629754826703
 20
203.1397133591077
 30
0.0
  0
VERTEX
  5
371
  8
0
  6
CONTINUOUS
 62
     7
 10
132.8818010561466
 20
203.1489196009477
 30
0.0
  0
VERTEX
  5
372
  8
0
  6
CONTINUOUS
 62
     7
 10
132.9013769392344
 20
203.1575910438847
 30
0.0
  0
VERTEX
  5
373
  8
0
  6
CONTINUOUS
 62
     7
 10
132.9216559856295
 20
203.1657068037275
 30
0.0
  0
VERTEX
  5
374
  8
0
  6
CONTINUOUS
 62
     7
 10
132.9425893555384
 20
203.1732473345848
 30
0.0
  0
VERTEX
  5
375
  8
0
  6
CONTINUOUS
 62
     7
 10
132.964126633303
 20
203.1801944759393
 30
0.0
  0
VERTEX
  5
376
  8
0
  6
CONTINUOUS
 62
     7
 10
132.9862159488214
 20
203.1865314963856
 30
0.0
  0
VERTEX
  5
377
  8
0
  6
CONTINUOUS
 62
     7
 10
133.0088041024714
 20
203.1922431339252
 30
0.0
  0
VERTEX
  5
378
  8
0
  6
CONTINUOUS
 62
     7
 10
133.0318366932351
 20
203.1973156327242
 30
0.0
  0
VERTEX
  5
379
  8
0
  6
CONTINUOUS
 62
     7
 10
133.0552582497181
 20
203.2017367762419
 30
0.0
  0
VERTEX
  5
37A
  8
0
  6
CONTINUOUS
 62
     7
 10
133.0790123637462
 20
203.2054959166531
 30
0.0
  0
VERTEX
  5
37B
  8
0
  6
CONTINUOUS
 62
     7
 10
133.1030418262175
 20
203.2085840004928
 30
0.0
  0
VERTEX
  5
37C
  8
0
  6
CONTINUOUS
 62
     7
 10
133.1272887648849
 20
203.2109935904596
 30
0.0
  0
VERTEX
  5
37D
  8
0
  6
CONTINUOUS
 62
     7
 10
133.151694783734
 20
203.2127188833282
 30
0.0
  0
VERTEX
  5
37E
  8
0
  6
CONTINUOUS
 62
     7
 10
133.1762011036242
 20
203.2137557239254
 30
0.0
  0
VERTEX
  5
37F
  8
0
  6
CONTINUOUS
 62
     7
 10
133.2007487038507
 20
203.2141016151378
 30
0.0
  0
SEQEND
  5
503
  8
0
  6
CONTINUOUS
 62
     7
  0
LINE
  5
18F
  8
0
  6
CONTINUOUS
 62
     7
 10
135.6815458728602
 20
203.2141016151378
 30
0.0
 11
133.2007487038507
 21
203.2141016151378
 31
0.0
  0
LINE
  5
190
  8
0
  6
CONTINUOUS
 62
     7
 10
135.6815458728602
 20
203.2141016151378
 30
0.0
 11
135.5071137756168
 21
199.8857389249097
 31
0.0
  0
LINE
  5
191
  8
0
  6
CONTINUOUS
 62
     7
 10
132.6135353194322
 20
199.8857389249097
 30
0.0
 11
132.6931716670608
 21
202.9269283448889
 31
0.0
  0
LINE
  5
192
  8
0
  6
CONTINUOUS
 62
     7
 10
166.8825196037513
 20
203.2141016151378
 30
0.0
 11
156.3184541271399
 21
203.2141016151378
 31
0.0
  0
LINE
  5
193
  8
0
  6
CONTINUOUS
 62
     7
 10
156.0151382260834
 20
209.0017137827583
 30
0.0
 11
156.3184541271399
 21
203.2141016151378
 31
0.0
  0
LINE
  5
194
  8
0
  6
CONTINUOUS
 62
     7
 10
135.9848617739167
 20
209.0017137827583
 30
0.0
 11
156.0151382260834
 21
209.0017137827583
 31
0.0
  0
LINE
  5
195
  8
0
  6
CONTINUOUS
 62
     7
 10
135.9848617739167
 20
209.0017137827583
 30
0.0
 11
135.6815458728602
 21
203.2141016151378
 31
0.0
  0
POLYLINE
  5
196
  8
0
  6
CONTINUOUS
 62
     7
 66
     1
 10
0.0
 20
0.0
 30
0.0
  0
VERTEX
  5
380
  8
0
  6
CONTINUOUS
 62
     7
 10
166.8825196037513
 20
203.2141016151378
 30
0.0
  0
VERTEX
  5
381
  8
0
  6
CONTINUOUS
 62
     7
 10
166.9070561598295
 20
203.2137556568607
 30
0.0
  0
VERTEX
  5
382
  8
0
  6
CONTINUOUS
 62
     7
 10
166.9315395574659
 20
203.2127186153923
 30
0.0
  0
VERTEX
  5
383
  8
0
  6
CONTINUOUS
 62
     7
 10
166.9559108197286
 20
203.2109929888142
 30
0.0
  0
VERTEX
  5
384
  8
0
  6
CONTINUOUS
 62
     7
 10
166.9801112398038
 20
203.208582933909
 30
0.0
  0
VERTEX
  5
385
  8
0
  6
CONTINUOUS
 62
     7
 10
167.0040825224114
 20
203.2054942561473
 30
0.0
  0
VERTEX
  5
386
  8
0
  6
CONTINUOUS
 62
     7
 10
167.02776692423
 20
203.2017343957028
 30
0.0
  0
VERTEX
  5
387
  8
0
  6
CONTINUOUS
 62
     7
 10
167.0511073929923
 20
203.1973124095309
 30
0.0
  0
VERTEX
  5
388
  8
0
  6
CONTINUOUS
 62
     7
 10
167.0740477049154
 20
203.1922389495507
 30
0.0
  0
VERTEX
  5
389
  8
0
  6
CONTINUOUS
 62
     7
 10
167.0965326001358
 20
203.186526236987
 30
0.0
  0
VERTEX
  5
38A
  8
0
  6
CONTINUOUS
 62
     7
 10
167.1185079158225
 20
203.1801880329305
 30
0.0
  0
VERTEX
  5
38B
  8
0
  6
CONTINUOUS
 62
     7
 10
167.1399207166472
 20
203.1732396051898
 30
0.0
  0
VERTEX
  5
38C
  8
0
  6
CONTINUOUS
 62
     7
 10
167.1607194222977
 20
203.1656976915133
 30
0.0
  0
VERTEX
  5
38D
  8
0
  6
CONTINUOUS
 62
     7
 10
167.1808539317275
 20
203.1575804592704
 30
0.0
  0
VERTEX
  5
38E
  8
0
  6
CONTINUOUS
 62
     7
 10
167.2002757438421
 20
203.1489074616888
 30
0.0
  0
VERTEX
  5
38F
  8
0
  6
CONTINUOUS
 62
     7
 10
167.2189380743304
 20
203.1396995907539
 30
0.0
  0
VERTEX
  5
390
  8
0
  6
CONTINUOUS
 62
     7
 10
167.2367959683619
 20
203.129979026883
 30
0.0
  0
VERTEX
  5
391
  8
0
  6
CONTINUOUS
 62
     7
 10
167.2538064088762
 20
203.1197691854958
 30
0.0
  0
VERTEX
  5
392
  8
0
  6
CONTINUOUS
 62
     7
 10
167.2699284202046
 20
203.1090946606102
 30
0.0
  0
VERTEX
  5
393
  8
0
  6
CONTINUOUS
 62
     7
 10
167.2851231667748
 20
203.0979811655986
 30
0.0
  0
VERTEX
  5
394
  8
0
  6
CONTINUOUS
 62
     7
 10
167.2993540466599
 20
203.0864554712488
 30
0.0
  0
VERTEX
  5
395
  8
0
  6
CONTINUOUS
 62
     7
 10
167.312586779747
 20
203.0745453412762
 30
0.0
  0
VERTEX
  5
396
  8
0
  6
CONTINUOUS
 62
     7
 10
167.3247894903135
 20
203.0622794654457
 30
0.0
  0
VERTEX
  5
397
  8
0
  6
CONTINUOUS
 62
     7
 10
167.3359327838105
 20
203.0496873904621
 30
0.0
  0
VERTEX
  5
398
  8
0
  6
CONTINUOUS
 62
     7
 10
167.3459898176702
 20
203.0367994487963
 30
0.0
  0
VERTEX
  5
399
  8
0
  6
CONTINUOUS
 62
     7
 10
167.3549363659659
 20
203.0236466856189
 30
0.0
  0
VERTEX
  5
39A
  8
0
  6
CONTINUOUS
 62
     7
 10
167.3627508777683
 20
203.0102607840167
 30
0.0
  0
VERTEX
  5
39B
  8
0
  6
CONTINUOUS
 62
     7
 10
167.3694145290591
 20
202.9966739886733
 30
0.0
  0
VERTEX
  5
39C
  8
0
  6
CONTINUOUS
 62
     7
 10
167.3749112680747
 20
202.9829190281955
 30
0.0
  0
VERTEX
  5
39D
  8
0
  6
CONTINUOUS
 62
     7
 10
167.3792278539731
 20
202.9690290362758
 30
0.0
  0
VERTEX
  5
39E
  8
0
  6
CONTINUOUS
 62
     7
 10
167.382353888729
 20
202.9550374718776
 30
0.0
  0
VERTEX
  5
39F
  8
0
  6
CONTINUOUS
 62
     7
 10
167.3842818421806
 20
202.9409780386375
 30
0.0
  0
VERTEX
  5
3A0
  8
0
  6
CONTINUOUS
 62
     7
 10
167.3850070701696
 20
202.9268846036784
 30
0.0
  0
SEQEND
  5
504
  8
0
  6
CONTINUOUS
 62
     7
  0
LINE
  5
197
  8
0
  6
CONTINUOUS
 62
     7
 10
167.4115467464407
 20
199.8857389249097
 30
0.0
 11
167.3850070701696
 21
202.9268846036784
 31
0.0
  0
LINE
  5
198
  8
0
  6
CONTINUOUS
 62
     7
 10
156.3184541271399
 20
203.2141016151378
 30
0.0
 11
156.4928862243833
 21
199.8857389249097
 31
0.0
  0
LINE
  5
199
  8
0
  6
CONTINUOUS
 62
     7
 10
132.9772692400745
 20
213.7761769483078
 30
0.0
 11
132.6931716670608
 21
202.9269283448889
 31
0.0
  0
LINE
  5
19A
  8
0
  6
CONTINUOUS
 62
     7
 10
167.3850070701696
 20
202.9268846036784
 30
0.0
 11
167.2163387191396
 21
222.2543632677492
 31
0.0
  0
LINE
  5
19B
  8
0
  6
CONTINUOUS
 62
     7
 10
156.4400121554488
 20
200.8946362614849
 30
0.0
 11
135.5599878445513
 21
200.8946362614849
 31
0.0
  0
POLYLINE
  5
19C
  8
0
  6
CONTINUOUS
 62
     7
 66
     1
 10
0.0
 20
0.0
 30
0.0
  0
VERTEX
  5
3A1
  8
0
  6
CONTINUOUS
 62
     7
 10
133.9769265650501
 20
214.7499999999999
 30
0.0
  0
VERTEX
  5
3A2
  8
0
  6
CONTINUOUS
 62
     7
 10
133.9286760446744
 20
214.7488352653383
 30
0.0
  0
VERTEX
  5
3A3
  8
0
  6
CONTINUOUS
 62
     7
 10
133.8805379224058
 20
214.7453437745669
 30
0.0
  0
VERTEX
  5
3A4
  8
0
  6
CONTINUOUS
 62
     7
 10
133.8326243345234
 20
214.7395336610065
 30
0.0
  0
VERTEX
  5
3A5
  8
0
  6
CONTINUOUS
 62
     7
 10
133.7850468942602
 20
214.7314184591383
 30
0.0
  0
VERTEX
  5
3A6
  8
0
  6
CONTINUOUS
 62
     7
 10
133.7379164318039
 20
214.7210170730762
 30
0.0
  0
VERTEX
  5
3A7
  8
0
  6
CONTINUOUS
 62
     7
 10
133.691342736121
 20
214.7083537325299
 30
0.0
  0
VERTEX
  5
3A8
  8
0
  6
CONTINUOUS
 62
     7
 10
133.6454342992069
 20
214.6934579363628
 30
0.0
  0
VERTEX
  5
3A9
  8
0
  6
CONTINUOUS
 62
     7
 10
133.6002980633569
 20
214.676364383875
 30
0.0
  0
VERTEX
  5
3AA
  8
0
  6
CONTINUOUS
 62
     7
 10
133.5560391720479
 20
214.6571128939728
 30
0.0
  0
VERTEX
  5
3AB
  8
0
  6
CONTINUOUS
 62
     7
 10
133.5127607250096
 20
214.6357483124112
 30
0.0
  0
VERTEX
  5
3AC
  8
0
  6
CONTINUOUS
 62
     7
 10
133.4705635380565
 20
214.6123204073277
 30
0.0
  0
VERTEX
  5
3AD
  8
0
  6
CONTINUOUS
 62
     7
 10
133.4295459082413
 20
214.5868837533084
 30
0.0
  0
VERTEX
  5
3AE
  8
0
  6
CONTINUOUS
 62
     7
 10
133.3898033848743
 20
214.5594976042585
 30
0.0
  0
VERTEX
  5
3AF
  8
0
  6
CONTINUOUS
 62
     7
 10
133.3514285469446
 20
214.5302257553722
 30
0.0
  0
VERTEX
  5
3B0
  8
0
  6
CONTINUOUS
 62
     7
 10
133.3145107874599
 20
214.4991363945234
 30
0.0
  0
VERTEX
  5
3B1
  8
0
  6
CONTINUOUS
 62
     7
 10
133.2791361052084
 20
214.4663019434246
 30
0.0
  0
VERTEX
  5
3B2
  8
0
  6
CONTINUOUS
 62
     7
 10
133.2453869044272
 20
214.4317988889223
 30
0.0
  0
VERTEX
  5
3B3
  8
0
  6
CONTINUOUS
 62
     7
 10
133.2133418028443
 20
214.3957076048236
 30
0.0
  0
VERTEX
  5
3B4
  8
0
  6
CONTINUOUS
 62
     7
 10
133.1830754485407
 20
214.3581121646676
 30
0.0
  0
VERTEX
  5
3B5
  8
0
  6
CONTINUOUS
 62
     7
 10
133.1546583460603
 20
214.3191001458788
 30
0.0
  0
VERTEX
  5
3B6
  8
0
  6
CONTINUOUS
 62
     7
 10
133.1281566921716
 20
214.2787624257583
 30
0.0
  0
VERTEX
  5
3B7
  8
0
  6
CONTINUOUS
 62
     7
 10
133.1036322216644
 20
214.2371929697877
 30
0.0
  0
VERTEX
  5
3B8
  8
0
  6
CONTINUOUS
 62
     7
 10
133.0811420635404
 20
214.1944886127394
 30
0.0
  0
VERTEX
  5
3B9
  8
0
  6
CONTINUOUS
 62
     7
 10
133.060738607933
 20
214.1507488331031
 30
0.0
  0
VERTEX
  5
3BA
  8
0
  6
CONTINUOUS
 62
     7
 10
133.042469384066
 20
214.1060755213537
 30
0.0
  0
VERTEX
  5
3BB
  8
0
  6
CONTINUOUS
 62
     7
 10
133.0263769495363
 20
214.0605727426006
 30
0.0
  0
VERTEX
  5
3BC
  8
0
  6
CONTINUOUS
 62
     7
 10
133.0124987911761
 20
214.0143464941708
 30
0.0
  0
VERTEX
  5
3BD
  8
0
  6
CONTINUOUS
 62
     7
 10
133.0008672377298
 20
213.9675044586922
 30
0.0
  0
VERTEX
  5
3BE
  8
0
  6
CONTINUOUS
 62
     7
 10
132.9915093845442
 20
213.9201557532494
 30
0.0
  0
VERTEX
  5
3BF
  8
0
  6
CONTINUOUS
 62
     7
 10
132.9844470304514
 20
213.8724106751991
 30
0.0
  0
VERTEX
  5
3C0
  8
0
  6
CONTINUOUS
 62
     7
 10
132.9796966269884
 20
213.8243804452362
 30
0.0
  0
VERTEX
  5
3C1
  8
0
  6
CONTINUOUS
 62
     7
 10
132.9772692400745
 20
213.7761769483078
 30
0.0
  0
SEQEND
  5
505
  8
0
  6
CONTINUOUS
 62
     7
  0
LINE
  5
19D
  8
0
  6
CONTINUOUS
 62
     7
 10
158.0027877551114
 20
214.7499999999999
 30
0.0
 11
133.9769265650501
 21
214.7499999999999
 31
0.0
  0
LINE
  5
19E
  8
0
  6
CONTINUOUS
 62
     7
 10
158.0027877551115
 20
214.7499999999999
 30
0.0
 11
158.4898481295893
 21
214.2543632677491
 31
0.0
  0
LINE
  5
19F
  8
0
  6
CONTINUOUS
 62
     7
 10
158.199506839655
 20
222.2630884741539
 30
0.0
 11
158.0027696941284
 21
214.7499999999999
 31
0.0
  0
ARC
  5
1A0
  8
0
  6
CONTINUOUS
 62
     7
 10
158.6993355021428
 20
222.25
 30
0.0
 40
0.5000000000000004
 50
90.0
 51
178.4999999999996
  0
LINE
  5
1A1
  8
0
  6
CONTINUOUS
 62
     7
 10
166.7163577576075
 20
222.75
 30
0.0
 11
158.6993355021428
 21
222.75
 31
0.0
  0
ARC
  5
1A2
  8
0
  6
CONTINUOUS
 62
     7
 10
166.7163577576075
 20
222.25
 30
0.0
 40
0.5000000000000004
 50
0.4999999999996589
 51
90.0
  0
LINE
  5
1A3
  8
0
  6
CONTINUOUS
 62
     7
 10
132.5972742670934
 20
199.2647543895456
 30
0.0
 11
130.9780540709162
 21
199.2647543895456
 31
0.0
  0
LINE
  5
1A4
  8
0
  6
CONTINUOUS
 62
     7
 10
132.6028817154047
 20
199.4788942011389
 30
0.0
 11
132.6135353194322
 21
199.8857389249097
 31
0.0
  0
LINE
  5
1A5
  8
0
  6
CONTINUOUS
 62
     7
 10
135.5071137756168
 20
199.8857389249097
 30
0.0
 11
135.485791947131
 21
199.4788942011389
 31
0.0
  0
LINE
  5
1A6
  8
0
  6
CONTINUOUS
 62
     7
 10
167.4115467464407
 20
199.8857389249096
 30
0.0
 11
167.4150972265564
 21
199.4788942011389
 31
0.0
  0
LINE
  5
1A7
  8
0
  6
CONTINUOUS
 62
     7
 10
156.5142080528692
 20
199.4788942011389
 30
0.0
 11
156.4928862243833
 21
199.8857389249097
 31
0.0
  0
POLYLINE
  5
1A8
  8
0
  6
CONTINUOUS
 62
     7
 66
     1
 10
0.0
 20
0.0
 30
0.0
  0
VERTEX
  5
3C2
  8
0
  6
CONTINUOUS
 62
     7
 10
117.5462904769518
 20
195.0543632677492
 30
0.0
  0
VERTEX
  5
3C3
  8
0
  6
CONTINUOUS
 62
     7
 10
117.547098961104
 20
195.0787547878873
 30
0.0
  0
VERTEX
  5
3C4
  8
0
  6
CONTINUOUS
 62
     7
 10
117.5490966735692
 20
195.1030778026302
 30
0.0
  0
VERTEX
  5
3C5
  8
0
  6
CONTINUOUS
 62
     7
 10
117.5522788549981
 20
195.127274364837
 30
0.0
  0
VERTEX
  5
3C6
  8
0
  6
CONTINUOUS
 62
     7
 10
117.5566379241627
 20
195.1512868286276
 30
0.0
  0
VERTEX
  5
3C7
  8
0
  6
CONTINUOUS
 62
     7
 10
117.5621634960185
 20
195.1750579867177
 30
0.0
  0
VERTEX
  5
3C8
  8
0
  6
CONTINUOUS
 62
     7
 10
117.5688424064452
 20
195.1985312067095
 30
0.0
  0
VERTEX
  5
3C9
  8
0
  6
CONTINUOUS
 62
     7
 10
117.5766587436094
 20
195.2216505660132
 30
0.0
  0
VERTEX
  5
3CA
  8
0
  6
CONTINUOUS
 62
     7
 10
117.5855938858723
 20
195.2443609850762
 30
0.0
  0
VERTEX
  5
3CB
  8
0
  6
CONTINUOUS
 62
     7
 10
117.5956265461547
 20
195.2666083586051
 30
0.0
  0
VERTEX
  5
3CC
  8
0
  6
CONTINUOUS
 62
     7
 10
117.6067328226506
 20
195.2883396844659
 30
0.0
  0
VERTEX
  5
3CD
  8
0
  6
CONTINUOUS
 62
     7
 10
117.6188862557713
 20
195.3095031899567
 30
0.0
  0
VERTEX
  5
3CE
  8
0
  6
CONTINUOUS
 62
     7
 10
117.6320578911825
 20
195.3300484551501
 30
0.0
  0
VERTEX
  5
3CF
  8
0
  6
CONTINUOUS
 62
     7
 10
117.6462163487852
 20
195.3499265330146
 30
0.0
  0
VERTEX
  5
3D0
  8
0
  6
CONTINUOUS
 62
     7
 10
117.6613278974757
 20
195.3690900660253
 30
0.0
  0
VERTEX
  5
3D1
  8
0
  6
CONTINUOUS
 62
     7
 10
117.6773565355062
 20
195.3874933989887
 30
0.0
  0
VERTEX
  5
3D2
  8
0
  6
CONTINUOUS
 62
     7
 10
117.6942640762559
 20
195.4050926878116
 30
0.0
  0
VERTEX
  5
3D3
  8
0
  6
CONTINUOUS
 62
     7
 10
117.7120102392064
 20
195.4218460039553
 30
0.0
  0
VERTEX
  5
3D4
  8
0
  6
CONTINUOUS
 62
     7
 10
117.730552745906
 20
195.437713434326
 30
0.0
  0
VERTEX
  5
3D5
  8
0
  6
CONTINUOUS
 62
     7
 10
117.7498474206942
 20
195.4526571763639
 30
0.0
  0
VERTEX
  5
3D6
  8
0
  6
CONTINUOUS
 62
     7
 10
117.7698482959452
 20
195.4666416281038
 30
0.0
  0
VERTEX
  5
3D7
  8
0
  6
CONTINUOUS
 62
     7
 10
117.7905077215819
 20
195.4796334729935
 30
0.0
  0
VERTEX
  5
3D8
  8
0
  6
CONTINUOUS
 62
     7
 10
117.8117764785968
 20
195.4916017592668
 30
0.0
  0
VERTEX
  5
3D9
  8
0
  6
CONTINUOUS
 62
     7
 10
117.8336038963115
 20
195.5025179736832
 30
0.0
  0
VERTEX
  5
3DA
  8
0
  6
CONTINUOUS
 62
     7
 10
117.8559379730946
 20
195.5123561094577
 30
0.0
  0
VERTEX
  5
3DB
  8
0
  6
CONTINUOUS
 62
     7
 10
117.8787255002506
 20
195.5210927282197
 30
0.0
  0
VERTEX
  5
3DC
  8
0
  6
CONTINUOUS
 62
     7
 10
117.9019121887836
 20
195.528707015852
 30
0.0
  0
VERTEX
  5
3DD
  8
0
  6
CONTINUOUS
 62
     7
 10
117.9254427987361
 20
195.5351808320788
 30
0.0
  0
VERTEX
  5
3DE
  8
0
  6
CONTINUOUS
 62
     7
 10
117.9492612707923
 20
195.5404987536828
 30
0.0
  0
VERTEX
  5
3DF
  8
0
  6
CONTINUOUS
 62
     7
 10
117.9733108598336
 20
195.5446481112498
 30
0.0
  0
VERTEX
  5
3E0
  8
0
  6
CONTINUOUS
 62
     7
 10
117.9975342701287
 20
195.5476190193519
 30
0.0
  0
VERTEX
  5
3E1
  8
0
  6
CONTINUOUS
 62
     7
 10
118.0218737918344
 20
195.5494044000987
 30
0.0
  0
VERTEX
  5
3E2
  8
0
  6
CONTINUOUS
 62
     7
 10
118.0462714384839
 20
195.55
 30
0.0
  0
SEQEND
  5
506
  8
0
  6
CONTINUOUS
 62
     7
  0
LINE
  5
1A9
  8
0
  6
CONTINUOUS
 62
     7
 10
118.0462714384839
 20
195.55
 30
0.0
 11
132.0129215645392
 21
195.55
 31
0.0
  0
POLYLINE
  5
1AA
  8
0
  6
CONTINUOUS
 62
     7
 66
     1
 10
0.0
 20
0.0
 30
0.0
  0
VERTEX
  5
3E3
  8
0
  6
CONTINUOUS
 62
     7
 10
132.0129215645392
 20
195.55
 30
0.0
  0
VERTEX
  5
3E4
  8
0
  6
CONTINUOUS
 62
     7
 10
132.037046824727
 20
195.5505823673308
 30
0.0
  0
VERTEX
  5
3E5
  8
0
  6
CONTINUOUS
 62
     7
 10
132.0611158858613
 20
195.5523281127165
 30
0.0
  0
VERTEX
  5
3E6
  8
0
  6
CONTINUOUS
 62
     7
 10
132.0850726798026
 20
195.5552331694967
 30
0.0
  0
VERTEX
  5
3E7
  8
0
  6
CONTINUOUS
 62
     7
 10
132.1088613999341
 20
195.5592907704308
 30
0.0
  0
VERTEX
  5
3E8
  8
0
  6
CONTINUOUS
 62
     7
 10
132.1324266311622
 20
195.5644914634618
 30
0.0
  0
VERTEX
  5
3E9
  8
0
  6
CONTINUOUS
 62
     7
 10
132.1557134790037
 20
195.570823133735
 30
0.0
  0
VERTEX
  5
3EA
  8
0
  6
CONTINUOUS
 62
     7
 10
132.1786676974608
 20
195.5782710318185
 30
0.0
  0
VERTEX
  5
3EB
  8
0
  6
CONTINUOUS
 62
     7
 10
132.2012358153858
 20
195.5868178080624
 30
0.0
  0
VERTEX
  5
3EC
  8
0
  6
CONTINUOUS
 62
     7
 10
132.2233652610403
 20
195.5964435530135
 30
0.0
  0
VERTEX
  5
3ED
  8
0
  6
CONTINUOUS
 62
     7
 10
132.2450044845594
 20
195.6071258437943
 30
0.0
  0
VERTEX
  5
3EE
  8
0
  6
CONTINUOUS
 62
     7
 10
132.266103078036
 20
195.6188397963361
 30
0.0
  0
VERTEX
  5
3EF
  8
0
  6
CONTINUOUS
 62
     7
 10
132.2866118929436
 20
195.6315581233458
 30
0.0
  0
VERTEX
  5
3F0
  8
0
  6
CONTINUOUS
 62
     7
 10
132.3064831546271
 20
195.6452511978707
 30
0.0
  0
VERTEX
  5
3F1
  8
0
  6
CONTINUOUS
 62
     7
 10
132.3256705735919
 20
195.6598871223138
 30
0.0
  0
VERTEX
  5
3F2
  8
0
  6
CONTINUOUS
 62
     7
 10
132.3441294533343
 20
195.6754318027382
 30
0.0
  0
VERTEX
  5
3F3
  8
0
  6
CONTINUOUS
 62
     7
 10
132.36181679446
 20
195.6918490282876
 30
0.0
  0
VERTEX
  5
3F4
  8
0
  6
CONTINUOUS
 62
     7
 10
132.3786913948506
 20
195.7091005555388
 30
0.0
  0
VERTEX
  5
3F5
  8
0
  6
CONTINUOUS
 62
     7
 10
132.3947139456421
 20
195.7271461975881
 30
0.0
  0
VERTEX
  5
3F6
  8
0
  6
CONTINUOUS
 62
     7
 10
132.4098471227939
 20
195.7459439176661
 30
0.0
  0
VERTEX
  5
3F7
  8
0
  6
CONTINUOUS
 62
     7
 10
132.4240556740341
 20
195.7654499270605
 30
0.0
  0
VERTEX
  5
3F8
  8
0
  6
CONTINUOUS
 62
     7
 10
132.4373065009784
 20
195.7856187871208
 30
0.0
  0
VERTEX
  5
3F9
  8
0
  6
CONTINUOUS
 62
     7
 10
132.449568736232
 20
195.8064035151061
 30
0.0
  0
VERTEX
  5
3FA
  8
0
  6
CONTINUOUS
 62
     7
 10
132.460813815294
 20
195.8277556936303
 30
0.0
  0
VERTEX
  5
3FB
  8
0
  6
CONTINUOUS
 62
     7
 10
132.4710155430978
 20
195.8496255834484
 30
0.0
  0
VERTEX
  5
3FC
  8
0
  6
CONTINUOUS
 62
     7
 10
132.4801501550312
 20
195.8719622393231
 30
0.0
  0
VERTEX
  5
3FD
  8
0
  6
CONTINUOUS
 62
     7
 10
132.4881963722961
 20
195.8947136286997
 30
0.0
  0
VERTEX
  5
3FE
  8
0
  6
CONTINUOUS
 62
     7
 10
132.4951354514762
 20
195.9178267529145
 30
0.0
  0
VERTEX
  5
3FF
  8
0
  6
CONTINUOUS
 62
     7
 10
132.5009512281993
 20
195.9412477706538
 30
0.0
  0
VERTEX
  5
400
  8
0
  6
CONTINUOUS
 62
     7
 10
132.5056301547921
 20
195.9649221233753
 30
0.0
  0
VERTEX
  5
401
  8
0
  6
CONTINUOUS
 62
     7
 10
132.5091613318385
 20
195.9887946624004
 30
0.0
  0
VERTEX
  5
402
  8
0
  6
CONTINUOUS
 62
     7
 10
132.51153653357
 20
196.0128097773818
 30
0.0
  0
VERTEX
  5
403
  8
0
  6
CONTINUOUS
 62
     7
 10
132.512750227027
 20
196.0369115258461
 30
0.0
  0
SEQEND
  5
507
  8
0
  6
CONTINUOUS
 62
     7
  0
LINE
  5
1AB
  8
0
  6
CONTINUOUS
 62
     7
 10
167.465092528837
 20
193.7500000000001
 30
0.0
 11
117.534907471163
 21
193.7500000000001
 31
0.0
  0
LINE
  5
1AC
  8
0
  6
CONTINUOUS
 62
     7
 10
117.534907471163
 20
193.7500000000001
 30
0.0
 11
117.5462904769518
 21
195.0543632677492
 31
0.0
  0
LINE
  5
1AD
  8
0
  6
CONTINUOUS
 62
     7
 10
167.465092528837
 20
193.7500000000001
 30
0.0
 11
167.4150972265564
 21
199.4788942011389
 31
0.0
  0
LINE
  5
1AE
  8
0
  6
CONTINUOUS
 62
     7
 10
132.512750227027
 20
196.0369115258461
 30
0.0
 11
132.6028817154047
 21
199.4788942011389
 31
0.0
  0
LINE
  5
1AF
  8
0
  6
CONTINUOUS
 62
     7
 10
157.8406505653398
 20
191.7500000000001
 30
0.0
 11
157.7865863192497
 21
192.7816072695645
 31
0.0
  0
LINE
  5
1B0
  8
0
  6
CONTINUOUS
 62
     7
 10
137.2134136807504
 20
192.7816072695647
 30
0.0
 11
157.7865863192497
 21
192.7816072695647
 31
0.0
  0
LINE
  5
1B1
  8
0
  6
CONTINUOUS
 62
     7
 10
137.2134136807504
 20
192.7816072695645
 30
0.0
 11
137.1593494346603
 21
191.7500000000001
 31
0.0
  0
LINE
  5
1B2
  8
0
  6
CONTINUOUS
 62
     7
 10
117.5174537355815
 20
191.7500000000001
 30
0.0
 11
117.534907471163
 21
193.7500000000001
 31
0.0
  0
LINE
  5
1B3
  8
0
  6
CONTINUOUS
 62
     7
 10
167.465092528837
 20
193.7500000000001
 30
0.0
 11
167.4825462644185
 21
191.7500000000001
 31
0.0
  0
LINE
  5
1B4
  8
0
  6
CONTINUOUS
 62
     7
 10
137.0545338760942
 20
189.75
 30
0.0
 11
117.5
 21
189.7500000000001
 31
0.0
  0
LINE
  5
1B5
  8
0
  6
CONTINUOUS
 62
     7
 10
137.1593494346603
 20
191.7500000000001
 30
0.0
 11
137.0545338760942
 21
189.75
 31
0.0
  0
LINE
  5
1B6
  8
0
  6
CONTINUOUS
 62
     7
 10
117.5
 20
189.7500000000001
 30
0.0
 11
117.5174537355815
 21
191.7500000000001
 31
0.0
  0
LINE
  5
1B7
  8
0
  6
CONTINUOUS
 62
     7
 10
167.5
 20
189.7500000000001
 30
0.0
 11
157.9454661239059
 21
189.75
 31
0.0
  0
LINE
  5
1B8
  8
0
  6
CONTINUOUS
 62
     7
 10
157.8406505653398
 20
191.7500000000001
 30
0.0
 11
157.9454661239059
 21
189.75
 31
0.0
  0
LINE
  5
1B9
  8
0
  6
CONTINUOUS
 62
     7
 10
167.5
 20
189.7500000000001
 30
0.0
 11
167.4825462644185
 21
191.7500000000001
 31
0.0
  0
POLYLINE
  5
1BA
  8
0
  6
CONTINUOUS
 62
     7
 66
     1
 10
0.0
 20
0.0
 30
0.0
  0
VERTEX
  5
404
  8
0
  6
CONTINUOUS
 62
     7
 10
167.4738955519494
 20
192.7412734645017
 30
0.0
  0
VERTEX
  5
405
  8
0
  6
CONTINUOUS
 62
     7
 10
167.4755125202538
 20
192.6924904242253
 30
0.0
  0
VERTEX
  5
406
  8
0
  6
CONTINUOUS
 62
     7
 10
167.4795079451842
 20
192.6438443947395
 30
0.0
  0
VERTEX
  5
407
  8
0
  6
CONTINUOUS
 62
     7
 10
167.4858723080418
 20
192.5954512703259
 30
0.0
  0
VERTEX
  5
408
  8
0
  6
CONTINUOUS
 62
     7
 10
167.494590446371
 20
192.5474263427447
 30
0.0
  0
VERTEX
  5
409
  8
0
  6
CONTINUOUS
 62
     7
 10
167.5056415900826
 20
192.4998840265646
 30
0.0
  0
VERTEX
  5
40A
  8
0
  6
CONTINUOUS
 62
     7
 10
167.5189994109361
 20
192.4529375865809
 30
0.0
  0
VERTEX
  5
40B
  8
0
  6
CONTINUOUS
 62
     7
 10
167.5346320852644
 20
192.4066988679736
 30
0.0
  0
VERTEX
  5
40C
  8
0
  6
CONTINUOUS
 62
     7
 10
167.5525023697903
 20
192.3612780298476
 30
0.0
  0
VERTEX
  5
40D
  8
0
  6
CONTINUOUS
 62
     7
 10
167.5725676903551
 20
192.3167832827899
 30
0.0
  0
VERTEX
  5
40E
  8
0
  6
CONTINUOUS
 62
     7
 10
167.5947802433469
 20
192.2733206310681
 30
0.0
  0
VERTEX
  5
40F
  8
0
  6
CONTINUOUS
 62
     7
 10
167.6190871095883
 20
192.2309936200866
 30
0.0
  0
VERTEX
  5
410
  8
0
  6
CONTINUOUS
 62
     7
 10
167.6454303804107
 20
192.1899030896997
 30
0.0
  0
VERTEX
  5
411
  8
0
  6
CONTINUOUS
 62
     7
 10
167.6737472956162
 20
192.1501469339707
 30
0.0
  0
VERTEX
  5
412
  8
0
  6
CONTINUOUS
 62
     7
 10
167.7039703929971
 20
192.1118198679494
 30
0.0
  0
VERTEX
  5
413
  8
0
  6
CONTINUOUS
 62
     7
 10
167.7360276690581
 20
192.0750132020226
 30
0.0
  0
VERTEX
  5
414
  8
0
  6
CONTINUOUS
 62
     7
 10
167.7698427505576
 20
192.0398146243767
 30
0.0
  0
VERTEX
  5
415
  8
0
  6
CONTINUOUS
 62
     7
 10
167.8053350764585
 20
192.0063079920893
 30
0.0
  0
VERTEX
  5
416
  8
0
  6
CONTINUOUS
 62
     7
 10
167.8424200898577
 20
191.9745731313479
 30
0.0
  0
VERTEX
  5
417
  8
0
  6
CONTINUOUS
 62
     7
 10
167.8810094394341
 20
191.9446856472721
 30
0.0
  0
VERTEX
  5
418
  8
0
  6
CONTINUOUS
 62
     7
 10
167.9210111899362
 20
191.9167167437923
 30
0.0
  0
VERTEX
  5
419
  8
0
  6
CONTINUOUS
 62
     7
 10
167.9623300412096
 20
191.8907330540129
 30
0.0
  0
VERTEX
  5
41A
  8
0
  6
CONTINUOUS
 62
     7
 10
168.0048675552393
 20
191.8667964814664
 30
0.0
  0
VERTEX
  5
41B
  8
0
  6
CONTINUOUS
 62
     7
 10
168.0485223906686
 20
191.8449640526337
 30
0.0
  0
VERTEX
  5
41C
  8
0
  6
CONTINUOUS
 62
     7
 10
168.093190544235
 20
191.8252877810845
 30
0.0
  0
VERTEX
  5
41D
  8
0
  6
CONTINUOUS
 62
     7
 10
168.1387655985469
 20
191.8078145435605
 30
0.0
  0
VERTEX
  5
41E
  8
0
  6
CONTINUOUS
 62
     7
 10
168.1851389756129
 20
191.7925859682959
 30
0.0
  0
VERTEX
  5
41F
  8
0
  6
CONTINUOUS
 62
     7
 10
168.2322001955179
 20
191.7796383358424
 30
0.0
  0
VERTEX
  5
420
  8
0
  6
CONTINUOUS
 62
     7
 10
168.2798371396302
 20
191.7690024926343
 30
0.0
  0
VERTEX
  5
421
  8
0
  6
CONTINUOUS
 62
     7
 10
168.3279363177129
 20
191.7607037775004
 30
0.0
  0
VERTEX
  5
422
  8
0
  6
CONTINUOUS
 62
     7
 10
168.3763831383031
 20
191.7547619612963
 30
0.0
  0
VERTEX
  5
423
  8
0
  6
CONTINUOUS
 62
     7
 10
168.4250621817145
 20
191.7511911998026
 30
0.0
  0
VERTEX
  5
424
  8
0
  6
CONTINUOUS
 62
     7
 10
168.4738574750135
 20
191.75
 30
0.0
  0
SEQEND
  5
508
  8
0
  6
CONTINUOUS
 62
     7
  0
LINE
  5
1BB
  8
0
  6
CONTINUOUS
 62
     7
 10
168.4738574750135
 20
191.75
 30
0.0
 11
168.4825081874827
 21
191.75
 31
0.0
  0
LINE
  5
1BC
  8
0
  6
CONTINUOUS
 62
     7
 10
168.4999619230642
 20
189.7500000000001
 30
0.0
 11
167.5
 21
189.7500000000001
 31
0.0
  0
LINE
  5
1BD
  8
0
  6
CONTINUOUS
 62
     7
 10
182.4825462644185
 20
191.75
 30
0.0
 11
181.4825843413543
 21
191.75
 31
0.0
  0
LINE
  5
1BE
  8
0
  6
CONTINUOUS
 62
     7
 10
182.5
 20
189.7500000000001
 30
0.0
 11
182.4825462644185
 21
191.75
 31
0.0
  0
LINE
  5
1BF
  8
0
  6
CONTINUOUS
 62
     7
 10
181.5000380769358
 20
189.7500000000001
 30
0.0
 11
182.5
 21
189.7500000000001
 31
0.0
  0
LINE
  5
1C0
  8
0
  6
CONTINUOUS
 62
     7
 10
168.4825081874827
 20
191.75
 30
0.0
 11
181.4825843413543
 21
191.75
 31
0.0
  0
LINE
  5
1C1
  8
0
  6
CONTINUOUS
 62
     7
 10
168.4999619230642
 20
189.7500000000001
 30
0.0
 11
181.5000380769358
 21
189.7500000000001
 31
0.0
  0
LINE
  5
1C2
  8
0
  6
CONTINUOUS
 62
     7
 10
157.9454661239059
 20
189.75
 30
0.0
 11
137.0545338760942
 21
189.75
 31
0.0
  0
LINE
  5
1C3
  8
0
  6
CONTINUOUS
 62
     7
 10
130.9626286166373
 20
196.0369115258461
 30
0.0
 11
130.9371106648604
 21
195.55
 31
0.0
  0
LINE
  5
1C4
  8
0
  6
CONTINUOUS
 62
     7
 10
117.5462904769518
 20
195.0543632677492
 30
0.0
 11
117.5547889019755
 21
196.0281863194413
 31
0.0
  0
LINE
  5
1C5
  8
0
  6
CONTINUOUS
 62
     7
 10
131.0
 20
196.75
 30
0.0
 11
131.0
 21
198.75
 31
0.0
  0
LINE
  5
1C6
  8
0
  6
CONTINUOUS
 62
     7
 10
132.5837949490214
 20
198.75
 30
0.0
 11
131.0
 21
198.75
 31
0.0
  0
LINE
  5
1C7
  8
0
  6
CONTINUOUS
 62
     7
 10
132.5314231058831
 20
196.75
 30
0.0
 11
131.0
 21
196.75
 31
0.0
  0
LINE
  5
1C8
  8
0
  6
CONTINUOUS
 62
     7
 10
117.5895596447353
 20
200.0125187962724
 30
0.0
 11
117.5547889019755
 21
196.0281863194413
 31
0.0
  0
LINE
  5
1C9
  8
0
  6
CONTINUOUS
 62
     7
 10
130.9825462644185
 20
198.75
 30
0.0
 11
130.9714522860774
 21
200.0212440026772
 31
0.0
  0
LINE
  5
1CA
  8
0
  6
CONTINUOUS
 62
     7
 10
130.9825462644185
 20
198.75
 30
0.0
 11
131.0
 21
198.75
 31
0.0
  0
LINE
  5
1CB
  8
0
  6
CONTINUOUS
 62
     7
 10
130.9626286166373
 20
196.0369115258461
 30
0.0
 11
131.0
 21
196.75
 31
0.0
  0
LINE
  5
1CC
  8
0
  6
CONTINUOUS
 62
     7
 10
130.9672030735655
 20
200.5081555285232
 30
0.0
 11
130.9714522860774
 21
200.0212440026772
 31
0.0
  0
LINE
  5
1CD
  8
0
  6
CONTINUOUS
 62
     7
 10
132.5183301450984
 20
196.25
 30
0.0
 11
130.9737961103585
 21
196.25
 31
0.0
  0
LINE
  5
1CE
  8
0
  6
CONTINUOUS
 62
     7
 10
167.5
 20
249.9881939662772
 30
0.0
 11
137.5
 21
250.25
 31
0.0
  0
ARC
  5
1CF
  8
0
  6
CONTINUOUS
 62
     7
 10
118.0895406062673
 20
200.0081555285232
 30
0.0
 40
0.5000000000000004
 50
90.0
 51
179.4999999999999
  0
LINE
  5
1D0
  8
0
  6
CONTINUOUS
 62
     7
 10
130.9672030735655
 20
200.5081555285232
 30
0.0
 11
118.0895406062673
 21
200.5081555285232
 31
0.0
  0
ENDBLK
  8
0
  0
BLOCK
  8
0
  2
D_FRAME_VIEW_3723
 70
     0
 10
0.0
 20
0.0
 30
0.0
  0
LINE
  5
1DB
  8
0
  6
CONTINUOUS
 62
     7
 10
86.76681174054681
 20
200.9526601609953
 30
0.0
 11
86.4845563185296
 21
200.8494896627536
 31
0.0
  0
POLYLINE
  5
1DC
  8
0
  6
CONTINUOUS
 62
     7
 66
     1
 10
0.0
 20
0.0
 30
0.0
  0
VERTEX
  5
427
  8
0
  6
CONTINUOUS
 62
     7
 10
86.4845563185296
 20
200.8494896627536
 30
0.0
  0
VERTEX
  5
428
  8
0
  6
CONTINUOUS
 62
     7
 10
86.39303838276889
 20
200.8368066671462
 30
0.0
  0
VERTEX
  5
429
  8
0
  6
CONTINUOUS
 62
     7
 10
86.30541764945441
 20
200.807501654892
 30
0.0
  0
VERTEX
  5
42A
  8
0
  6
CONTINUOUS
 62
     7
 10
86.22468581205835
 20
200.7625752066817
 30
0.0
  0
VERTEX
  5
42B
  8
0
  6
CONTINUOUS
 62
     7
 10
86.15359935185862
 20
200.7035612763726
 30
0.0
  0
SEQEND
  5
509
  8
0
  6
CONTINUOUS
 62
     7
  0
LINE
  5
1DD
  8
0
  6
CONTINUOUS
 62
     7
 10
86.15359935185859
 20
200.7035612763726
 30
0.0
 11
85.3
 21
199.849961924514
 31
0.0
  0
LINE
  5
1DE
  8
0
  6
CONTINUOUS
 62
     7
 10
85.3
 20
199.849961924514
 30
0.0
 11
85.3
 21
198.05
 31
0.0
  0
LINE
  5
1DF
  8
0
  6
CONTINUOUS
 62
     7
 10
85.3
 20
198.05
 30
0.0
 11
87.8000190384679
 21
198.05
 31
0.0
  0
POLYLINE
  5
1E0
  8
0
  6
CONTINUOUS
 62
     7
 66
     1
 10
0.0
 20
0.0
 30
0.0
  0
VERTEX
  5
42C
  8
0
  6
CONTINUOUS
 62
     7
 10
88.30000000000001
 20
197.550019038468
 30
0.0
  0
VERTEX
  5
42D
  8
0
  6
CONTINUOUS
 62
     7
 10
88.29039320291955
 20
197.647562513719
 30
0.0
  0
VERTEX
  5
42E
  8
0
  6
CONTINUOUS
 62
     7
 10
88.26194195982217
 20
197.7413563470399
 30
0.0
  0
VERTEX
  5
42F
  8
0
  6
CONTINUOUS
 62
     7
 10
88.2157395303548
 20
197.8277964423723
 30
0.0
  0
VERTEX
  5
430
  8
0
  6
CONTINUOUS
 62
     7
 10
88.15356127637259
 20
197.9035612763726
 30
0.0
  0
VERTEX
  5
431
  8
0
  6
CONTINUOUS
 62
     7
 10
88.07779644237229
 20
197.9657395303548
 30
0.0
  0
VERTEX
  5
432
  8
0
  6
CONTINUOUS
 62
     7
 10
87.99135634703987
 20
198.0119419598222
 30
0.0
  0
VERTEX
  5
433
  8
0
  6
CONTINUOUS
 62
     7
 10
87.89756251371898
 20
198.0403932029196
 30
0.0
  0
VERTEX
  5
434
  8
0
  6
CONTINUOUS
 62
     7
 10
87.80001903846792
 20
198.0500000000001
 30
0.0
  0
SEQEND
  5
50A
  8
0
  6
CONTINUOUS
 62
     7
  0
LINE
  5
1E1
  8
0
  6
CONTINUOUS
 62
     7
 10
88.29999999999998
 20
197.550019038468
 30
0.0
 11
88.29999999999998
 21
195.6406273434957
 31
0.0
  0
LINE
  5
1E2
  8
0
  6
CONTINUOUS
 62
     7
 10
82.49999999999999
 20
197.0500571132291
 30
0.0
 11
82.49999999999999
 21
200.0344269616499
 31
0.0
  0
ARC
  5
1E3
  8
0
  6
CONTINUOUS
 62
     7
 10
69.99999999999999
 20
222.75
 30
0.0
 40
24.5
 50
304.3075257280698
 51
235.6924742719302
  0
LINE
  5
1E4
  8
0
  6
CONTINUOUS
 62
     7
 10
57.49999999999999
 20
197.0500571132291
 30
0.0
 11
57.49999999999999
 21
200.0344269616499
 31
0.0
  0
LINE
  5
1E5
  8
0
  6
CONTINUOUS
 62
     7
 10
51.7
 20
197.550019038468
 30
0.0
 11
51.7
 21
195.6406273434957
 31
0.0
  0
POLYLINE
  5
1E6
  8
0
  6
CONTINUOUS
 62
     7
 66
     1
 10
0.0
 20
0.0
 30
0.0
  0
VERTEX
  5
435
  8
0
  6
CONTINUOUS
 62
     7
 10
52.19998096153207
 20
198.0500000000001
 30
0.0
  0
VERTEX
  5
436
  8
0
  6
CONTINUOUS
 62
     7
 10
52.10243748628102
 20
198.0403932029196
 30
0.0
  0
VERTEX
  5
437
  8
0
  6
CONTINUOUS
 62
     7
 10
52.00864365296013
 20
198.0119419598222
 30
0.0
  0
VERTEX
  5
438
  8
0
  6
CONTINUOUS
 62
     7
 10
51.92220355762771
 20
197.9657395303548
 30
0.0
  0
VERTEX
  5
439
  8
0
  6
CONTINUOUS
 62
     7
 10
51.84643872362741
 20
197.9035612763726
 30
0.0
  0
VERTEX
  5
43A
  8
0
  6
CONTINUOUS
 62
     7
 10
51.7842604696452
 20
197.8277964423723
 30
0.0
  0
VERTEX
  5
43B
  8
0
  6
CONTINUOUS
 62
     7
 10
51.73805804017783
 20
197.7413563470399
 30
0.0
  0
VERTEX
  5
43C
  8
0
  6
CONTINUOUS
 62
     7
 10
51.70960679708045
 20
197.647562513719
 30
0.0
  0
VERTEX
  5
43D
  8
0
  6
CONTINUOUS
 62
     7
 10
51.69999999999998
 20
197.550019038468
 30
0.0
  0
SEQEND
  5
50B
  8
0
  6
CONTINUOUS
 62
     7
  0
LINE
  5
1E7
  8
0
  6
CONTINUOUS
 62
     7
 10
54.69999999999999
 20
198.05
 30
0.0
 11
52.19998096153208
 21
198.05
 31
0.0
  0
LINE
  5
1E8
  8
0
  6
CONTINUOUS
 62
     7
 10
53.84640064814138
 20
200.7035612763726
 30
0.0
 11
54.69999999999999
 21
199.849961924514
 31
0.0
  0
POLYLINE
  5
1E9
  8
0
  6
CONTINUOUS
 62
     7
 66
     1
 10
0.0
 20
0.0
 30
0.0
  0
VERTEX
  5
43E
  8
0
  6
CONTINUOUS
 62
     7
 10
53.84640064814138
 20
200.7035612763726
 30
0.0
  0
VERTEX
  5
43F
  8
0
  6
CONTINUOUS
 62
     7
 10
53.77531418794165
 20
200.7625752066817
 30
0.0
  0
VERTEX
  5
440
  8
0
  6
CONTINUOUS
 62
     7
 10
53.69458235054559
 20
200.807501654892
 30
0.0
  0
VERTEX
  5
441
  8
0
  6
CONTINUOUS
 62
     7
 10
53.6069616172311
 20
200.8368066671462
 30
0.0
  0
VERTEX
  5
442
  8
0
  6
CONTINUOUS
 62
     7
 10
53.51544368147039
 20
200.8494896627536
 30
0.0
  0
SEQEND
  5
50C
  8
0
  6
CONTINUOUS
 62
     7
  0
LINE
  5
1EA
  8
0
  6
CONTINUOUS
 62
     7
 10
53.23318825945316
 20
200.9526601609953
 30
0.0
 11
53.51544368147039
 21
200.8494896627536
 31
0.0
  0
ARC
  5
1EB
  8
0
  6
CONTINUOUS
 62
     7
 10
69.99999999999999
 20
222.75
 30
0.0
 40
27.5
 50
307.5679764609304
 51
232.4320235390697
  0
LINE
  5
1EC
  8
0
  6
CONTINUOUS
 62
     7
 10
55.99994288677095
 20
195.55
 30
0.0
 11
57.49999999999999
 21
197.0500571132291
 31
0.0
  0
LINE
  5
1ED
  8
0
  6
CONTINUOUS
 62
     7
 10
54.69999999999999
 20
199.849961924514
 30
0.0
 11
54.69999999999999
 21
198.05
 31
0.0
  0
LINE
  5
1EE
  8
0
  6
CONTINUOUS
 62
     7
 10
84.00005711322903
 20
195.55
 30
0.0
 11
82.49999999999999
 21
197.0500571132291
 31
0.0
  0
ARC
  5
1EF
  8
0
  6
CONTINUOUS
 62
     7
 10
54.50005214049317
 20
200.0343941610786
 30
0.0
 40
2.999947859686146
 50
0.000626455654132
 51
55.6918478162766
  0
ARC
  5
1F0
  8
0
  6
CONTINUOUS
 62
     7
 10
85.49994785950676
 20
200.0343941610786
 30
0.0
 40
2.99994785968609
 50
124.3081521837229
 51
179.9993735443464
  0
LINE
  5
1F1
  8
0
  6
CONTINUOUS
 62
     7
 10
53.53316209760489
 20
193.55
 30
0.0
 11
59.46683790239512
 21
193.55
 31
0.0
  0
LINE
  5
1F2
  8
0
  6
CONTINUOUS
 62
     7
 10
53.50000000000001
 20
189.7500000000001
 30
0.0
 11
53.53316209760489
 21
193.55
 31
0.0
  0
ARC
  5
1F3
  8
0
  6
CONTINUOUS
 62
     7
 10
49.49999999999996
 20
191.7500000000001
 30
0.0
 40
2.0
 50
0.0
 51
90.0
  0
LINE
  5
1F4
  8
0
  6
CONTINUOUS
 62
     7
 10
49.49999999999996
 20
193.7500000000001
 30
0.0
 11
48.81444667569821
 21
193.7500000000001
 31
0.0
  0
LINE
  5
1F5
  8
0
  6
CONTINUOUS
 62
     7
 10
48.81444667569821
 20
193.7500000000001
 30
0.0
 11
48.74608789345711
 21
195.0543632677492
 31
0.0
  0
LINE
  5
1F6
  8
0
  6
CONTINUOUS
 62
     7
 10
91.18555332430181
 20
193.7500000000001
 30
0.0
 11
91.2539121065429
 21
195.0543632677492
 31
0.0
  0
LINE
  5
1F7
  8
0
  6
CONTINUOUS
 62
     7
 10
90.50000000000006
 20
193.7500000000001
 30
0.0
 11
91.18555332430181
 21
193.7500000000001
 31
0.0
  0
ARC
  5
1F8
  8
0
  6
CONTINUOUS
 62
     7
 10
90.50000000000006
 20
191.7500000000001
 30
0.0
 40
1.999999999999996
 50
90.0
 51
180.0
  0
LINE
  5
1F9
  8
0
  6
CONTINUOUS
 62
     7
 10
86.46683790239511
 20
193.55
 30
0.0
 11
80.53316209760489
 21
193.55
 31
0.0
  0
LINE
  5
1FA
  8
0
  6
CONTINUOUS
 62
     7
 10
80.53316209760489
 20
193.55
 30
0.0
 11
80.5
 21
189.7500000000001
 31
0.0
  0
LINE
  5
1FB
  8
0
  6
CONTINUOUS
 62
     7
 10
80.5
 20
189.7500000000001
 30
0.0
 11
59.49999999999999
 21
189.7500000000001
 31
0.0
  0
LINE
  5
1FC
  8
0
  6
CONTINUOUS
 62
     7
 10
86.5
 20
189.7500000000001
 30
0.0
 11
88.50000000000004
 21
189.7500000000001
 31
0.0
  0
LINE
  5
1FD
  8
0
  6
CONTINUOUS
 62
     7
 10
53.50000000000001
 20
189.7500000000001
 30
0.0
 11
51.49999999999996
 21
189.7500000000001
 31
0.0
  0
LINE
  5
1FE
  8
0
  6
CONTINUOUS
 62
     7
 10
51.49999999999996
 20
189.7500000000001
 30
0.0
 11
51.49999999999996
 21
191.7500000000001
 31
0.0
  0
LINE
  5
1FF
  8
0
  6
CONTINUOUS
 62
     7
 10
59.46683790239512
 20
193.55
 30
0.0
 11
59.49999999999999
 21
189.7500000000001
 31
0.0
  0
LINE
  5
200
  8
0
  6
CONTINUOUS
 62
     7
 10
88.50000000000004
 20
189.7500000000001
 30
0.0
 11
88.50000000000004
 21
191.7500000000001
 31
0.0
  0
LINE
  5
201
  8
0
  6
CONTINUOUS
 62
     7
 10
86.5
 20
189.7500000000001
 30
0.0
 11
86.46683790239511
 21
193.55
 31
0.0
  0
LINE
  5
202
  8
0
  6
CONTINUOUS
 62
     7
 10
48.72011267298874
 20
195.55
 30
0.0
 11
58.51292156453918
 21
195.55
 31
0.0
  0
LINE
  5
203
  8
0
  6
CONTINUOUS
 62
     7
 10
48.74608789345711
 20
195.0543632677492
 30
0.0
 11
48.72011267298874
 21
195.55
 31
0.0
  0
POLYLINE
  5
204
  8
0
  6
CONTINUOUS
 62
     7
 66
     1
 10
0.0
 20
0.0
 30
0.0
  0
VERTEX
  5
443
  8
0
  6
CONTINUOUS
 62
     7
 10
58.51292156453918
 20
195.55
 30
0.0
  0
VERTEX
  5
444
  8
0
  6
CONTINUOUS
 62
     7
 10
58.53704682472701
 20
195.5505823673308
 30
0.0
  0
VERTEX
  5
445
  8
0
  6
CONTINUOUS
 62
     7
 10
58.56111588586132
 20
195.5523281127165
 30
0.0
  0
VERTEX
  5
446
  8
0
  6
CONTINUOUS
 62
     7
 10
58.58507267980255
 20
195.5552331694967
 30
0.0
  0
VERTEX
  5
447
  8
0
  6
CONTINUOUS
 62
     7
 10
58.60886139993413
 20
195.5592907704308
 30
0.0
  0
VERTEX
  5
448
  8
0
  6
CONTINUOUS
 62
     7
 10
58.63242663116226
 20
195.5644914634618
 30
0.0
  0
VERTEX
  5
449
  8
0
  6
CONTINUOUS
 62
     7
 10
58.65571347900372
 20
195.570823133735
 30
0.0
  0
VERTEX
  5
44A
  8
0
  6
CONTINUOUS
 62
     7
 10
58.6786676974608
 20
195.5782710318185
 30
0.0
  0
VERTEX
  5
44B
  8
0
  6
CONTINUOUS
 62
     7
 10
58.70123581538579
 20
195.5868178080624
 30
0.0
  0
VERTEX
  5
44C
  8
0
  6
CONTINUOUS
 62
     7
 10
58.72336526104026
 20
195.5964435530136
 30
0.0
  0
VERTEX
  5
44D
  8
0
  6
CONTINUOUS
 62
     7
 10
58.74500448455945
 20
195.6071258437943
 30
0.0
  0
VERTEX
  5
44E
  8
0
  6
CONTINUOUS
 62
     7
 10
58.76610307803598
 20
195.6188397963361
 30
0.0
  0
VERTEX
  5
44F
  8
0
  6
CONTINUOUS
 62
     7
 10
58.78661189294358
 20
195.6315581233458
 30
0.0
  0
VERTEX
  5
450
  8
0
  6
CONTINUOUS
 62
     7
 10
58.80648315462705
 20
195.6452511978707
 30
0.0
  0
VERTEX
  5
451
  8
0
  6
CONTINUOUS
 62
     7
 10
58.82567057359191
 20
195.6598871223139
 30
0.0
  0
VERTEX
  5
452
  8
0
  6
CONTINUOUS
 62
     7
 10
58.84412945333426
 20
195.6754318027383
 30
0.0
  0
VERTEX
  5
453
  8
0
  6
CONTINUOUS
 62
     7
 10
58.86181679446001
 20
195.6918490282876
 30
0.0
  0
VERTEX
  5
454
  8
0
  6
CONTINUOUS
 62
     7
 10
58.87869139485061
 20
195.7091005555388
 30
0.0
  0
VERTEX
  5
455
  8
0
  6
CONTINUOUS
 62
     7
 10
58.89471394564207
 20
195.7271461975882
 30
0.0
  0
VERTEX
  5
456
  8
0
  6
CONTINUOUS
 62
     7
 10
58.90984712279387
 20
195.7459439176662
 30
0.0
  0
VERTEX
  5
457
  8
0
  6
CONTINUOUS
 62
     7
 10
58.92405567403407
 20
195.7654499270605
 30
0.0
  0
VERTEX
  5
458
  8
0
  6
CONTINUOUS
 62
     7
 10
58.9373065009784
 20
195.7856187871208
 30
0.0
  0
VERTEX
  5
459
  8
0
  6
CONTINUOUS
 62
     7
 10
58.949568736232
 20
195.8064035151061
 30
0.0
  0
VERTEX
  5
45A
  8
0
  6
CONTINUOUS
 62
     7
 10
58.96081381529402
 20
195.8277556936303
 30
0.0
  0
VERTEX
  5
45B
  8
0
  6
CONTINUOUS
 62
     7
 10
58.97101554309774
 20
195.8496255834484
 30
0.0
  0
VERTEX
  5
45C
  8
0
  6
CONTINUOUS
 62
     7
 10
58.9801501550312
 20
195.8719622393231
 30
0.0
  0
VERTEX
  5
45D
  8
0
  6
CONTINUOUS
 62
     7
 10
58.9881963722961
 20
195.8947136286997
 30
0.0
  0
VERTEX
  5
45E
  8
0
  6
CONTINUOUS
 62
     7
 10
58.99513545147617
 20
195.9178267529145
 30
0.0
  0
VERTEX
  5
45F
  8
0
  6
CONTINUOUS
 62
     7
 10
59.00095122819933
 20
195.9412477706539
 30
0.0
  0
VERTEX
  5
460
  8
0
  6
CONTINUOUS
 62
     7
 10
59.00563015479211
 20
195.9649221233753
 30
0.0
  0
VERTEX
  5
461
  8
0
  6
CONTINUOUS
 62
     7
 10
59.00916133183853
 20
195.9887946624004
 30
0.0
  0
VERTEX
  5
462
  8
0
  6
CONTINUOUS
 62
     7
 10
59.01153653357
 20
196.0128097773818
 30
0.0
  0
VERTEX
  5
463
  8
0
  6
CONTINUOUS
 62
     7
 10
59.01275022702696
 20
196.0369115258461
 30
0.0
  0
SEQEND
  5
50D
  8
0
  6
CONTINUOUS
 62
     7
  0
LINE
  5
205
  8
0
  6
CONTINUOUS
 62
     7
 10
91.27988732701127
 20
195.55
 30
0.0
 11
81.48707843546082
 21
195.55
 31
0.0
  0
LINE
  5
206
  8
0
  6
CONTINUOUS
 62
     7
 10
91.2539121065429
 20
195.0543632677492
 30
0.0
 11
91.27988732701127
 21
195.55
 31
0.0
  0
POLYLINE
  5
207
  8
0
  6
CONTINUOUS
 62
     7
 66
     1
 10
0.0
 20
0.0
 30
0.0
  0
VERTEX
  5
464
  8
0
  6
CONTINUOUS
 62
     7
 10
81.48707843546082
 20
195.55
 30
0.0
  0
VERTEX
  5
465
  8
0
  6
CONTINUOUS
 62
     7
 10
81.462953175273
 20
195.5505823673308
 30
0.0
  0
VERTEX
  5
466
  8
0
  6
CONTINUOUS
 62
     7
 10
81.43888411413869
 20
195.5523281127165
 30
0.0
  0
VERTEX
  5
467
  8
0
  6
CONTINUOUS
 62
     7
 10
81.41492732019745
 20
195.5552331694967
 30
0.0
  0
VERTEX
  5
468
  8
0
  6
CONTINUOUS
 62
     7
 10
81.39113860006587
 20
195.5592907704308
 30
0.0
  0
VERTEX
  5
469
  8
0
  6
CONTINUOUS
 62
     7
 10
81.36757336883774
 20
195.5644914634618
 30
0.0
  0
VERTEX
  5
46A
  8
0
  6
CONTINUOUS
 62
     7
 10
81.34428652099629
 20
195.570823133735
 30
0.0
  0
VERTEX
  5
46B
  8
0
  6
CONTINUOUS
 62
     7
 10
81.32133230253919
 20
195.5782710318185
 30
0.0
  0
VERTEX
  5
46C
  8
0
  6
CONTINUOUS
 62
     7
 10
81.29876418461421
 20
195.5868178080624
 30
0.0
  0
VERTEX
  5
46D
  8
0
  6
CONTINUOUS
 62
     7
 10
81.27663473895974
 20
195.5964435530135
 30
0.0
  0
VERTEX
  5
46E
  8
0
  6
CONTINUOUS
 62
     7
 10
81.25499551544054
 20
195.6071258437943
 30
0.0
  0
VERTEX
  5
46F
  8
0
  6
CONTINUOUS
 62
     7
 10
81.23389692196402
 20
195.6188397963361
 30
0.0
  0
VERTEX
  5
470
  8
0
  6
CONTINUOUS
 62
     7
 10
81.21338810705643
 20
195.6315581233458
 30
0.0
  0
VERTEX
  5
471
  8
0
  6
CONTINUOUS
 62
     7
 10
81.19351684537294
 20
195.6452511978707
 30
0.0
  0
VERTEX
  5
472
  8
0
  6
CONTINUOUS
 62
     7
 10
81.1743294264081
 20
195.6598871223138
 30
0.0
  0
VERTEX
  5
473
  8
0
  6
CONTINUOUS
 62
     7
 10
81.15587054666574
 20
195.6754318027382
 30
0.0
  0
VERTEX
  5
474
  8
0
  6
CONTINUOUS
 62
     7
 10
81.13818320553999
 20
195.6918490282876
 30
0.0
  0
VERTEX
  5
475
  8
0
  6
CONTINUOUS
 62
     7
 10
81.1213086051494
 20
195.7091005555388
 30
0.0
  0
VERTEX
  5
476
  8
0
  6
CONTINUOUS
 62
     7
 10
81.10528605435793
 20
195.7271461975881
 30
0.0
  0
VERTEX
  5
477
  8
0
  6
CONTINUOUS
 62
     7
 10
81.09015287720612
 20
195.7459439176661
 30
0.0
  0
VERTEX
  5
478
  8
0
  6
CONTINUOUS
 62
     7
 10
81.07594432596593
 20
195.7654499270605
 30
0.0
  0
VERTEX
  5
479
  8
0
  6
CONTINUOUS
 62
     7
 10
81.0626934990216
 20
195.7856187871208
 30
0.0
  0
VERTEX
  5
47A
  8
0
  6
CONTINUOUS
 62
     7
 10
81.050431263768
 20
195.8064035151061
 30
0.0
  0
VERTEX
  5
47B
  8
0
  6
CONTINUOUS
 62
     7
 10
81.03918618470597
 20
195.8277556936303
 30
0.0
  0
VERTEX
  5
47C
  8
0
  6
CONTINUOUS
 62
     7
 10
81.02898445690226
 20
195.8496255834484
 30
0.0
  0
VERTEX
  5
47D
  8
0
  6
CONTINUOUS
 62
     7
 10
81.0198498449688
 20
195.8719622393231
 30
0.0
  0
VERTEX
  5
47E
  8
0
  6
CONTINUOUS
 62
     7
 10
81.0118036277039
 20
195.8947136286997
 30
0.0
  0
VERTEX
  5
47F
  8
0
  6
CONTINUOUS
 62
     7
 10
81.00486454852383
 20
195.9178267529145
 30
0.0
  0
VERTEX
  5
480
  8
0
  6
CONTINUOUS
 62
     7
 10
80.99904877180067
 20
195.9412477706538
 30
0.0
  0
VERTEX
  5
481
  8
0
  6
CONTINUOUS
 62
     7
 10
80.9943698452079
 20
195.9649221233753
 30
0.0
  0
VERTEX
  5
482
  8
0
  6
CONTINUOUS
 62
     7
 10
80.99083866816146
 20
195.9887946624004
 30
0.0
  0
VERTEX
  5
483
  8
0
  6
CONTINUOUS
 62
     7
 10
80.98846346643
 20
196.0128097773818
 30
0.0
  0
VERTEX
  5
484
  8
0
  6
CONTINUOUS
 62
     7
 10
80.98724977297304
 20
196.0369115258461
 30
0.0
  0
SEQEND
  5
50E
  8
0
  6
CONTINUOUS
 62
     7
  0
LINE
  5
208
  8
0
  6
CONTINUOUS
 62
     7
 10
59.01275022702696
 20
196.0369115258461
 30
0.0
 11
59.11708364477082
 21
200.0212440026772
 31
0.0
  0
LINE
  5
209
  8
0
  6
CONTINUOUS
 62
     7
 10
80.98724977297304
 20
196.0369115258461
 30
0.0
 11
80.88291635522917
 21
200.0212440026772
 31
0.0
  0
ARC
  5
20A
  8
0
  6
CONTINUOUS
 62
     7
 10
69.99999999999994
 20
222.7500000000001
 30
0.0
 40
24.49999999999999
 50
245.4603090453809
 51
294.5396909546193
  0
ARC
  5
20B
  8
0
  6
CONTINUOUS
 62
     7
 10
59.6169123072586
 20
200.0081555285232
 30
0.0
 40
0.500000000000002
 50
65.46030904538111
 51
178.5
  0
ARC
  5
20C
  8
0
  6
CONTINUOUS
 62
     7
 10
80.3830876927414
 20
200.0081555285232
 30
0.0
 40
0.5000000000000027
 50
1.499999999999956
 51
114.539690954619
  0
LINE
  5
20D
  8
0
  6
CONTINUOUS
 62
     7
 10
59.03142310588304
 20
196.75
 30
0.0
 11
59.01047224134891
 21
196.75
 31
0.0
  0
LINE
  5
20E
  8
0
  6
CONTINUOUS
 62
     7
 10
59.01047224134891
 20
196.75
 30
0.0
 11
59.02792597693042
 21
198.75
 31
0.0
  0
LINE
  5
20F
  8
0
  6
CONTINUOUS
 62
     7
 10
59.02792597693042
 20
198.75
 30
0.0
 11
59.08379494902142
 21
198.75
 31
0.0
  0
LINE
  5
210
  8
0
  6
CONTINUOUS
 62
     7
 10
80.98952775865109
 20
196.75
 30
0.0
 11
80.97207402306958
 21
198.75
 31
0.0
  0
LINE
  5
211
  8
0
  6
CONTINUOUS
 62
     7
 10
80.96857689411696
 20
196.75
 30
0.0
 11
80.98952775865109
 21
196.75
 31
0.0
  0
LINE
  5
212
  8
0
  6
CONTINUOUS
 62
     7
 10
80.97207402306958
 20
198.75
 30
0.0
 11
80.91620505097859
 21
198.75
 31
0.0
  0
POLYLINE
  5
213
  8
0
  6
CONTINUOUS
 62
     7
 66
     1
 10
0.0
 20
0.0
 30
0.0
  0
VERTEX
  5
485
  8
0
  6
CONTINUOUS
 62
     7
 10
51.48724977297309
 20
196.0369115258461
 30
0.0
  0
VERTEX
  5
486
  8
0
  6
CONTINUOUS
 62
     7
 10
51.48846346643005
 20
196.0128097773818
 30
0.0
  0
VERTEX
  5
487
  8
0
  6
CONTINUOUS
 62
     7
 10
51.49083866816152
 20
195.9887946624004
 30
0.0
  0
VERTEX
  5
488
  8
0
  6
CONTINUOUS
 62
     7
 10
51.49436984520794
 20
195.9649221233753
 30
0.0
  0
VERTEX
  5
489
  8
0
  6
CONTINUOUS
 62
     7
 10
51.49904877180071
 20
195.9412477706539
 30
0.0
  0
VERTEX
  5
48A
  8
0
  6
CONTINUOUS
 62
     7
 10
51.50486454852388
 20
195.9178267529145
 30
0.0
  0
VERTEX
  5
48B
  8
0
  6
CONTINUOUS
 62
     7
 10
51.51180362770395
 20
195.8947136286997
 30
0.0
  0
VERTEX
  5
48C
  8
0
  6
CONTINUOUS
 62
     7
 10
51.51984984496885
 20
195.8719622393231
 30
0.0
  0
VERTEX
  5
48D
  8
0
  6
CONTINUOUS
 62
     7
 10
51.52898445690231
 20
195.8496255834484
 30
0.0
  0
VERTEX
  5
48E
  8
0
  6
CONTINUOUS
 62
     7
 10
51.53918618470601
 20
195.8277556936303
 30
0.0
  0
VERTEX
  5
48F
  8
0
  6
CONTINUOUS
 62
     7
 10
51.55043126376804
 20
195.8064035151061
 30
0.0
  0
VERTEX
  5
490
  8
0
  6
CONTINUOUS
 62
     7
 10
51.56269349902165
 20
195.7856187871208
 30
0.0
  0
VERTEX
  5
491
  8
0
  6
CONTINUOUS
 62
     7
 10
51.57594432596598
 20
195.7654499270605
 30
0.0
  0
VERTEX
  5
492
  8
0
  6
CONTINUOUS
 62
     7
 10
51.59015287720617
 20
195.7459439176662
 30
0.0
  0
VERTEX
  5
493
  8
0
  6
CONTINUOUS
 62
     7
 10
51.60528605435798
 20
195.7271461975882
 30
0.0
  0
VERTEX
  5
494
  8
0
  6
CONTINUOUS
 62
     7
 10
51.62130860514944
 20
195.7091005555388
 30
0.0
  0
VERTEX
  5
495
  8
0
  6
CONTINUOUS
 62
     7
 10
51.63818320554003
 20
195.6918490282877
 30
0.0
  0
VERTEX
  5
496
  8
0
  6
CONTINUOUS
 62
     7
 10
51.65587054666579
 20
195.6754318027383
 30
0.0
  0
VERTEX
  5
497
  8
0
  6
CONTINUOUS
 62
     7
 10
51.67432942640814
 20
195.6598871223139
 30
0.0
  0
VERTEX
  5
498
  8
0
  6
CONTINUOUS
 62
     7
 10
51.693516845373
 20
195.6452511978707
 30
0.0
  0
VERTEX
  5
499
  8
0
  6
CONTINUOUS
 62
     7
 10
51.71338810705647
 20
195.6315581233458
 30
0.0
  0
VERTEX
  5
49A
  8
0
  6
CONTINUOUS
 62
     7
 10
51.73389692196407
 20
195.6188397963361
 30
0.0
  0
VERTEX
  5
49B
  8
0
  6
CONTINUOUS
 62
     7
 10
51.75499551544059
 20
195.6071258437944
 30
0.0
  0
VERTEX
  5
49C
  8
0
  6
CONTINUOUS
 62
     7
 10
51.77663473895979
 20
195.5964435530136
 30
0.0
  0
VERTEX
  5
49D
  8
0
  6
CONTINUOUS
 62
     7
 10
51.79876418461426
 20
195.5868178080624
 30
0.0
  0
VERTEX
  5
49E
  8
0
  6
CONTINUOUS
 62
     7
 10
51.82133230253924
 20
195.5782710318185
 30
0.0
  0
VERTEX
  5
49F
  8
0
  6
CONTINUOUS
 62
     7
 10
51.84428652099633
 20
195.570823133735
 30
0.0
  0
VERTEX
  5
4A0
  8
0
  6
CONTINUOUS
 62
     7
 10
51.86757336883778
 20
195.5644914634618
 30
0.0
  0
VERTEX
  5
4A1
  8
0
  6
CONTINUOUS
 62
     7
 10
51.89113860006591
 20
195.5592907704308
 30
0.0
  0
VERTEX
  5
4A2
  8
0
  6
CONTINUOUS
 62
     7
 10
51.91492732019749
 20
195.5552331694967
 30
0.0
  0
VERTEX
  5
4A3
  8
0
  6
CONTINUOUS
 62
     7
 10
51.93888411413873
 20
195.5523281127165
 30
0.0
  0
VERTEX
  5
4A4
  8
0
  6
CONTINUOUS
 62
     7
 10
51.96295317527304
 20
195.5505823673308
 30
0.0
  0
VERTEX
  5
4A5
  8
0
  6
CONTINUOUS
 62
     7
 10
51.98707843546087
 20
195.55
 30
0.0
  0
SEQEND
  5
50F
  8
0
  6
CONTINUOUS
 62
     7
  0
LINE
  5
214
  8
0
  6
CONTINUOUS
 62
     7
 10
48.69459472121184
 20
196.0369115258461
 30
0.0
 11
48.72011267298874
 21
195.55
 31
0.0
  0
LINE
  5
215
  8
0
  6
CONTINUOUS
 62
     7
 10
91.30540527878817
 20
196.0369115258461
 30
0.0
 11
91.27988732701127
 21
195.55
 31
0.0
  0
POLYLINE
  5
216
  8
0
  6
CONTINUOUS
 62
     7
 66
     1
 10
0.0
 20
0.0
 30
0.0
  0
VERTEX
  5
4A6
  8
0
  6
CONTINUOUS
 62
     7
 10
88.51275022702693
 20
196.0369115258461
 30
0.0
  0
VERTEX
  5
4A7
  8
0
  6
CONTINUOUS
 62
     7
 10
88.51153653356997
 20
196.0128097773818
 30
0.0
  0
VERTEX
  5
4A8
  8
0
  6
CONTINUOUS
 62
     7
 10
88.50916133183848
 20
195.9887946624004
 30
0.0
  0
VERTEX
  5
4A9
  8
0
  6
CONTINUOUS
 62
     7
 10
88.50563015479207
 20
195.9649221233753
 30
0.0
  0
VERTEX
  5
4AA
  8
0
  6
CONTINUOUS
 62
     7
 10
88.50095122819928
 20
195.9412477706538
 30
0.0
  0
VERTEX
  5
4AB
  8
0
  6
CONTINUOUS
 62
     7
 10
88.49513545147613
 20
195.9178267529145
 30
0.0
  0
VERTEX
  5
4AC
  8
0
  6
CONTINUOUS
 62
     7
 10
88.48819637229606
 20
195.8947136286997
 30
0.0
  0
VERTEX
  5
4AD
  8
0
  6
CONTINUOUS
 62
     7
 10
88.48015015503115
 20
195.8719622393231
 30
0.0
  0
VERTEX
  5
4AE
  8
0
  6
CONTINUOUS
 62
     7
 10
88.4710155430977
 20
195.8496255834484
 30
0.0
  0
VERTEX
  5
4AF
  8
0
  6
CONTINUOUS
 62
     7
 10
88.460813815294
 20
195.8277556936303
 30
0.0
  0
VERTEX
  5
4B0
  8
0
  6
CONTINUOUS
 62
     7
 10
88.44956873623197
 20
195.8064035151061
 30
0.0
  0
VERTEX
  5
4B1
  8
0
  6
CONTINUOUS
 62
     7
 10
88.43730650097837
 20
195.7856187871208
 30
0.0
  0
VERTEX
  5
4B2
  8
0
  6
CONTINUOUS
 62
     7
 10
88.42405567403402
 20
195.7654499270605
 30
0.0
  0
VERTEX
  5
4B3
  8
0
  6
CONTINUOUS
 62
     7
 10
88.40984712279385
 20
195.7459439176661
 30
0.0
  0
VERTEX
  5
4B4
  8
0
  6
CONTINUOUS
 62
     7
 10
88.39471394564204
 20
195.7271461975881
 30
0.0
  0
VERTEX
  5
4B5
  8
0
  6
CONTINUOUS
 62
     7
 10
88.37869139485056
 20
195.7091005555388
 30
0.0
  0
VERTEX
  5
4B6
  8
0
  6
CONTINUOUS
 62
     7
 10
88.36181679445998
 20
195.6918490282876
 30
0.0
  0
VERTEX
  5
4B7
  8
0
  6
CONTINUOUS
 62
     7
 10
88.34412945333422
 20
195.6754318027382
 30
0.0
  0
VERTEX
  5
4B8
  8
0
  6
CONTINUOUS
 62
     7
 10
88.32567057359186
 20
195.6598871223138
 30
0.0
  0
VERTEX
  5
4B9
  8
0
  6
CONTINUOUS
 62
     7
 10
88.30648315462702
 20
195.6452511978707
 30
0.0
  0
VERTEX
  5
4BA
  8
0
  6
CONTINUOUS
 62
     7
 10
88.28661189294354
 20
195.6315581233458
 30
0.0
  0
VERTEX
  5
4BB
  8
0
  6
CONTINUOUS
 62
     7
 10
88.26610307803594
 20
195.6188397963361
 30
0.0
  0
VERTEX
  5
4BC
  8
0
  6
CONTINUOUS
 62
     7
 10
88.2450044845594
 20
195.6071258437943
 30
0.0
  0
VERTEX
  5
4BD
  8
0
  6
CONTINUOUS
 62
     7
 10
88.22336526104023
 20
195.5964435530135
 30
0.0
  0
VERTEX
  5
4BE
  8
0
  6
CONTINUOUS
 62
     7
 10
88.20123581538574
 20
195.5868178080624
 30
0.0
  0
VERTEX
  5
4BF
  8
0
  6
CONTINUOUS
 62
     7
 10
88.17866769746077
 20
195.5782710318185
 30
0.0
  0
VERTEX
  5
4C0
  8
0
  6
CONTINUOUS
 62
     7
 10
88.15571347900368
 20
195.570823133735
 30
0.0
  0
VERTEX
  5
4C1
  8
0
  6
CONTINUOUS
 62
     7
 10
88.13242663116222
 20
195.5644914634618
 30
0.0
  0
VERTEX
  5
4C2
  8
0
  6
CONTINUOUS
 62
     7
 10
88.1088613999341
 20
195.5592907704308
 30
0.0
  0
VERTEX
  5
4C3
  8
0
  6
CONTINUOUS
 62
     7
 10
88.08507267980251
 20
195.5552331694967
 30
0.0
  0
VERTEX
  5
4C4
  8
0
  6
CONTINUOUS
 62
     7
 10
88.06111588586128
 20
195.5523281127165
 30
0.0
  0
VERTEX
  5
4C5
  8
0
  6
CONTINUOUS
 62
     7
 10
88.03704682472697
 20
195.5505823673308
 30
0.0
  0
VERTEX
  5
4C6
  8
0
  6
CONTINUOUS
 62
     7
 10
88.01292156453913
 20
195.55
 30
0.0
  0
SEQEND
  5
510
  8
0
  6
CONTINUOUS
 62
     7
  0
LINE
  5
217
  8
0
  6
CONTINUOUS
 62
     7
 10
51.32333059762107
 20
202.2934113294948
 30
0.0
 11
51.32341968977813
 21
202.293329989565
 31
0.0
  0
LINE
  5
218
  8
0
  6
CONTINUOUS
 62
     7
 10
51.32341968977813
 20
202.293329989565
 30
0.0
 11
51.48724977297309
 21
196.0369115258461
 31
0.0
  0
POLYLINE
  5
219
  8
0
  6
CONTINUOUS
 62
     7
 66
     1
 10
0.0
 20
0.0
 30
0.0
  0
VERTEX
  5
4C7
  8
0
  6
CONTINUOUS
 62
     7
 10
48.26489328549174
 20
199.8857389249097
 30
0.0
  0
VERTEX
  5
4C8
  8
0
  6
CONTINUOUS
 62
     7
 10
48.2861140538233
 20
199.8727729999669
 30
0.0
  0
VERTEX
  5
4C9
  8
0
  6
CONTINUOUS
 62
     7
 10
48.3066638911698
 20
199.8587679864634
 30
0.0
  0
VERTEX
  5
4CA
  8
0
  6
CONTINUOUS
 62
     7
 10
48.32649196247647
 20
199.8437585292293
 30
0.0
  0
VERTEX
  5
4CB
  8
0
  6
CONTINUOUS
 62
     7
 10
48.34554921815356
 20
199.8277817578327
 30
0.0
  0
VERTEX
  5
4CC
  8
0
  6
CONTINUOUS
 62
     7
 10
48.36378851541258
 20
199.8108771947298
 30
0.0
  0
VERTEX
  5
4CD
  8
0
  6
CONTINUOUS
 62
     7
 10
48.38116473488543
 20
199.7930866574969
 30
0.0
  0
VERTEX
  5
4CE
  8
0
  6
CONTINUOUS
 62
     7
 10
48.39763489223829
 20
199.7744541553843
 30
0.0
  0
VERTEX
  5
4CF
  8
0
  6
CONTINUOUS
 62
     7
 10
48.41315824450385
 20
199.7550257804487
 30
0.0
  0
VERTEX
  5
4D0
  8
0
  6
CONTINUOUS
 62
     7
 10
48.42769639086902
 20
199.7348495935327
 30
0.0
  0
VERTEX
  5
4D1
  8
0
  6
CONTINUOUS
 62
     7
 10
48.44121336766879
 20
199.7139755053755
 30
0.0
  0
VERTEX
  5
4D2
  8
0
  6
CONTINUOUS
 62
     7
 10
48.4536757373511
 20
199.6924551531454
 30
0.0
  0
VERTEX
  5
4D3
  8
0
  6
CONTINUOUS
 62
     7
 10
48.46505267119284
 20
199.6703417727036
 30
0.0
  0
VERTEX
  5
4D4
  8
0
  6
CONTINUOUS
 62
     7
 10
48.47531602556225
 20
199.6476900669116
 30
0.0
  0
VERTEX
  5
4D5
  8
0
  6
CONTINUOUS
 62
     7
 10
48.4844404115391
 20
199.6245560703103
 30
0.0
  0
VERTEX
  5
4D6
  8
0
  6
CONTINUOUS
 62
     7
 10
48.49240325772033
 20
199.6009970105053
 30
0.0
  0
VERTEX
  5
4D7
  8
0
  6
CONTINUOUS
 62
     7
 10
48.49918486605606
 20
199.5770711665999
 30
0.0
  0
VERTEX
  5
4D8
  8
0
  6
CONTINUOUS
 62
     7
 10
48.50476846057741
 20
199.5528377250279
 30
0.0
  0
VERTEX
  5
4D9
  8
0
  6
CONTINUOUS
 62
     7
 10
48.50914022889608
 20
199.5283566331411
 30
0.0
  0
VERTEX
  5
4DA
  8
0
  6
CONTINUOUS
 62
     7
 10
48.51228935637261
 20
199.503688450915
 30
0.0
  0
VERTEX
  5
4DB
  8
0
  6
CONTINUOUS
 62
     7
 10
48.51420805286903
 20
199.478894201139
 30
0.0
  0
SEQEND
  5
511
  8
0
  6
CONTINUOUS
 62
     7
  0
LINE
  5
21A
  8
0
  6
CONTINUOUS
 62
     7
 10
48.26489328549174
 20
199.8857389249097
 30
0.0
 11
42.99739869464685
 21
202.9269283448889
 31
0.0
  0
LINE
  5
21B
  8
0
  6
CONTINUOUS
 62
     7
 10
48.69459472121184
 20
196.0369115258461
 30
0.0
 11
48.51420805286903
 21
199.478894201139
 31
0.0
  0
LINE
  5
21C
  8
0
  6
CONTINUOUS
 62
     7
 10
91.73510671450826
 20
199.8857389249097
 30
0.0
 11
97.00260130535318
 21
202.9269283448889
 31
0.0
  0
POLYLINE
  5
21D
  8
0
  6
CONTINUOUS
 62
     7
 66
     1
 10
0.0
 20
0.0
 30
0.0
  0
VERTEX
  5
4DC
  8
0
  6
CONTINUOUS
 62
     7
 10
91.73510671450826
 20
199.8857389249097
 30
0.0
  0
VERTEX
  5
4DD
  8
0
  6
CONTINUOUS
 62
     7
 10
91.71388594617672
 20
199.8727729999669
 30
0.0
  0
VERTEX
  5
4DE
  8
0
  6
CONTINUOUS
 62
     7
 10
91.69333610883021
 20
199.8587679864633
 30
0.0
  0
VERTEX
  5
4DF
  8
0
  6
CONTINUOUS
 62
     7
 10
91.67350803752355
 20
199.8437585292293
 30
0.0
  0
VERTEX
  5
4E0
  8
0
  6
CONTINUOUS
 62
     7
 10
91.65445078184645
 20
199.8277817578327
 30
0.0
  0
VERTEX
  5
4E1
  8
0
  6
CONTINUOUS
 62
     7
 10
91.63621148458743
 20
199.8108771947298
 30
0.0
  0
VERTEX
  5
4E2
  8
0
  6
CONTINUOUS
 62
     7
 10
91.61883526511458
 20
199.7930866574969
 30
0.0
  0
VERTEX
  5
4E3
  8
0
  6
CONTINUOUS
 62
     7
 10
91.60236510776173
 20
199.7744541553843
 30
0.0
  0
VERTEX
  5
4E4
  8
0
  6
CONTINUOUS
 62
     7
 10
91.58684175549617
 20
199.7550257804486
 30
0.0
  0
VERTEX
  5
4E5
  8
0
  6
CONTINUOUS
 62
     7
 10
91.57230360913098
 20
199.7348495935327
 30
0.0
  0
VERTEX
  5
4E6
  8
0
  6
CONTINUOUS
 62
     7
 10
91.55878663233123
 20
199.7139755053754
 30
0.0
  0
VERTEX
  5
4E7
  8
0
  6
CONTINUOUS
 62
     7
 10
91.54632426264891
 20
199.6924551531454
 30
0.0
  0
VERTEX
  5
4E8
  8
0
  6
CONTINUOUS
 62
     7
 10
91.53494732880718
 20
199.6703417727036
 30
0.0
  0
VERTEX
  5
4E9
  8
0
  6
CONTINUOUS
 62
     7
 10
91.52468397443776
 20
199.6476900669115
 30
0.0
  0
VERTEX
  5
4EA
  8
0
  6
CONTINUOUS
 62
     7
 10
91.51555958846092
 20
199.6245560703103
 30
0.0
  0
VERTEX
  5
4EB
  8
0
  6
CONTINUOUS
 62
     7
 10
91.50759674227967
 20
199.6009970105052
 30
0.0
  0
VERTEX
  5
4EC
  8
0
  6
CONTINUOUS
 62
     7
 10
91.50081513394395
 20
199.5770711665999
 30
0.0
  0
VERTEX
  5
4ED
  8
0
  6
CONTINUOUS
 62
     7
 10
91.4952315394226
 20
199.5528377250279
 30
0.0
  0
VERTEX
  5
4EE
  8
0
  6
CONTINUOUS
 62
     7
 10
91.49085977110394
 20
199.528356633141
 30
0.0
  0
VERTEX
  5
4EF
  8
0
  6
CONTINUOUS
 62
     7
 10
91.48771064362741
 20
199.503688450915
 30
0.0
  0
VERTEX
  5
4F0
  8
0
  6
CONTINUOUS
 62
     7
 10
91.48579194713099
 20
199.4788942011389
 30
0.0
  0
SEQEND
  5
512
  8
0
  6
CONTINUOUS
 62
     7
  0
LINE
  5
21E
  8
0
  6
CONTINUOUS
 62
     7
 10
91.30540527878817
 20
196.0369115258461
 30
0.0
 11
91.48579194713098
 21
199.4788942011389
 31
0.0
  0
LINE
  5
21F
  8
0
  6
CONTINUOUS
 62
     7
 10
88.67658031022188
 20
202.2933299895649
 30
0.0
 11
88.51275022702691
 21
196.0369115258461
 31
0.0
  0
LINE
  5
220
  8
0
  6
CONTINUOUS
 62
     7
 10
88.67666940237895
 20
202.2934113294948
 30
0.0
 11
88.67658031022188
 21
202.2933299895649
 31
0.0
  0
ARC
  5
221
  8
0
  6
CONTINUOUS
 62
     7
 10
70.00000000000003
 20
222.75
 30
0.0
 40
27.70000000000003
 50
198.5834061561109
 51
227.6042202727756
  0
ARC
  5
222
  8
0
  6
CONTINUOUS
 62
     7
 10
69.99999999999994
 20
222.7499999999999
 30
0.0
 40
27.69999999999996
 50
312.3957797272245
 51
341.4165938438891
  0
LINE
  5
223
  8
0
  6
CONTINUOUS
 62
     7
 10
42.49999999999999
 20
203.2141016151378
 30
0.0
 11
42.59209769130587
 21
213.7674517419031
 31
0.0
  0
LINE
  5
224
  8
0
  6
CONTINUOUS
 62
     7
 10
42.99739869464685
 20
202.9269283448889
 30
0.0
 11
42.49999999999999
 21
203.2141016151378
 31
0.0
  0
LINE
  5
225
  8
0
  6
CONTINUOUS
 62
     7
 10
97.50000000000003
 20
203.2141016151378
 30
0.0
 11
97.40790230869416
 21
213.7674517419031
 31
0.0
  0
LINE
  5
226
  8
0
  6
CONTINUOUS
 62
     7
 10
97.00260130535318
 20
202.9269283448889
 30
0.0
 11
97.50000000000003
 21
203.2141016151378
 31
0.0
  0
LINE
  5
227
  8
0
  6
CONTINUOUS
 62
     7
 10
43.09632786534981
 20
214.75
 30
0.0
 11
43.11152663314634
 21
214.75
 31
0.0
  0
LINE
  5
228
  8
0
  6
CONTINUOUS
 62
     7
 10
43.58827261482814
 20
214.4007092198582
 30
0.0
 11
43.7442573256759
 21
213.9224308770945
 31
0.0
  0
ARC
  5
229
  8
0
  6
CONTINUOUS
 62
     7
 10
43.11152663314634
 20
214.25
 30
0.0
 40
0.5000000000000036
 50
17.54281783108022
 51
90.0
  0
LINE
  5
22A
  8
0
  6
CONTINUOUS
 62
     7
 10
96.90367213465022
 20
214.7499999999999
 30
0.0
 11
96.88847336685369
 21
214.7499999999999
 31
0.0
  0
LINE
  5
22B
  8
0
  6
CONTINUOUS
 62
     7
 10
96.41172738517189
 20
214.4007092198581
 30
0.0
 11
96.25574267432413
 21
213.9224308770944
 31
0.0
  0
ARC
  5
22C
  8
0
  6
CONTINUOUS
 62
     7
 10
96.88847336685369
 20
214.25
 30
0.0
 40
0.4999999999999951
 50
90.0
 51
162.4571821689198
  0
LINE
  5
22D
  8
0
  6
CONTINUOUS
 62
     7
 10
42.59209769130587
 20
213.7674517419031
 30
0.0
 11
42.59634690381772
 21
214.2543632677492
 31
0.0
  0
ARC
  5
22E
  8
0
  6
CONTINUOUS
 62
     7
 10
43.09632786534981
 20
214.25
 30
0.0
 40
0.5000000000000016
 50
90.0
 51
179.4999999999999
  0
ARC
  5
22F
  8
0
  6
CONTINUOUS
 62
     7
 10
96.90367213465022
 20
214.2499999999999
 30
0.0
 40
0.5000000000000016
 50
0.5000000000000776
 51
90.0
  0
LINE
  5
230
  8
0
  6
CONTINUOUS
 62
     7
 10
97.40790230869416
 20
213.7674517419031
 30
0.0
 11
97.4036530961823
 21
214.2543632677491
 31
0.0
  0
LINE
  5
231
  8
0
  6
CONTINUOUS
 62
     7
 10
56.63314554501871
 20
189.75
 30
0.0
 11
53.50000000000001
 21
189.7500000000001
 31
0.0
  0
LINE
  5
232
  8
0
  6
CONTINUOUS
 62
     7
 10
83.3668544549813
 20
189.75
 30
0.0
 11
86.5
 21
189.7500000000001
 31
0.0
  0
LINE
  5
233
  8
0
  6
CONTINUOUS
 62
     7
 10
57.49999999999999
 20
196.75
 30
0.0
 11
57.50003807693582
 21
196.7543631846775
 31
0.0
  0
LINE
  5
234
  8
0
  6
CONTINUOUS
 62
     7
 10
57.51749164945864
 20
198.7500000000001
 30
0.0
 11
57.50003807693582
 21
196.7543631846774
 31
0.0
  0
LINE
  5
235
  8
0
  6
CONTINUOUS
 62
     7
 10
58.50003807838573
 20
196.75
 30
0.0
 11
57.49999999999999
 21
196.75
 31
0.0
  0
LINE
  5
236
  8
0
  6
CONTINUOUS
 62
     7
 10
57.51749164945863
 20
198.75
 30
0.0
 11
58.51749181396725
 21
198.75
 31
0.0
  0
LINE
  5
237
  8
0
  6
CONTINUOUS
 62
     7
 10
58.50003807838573
 20
196.75
 30
0.0
 11
59.01047224134891
 21
196.75
 31
0.0
  0
LINE
  5
238
  8
0
  6
CONTINUOUS
 62
     7
 10
59.02792597693042
 20
198.75
 30
0.0
 11
58.51749181396725
 21
198.75
 31
0.0
  0
LINE
  5
239
  8
0
  6
CONTINUOUS
 62
     7
 10
81.49996192161427
 20
196.75
 30
0.0
 11
80.98952775865109
 21
196.75
 31
0.0
  0
LINE
  5
23A
  8
0
  6
CONTINUOUS
 62
     7
 10
80.97207402306958
 20
198.75
 30
0.0
 11
81.48250818603275
 21
198.75
 31
0.0
  0
LINE
  5
23B
  8
0
  6
CONTINUOUS
 62
     7
 10
82.49996192306416
 20
196.7543631846775
 30
0.0
 11
82.48250835054135
 21
198.75
 31
0.0
  0
LINE
  5
23C
  8
0
  6
CONTINUOUS
 62
     7
 10
82.5
 20
196.75
 30
0.0
 11
82.49996192306418
 21
196.7543631846775
 31
0.0
  0
LINE
  5
23D
  8
0
  6
CONTINUOUS
 62
     7
 10
81.49996192161427
 20
196.75
 30
0.0
 11
82.50000000000001
 21
196.75
 31
0.0
  0
LINE
  5
23E
  8
0
  6
CONTINUOUS
 62
     7
 10
82.48250835054137
 20
198.75
 30
0.0
 11
81.48250818603275
 21
198.75
 31
0.0
  0
LINE
  5
23F
  8
0
  6
CONTINUOUS
 62
     7
 10
57.00000000000006
 20
189.75
 30
0.0
 11
56.63314554501871
 21
189.75
 31
0.0
  0
LINE
  5
240
  8
0
  6
CONTINUOUS
 62
     7
 10
82.99999999999993
 20
189.75
 30
0.0
 11
83.3668544549813
 21
189.75
 31
0.0
  0
LINE
  5
241
  8
0
  6
CONTINUOUS
 62
     7
 10
51.49999999999999
 20
198.25
 30
0.0
 11
54.0006852326227
 21
198.25
 31
0.0
  0
LINE
  5
242
  8
0
  6
CONTINUOUS
 62
     7
 10
51.49999999999999
 20
198.25
 30
0.0
 11
51.45285456526151
 21
197.3504115155526
 31
0.0
  0
LINE
  5
243
  8
0
  6
CONTINUOUS
 62
     7
 10
88.50000000000001
 20
198.25
 30
0.0
 11
85.9993147673773
 21
198.25
 31
0.0
  0
LINE
  5
244
  8
0
  6
CONTINUOUS
 62
     7
 10
88.50000000000001
 20
198.25
 30
0.0
 11
88.5471454347385
 21
197.3504115155526
 31
0.0
  0
LINE
  5
245
  8
0
  6
CONTINUOUS
 62
     7
 10
54.4290831627596
 20
199.603173864845
 30
0.0
 11
54.49999999999998
 21
198.25
 31
0.0
  0
LINE
  5
246
  8
0
  6
CONTINUOUS
 62
     7
 10
54.49999999999998
 20
198.25
 30
0.0
 11
54.0006852326227
 21
198.25
 31
0.0
  0
LINE
  5
247
  8
0
  6
CONTINUOUS
 62
     7
 10
85.5709168372404
 20
199.6031738648449
 30
0.0
 11
85.50000000000001
 21
198.25
 31
0.0
  0
LINE
  5
248
  8
0
  6
CONTINUOUS
 62
     7
 10
85.50000000000001
 20
198.25
 30
0.0
 11
85.9993147673773
 21
198.25
 31
0.0
  0
ARC
  5
249
  8
0
  6
CONTINUOUS
 62
     7
 10
53.92976839538233
 20
199.5770058867235
 30
0.0
 40
0.4999999999999774
 50
3.0
 51
55.25909221908603
  0
ARC
  5
24A
  8
0
  6
CONTINUOUS
 62
     7
 10
70.00000000000003
 20
222.75
 30
0.0
 40
27.70000000000002
 50
227.6044698057999
 51
235.2590922190861
  0
ARC
  5
24B
  8
0
  6
CONTINUOUS
 62
     7
 10
69.99999999999994
 20
222.7499999999999
 30
0.0
 40
27.69999999999996
 50
304.740907780914
 51
312.3955301942001
  0
ARC
  5
24C
  8
0
  6
CONTINUOUS
 62
     7
 10
86.07023160461769
 20
199.5770058867235
 30
0.0
 40
0.500000000000008
 50
124.740907780914
 51
177.0
  0
LINE
  5
24D
  8
0
  6
CONTINUOUS
 62
     7
 10
57.00000000000006
 20
189.75
 30
0.0
 11
59.49999999999999
 21
189.75
 31
0.0
  0
LINE
  5
24E
  8
0
  6
CONTINUOUS
 62
     7
 10
82.99999999999994
 20
189.75
 30
0.0
 11
80.5
 21
189.75
 31
0.0
  0
LINE
  5
24F
  8
0
  6
CONTINUOUS
 62
     7
 10
85.50000000000001
 20
198.25
 30
0.0
 11
85.48951844414341
 21
198.05
 31
0.0
  0
ARC
  5
250
  8
0
  6
CONTINUOUS
 62
     7
 10
69.99999999999994
 20
222.7500000000001
 30
0.0
 40
24.49999999999999
 50
235.8683444466656
 51
245.4603090453809
  0
ARC
  5
251
  8
0
  6
CONTINUOUS
 62
     7
 10
70.00000000000003
 20
222.75
 30
0.0
 40
24.49999999999994
 50
294.5396909546191
 51
304.1316555533344
  0
LINE
  5
252
  8
0
  6
CONTINUOUS
 62
     7
 10
42.59634690381772
 20
214.2543632677492
 30
0.0
 11
42.64580680178878
 21
219.9219062117859
 31
0.0
  0
LINE
  5
253
  8
0
  6
CONTINUOUS
 62
     7
 10
97.4036530961823
 20
214.2543632677491
 30
0.0
 11
97.35419319821123
 21
219.9219062117863
 31
0.0
  0
ENDBLK
  8
0
  0
ENDSEC
  0
SECTION
  2
ENTITIES
  0
INSERT
  5
185
  8
0
  6
CONTINUOUS
 62
     7
  2
D_FRAME_VIEW_4378
 10
0.0
 20
0.0
 30
0.0
  0
INSERT
  5
1D1
  8
0
  6
CONTINUOUS
 62
     7
  2
D_FRAME_VIEW_3966
 10
0.0
 20
0.0
 30
0.0
  0
LINE
  5
1D2
  8
0
  6
CENTER
 62
     1
 10
174.9775011892477
 20
222.4218916463857
 30
0.0
 11
134.9805472861199
 21
222.7709397751314
 31
0.0
  0
LINE
  5
1D4
  8
0
  6
CENTER
 62
     1
 10
69.99999999999999
 20
185.0
 30
0.0
 11
69.99999999999999
 21
255.0
 31
0.0
  0
LINE
  5
1D5
  8
0
  6
CENTER
 62
     1
 10
40.00000000000001
 20
137.5000000000001
 30
0.0
 11
100.0
 21
137.5000000000001
 31
0.0
  0
LINE
  5
1D6
  8
0
  6
CENTER
 62
     1
 10
70.00000000000001
 20
94.99999999999997
 30
0.0
 11
70.00000000000001
 21
170.0
 31
0.0
  0
TEXT
  5
1D7
  8
0
  6
CONTINUOUS
 62
     7
 10
142.1536232337126
 20
173.3284200325122
 30
0.0
 40
3.0
  1
RMSU40-40
  0
INSERT
  5
254
  8
0
  6
CONTINUOUS
 62
     7
  2
D_FRAME_VIEW_3723
 10
0.0
 20
0.0
 30
0.0
  0
LINE
  5
255
  8
0
  6
CENTER
 62
     1
 10
40.49999999999999
 20
222.75
 30
0.0
 11
99.5
 21
222.75
 31
0.0
  0
ENDSEC
  0
EOF
