  0
SECTION
  2
HEADER
  9
$ACADVER
  1
AC1004
  9
$INSBASE
 10
0.0
 20
0.0
  9
$EXTMIN
 10
-455.15
 20
-465.8362271392393
  9
$EXTMAX
 10
444.7454545454545
 20
283.2
  9
$LIMMIN
 10
0.0
 20
0.0
  9
$LIMMAX
 10
12.0
 20
9.0
  9
$ORTHOMODE
 70
     0
  9
$REGENMODE
 70
     1
  9
$FILLMODE
 70
     1
  9
$QTEXTMODE
 70
     0
  9
$DRAGMODE
 70
     2
  9
$LTSCALE
 40
1.0
  9
$OSMODE
 70
    37
  9
$ATTMODE
 70
     1
  9
$TEXTSIZE
 40
0.2
  9
$TRACEWID
 40
0.05
  9
$TEXTSTYLE
  7
STANDARD
  9
$CLAYER
  8
0
  9
$CELTYPE
  6
BYLAYER
  9
$CECOLOR
 62
   256
  9
$DIMSCALE
 40
1.0
  9
$DIMASZ
 40
3.0
  9
$DIMEXO
 40
0.0625
  9
$DIMDLI
 40
0.38
  9
$DIMRND
 40
0.0
  9
$DIMDLE
 40
0.0
  9
$DIMEXE
 40
1.5
  9
$DIMTP
 40
0.0
  9
$DIMTM
 40
0.0
  9
$DIMTXT
 40
3.0
  9
$DIMCEN
 40
0.09
  9
$DIMTSZ
 40
0.0
  9
$DIMTOL
 70
     0
  9
$DIMLIM
 70
     0
  9
$DIMTIH
 70
     1
  9
$DIMTOH
 70
     1
  9
$DIMSE1
 70
     0
  9
$DIMSE2
 70
     0
  9
$DIMTAD
 70
     1
  9
$DIMZIN
 70
     0
  9
$DIMBLK
  1

  9
$DIMASO
 70
     1
  9
$DIMSHO
 70
     1
  9
$DIMPOST
  1

  9
$DIMAPOST
  1

  9
$DIMALT
 70
     0
  9
$DIMALTD
 70
     2
  9
$DIMALTF
 40
25.4
  9
$DIMLFAC
 40
1.0
  9
$DIMTOFL
 70
     0
  9
$DIMTVP
 40
0.0
  9
$DIMTIX
 70
     0
  9
$DIMSOXD
 70
     0
  9
$DIMSAH
 70
     0
  9
$DIMBLK1
  1

  9
$DIMBLK2
  1

  9
$LUNITS
 70
     2
  9
$LUPREC
 70
     4
  9
$SKETCHINC
 40
0.1
  9
$FILLETRAD
 40
0.5
  9
$AUNITS
 70
     0
  9
$AUPREC
 70
     0
  9
$MENU
  1
.
  9
$ELEVATION
 40
0.0
  9
$THICKNESS
 40
0.0
  9
$LIMCHECK
 70
     0
  9
$CHAMFERA
 40
0.0
  9
$CHAMFERB
 40
0.0
  9
$SKPOLY
 70
     0
  9
$TDCREATE
 40
2459349.350517882
  9
$TDUPDATE
 40
2459349.350532164
  9
$TDINDWG
 40
0.0000000116
  9
$TDUSRTIMER
 40
0.0000000116
  9
$USRTIMER
 70
     1
  9
$ANGBASE
 50
0.0
  9
$ANGDIR
 70
     0
  9
$PDMODE
 70
     0
  9
$PDSIZE
 40
0.0
  9
$PLINEWID
 40
0.0
  9
$COORDS
 70
     1
  9
$SPLFRAME
 70
     0
  9
$SPLINETYPE
 70
     6
  9
$SPLINESEGS
 70
     8
  9
$ATTDIA
 70
     0
  9
$ATTREQ
 70
     1
  9
$SURFTAB1
 70
     6
  9
$SURFTAB2
 70
     6
  9
$SURFTYPE
 70
     6
  9
$SURFU
 70
     6
  9
$SURFV
 70
     6
  9
$UCSNAME
  2

  9
$UCSORG
 10
0.0
 20
0.0
 30
0.0
  9
$UCSXDIR
 10
1.0
 20
0.0
 30
0.0
  9
$UCSYDIR
 10
0.0
 20
1.0
 30
0.0
  9
$USERI1
 70
     0
  9
$USERI2
 70
     0
  9
$USERI3
 70
     0
  9
$USERI4
 70
     0
  9
$USERI5
 70
     0
  9
$USERR1
 40
0.0
  9
$USERR2
 40
0.0
  9
$USERR3
 40
0.0
  9
$USERR4
 40
0.0
  9
$USERR5
 40
0.0
  9
$WORLDVIEW
 70
     1
  0
ENDSEC
  0
SECTION
  2
TABLES
  0
TABLE
  2
LTYPE
 70
     2
  0
LTYPE
  2
CONTINUOUS
 70
     0
  3
Solid line
 72
    65
 73
     0
 40
0.0
  0
LTYPE
  2
CENTER
 70
     0
  3

 72
    65
 73
     0
 40
0.0
  0
ENDTAB
  0
TABLE
  2
LAYER
 70
     4
  0
LAYER
  2
0
 70
     0
 62
     7
  6
CONTINUOUS
  0
LAYER
  2
図面枠
 70
     0
 62
     7
  6
CONTINUOUS
  0
LAYER
  2
1
 70
     0
 62
     7
  6
CONTINUOUS
  0
LAYER
  2
JIS_B_0405-M_普通公差_M_中級
 70
     0
 62
     7
  6
CONTINUOUS
  0
ENDTAB
  0
TABLE
  2
STYLE
 70
     2
  0
STYLE
  2
STANDARD
 70
     0
 40
0.0
 41
1.0
 50
0.0
 71
     0
 42
0.2
  3
txt
  4

  0
STYLE
  2
ＭＳ_ゴシック
 70
     0
 40
0.0
 41
1.0
 50
0.0
 71
     0
 42
0.2
  3
ＭＳ ゴシック.shx
  4

  0
ENDTAB
  0
TABLE
  2
VIEW
 70
     0
  0
ENDTAB
  0
ENDSEC
  0
SECTION
  2
BLOCKS
  0
BLOCK
  8
0
  2
D_FRAME_VIEW_5182
 70
     0
 10
0.0
 20
0.0
  0
LINE
  8
1
  6
CONTINUOUS
 62
     7
 10
-135.4500000000001
 20
185.15
 11
-131.6500000000001
 21
185.15
  0
LINE
  8
1
  6
CONTINUOUS
 62
     7
 10
-135.4416283983332
 20
183.15
 11
-131.6413041834408
 21
183.15
  0
ARC
  8
1
  6
CONTINUOUS
 62
     7
 10
98.35
 20
185.15
 40
230.0
 50
180.0
 51
180.4982304487101
  0
LINE
  8
1
  6
CONTINUOUS
 62
     7
 10
-131.1489142676573
 20
169.9760634650574
 11
-119.6665800283443
 21
159.0416162867524
  0
ARC
  8
1
  6
CONTINUOUS
 62
     7
 10
-113.3220899458222
 20
165.7040066680479
 40
9.200000000000001
 50
226.4000835895997
 51
269.5000000000001
  0
LINE
  8
1
  6
CONTINUOUS
 62
     7
 10
-113.4023740724073
 20
156.5043569758575
 11
-90.65000000000003
 21
156.3058000154017
  0
LINE
  8
1
  6
CONTINUOUS
 62
     7
 10
-90.65000000000003
 20
156.3058000154017
 11
-90.65000000000003
 21
152.3056477018588
  0
ARC
  8
1
  6
CONTINUOUS
 62
     7
 10
98.35
 20
185.15
 40
230.0
 50
180.4982304487101
 51
183.7827584462153
  0
LINE
  8
1
  6
CONTINUOUS
 62
     7
 10
-90.65000000000003
 20
217.9943522981413
 11
-90.65000000000003
 21
213.9941999845983
  0
LINE
  8
1
  6
CONTINUOUS
 62
     7
 10
-90.65000000000003
 20
213.9941999845983
 11
-113.4023740724072
 21
213.7956430241425
  0
ARC
  8
1
  6
CONTINUOUS
 62
     7
 10
-113.3220899458222
 20
204.5959933319522
 40
9.200000000000017
 50
90.49999999999997
 51
133.5999164104
  0
LINE
  8
1
  6
CONTINUOUS
 62
     7
 10
-135.4416283983333
 20
187.15
 11
-131.6413041834408
 21
187.15
  0
LINE
  8
1
  6
CONTINUOUS
 62
     7
 10
-119.6665800283443
 20
211.2583837132477
 11
-131.1489142676574
 21
200.3239365349424
  0
ARC
  8
1
  6
CONTINUOUS
 62
     7
 10
98.35
 20
185.15
 40
230.0
 50
176.2172415537848
 51
179.5017695512899
  0
ARC
  8
1
  6
CONTINUOUS
 62
     7
 10
98.35
 20
185.15
 40
230.0
 50
179.5017695512898
 51
180.0
  0
LINE
  8
1
  6
CONTINUOUS
 62
     7
 10
-72.65000000000002
 20
197.1499999999999
 11
-72.65000000000002
 21
200.1499999999999
  0
LINE
  8
1
  6
CONTINUOUS
 62
     7
 10
-70.64999999999996
 20
200.1499999999999
 11
-70.64999999999996
 21
197.1499999999999
  0
LINE
  8
1
  6
CONTINUOUS
 62
     7
 10
-72.65000000000002
 20
173.1500000000001
 11
-72.65000000000002
 21
170.15
  0
LINE
  8
1
  6
CONTINUOUS
 62
     7
 10
-70.64999999999996
 20
170.15
 11
-70.64999999999996
 21
173.1500000000001
  0
LINE
  8
1
  6
CONTINUOUS
 62
     7
 10
-70.65000000000002
 20
170.15
 11
-70.65000000000002
 21
169.1500000000001
  0
LINE
  8
1
  6
CONTINUOUS
 62
     7
 10
-70.64999999999996
 20
169.1500000000001
 11
-72.65000000000002
 21
169.15
  0
LINE
  8
1
  6
CONTINUOUS
 62
     7
 10
-72.65000000000002
 20
169.1500000000001
 11
-72.65000000000002
 21
170.15
  0
LINE
  8
1
  6
CONTINUOUS
 62
     7
 10
-72.65000000000002
 20
201.15
 11
-70.64999999999996
 21
201.1499999999999
  0
LINE
  8
1
  6
CONTINUOUS
 62
     7
 10
-70.64999999999996
 20
201.1499999999999
 11
-70.65000000000002
 21
200.1499999999999
  0
LINE
  8
1
  6
CONTINUOUS
 62
     7
 10
-72.65000000000002
 20
200.1499999999999
 11
-72.65000000000002
 21
201.1499999999999
  0
LINE
  8
1
  6
CONTINUOUS
 62
     7
 10
-72.65000000000002
 20
174.1500000000001
 11
-70.64999999999996
 21
174.1500000000001
  0
LINE
  8
1
  6
CONTINUOUS
 62
     7
 10
-70.64999999999996
 20
174.1500000000001
 11
-70.65000000000002
 21
173.1500000000001
  0
LINE
  8
1
  6
CONTINUOUS
 62
     7
 10
-72.65000000000002
 20
173.1500000000001
 11
-72.65000000000002
 21
174.1500000000001
  0
LINE
  8
1
  6
CONTINUOUS
 62
     7
 10
-70.64999999999996
 20
196.1499999999999
 11
-72.65000000000002
 21
196.1499999999999
  0
LINE
  8
1
  6
CONTINUOUS
 62
     7
 10
-72.65000000000002
 20
196.1499999999999
 11
-72.65000000000002
 21
197.1499999999999
  0
LINE
  8
1
  6
CONTINUOUS
 62
     7
 10
-70.65000000000002
 20
197.1499999999999
 11
-70.65000000000002
 21
196.1499999999999
  0
LINE
  8
1
  6
CONTINUOUS
 62
     7
 10
-70.65000000000002
 20
168.1500000000001
 11
-70.65000000000002
 21
169.1500000000001
  0
LINE
  8
1
  6
CONTINUOUS
 62
     7
 10
-72.65000000000002
 20
169.1500000000001
 11
-72.65000000000002
 21
169.1486295347547
  0
LINE
  8
1
  6
CONTINUOUS
 62
     7
 10
-72.65000000000002
 20
201.1513704652453
 11
-72.65000000000002
 21
201.1499999999999
  0
LINE
  8
1
  6
CONTINUOUS
 62
     7
 10
-70.65000000000002
 20
201.1499999999999
 11
-70.65000000000002
 21
202.1499999999999
  0
LINE
  8
1
  6
CONTINUOUS
 62
     7
 10
-70.65000000000002
 20
174.1500000000001
 11
-70.65000000000002
 21
175.1500000000001
  0
LINE
  8
1
  6
CONTINUOUS
 62
     7
 10
-72.65000000000002
 20
174.1513704652455
 11
-72.65000000000002
 21
174.1500000000001
  0
LINE
  8
1
  6
CONTINUOUS
 62
     7
 10
-72.65000000000002
 20
196.1499999999999
 11
-72.65000000000002
 21
196.1486295347545
  0
LINE
  8
1
  6
CONTINUOUS
 62
     7
 10
-70.65000000000002
 20
195.1499999999999
 11
-70.65000000000002
 21
196.1499999999999
  0
LINE
  8
1
  6
CONTINUOUS
 62
     7
 10
-74.49529946162079
 20
154.6499999999997
 11
-70.65000000000002
 21
154.65
  0
LINE
  8
1
  6
CONTINUOUS
 62
     7
 10
-75.5056624327026
 20
152.8999999999997
 11
-74.49529946162079
 21
154.6499999999997
  0
POLYLINE
  8
1
  6
CONTINUOUS
 62
     7
 66
     1
  0
VERTEX
  8
1
  6
CONTINUOUS
 62
     7
 10
-75.93867513459482
 20
152.6499999999997
  0
VERTEX
  8
1
  6
CONTINUOUS
 62
     7
 10
-75.91686544091216
 20
152.6504758892088
  0
VERTEX
  8
1
  6
CONTINUOUS
 62
     7
 10
-75.89509726322099
 20
152.6519026509539
  0
VERTEX
  8
1
  6
CONTINUOUS
 62
     7
 10
-75.87341203848483
 20
152.6542775693129
  0
VERTEX
  8
1
  6
CONTINUOUS
 62
     7
 10
-75.85185104576134
 20
152.6575961234936
  0
VERTEX
  8
1
  6
CONTINUOUS
 62
     7
 10
-75.83045532762574
 20
152.6618519964398
  0
VERTEX
  8
1
  6
CONTINUOUS
 62
     7
 10
-75.80926561204356
 20
152.6670370868552
  0
VERTEX
  8
1
  6
CONTINUOUS
 62
     7
 10
-75.7883222348427
 20
152.6731415246256
  0
VERTEX
  8
1
  6
CONTINUOUS
 62
     7
 10
-75.767665062932
 20
152.6801536896068
  0
VERTEX
  8
1
  6
CONTINUOUS
 62
     7
 10
-75.7473334184123
 20
152.6880602337441
  0
VERTEX
  8
1
  6
CONTINUOUS
 62
     7
 10
-75.72736600372446
 20
152.6968461064814
  0
VERTEX
  8
1
  6
CONTINUOUS
 62
     7
 10
-75.70780082797731
 20
152.7064945834106
  0
VERTEX
  8
1
  6
CONTINUOUS
 62
     7
 10
-75.68867513459485
 20
152.7169872981075
  0
VERTEX
  8
1
  6
CONTINUOUS
 62
     7
 10
-75.67002533042141
 20
152.7283042770933
  0
VERTEX
  8
1
  6
CONTINUOUS
 62
     7
 10
-75.6518869164193
 20
152.7404239778552
  0
VERTEX
  8
1
  6
CONTINUOUS
 62
     7
 10
-75.63429442009048
 20
152.7533233298541
  0
VERTEX
  8
1
  6
CONTINUOUS
 62
     7
 10
-75.61728132975156
 20
152.7669777784403
  0
VERTEX
  8
1
  6
CONTINUOUS
 62
     7
 10
-75.600880030787
 20
152.7813613315947
  0
VERTEX
  8
1
  6
CONTINUOUS
 62
     7
 10
-75.58512174400153
 20
152.7964466094065
  0
VERTEX
  8
1
  6
CONTINUOUS
 62
     7
 10
-75.57003646618979
 20
152.8122048961919
  0
VERTEX
  8
1
  6
CONTINUOUS
 62
     7
 10
-75.55565291303532
 20
152.8286061951565
  0
VERTEX
  8
1
  6
CONTINUOUS
 62
     7
 10
-75.54199846444922
 20
152.8456192854954
  0
VERTEX
  8
1
  6
CONTINUOUS
 62
     7
 10
-75.52909911245034
 20
152.8632117818242
  0
VERTEX
  8
1
  6
CONTINUOUS
 62
     7
 10
-75.51697941168835
 20
152.8813501958263
  0
VERTEX
  8
1
  6
CONTINUOUS
 62
     7
 10
-75.5056624327026
 20
152.8999999999997
  0
SEQEND
  8
1
  6
CONTINUOUS
 62
     7
  0
LINE
  8
1
  6
CONTINUOUS
 62
     7
 10
-76.65000000000002
 20
152.6499999999997
 11
-75.93867513459482
 21
152.6499999999997
  0
LINE
  8
1
  6
CONTINUOUS
 62
     7
 10
-81.82364817766694
 20
153.5622537624156
 11
-76.65000000000002
 21
152.6499999999997
  0
ARC
  8
1
  6
CONTINUOUS
 62
     7
 10
-81.65000000000002
 20
154.5470615154278
 40
1.000000000000004
 50
180.0
 51
260.0000000000014
  0
LINE
  8
1
  6
CONTINUOUS
 62
     7
 10
-82.65000000000003
 20
157.9885015532509
 11
-82.64999999999998
 21
154.5470615154278
  0
ARC
  8
1
  6
CONTINUOUS
 62
     7
 10
-81.65000000000002
 20
157.9885015532509
 40
1.0
 50
104.9999999999987
 51
180.0
  0
LINE
  8
1
  6
CONTINUOUS
 62
     7
 10
-81.90881904510252
 20
158.95442737954
 11
-75.65000000000008
 21
160.6314728882477
  0
LINE
  8
1
  6
CONTINUOUS
 62
     7
 10
-75.65000000000008
 20
160.6314728882477
 11
-75.65000000000002
 21
184.85
  0
LINE
  8
1
  6
CONTINUOUS
 62
     7
 10
-75.35
 20
185.15
 11
-75.65000000000002
 21
184.85
  0
LINE
  8
1
  6
CONTINUOUS
 62
     7
 10
-75.65000000000002
 20
185.45
 11
-75.35
 21
185.15
  0
LINE
  8
1
  6
CONTINUOUS
 62
     7
 10
-75.65000000000002
 20
185.45
 11
-75.65000000000002
 21
209.6685271117518
  0
LINE
  8
1
  6
CONTINUOUS
 62
     7
 10
-75.65000000000002
 20
209.6685271117518
 11
-81.90881904510252
 21
211.3455726204595
  0
ARC
  8
1
  6
CONTINUOUS
 62
     7
 10
-81.65000000000002
 20
212.3114984467486
 40
1.0
 50
180.0
 51
255.0000000000013
  0
LINE
  8
1
  6
CONTINUOUS
 62
     7
 10
-82.65000000000003
 20
215.7529384845719
 11
-82.65000000000003
 21
212.3114984467486
  0
ARC
  8
1
  6
CONTINUOUS
 62
     7
 10
-81.65000000000002
 20
215.7529384845719
 40
1.000000000000003
 50
99.99999999999896
 51
180.0
  0
LINE
  8
1
  6
CONTINUOUS
 62
     7
 10
-76.65000000000002
 20
217.65
 11
-81.82364817766694
 21
216.7377462375841
  0
LINE
  8
1
  6
CONTINUOUS
 62
     7
 10
-75.93867513459482
 20
217.65
 11
-76.65000000000002
 21
217.65
  0
POLYLINE
  8
1
  6
CONTINUOUS
 62
     7
 66
     1
  0
VERTEX
  8
1
  6
CONTINUOUS
 62
     7
 10
-75.5056624327026
 20
217.4
  0
VERTEX
  8
1
  6
CONTINUOUS
 62
     7
 10
-75.51697941168835
 20
217.4186498041734
  0
VERTEX
  8
1
  6
CONTINUOUS
 62
     7
 10
-75.52909911245034
 20
217.4367882181755
  0
VERTEX
  8
1
  6
CONTINUOUS
 62
     7
 10
-75.54199846444922
 20
217.4543807145044
  0
VERTEX
  8
1
  6
CONTINUOUS
 62
     7
 10
-75.55565291303532
 20
217.4713938048433
  0
VERTEX
  8
1
  6
CONTINUOUS
 62
     7
 10
-75.57003646618979
 20
217.4877951038078
  0
VERTEX
  8
1
  6
CONTINUOUS
 62
     7
 10
-75.58512174400153
 20
217.5035533905933
  0
VERTEX
  8
1
  6
CONTINUOUS
 62
     7
 10
-75.600880030787
 20
217.5186386684051
  0
VERTEX
  8
1
  6
CONTINUOUS
 62
     7
 10
-75.61728132975156
 20
217.5330222215595
  0
VERTEX
  8
1
  6
CONTINUOUS
 62
     7
 10
-75.63429442009048
 20
217.5466766701456
  0
VERTEX
  8
1
  6
CONTINUOUS
 62
     7
 10
-75.6518869164193
 20
217.5595760221445
  0
VERTEX
  8
1
  6
CONTINUOUS
 62
     7
 10
-75.67002533042141
 20
217.5716957229065
  0
VERTEX
  8
1
  6
CONTINUOUS
 62
     7
 10
-75.68867513459485
 20
217.5830127018922
  0
VERTEX
  8
1
  6
CONTINUOUS
 62
     7
 10
-75.70780082797731
 20
217.5935054165891
  0
VERTEX
  8
1
  6
CONTINUOUS
 62
     7
 10
-75.72736600372446
 20
217.6031538935183
  0
VERTEX
  8
1
  6
CONTINUOUS
 62
     7
 10
-75.7473334184123
 20
217.6119397662556
  0
VERTEX
  8
1
  6
CONTINUOUS
 62
     7
 10
-75.767665062932
 20
217.619846310393
  0
VERTEX
  8
1
  6
CONTINUOUS
 62
     7
 10
-75.7883222348427
 20
217.6268584753741
  0
VERTEX
  8
1
  6
CONTINUOUS
 62
     7
 10
-75.80926561204356
 20
217.6329629131446
  0
VERTEX
  8
1
  6
CONTINUOUS
 62
     7
 10
-75.83045532762574
 20
217.63814800356
  0
VERTEX
  8
1
  6
CONTINUOUS
 62
     7
 10
-75.85185104576134
 20
217.6424038765061
  0
VERTEX
  8
1
  6
CONTINUOUS
 62
     7
 10
-75.87341203848477
 20
217.6457224306869
  0
VERTEX
  8
1
  6
CONTINUOUS
 62
     7
 10
-75.89509726322099
 20
217.6480973490459
  0
VERTEX
  8
1
  6
CONTINUOUS
 62
     7
 10
-75.91686544091216
 20
217.6495241107909
  0
VERTEX
  8
1
  6
CONTINUOUS
 62
     7
 10
-75.93867513459482
 20
217.65
  0
SEQEND
  8
1
  6
CONTINUOUS
 62
     7
  0
LINE
  8
1
  6
CONTINUOUS
 62
     7
 10
-74.49529946162073
 20
215.6500000000001
 11
-75.5056624327026
 21
217.4
  0
LINE
  8
1
  6
CONTINUOUS
 62
     7
 10
-70.65000000000002
 20
215.6499999999999
 11
-74.49529946162073
 21
215.6500000000001
  0
LINE
  8
1
  6
CONTINUOUS
 62
     7
 10
-70.65000000000002
 20
154.65
 11
-70.65000000000002
 21
168.1500000000001
  0
LINE
  8
1
  6
CONTINUOUS
 62
     7
 10
-70.65000000000002
 20
175.1500000000001
 11
-70.65000000000002
 21
195.1499999999999
  0
LINE
  8
1
  6
CONTINUOUS
 62
     7
 10
-70.65000000000002
 20
202.1499999999999
 11
-70.65000000000002
 21
215.6499999999999
  0
LINE
  8
1
  6
CONTINUOUS
 62
     9
 10
-70.55000000000003
 20
207.15
 11
-70.65000000000002
 21
207.15
  0
LINE
  8
1
  6
CONTINUOUS
 62
     9
 10
-70.55000000000003
 20
163.15
 11
-70.55000000000003
 21
207.15
  0
LINE
  8
1
  6
CONTINUOUS
 62
     9
 10
-70.65000000000002
 20
163.15
 11
-70.55000000000003
 21
163.15
  0
ARC
  8
1
  6
CONTINUOUS
 62
     7
 10
-70.55000000000003
 20
207.15
 40
0.1000000000000167
 50
359.999999999998
 51
90.0
  0
LINE
  8
1
  6
CONTINUOUS
 62
     9
 10
-70.45000000000005
 20
207.15
 11
-70.55000000000003
 21
207.15
  0
LINE
  8
1
  6
CONTINUOUS
 62
     9
 10
-70.55000000000003
 20
207.25
 11
-70.55000000000003
 21
207.15
  0
LINE
  8
1
  6
CONTINUOUS
 62
     7
 10
-70.45000000000005
 20
207.15
 11
-70.45000000000005
 21
163.15
  0
LINE
  8
1
  6
CONTINUOUS
 62
     9
 10
-70.55000000000003
 20
163.15
 11
-70.45000000000005
 21
163.15
  0
LINE
  8
1
  6
CONTINUOUS
 62
     7
 10
-70.65000000000002
 20
207.25
 11
-70.55000000000003
 21
207.25
  0
ARC
  8
1
  6
CONTINUOUS
 62
     7
 10
-70.55000000000003
 20
163.15
 40
0.099999999999989
 50
270.0
 51
0.0
  0
LINE
  8
1
  6
CONTINUOUS
 62
     9
 10
-70.55000000000003
 20
163.15
 11
-70.55000000000003
 21
163.05
  0
LINE
  8
1
  6
CONTINUOUS
 62
     7
 10
-70.55000000000003
 20
163.05
 11
-70.65000000000002
 21
163.05
  0
LINE
  8
1
  6
CONTINUOUS
 62
     7
 10
-70.65000000000002
 20
153.65
 11
-70.65000000000002
 21
154.65
  0
LINE
  8
1
  6
CONTINUOUS
 62
     7
 10
-70.65000000000002
 20
153.65
 11
-70.65000000000002
 21
152.55
  0
LINE
  8
1
  6
CONTINUOUS
 62
     7
 10
-70.65000000000002
 20
152.25
 11
-70.55000000000003
 21
152.25
  0
LINE
  8
1
  6
CONTINUOUS
 62
     9
 10
-70.55000000000003
 20
152.25
 11
-70.55000000000003
 21
152.15
  0
LINE
  8
1
  6
CONTINUOUS
 62
     9
 10
-70.55000000000003
 20
152.15
 11
-70.65000000000002
 21
152.15
  0
LINE
  8
1
  6
CONTINUOUS
 62
     9
 10
-70.65000000000002
 20
108.15
 11
-70.55000000000003
 21
108.15
  0
LINE
  8
1
  6
CONTINUOUS
 62
     9
 10
-70.55000000000003
 20
108.15
 11
-70.55000000000003
 21
152.15
  0
LINE
  8
1
  6
CONTINUOUS
 62
     9
 10
-70.55000000000003
 20
108.15
 11
-70.45000000000005
 21
108.15
  0
LINE
  8
1
  6
CONTINUOUS
 62
     9
 10
-70.45000000000005
 20
152.15
 11
-70.55000000000003
 21
152.15
  0
LINE
  8
1
  6
CONTINUOUS
 62
     7
 10
-70.45000000000005
 20
152.15
 11
-70.45000000000005
 21
108.15
  0
ARC
  8
1
  6
CONTINUOUS
 62
     7
 10
-70.55000000000003
 20
152.15
 40
0.099999999999989
 50
0.0
 51
90.0
  0
LINE
  8
1
  6
CONTINUOUS
 62
     7
 10
-70.55000000000003
 20
108.05
 11
-70.65000000000002
 21
108.05
  0
LINE
  8
1
  6
CONTINUOUS
 62
     9
 10
-70.55000000000003
 20
108.15
 11
-70.55000000000003
 21
108.05
  0
ARC
  8
1
  6
CONTINUOUS
 62
     7
 10
-70.55000000000003
 20
108.15
 40
0.099999999999989
 50
270.0
 51
0.0
  0
LINE
  8
1
  6
CONTINUOUS
 62
     7
 10
-70.65000000000002
 20
149.3310037265636
 11
-113.9355981306689
 21
149.7087514186938
  0
LINE
  8
1
  6
CONTINUOUS
 62
     7
 10
-70.65000000000002
 20
150.8303757506859
 11
-70.65000000000002
 21
149.3310037265636
  0
LINE
  8
1
  6
CONTINUOUS
 62
     7
 10
-113.9355981306689
 20
220.5912485813062
 11
-70.65000000000002
 21
220.9689962734365
  0
LINE
  8
1
  6
CONTINUOUS
 62
     7
 10
-70.65000000000002
 20
220.9689962734365
 11
-70.65000000000002
 21
219.4696242493141
  0
ARC
  8
1
  6
CONTINUOUS
 62
     7
 10
-113.806445405293
 20
205.7918121199565
 40
11.99999999999999
 50
90.49999999999994
 51
133.5999164104001
  0
LINE
  8
1
  6
CONTINUOUS
 62
     7
 10
-135.0316616617509
 20
202.15
 11
-122.0818672520608
 21
214.4818865303419
  0
ARC
  8
1
  6
CONTINUOUS
 62
     7
 10
98.34999999999994
 20
185.15
 40
234.0000000000001
 50
175.8338157824801
 51
184.1661842175198
  0
LINE
  8
1
  6
CONTINUOUS
 62
     7
 10
-122.0818672520608
 20
155.8181134696581
 11
-135.0316616617509
 21
168.15
  0
ARC
  8
1
  6
CONTINUOUS
 62
     7
 10
-113.806445405293
 20
164.5081878800435
 40
12.0
 50
226.4000835895999
 51
269.5000000000001
  0
LINE
  8
1
  6
CONTINUOUS
 62
     7
 10
-70.65000000000002
 20
152.1311103460436
 11
-113.9111638312734
 21
152.5086448032735
  0
LINE
  8
1
  6
CONTINUOUS
 62
     7
 10
-113.9111638312734
 20
217.7913551967265
 11
-70.65000000000002
 21
218.1688896539564
  0
LINE
  8
1
  6
CONTINUOUS
 62
     7
 10
-70.65000000000002
 20
218.1688896539564
 11
-70.65000000000002
 21
219.4696242493141
  0
LINE
  8
1
  6
CONTINUOUS
 62
     7
 10
-70.65000000000002
 20
152.1311103460436
 11
-70.65000000000002
 21
150.8303757506859
  0
ARC
  8
1
  6
CONTINUOUS
 62
     7
 10
-113.806445405293
 20
205.7918121199565
 40
14.8
 50
90.4999999999999
 51
133.5999164104002
  0
ARC
  8
1
  6
CONTINUOUS
 62
     7
 10
-113.806445405293
 20
164.5081878800435
 40
14.8
 50
226.4000835895999
 51
269.5000000000001
  0
LINE
  8
1
  6
CONTINUOUS
 62
     7
 10
-137.7430495728202
 20
203.4341992826007
 11
-137.7430271168968
 21
203.4344892403422
  0
LINE
  8
1
  6
CONTINUOUS
 62
     7
 10
-137.7430271168968
 20
203.4344892403422
 11
-124.0127990163067
 21
216.5095705594319
  0
LINE
  8
1
  6
CONTINUOUS
 62
     7
 10
-124.0127990163067
 20
153.7904294405681
 11
-137.7430271168969
 21
166.8655107596578
  0
LINE
  8
1
  6
CONTINUOUS
 62
     7
 10
-137.7430271168969
 20
166.8655107596578
 11
-137.7430495728202
 21
166.8658007173993
  0
ARC
  8
1
  6
CONTINUOUS
 62
     7
 10
98.34999999999997
 20
185.15
 40
236.8
 50
175.5715742496877
 51
184.4284257503122
  0
ARC
  8
1
  6
CONTINUOUS
 62
     9
 10
-76.14842137166718
 20
217.6208485407344
 40
1.0
 50
29.99999999999988
 51
30.50251913381038
  0
POLYLINE
  8
1
  6
CONTINUOUS
 62
     7
 66
     1
  0
VERTEX
  8
1
  6
CONTINUOUS
 62
     7
 10
-75.71977193752413
 20
217.8708485407344
  0
VERTEX
  8
1
  6
CONTINUOUS
 62
     7
 10
-75.73118662820985
 20
217.8896516600367
  0
VERTEX
  8
1
  6
CONTINUOUS
 62
     7
 10
-75.74341728383318
 20
217.9079345351382
  0
VERTEX
  8
1
  6
CONTINUOUS
 62
     7
 10
-75.75644023306296
 20
217.9256617811823
  0
VERTEX
  8
1
  6
CONTINUOUS
 62
     7
 10
-75.77023027115517
 20
217.9427990886828
  0
VERTEX
  8
1
  6
CONTINUOUS
 62
     7
 10
-75.7847607087345
 20
217.9593132899261
  0
VERTEX
  8
1
  6
CONTINUOUS
 62
     7
 10
-75.80000342344903
 20
217.9751724231648
  0
VERTEX
  8
1
  6
CONTINUOUS
 62
     7
 10
-75.81592891439884
 20
217.9903457944764
  0
VERTEX
  8
1
  6
CONTINUOUS
 62
     7
 10
-75.83250635923208
 20
218.0048040371688
  0
VERTEX
  8
1
  6
CONTINUOUS
 62
     7
 10
-75.84970367379898
 20
218.0185191686168
  0
VERTEX
  8
1
  6
CONTINUOUS
 62
     7
 10
-75.8674875742478
 20
218.0314646444203
  0
VERTEX
  8
1
  6
CONTINUOUS
 62
     7
 10
-75.88582364144267
 20
218.0436154097779
  0
VERTEX
  8
1
  6
CONTINUOUS
 62
     7
 10
-75.90467638757877
 20
218.0549479479789
  0
VERTEX
  8
1
  6
CONTINUOUS
 62
     7
 10
-75.92400932486584
 20
218.0654403259175
  0
VERTEX
  8
1
  6
CONTINUOUS
 62
     7
 10
-75.94378503614688
 20
218.075072236542
  0
VERTEX
  8
1
  6
CONTINUOUS
 62
     7
 10
-75.96396524731577
 20
218.0838250381581
  0
VERTEX
  8
1
  6
CONTINUOUS
 62
     7
 10
-75.98451090139332
 20
218.0916817905073
  0
VERTEX
  8
1
  6
CONTINUOUS
 62
     7
 10
-76.00538223411854
 20
218.0986272875539
  0
VERTEX
  8
1
  6
CONTINUOUS
 62
     7
 10
-76.02653885090879
 20
218.1046480869145
  0
VERTEX
  8
1
  6
CONTINUOUS
 62
     7
 10
-76.04793980503985
 20
218.1097325358749
  0
VERTEX
  8
1
  6
CONTINUOUS
 62
     7
 10
-76.06954367689458
 20
218.1138707939425
  0
VERTEX
  8
1
  6
CONTINUOUS
 62
     7
 10
-76.09130865412698
 20
218.117054851892
  0
VERTEX
  8
1
  6
CONTINUOUS
 62
     7
 10
-76.11319261258589
 20
218.1192785472663
  0
VERTEX
  8
1
  6
CONTINUOUS
 62
     7
 10
-76.135153197843
 20
218.1205375763035
  0
VERTEX
  8
1
  6
CONTINUOUS
 62
     7
 10
-76.15714790716557
 20
218.1208295022664
  0
SEQEND
  8
1
  6
CONTINUOUS
 62
     7
  0
POLYLINE
  8
1
  6
CONTINUOUS
 62
     7
 66
     1
  0
VERTEX
  8
1
  6
CONTINUOUS
 62
     7
 10
-76.15714790716551
 20
152.1791704977336
  0
VERTEX
  8
1
  6
CONTINUOUS
 62
     7
 10
-76.135153197843
 20
152.1794624236965
  0
VERTEX
  8
1
  6
CONTINUOUS
 62
     7
 10
-76.11319261258589
 20
152.1807214527337
  0
VERTEX
  8
1
  6
CONTINUOUS
 62
     7
 10
-76.09130865412698
 20
152.182945148108
  0
VERTEX
  8
1
  6
CONTINUOUS
 62
     7
 10
-76.06954367689458
 20
152.1861292060575
  0
VERTEX
  8
1
  6
CONTINUOUS
 62
     7
 10
-76.04793980503985
 20
152.1902674641251
  0
VERTEX
  8
1
  6
CONTINUOUS
 62
     7
 10
-76.02653885090879
 20
152.1953519130855
  0
VERTEX
  8
1
  6
CONTINUOUS
 62
     7
 10
-76.00538223411849
 20
152.2013727124462
  0
VERTEX
  8
1
  6
CONTINUOUS
 62
     7
 10
-75.98451090139326
 20
152.2083182094927
  0
VERTEX
  8
1
  6
CONTINUOUS
 62
     7
 10
-75.96396524731571
 20
152.2161749618419
  0
VERTEX
  8
1
  6
CONTINUOUS
 62
     7
 10
-75.94378503614688
 20
152.224927763458
  0
VERTEX
  8
1
  6
CONTINUOUS
 62
     7
 10
-75.92400932486579
 20
152.2345596740826
  0
VERTEX
  8
1
  6
CONTINUOUS
 62
     7
 10
-75.90467638757872
 20
152.2450520520211
  0
VERTEX
  8
1
  6
CONTINUOUS
 62
     7
 10
-75.88582364144261
 20
152.2563845902222
  0
VERTEX
  8
1
  6
CONTINUOUS
 62
     7
 10
-75.86748757424775
 20
152.2685353555798
  0
VERTEX
  8
1
  6
CONTINUOUS
 62
     7
 10
-75.84970367379898
 20
152.2814808313832
  0
VERTEX
  8
1
  6
CONTINUOUS
 62
     7
 10
-75.83250635923203
 20
152.2951959628313
  0
VERTEX
  8
1
  6
CONTINUOUS
 62
     7
 10
-75.81592891439878
 20
152.3096542055236
  0
VERTEX
  8
1
  6
CONTINUOUS
 62
     7
 10
-75.80000342344897
 20
152.3248275768352
  0
VERTEX
  8
1
  6
CONTINUOUS
 62
     7
 10
-75.78476070873444
 20
152.3406867100739
  0
VERTEX
  8
1
  6
CONTINUOUS
 62
     7
 10
-75.77023027115517
 20
152.3572009113172
  0
VERTEX
  8
1
  6
CONTINUOUS
 62
     7
 10
-75.75644023306296
 20
152.3743382188177
  0
VERTEX
  8
1
  6
CONTINUOUS
 62
     7
 10
-75.74341728383318
 20
152.3920654648618
  0
VERTEX
  8
1
  6
CONTINUOUS
 62
     7
 10
-75.73118662820985
 20
152.4103483399633
  0
VERTEX
  8
1
  6
CONTINUOUS
 62
     7
 10
-75.71977193752413
 20
152.4291514592657
  0
SEQEND
  8
1
  6
CONTINUOUS
 62
     7
  0
ARC
  8
1
  6
CONTINUOUS
 62
     9
 10
-76.14842137166714
 20
152.6791514592657
 40
1.0
 50
329.497480866195
 51
329.9999999999985
  0
POLYLINE
  8
1
  6
CONTINUOUS
 62
     7
 10
0.0
 20
0.0
 30
0.0
 66
     1
 70
     8
  0
VERTEX
  8
1
  6
CONTINUOUS
 62
     7
 10
-74.55301800082134
 20
215.85
 30
0.0
 70
    32
  0
VERTEX
  8
1
  6
CONTINUOUS
 62
     7
 10
-74.5530344885397
 20
215.85
 30
0.0
 70
    32
  0
SEQEND
  8
1
  6
CONTINUOUS
 62
     7
  0
LINE
  8
1
  6
CONTINUOUS
 62
     7
 10
-74.5530344885397
 20
215.85
 11
-75.71977193752413
 21
217.8708485407344
  0
LINE
  8
1
  6
CONTINUOUS
 62
     7
 10
-75.71977193752413
 20
152.4291514592657
 11
-74.5530344885397
 21
154.45
  0
POLYLINE
  8
1
  6
CONTINUOUS
 62
     7
 10
0.0
 20
0.0
 30
0.0
 66
     1
 70
     8
  0
VERTEX
  8
1
  6
CONTINUOUS
 62
     7
 10
-74.5530344885397
 20
154.4499999999999
 30
0.0
 70
    32
  0
VERTEX
  8
1
  6
CONTINUOUS
 62
     7
 10
-74.55301800082128
 20
154.4499999999999
 30
0.0
 70
    32
  0
SEQEND
  8
1
  6
CONTINUOUS
 62
     7
  0
LINE
  8
1
  6
CONTINUOUS
 62
     7
 10
-74.55301800082117
 20
154.45
 11
-72.55000000000003
 21
154.45
  0
POLYLINE
  8
1
  6
CONTINUOUS
 62
     7
 10
0.0
 20
0.0
 30
0.0
 66
     1
 70
     8
  0
VERTEX
  8
1
  6
CONTINUOUS
 62
     7
 10
-72.55000000000003
 20
154.45
 30
0.0
 70
    32
  0
VERTEX
  8
1
  6
CONTINUOUS
 62
     7
 10
-72.54999048085666
 20
154.4499904808567
 30
0.0
 70
    32
  0
SEQEND
  8
1
  6
CONTINUOUS
 62
     7
  0
POLYLINE
  8
1
  6
CONTINUOUS
 62
     7
 10
0.0
 20
0.0
 30
0.0
 66
     1
 70
     8
  0
VERTEX
  8
1
  6
CONTINUOUS
 62
     7
 10
-72.54999048085666
 20
215.8500095191434
 30
0.0
 70
    32
  0
VERTEX
  8
1
  6
CONTINUOUS
 62
     7
 10
-72.55000000000003
 20
215.85
 30
0.0
 70
    32
  0
SEQEND
  8
1
  6
CONTINUOUS
 62
     7
  0
LINE
  8
1
  6
CONTINUOUS
 62
     7
 10
-72.55000000000003
 20
215.85
 11
-74.55301800082134
 21
215.85
  0
LINE
  8
1
  6
CONTINUOUS
 62
     7
 10
-70.65000000000002
 20
217.75
 11
-72.54999048085666
 21
215.8500095191434
  0
LINE
  8
1
  6
CONTINUOUS
 62
     7
 10
-70.65000000000002
 20
218.1688896539568
 11
-70.65000000000002
 21
217.75
  0
LINE
  8
1
  6
CONTINUOUS
 62
     7
 10
-72.54999048085666
 20
154.4499904808567
 11
-70.65000000000002
 21
152.55
  0
LINE
  8
1
  6
CONTINUOUS
 62
     7
 10
-70.65000000000002
 20
152.55
 11
-70.65000000000002
 21
152.1311103460432
  0
LINE
  8
1
  6
CONTINUOUS
 62
     7
 10
-135.2405794919944
 20
195.0478512723114
 11
-135.2475126895561
 21
195.0481389565075
  0
LINE
  8
1
  6
CONTINUOUS
 62
     7
 10
-135.2687058481799
 20
175.2596498877715
 11
-135.2603088927372
 21
175.2600125639734
  0
LINE
  8
1
  6
CONTINUOUS
 62
     7
 10
-135.2603088927372
 20
175.2600125639734
 11
-135.2576731541126
 21
175.260126431789
  0
LINE
  8
1
  6
CONTINUOUS
 62
     7
 10
-135.2576731541126
 20
175.260126431789
 11
-135.2470946532903
 21
175.2605835782479
  0
LINE
  8
1
  6
CONTINUOUS
 62
     7
 10
-135.3323935444031
 20
175.1588990631231
 11
-135.4362271392393
 21
175.15
  0
LINE
  8
1
  6
CONTINUOUS
 62
     9
 10
-135.3404002105609
 20
195.052
 11
-135.4403984255983
 21
195.052
  0
LINE
  8
1
  6
CONTINUOUS
 62
     9
 10
-135.2475126591667
 20
195.0481389552486
 11
-135.3404002105609
 21
195.052
  0
ARC
  8
1
  6
CONTINUOUS
 62
     7
 10
98.35
 20
185.15
 40
233.8001828680728
 50
179.9985189476731
 51
180.0014810523269
  0
ARC
  8
1
  6
CONTINUOUS
 62
     7
 10
-135.5500000000001
 20
185.15
 40
0.1000000000000174
 50
356.5351855834321
 51
359.999999999965
  0
ARC
  8
1
  6
CONTINUOUS
 62
     7
 10
-135.5500000000001
 20
185.15
 40
0.099999999999989
 50
359.9999999999649
 51
3.464814416567947
  0
POLYLINE
  8
1
  6
CONTINUOUS
 62
     7
 10
0.0
 20
0.0
 30
0.0
 66
     1
 70
     8
  0
VERTEX
  8
1
  6
CONTINUOUS
 62
     7
 10
-72.55000000000003
 20
154.45
 30
0.0
 70
    32
  0
VERTEX
  8
1
  6
CONTINUOUS
 62
     7
 10
-72.54999048085666
 20
154.4499904808567
 30
0.0
 70
    32
  0
SEQEND
  8
1
  6
CONTINUOUS
 62
     7
  0
POLYLINE
  8
1
  6
CONTINUOUS
 62
     7
 10
0.0
 20
0.0
 30
0.0
 66
     1
 70
     8
  0
VERTEX
  8
1
  6
CONTINUOUS
 62
     7
 10
-72.54999048085666
 20
215.8500095191434
 30
0.0
 70
    32
  0
VERTEX
  8
1
  6
CONTINUOUS
 62
     7
 10
-72.55000000000003
 20
215.85
 30
0.0
 70
    32
  0
SEQEND
  8
1
  6
CONTINUOUS
 62
     7
  0
LINE
  8
1
  6
CONTINUOUS
 62
     7
 10
-85.59768550916566
 20
152.3615568212599
 11
-85.59855812948754
 21
152.3115644365021
  0
POLYLINE
  8
1
  6
CONTINUOUS
 62
     7
 66
     1
  0
VERTEX
  8
1
  6
CONTINUOUS
 62
     7
 10
-85.64855622564075
 20
152.362000763277
  0
VERTEX
  8
1
  6
CONTINUOUS
 62
     7
 10
-85.65831875389688
 20
152.3611252235906
  0
VERTEX
  8
1
  6
CONTINUOUS
 62
     7
 10
-85.66772288082181
 20
152.3583620047683
  0
VERTEX
  8
1
  6
CONTINUOUS
 62
     7
 10
-85.67640721109173
 20
152.35381729576
  0
VERTEX
  8
1
  6
CONTINUOUS
 62
     7
 10
-85.68403801076457
 20
152.3476657471841
  0
VERTEX
  8
1
  6
CONTINUOUS
 62
     7
 10
-85.69032203248831
 20
152.3401437596025
  0
VERTEX
  8
1
  6
CONTINUOUS
 62
     7
 10
-85.69501778483225
 20
152.3315403987797
  0
VERTEX
  8
1
  6
CONTINUOUS
 62
     7
 10
-85.69794481266719
 20
152.3221862870471
  0
VERTEX
  8
1
  6
CONTINUOUS
 62
     7
 10
-85.69899063195493
 20
152.312440897673
  0
SEQEND
  8
1
  6
CONTINUOUS
 62
     7
  0
POLYLINE
  8
1
  6
CONTINUOUS
 62
     7
 66
     1
  0
VERTEX
  8
1
  6
CONTINUOUS
 62
     7
 10
-85.59943074980936
 20
152.3186095385523
  0
VERTEX
  8
1
  6
CONTINUOUS
 62
     7
 10
-85.60180032673064
 20
152.3285234562705
  0
VERTEX
  8
1
  6
CONTINUOUS
 62
     7
 10
-85.60613136500557
 20
152.3377507955067
  0
VERTEX
  8
1
  6
CONTINUOUS
 62
     7
 10
-85.61224385262872
 20
152.3459080380984
  0
VERTEX
  8
1
  6
CONTINUOUS
 62
     7
 10
-85.61988373477865
 20
152.3526561425723
  0
VERTEX
  8
1
  6
CONTINUOUS
 62
     7
 10
-85.62873347316084
 20
152.3577146358079
  0
VERTEX
  8
1
  6
CONTINUOUS
 62
     7
 10
-85.63842524392959
 20
152.3608732704108
  0
VERTEX
  8
1
  6
CONTINUOUS
 62
     7
 10
-85.64855622564073
 20
152.362000763277
  0
SEQEND
  8
1
  6
CONTINUOUS
 62
     7
  0
LINE
  8
1
  6
CONTINUOUS
 62
     7
 10
-85.59899443964844
 20
152.3115682441232
 11
-85.59943074980937
 21
152.3186095385524
  0
POLYLINE
  8
1
  6
CONTINUOUS
 62
     7
 66
     1
  0
VERTEX
  8
1
  6
CONTINUOUS
 62
     7
 10
-85.69899063195493
 20
217.987559102327
  0
VERTEX
  8
1
  6
CONTINUOUS
 62
     7
 10
-85.69794481266719
 20
217.9778137129529
  0
VERTEX
  8
1
  6
CONTINUOUS
 62
     7
 10
-85.69501778483225
 20
217.9684596012203
  0
VERTEX
  8
1
  6
CONTINUOUS
 62
     7
 10
-85.69032203248831
 20
217.9598562403975
  0
VERTEX
  8
1
  6
CONTINUOUS
 62
     7
 10
-85.68403801076457
 20
217.9523342528159
  0
VERTEX
  8
1
  6
CONTINUOUS
 62
     7
 10
-85.67640721109173
 20
217.94618270424
  0
VERTEX
  8
1
  6
CONTINUOUS
 62
     7
 10
-85.66772288082181
 20
217.9416379952317
  0
VERTEX
  8
1
  6
CONTINUOUS
 62
     7
 10
-85.65831875389688
 20
217.9388747764094
  0
VERTEX
  8
1
  6
CONTINUOUS
 62
     7
 10
-85.64855622564075
 20
217.937999236723
  0
SEQEND
  8
1
  6
CONTINUOUS
 62
     7
  0
LINE
  8
1
  6
CONTINUOUS
 62
     7
 10
-85.69899063195489
 20
152.312440897673
 11
-85.69942694211576
 21
152.2624447052941
  0
LINE
  8
1
  6
CONTINUOUS
 62
     7
 10
-85.59855812948754
 20
152.3115644365021
 11
-85.59943074980939
 21
152.2615720517443
  0
LINE
  8
1
  6
CONTINUOUS
 62
     7
 10
-85.69899063195489
 20
217.987559102327
 11
-85.69942694211582
 21
218.0375552947059
  0
LINE
  8
1
  6
CONTINUOUS
 62
     7
 10
-85.59899443964844
 20
152.3115682441232
 11
-85.59943074980939
 21
152.3186095385523
  0
LINE
  8
1
  6
CONTINUOUS
 62
     7
 10
-85.59943074980939
 20
152.3186095385521
 11
-85.59943074980939
 21
152.3615720517442
  0
LINE
  8
1
  6
CONTINUOUS
 62
     7
 10
-137.7430271168968
 20
166.8655107596576
 11
-137.8180387292611
 21
166.9369431440546
  0
LINE
  8
1
  6
CONTINUOUS
 62
     7
 10
-70.65000000000002
 20
147.3310798804348
 11
-70.65000000000002
 21
149.3310037265636
  0
LINE
  8
1
  6
CONTINUOUS
 62
     7
 10
-70.65000000000002
 20
147.3310798804348
 11
-70.65000000000002
 21
64.6513725114772
  0
LINE
  8
1
  6
CONTINUOUS
 62
     7
 10
-70.65000000000002
 20
63.15
 11
-114.0010122617857
 21
65.42193028231208
  0
LINE
  8
1
  6
CONTINUOUS
 62
     7
 10
-70.65000000000002
 20
64.6513725114772
 11
-70.65000000000002
 21
63.15000000000016
  0
LINE
  8
1
  6
CONTINUOUS
 62
     7
 10
-114.0010122617857
 20
65.42193028231222
 11
-123.0568752198251
 21
65.89652794943461
  0
LINE
  8
1
  6
CONTINUOUS
 62
     7
 10
-123.0568752198251
 20
65.89652794943449
 11
-136.369676746092
 21
66.59422231346201
  0
LINE
  8
1
  6
CONTINUOUS
 62
     7
 10
-136.3696767460923
 20
66.59422231346227
 11
-137.0285039343647
 21
66.6287499833309
  0
POLYLINE
  8
1
  6
CONTINUOUS
 62
     7
 10
0.0
 20
0.0
 30
0.0
 66
     1
 70
     8
  0
VERTEX
  8
1
  6
CONTINUOUS
 62
     7
 10
-74.55301800082134
 20
215.85
 30
0.0
 70
    32
  0
VERTEX
  8
1
  6
CONTINUOUS
 62
     7
 10
-74.5530344885397
 20
215.85
 30
0.0
 70
    32
  0
SEQEND
  8
1
  6
CONTINUOUS
 62
     7
  0
POLYLINE
  8
1
  6
CONTINUOUS
 62
     7
 10
0.0
 20
0.0
 30
0.0
 66
     1
 70
     8
  0
VERTEX
  8
1
  6
CONTINUOUS
 62
     7
 10
-72.54999048085666
 20
215.8500095191434
 30
0.0
 70
    32
  0
VERTEX
  8
1
  6
CONTINUOUS
 62
     7
 10
-72.55000000000003
 20
215.85
 30
0.0
 70
    32
  0
SEQEND
  8
1
  6
CONTINUOUS
 62
     7
  0
POLYLINE
  8
1
  6
CONTINUOUS
 62
     7
 10
0.0
 20
0.0
 30
0.0
 66
     1
 70
     8
  0
VERTEX
  8
1
  6
CONTINUOUS
 62
     7
 10
-72.54999048085672
 20
215.8500095191434
 30
0.0
 70
    32
  0
VERTEX
  8
1
  6
CONTINUOUS
 62
     7
 10
-72.55000000000003
 20
215.85
 30
0.0
 70
    32
  0
SEQEND
  8
1
  6
CONTINUOUS
 62
     7
  0
POLYLINE
  8
1
  6
CONTINUOUS
 62
     7
 10
0.0
 20
0.0
 30
0.0
 66
     1
 70
     8
  0
VERTEX
  8
1
  6
CONTINUOUS
 62
     7
 10
-74.5530344885397
 20
154.4499999999999
 30
0.0
 70
    32
  0
VERTEX
  8
1
  6
CONTINUOUS
 62
     7
 10
-74.55301800082128
 20
154.4499999999999
 30
0.0
 70
    32
  0
SEQEND
  8
1
  6
CONTINUOUS
 62
     7
  0
POLYLINE
  8
1
  6
CONTINUOUS
 62
     7
 10
0.0
 20
0.0
 30
0.0
 66
     1
 70
     8
  0
VERTEX
  8
1
  6
CONTINUOUS
 62
     7
 10
-74.55301800082134
 20
215.85
 30
0.0
 70
    32
  0
VERTEX
  8
1
  6
CONTINUOUS
 62
     7
 10
-74.5530344885397
 20
215.85
 30
0.0
 70
    32
  0
SEQEND
  8
1
  6
CONTINUOUS
 62
     7
  0
POLYLINE
  8
1
  6
CONTINUOUS
 62
     7
 10
0.0
 20
0.0
 30
0.0
 66
     1
 70
     8
  0
VERTEX
  8
1
  6
CONTINUOUS
 62
     7
 10
-72.54999048085666
 20
215.8500095191434
 30
0.0
 70
    32
  0
VERTEX
  8
1
  6
CONTINUOUS
 62
     7
 10
-72.55000000000003
 20
215.85
 30
0.0
 70
    32
  0
SEQEND
  8
1
  6
CONTINUOUS
 62
     7
  0
POLYLINE
  8
1
  6
CONTINUOUS
 62
     7
 10
0.0
 20
0.0
 30
0.0
 66
     1
 70
     8
  0
VERTEX
  8
1
  6
CONTINUOUS
 62
     7
 10
-72.54999048085666
 20
215.8500095191434
 30
0.0
 70
    32
  0
VERTEX
  8
1
  6
CONTINUOUS
 62
     7
 10
-72.55000000000003
 20
215.85
 30
0.0
 70
    32
  0
SEQEND
  8
1
  6
CONTINUOUS
 62
     7
  0
POLYLINE
  8
1
  6
CONTINUOUS
 62
     7
 66
     1
  0
VERTEX
  8
1
  6
CONTINUOUS
 62
     7
 10
-135.3310504555077
 20
175.15901417262
  0
VERTEX
  8
1
  6
CONTINUOUS
 62
     7
 10
-135.3177233273034
 20
175.1619722536512
  0
VERTEX
  8
1
  6
CONTINUOUS
 62
     7
 10
-135.3051972722189
 20
175.1684263880282
  0
VERTEX
  8
1
  6
CONTINUOUS
 62
     7
 10
-135.29393479471
 20
175.1781382672102
  0
VERTEX
  8
1
  6
CONTINUOUS
 62
     7
 10
-135.2843517436609
 20
175.1907492956644
  0
VERTEX
  8
1
  6
CONTINUOUS
 62
     7
 10
-135.2768019578328
 20
175.20579383143
  0
VERTEX
  8
1
  6
CONTINUOUS
 62
     7
 10
-135.2715642009354
 20
175.2227163791988
  0
VERTEX
  8
1
  6
CONTINUOUS
 62
     7
 10
-135.2688318687257
 20
175.2408921010873
  0
VERTEX
  8
1
  6
CONTINUOUS
 62
     7
 10
-135.2687058481799
 20
175.2596498877715
  0
SEQEND
  8
1
  6
CONTINUOUS
 62
     7
  0
ARC
  8
1
  6
CONTINUOUS
 62
     7
 10
98.35
 20
185.15
 40
233.8001828680729
 50
177.5736754452991
 51
179.9984883672435
  0
ARC
  8
1
  6
CONTINUOUS
 62
     7
 10
98.35
 20
185.15
 40
233.8001828680729
 50
180.0014810523269
 51
182.4241812350503
  0
LINE
  8
1
  6
CONTINUOUS
 62
     7
 10
-85.59768550916566
 20
217.9384431787401
 11
-75.85629178672306
 21
218.0234550338536
  0
LINE
  8
1
  6
CONTINUOUS
 62
     7
 10
-75.85629178672306
 20
152.2765449661464
 11
-85.59768550916566
 21
152.3615568212599
  0
LINE
  8
1
  6
CONTINUOUS
 62
     7
 10
-85.59768550916566
 20
152.3615568212599
 11
-85.64855622564075
 21
152.362000763277
  0
LINE
  8
1
  6
CONTINUOUS
 62
     7
 10
-85.64855622564075
 20
217.937999236723
 11
-85.59768550916566
 21
217.9384431787401
  0
LINE
  8
1
  6
CONTINUOUS
 62
     7
 10
-85.68509552865025
 20
217.953402453875
 11
-85.68475456071259
 21
217.9530528154802
  0
ARC
  8
1
  6
CONTINUOUS
 62
     7
 10
-136.95
 20
68.12669428546273
 40
1.500000000000001
 50
180.0
 51
267.0000000000001
  0
LINE
  8
1
  6
CONTINUOUS
 62
     7
 10
-138.45
 20
185.1499999999999
 11
-138.45
 21
68.12669428546259
  0
ENDBLK
  8
0
  0
BLOCK
  8
0
  2
D_FRAME_VIEW_4927
 70
     0
 10
0.0
 20
0.0
  0
LINE
  8
1
  6
CONTINUOUS
 62
     7
 10
-325.15
 20
1.750000000000085
 11
-325.15
 21
-2.049999999999913
  0
LINE
  8
1
  6
CONTINUOUS
 62
     7
 10
-327.15
 20
1.741628398333223
 11
-327.15
 21
-2.058695816559208
  0
ARC
  8
1
  6
CONTINUOUS
 62
     7
 10
-325.15
 20
-232.05
 40
230.0
 50
90.0
 51
90.49823044871016
  0
LINE
  8
1
  6
CONTINUOUS
 62
     7
 10
-351.2583837132477
 20
-14.03341997165577
 11
-340.3239365349424
 21
-2.551085732342639
  0
ARC
  8
1
  6
CONTINUOUS
 62
     7
 10
-344.5959933319522
 20
-20.3779100541778
 40
9.199999999999962
 50
136.4000835896001
 51
179.5000000000001
  0
LINE
  8
1
  6
CONTINUOUS
 62
     7
 10
-353.9941999845984
 20
-43.05
 11
-353.7956430241425
 21
-20.29762592759277
  0
LINE
  8
1
  6
CONTINUOUS
 62
     7
 10
-357.9943522981412
 20
-43.04999999999998
 11
-353.9941999845984
 21
-43.05
  0
ARC
  8
1
  6
CONTINUOUS
 62
     7
 10
-325.15
 20
-232.05
 40
230.0
 50
90.49823044871026
 51
93.78275844621533
  0
LINE
  8
1
  6
CONTINUOUS
 62
     7
 10
-323.15
 20
1.741628398333223
 11
-323.15
 21
-2.058695816559236
  0
ARC
  8
1
  6
CONTINUOUS
 62
     7
 10
-325.15
 20
-232.05
 40
230.0
 50
89.50176955128985
 51
90.0
  0
ARC
  8
1
  6
CONTINUOUS
 62
     7
 10
-305.7040066680478
 20
-20.37791005417774
 40
9.200000000000001
 50
0.5
 51
43.59991641040028
  0
LINE
  8
1
  6
CONTINUOUS
 62
     7
 10
-309.9760634650574
 20
-2.551085732342695
 11
-299.0416162867523
 21
-14.03341997165569
  0
LINE
  8
1
  6
CONTINUOUS
 62
     7
 10
-296.5043569758575
 20
-20.29762592759271
 11
-296.3058000154017
 21
-43.05
  0
LINE
  8
1
  6
CONTINUOUS
 62
     7
 10
-296.3058000154017
 20
-43.05
 11
-292.3056477018587
 21
-43.05
  0
ARC
  8
1
  6
CONTINUOUS
 62
     7
 10
-325.15
 20
-232.05
 40
229.9999999999999
 50
86.21724155378458
 51
89.50176955128985
  0
LINE
  8
1
  6
CONTINUOUS
 62
     7
 10
-309.9760634650574
 20
-2.551085732342667
 11
-340.3239365349422
 21
-2.551085732342639
  0
LINE
  8
1
  6
CONTINUOUS
 62
     7
 10
-309.15
 20
-61.05000000000002
 11
-309.15
 21
-63.05000000000002
  0
LINE
  8
1
  6
CONTINUOUS
 62
     7
 10
-309.15
 20
-63.05000000000002
 11
-310.15
 21
-63.05
  0
LINE
  8
1
  6
CONTINUOUS
 62
     7
 10
-310.15
 20
-61.04999999999999
 11
-309.15
 21
-61.04999999999999
  0
LINE
  8
1
  6
CONTINUOUS
 62
     7
 10
-314.15
 20
-63.05000000000002
 11
-314.15
 21
-61.05000000000002
  0
LINE
  8
1
  6
CONTINUOUS
 62
     7
 10
-313.15
 20
-63.05
 11
-314.15
 21
-63.05
  0
LINE
  8
1
  6
CONTINUOUS
 62
     7
 10
-314.15
 20
-61.05000000000002
 11
-313.15
 21
-61.04999999999999
  0
LINE
  8
1
  6
CONTINUOUS
 62
     7
 10
-341.1499999999999
 20
-63.05000000000002
 11
-341.1499999999999
 21
-61.05000000000002
  0
LINE
  8
1
  6
CONTINUOUS
 62
     7
 10
-341.1499999999999
 20
-61.05000000000002
 11
-340.1499999999999
 21
-61.04999999999999
  0
LINE
  8
1
  6
CONTINUOUS
 62
     7
 10
-340.1499999999999
 20
-63.05
 11
-341.1499999999999
 21
-63.05
  0
LINE
  8
1
  6
CONTINUOUS
 62
     7
 10
-310.15
 20
-63.05000000000002
 11
-313.15
 21
-63.05000000000002
  0
LINE
  8
1
  6
CONTINUOUS
 62
     7
 10
-313.15
 20
-61.05000000000002
 11
-310.15
 21
-61.05000000000002
  0
LINE
  8
1
  6
CONTINUOUS
 62
     7
 10
-337.1499999999999
 20
-61.05000000000002
 11
-340.1499999999999
 21
-61.05000000000002
  0
LINE
  8
1
  6
CONTINUOUS
 62
     7
 10
-340.1499999999999
 20
-63.05000000000002
 11
-337.1499999999999
 21
-63.05000000000002
  0
LINE
  8
1
  6
CONTINUOUS
 62
     7
 10
-336.1499999999999
 20
-61.05000000000002
 11
-336.1499999999999
 21
-63.05000000000002
  0
LINE
  8
1
  6
CONTINUOUS
 62
     7
 10
-337.1499999999999
 20
-61.04999999999999
 11
-336.1499999999999
 21
-61.04999999999999
  0
LINE
  8
1
  6
CONTINUOUS
 62
     7
 10
-336.1499999999999
 20
-63.05000000000002
 11
-337.1499999999999
 21
-63.05
  0
LINE
  8
1
  6
CONTINUOUS
 62
     7
 10
-315.15
 20
-63.05
 11
-314.15
 21
-63.05
  0
LINE
  8
1
  6
CONTINUOUS
 62
     7
 10
-314.15
 20
-61.04999999999999
 11
-314.1513704652455
 21
-61.04999999999999
  0
LINE
  8
1
  6
CONTINUOUS
 62
     7
 10
-309.15
 20
-63.05
 11
-308.15
 21
-63.05
  0
LINE
  8
1
  6
CONTINUOUS
 62
     7
 10
-309.1486295347545
 20
-61.04999999999999
 11
-309.15
 21
-61.04999999999999
  0
LINE
  8
1
  6
CONTINUOUS
 62
     7
 10
-336.1486295347545
 20
-61.04999999999999
 11
-336.1499999999999
 21
-61.04999999999999
  0
LINE
  8
1
  6
CONTINUOUS
 62
     7
 10
-336.1499999999999
 20
-63.05
 11
-335.1499999999999
 21
-63.05
  0
LINE
  8
1
  6
CONTINUOUS
 62
     7
 10
-341.1499999999999
 20
-61.04999999999999
 11
-341.1513704652454
 21
-61.04999999999999
  0
LINE
  8
1
  6
CONTINUOUS
 62
     7
 10
-342.1499999999999
 20
-63.05
 11
-341.1499999999999
 21
-63.05
  0
LINE
  8
1
  6
CONTINUOUS
 62
     7
 10
-355.65
 20
-59.20470053837929
 11
-355.6500000000001
 21
-63.05
  0
LINE
  8
1
  6
CONTINUOUS
 62
     7
 10
-357.4
 20
-58.19433756729742
 11
-355.65
 21
-59.20470053837929
  0
POLYLINE
  8
1
  6
CONTINUOUS
 62
     7
 66
     1
  0
VERTEX
  8
1
  6
CONTINUOUS
 62
     7
 10
-357.65
 20
-57.76132486540519
  0
VERTEX
  8
1
  6
CONTINUOUS
 62
     7
 10
-357.6495241107909
 20
-57.78313455908787
  0
VERTEX
  8
1
  6
CONTINUOUS
 62
     7
 10
-357.6480973490458
 20
-57.80490273677902
  0
VERTEX
  8
1
  6
CONTINUOUS
 62
     7
 10
-357.6457224306869
 20
-57.82658796151521
  0
VERTEX
  8
1
  6
CONTINUOUS
 62
     7
 10
-357.6424038765061
 20
-57.84814895423865
  0
VERTEX
  8
1
  6
CONTINUOUS
 62
     7
 10
-357.63814800356
 20
-57.86954467237423
  0
VERTEX
  8
1
  6
CONTINUOUS
 62
     7
 10
-357.6329629131445
 20
-57.89073438795644
  0
VERTEX
  8
1
  6
CONTINUOUS
 62
     7
 10
-357.6268584753741
 20
-57.91167776515732
  0
VERTEX
  8
1
  6
CONTINUOUS
 62
     7
 10
-357.619846310393
 20
-57.93233493706803
  0
VERTEX
  8
1
  6
CONTINUOUS
 62
     7
 10
-357.6119397662557
 20
-57.95266658158774
  0
VERTEX
  8
1
  6
CONTINUOUS
 62
     7
 10
-357.6031538935183
 20
-57.97263399627553
  0
VERTEX
  8
1
  6
CONTINUOUS
 62
     7
 10
-357.5935054165891
 20
-57.99219917202269
  0
VERTEX
  8
1
  6
CONTINUOUS
 62
     7
 10
-357.5830127018922
 20
-58.01132486540519
  0
VERTEX
  8
1
  6
CONTINUOUS
 62
     7
 10
-357.5716957229064
 20
-58.0299746695786
  0
VERTEX
  8
1
  6
CONTINUOUS
 62
     7
 10
-357.5595760221445
 20
-58.04811308358071
  0
VERTEX
  8
1
  6
CONTINUOUS
 62
     7
 10
-357.5466766701456
 20
-58.06570557990956
  0
VERTEX
  8
1
  6
CONTINUOUS
 62
     7
 10
-357.5330222215595
 20
-58.08271867024845
  0
VERTEX
  8
1
  6
CONTINUOUS
 62
     7
 10
-357.5186386684051
 20
-58.09911996921302
  0
VERTEX
  8
1
  6
CONTINUOUS
 62
     7
 10
-357.5035533905933
 20
-58.11487825599846
  0
VERTEX
  8
1
  6
CONTINUOUS
 62
     7
 10
-357.4877951038079
 20
-58.12996353381025
  0
VERTEX
  8
1
  6
CONTINUOUS
 62
     7
 10
-357.4713938048433
 20
-58.14434708696467
  0
VERTEX
  8
1
  6
CONTINUOUS
 62
     7
 10
-357.4543807145043
 20
-58.15800153555081
  0
VERTEX
  8
1
  6
CONTINUOUS
 62
     7
 10
-357.4367882181755
 20
-58.17090088754967
  0
VERTEX
  8
1
  6
CONTINUOUS
 62
     7
 10
-357.4186498041734
 20
-58.18302058831162
  0
VERTEX
  8
1
  6
CONTINUOUS
 62
     7
 10
-357.4
 20
-58.19433756729739
  0
SEQEND
  8
1
  6
CONTINUOUS
 62
     7
  0
LINE
  8
1
  6
CONTINUOUS
 62
     7
 10
-357.65
 20
-57.05000000000002
 11
-357.65
 21
-57.76132486540519
  0
LINE
  8
1
  6
CONTINUOUS
 62
     7
 10
-356.7377462375841
 20
-51.87635182233308
 11
-357.65
 21
-57.05000000000002
  0
POLYLINE
  8
1
  6
CONTINUOUS
 62
     7
 66
     1
  0
VERTEX
  8
1
  6
CONTINUOUS
 62
     7
 10
-355.7529384845719
 20
-51.05000000000001
  0
VERTEX
  8
1
  6
CONTINUOUS
 62
     7
 10
-355.8027843702326
 20
-51.05124307878109
  0
VERTEX
  8
1
  6
CONTINUOUS
 62
     7
 10
-355.8525063311677
 20
-51.05496922463459
  0
VERTEX
  8
1
  6
CONTINUOUS
 62
     7
 10
-355.9019807507481
 20
-51.06116917377487
  0
VERTEX
  8
1
  6
CONTINUOUS
 62
     7
 10
-355.9510846277713
 20
-51.06982751215144
  0
VERTEX
  8
1
  6
CONTINUOUS
 62
     7
 10
-355.9996958822622
 20
-51.08092271377093
  0
VERTEX
  8
1
  6
CONTINUOUS
 62
     7
 10
-356.0476936589828
 20
-51.09442719421386
  0
VERTEX
  8
1
  6
CONTINUOUS
 62
     7
 10
-356.0949586278976
 20
-51.1103073792141
  0
VERTEX
  8
1
  6
CONTINUOUS
 62
     7
 10
-356.1413732808466
 20
-51.1285237881296
  0
VERTEX
  8
1
  6
CONTINUOUS
 62
     7
 10
-356.1868222236895
 20
-51.14903113209756
  0
VERTEX
  8
1
  6
CONTINUOUS
 62
     7
 10
-356.2311924631932
 20
-51.17177842662976
  0
VERTEX
  8
1
  6
CONTINUOUS
 62
     7
 10
-356.2743736879514
 20
-51.19670911836785
  0
VERTEX
  8
1
  6
CONTINUOUS
 62
     7
 10
-356.3162585426355
 20
-51.22376122568401
  0
VERTEX
  8
1
  6
CONTINUOUS
 62
     7
 10
-356.3567428948974
 20
-51.25286749277708
  0
VERTEX
  8
1
  6
CONTINUOUS
 62
     7
 10
-356.3957260942585
 20
-51.283955556881
  0
VERTEX
  8
1
  6
CONTINUOUS
 62
     7
 10
-356.4331112223428
 20
-51.31694812817017
  0
VERTEX
  8
1
  6
CONTINUOUS
 62
     7
 10
-356.4688053338316
 20
-51.35176318191392
  0
VERTEX
  8
1
  6
CONTINUOUS
 62
     7
 10
-356.5027196875396
 20
-51.38831416240313
  0
VERTEX
  8
1
  6
CONTINUOUS
 62
     7
 10
-356.5347699670399
 20
-51.42651019814126
  0
VERTEX
  8
1
  6
CONTINUOUS
 62
     7
 10
-356.5648764902878
 20
-51.46625632776522
  0
VERTEX
  8
1
  6
CONTINUOUS
 62
     7
 10
-356.5929644077227
 20
-51.50745373613425
  0
VERTEX
  8
1
  6
CONTINUOUS
 62
     7
 10
-356.6189638883563
 20
-51.54999999999998
  0
VERTEX
  8
1
  6
CONTINUOUS
 62
     7
 10
-356.6428102933834
 20
-51.59378934264683
  0
VERTEX
  8
1
  6
CONTINUOUS
 62
     7
 10
-356.6644443368836
 20
-51.63871289686939
  0
VERTEX
  8
1
  6
CONTINUOUS
 62
     7
 10
-356.6838122332161
 20
-51.6846589756336
  0
VERTEX
  8
1
  6
CONTINUOUS
 62
     7
 10
-356.700865830739
 20
-51.73151334974832
  0
VERTEX
  8
1
  6
CONTINUOUS
 62
     7
 10
-356.7155627315219
 20
-51.77915953185699
  0
VERTEX
  8
1
  6
CONTINUOUS
 62
     7
 10
-356.7278663967537
 20
-51.82747906604368
  0
VERTEX
  8
1
  6
CONTINUOUS
 62
     7
 10
-356.7377462375841
 20
-51.87635182233305
  0
SEQEND
  8
1
  6
CONTINUOUS
 62
     7
  0
LINE
  8
1
  6
CONTINUOUS
 62
     7
 10
-352.3114984467487
 20
-51.05000000000001
 11
-355.7529384845719
 21
-51.05000000000001
  0
ARC
  8
1
  6
CONTINUOUS
 62
     7
 10
-352.3114984467487
 20
-52.04999999999998
 40
1.0
 50
14.99999999999872
 51
90.0
  0
LINE
  8
1
  6
CONTINUOUS
 62
     7
 10
-351.3455726204596
 20
-51.79118095489748
 11
-349.6685271117519
 21
-58.04999999999999
  0
LINE
  8
1
  6
CONTINUOUS
 62
     7
 10
-349.6685271117519
 20
-58.04999999999999
 11
-325.45
 21
-58.05000000000002
  0
LINE
  8
1
  6
CONTINUOUS
 62
     7
 10
-325.15
 20
-58.35000000000001
 11
-325.45
 21
-58.05000000000002
  0
LINE
  8
1
  6
CONTINUOUS
 62
     7
 10
-324.85
 20
-58.05000000000002
 11
-325.15
 21
-58.35000000000001
  0
LINE
  8
1
  6
CONTINUOUS
 62
     7
 10
-324.85
 20
-58.05000000000002
 11
-300.631472888248
 21
-58.04999999999999
  0
LINE
  8
1
  6
CONTINUOUS
 62
     7
 10
-300.631472888248
 20
-58.04999999999999
 11
-298.9544273795403
 21
-51.79118095489748
  0
ARC
  8
1
  6
CONTINUOUS
 62
     7
 10
-297.9885015532512
 20
-52.04999999999998
 40
1.0
 50
90.0
 51
165.0000000000013
  0
LINE
  8
1
  6
CONTINUOUS
 62
     7
 10
-294.5470615154281
 20
-51.05000000000001
 11
-297.9885015532512
 21
-51.05000000000001
  0
POLYLINE
  8
1
  6
CONTINUOUS
 62
     7
 66
     1
  0
VERTEX
  8
1
  6
CONTINUOUS
 62
     7
 10
-293.5622537624158
 20
-51.87635182233308
  0
VERTEX
  8
1
  6
CONTINUOUS
 62
     7
 10
-293.5721336032462
 20
-51.82747906604368
  0
VERTEX
  8
1
  6
CONTINUOUS
 62
     7
 10
-293.584437268478
 20
-51.77915953185699
  0
VERTEX
  8
1
  6
CONTINUOUS
 62
     7
 10
-293.5991341692609
 20
-51.73151334974832
  0
VERTEX
  8
1
  6
CONTINUOUS
 62
     7
 10
-293.6161877667839
 20
-51.6846589756336
  0
VERTEX
  8
1
  6
CONTINUOUS
 62
     7
 10
-293.6355556631164
 20
-51.63871289686939
  0
VERTEX
  8
1
  6
CONTINUOUS
 62
     7
 10
-293.6571897066166
 20
-51.59378934264683
  0
VERTEX
  8
1
  6
CONTINUOUS
 62
     7
 10
-293.6810361116437
 20
-51.54999999999998
  0
VERTEX
  8
1
  6
CONTINUOUS
 62
     7
 10
-293.7070355922773
 20
-51.50745373613425
  0
VERTEX
  8
1
  6
CONTINUOUS
 62
     7
 10
-293.7351235097122
 20
-51.46625632776522
  0
VERTEX
  8
1
  6
CONTINUOUS
 62
     7
 10
-293.7652300329601
 20
-51.42651019814126
  0
VERTEX
  8
1
  6
CONTINUOUS
 62
     7
 10
-293.7972803124603
 20
-51.38831416240313
  0
VERTEX
  8
1
  6
CONTINUOUS
 62
     7
 10
-293.8311946661684
 20
-51.35176318191392
  0
VERTEX
  8
1
  6
CONTINUOUS
 62
     7
 10
-293.8668887776572
 20
-51.31694812817017
  0
VERTEX
  8
1
  6
CONTINUOUS
 62
     7
 10
-293.9042739057415
 20
-51.283955556881
  0
VERTEX
  8
1
  6
CONTINUOUS
 62
     7
 10
-293.9432571051026
 20
-51.25286749277708
  0
VERTEX
  8
1
  6
CONTINUOUS
 62
     7
 10
-293.9837414573644
 20
-51.22376122568401
  0
VERTEX
  8
1
  6
CONTINUOUS
 62
     7
 10
-294.0256263120486
 20
-51.19670911836785
  0
VERTEX
  8
1
  6
CONTINUOUS
 62
     7
 10
-294.0688075368067
 20
-51.17177842662976
  0
VERTEX
  8
1
  6
CONTINUOUS
 62
     7
 10
-294.1131777763105
 20
-51.14903113209756
  0
VERTEX
  8
1
  6
CONTINUOUS
 62
     7
 10
-294.1586267191534
 20
-51.1285237881296
  0
VERTEX
  8
1
  6
CONTINUOUS
 62
     7
 10
-294.2050413721024
 20
-51.1103073792141
  0
VERTEX
  8
1
  6
CONTINUOUS
 62
     7
 10
-294.2523063410172
 20
-51.09442719421386
  0
VERTEX
  8
1
  6
CONTINUOUS
 62
     7
 10
-294.3003041177378
 20
-51.08092271377093
  0
VERTEX
  8
1
  6
CONTINUOUS
 62
     7
 10
-294.3489153722287
 20
-51.06982751215144
  0
VERTEX
  8
1
  6
CONTINUOUS
 62
     7
 10
-294.3980192492519
 20
-51.06116917377487
  0
VERTEX
  8
1
  6
CONTINUOUS
 62
     7
 10
-294.4474936688323
 20
-51.05496922463459
  0
VERTEX
  8
1
  6
CONTINUOUS
 62
     7
 10
-294.4972156297674
 20
-51.05124307878109
  0
VERTEX
  8
1
  6
CONTINUOUS
 62
     7
 10
-294.5470615154281
 20
-51.05000000000001
  0
SEQEND
  8
1
  6
CONTINUOUS
 62
     7
  0
LINE
  8
1
  6
CONTINUOUS
 62
     7
 10
-292.65
 20
-57.05000000000002
 11
-293.5622537624158
 21
-51.87635182233308
  0
LINE
  8
1
  6
CONTINUOUS
 62
     7
 10
-292.65
 20
-57.76132486540519
 11
-292.65
 21
-57.05000000000002
  0
POLYLINE
  8
1
  6
CONTINUOUS
 62
     7
 66
     1
  0
VERTEX
  8
1
  6
CONTINUOUS
 62
     7
 10
-292.9
 20
-58.19433756729742
  0
VERTEX
  8
1
  6
CONTINUOUS
 62
     7
 10
-292.8813501958265
 20
-58.18302058831162
  0
VERTEX
  8
1
  6
CONTINUOUS
 62
     7
 10
-292.8632117818244
 20
-58.17090088754967
  0
VERTEX
  8
1
  6
CONTINUOUS
 62
     7
 10
-292.8456192854956
 20
-58.15800153555081
  0
VERTEX
  8
1
  6
CONTINUOUS
 62
     7
 10
-292.8286061951567
 20
-58.14434708696467
  0
VERTEX
  8
1
  6
CONTINUOUS
 62
     7
 10
-292.8122048961922
 20
-58.12996353381025
  0
VERTEX
  8
1
  6
CONTINUOUS
 62
     7
 10
-292.7964466094068
 20
-58.11487825599846
  0
VERTEX
  8
1
  6
CONTINUOUS
 62
     7
 10
-292.781361331595
 20
-58.09911996921302
  0
VERTEX
  8
1
  6
CONTINUOUS
 62
     7
 10
-292.7669777784405
 20
-58.08271867024845
  0
VERTEX
  8
1
  6
CONTINUOUS
 62
     7
 10
-292.7533233298544
 20
-58.06570557990956
  0
VERTEX
  8
1
  6
CONTINUOUS
 62
     7
 10
-292.7404239778555
 20
-58.04811308358071
  0
VERTEX
  8
1
  6
CONTINUOUS
 62
     7
 10
-292.7283042770936
 20
-58.0299746695786
  0
VERTEX
  8
1
  6
CONTINUOUS
 62
     7
 10
-292.7169872981078
 20
-58.01132486540519
  0
VERTEX
  8
1
  6
CONTINUOUS
 62
     7
 10
-292.7064945834109
 20
-57.99219917202269
  0
VERTEX
  8
1
  6
CONTINUOUS
 62
     7
 10
-292.6968461064816
 20
-57.97263399627553
  0
VERTEX
  8
1
  6
CONTINUOUS
 62
     7
 10
-292.6880602337443
 20
-57.95266658158774
  0
VERTEX
  8
1
  6
CONTINUOUS
 62
     7
 10
-292.680153689607
 20
-57.93233493706803
  0
VERTEX
  8
1
  6
CONTINUOUS
 62
     7
 10
-292.6731415246259
 20
-57.91167776515732
  0
VERTEX
  8
1
  6
CONTINUOUS
 62
     7
 10
-292.6670370868555
 20
-57.89073438795644
  0
VERTEX
  8
1
  6
CONTINUOUS
 62
     7
 10
-292.66185199644
 20
-57.86954467237423
  0
VERTEX
  8
1
  6
CONTINUOUS
 62
     7
 10
-292.6575961234939
 20
-57.84814895423865
  0
VERTEX
  8
1
  6
CONTINUOUS
 62
     7
 10
-292.6542775693131
 20
-57.82658796151521
  0
VERTEX
  8
1
  6
CONTINUOUS
 62
     7
 10
-292.6519026509541
 20
-57.80490273677902
  0
VERTEX
  8
1
  6
CONTINUOUS
 62
     7
 10
-292.6504758892091
 20
-57.78313455908787
  0
VERTEX
  8
1
  6
CONTINUOUS
 62
     7
 10
-292.65
 20
-57.76132486540519
  0
SEQEND
  8
1
  6
CONTINUOUS
 62
     7
  0
LINE
  8
1
  6
CONTINUOUS
 62
     7
 10
-294.65
 20
-59.20470053837929
 11
-292.9
 21
-58.19433756729742
  0
LINE
  8
1
  6
CONTINUOUS
 62
     7
 10
-294.6500000000002
 20
-63.05
 11
-294.65
 21
-59.20470053837929
  0
LINE
  8
1
  6
CONTINUOUS
 62
     7
 10
-355.6500000000001
 20
-63.05
 11
-342.1499999999999
 21
-63.05
  0
LINE
  8
1
  6
CONTINUOUS
 62
     7
 10
-335.1499999999999
 20
-63.05
 11
-315.15
 21
-63.05
  0
LINE
  8
1
  6
CONTINUOUS
 62
     7
 10
-308.15
 20
-63.05
 11
-294.6500000000002
 21
-63.05
  0
LINE
  8
1
  6
CONTINUOUS
 62
     7
 10
-303.05
 20
-63.05
 11
-303.05
 21
-63.14999999999998
  0
ARC
  8
1
  6
CONTINUOUS
 62
     7
 10
-347.15
 20
-63.14999999999998
 40
0.1000000000000167
 50
180.0
 51
270.0
  0
LINE
  8
1
  6
CONTINUOUS
 62
     7
 10
-347.15
 20
-63.25
 11
-303.15
 21
-63.25
  0
ARC
  8
1
  6
CONTINUOUS
 62
     7
 10
-303.15
 20
-63.14999999999998
 40
0.099999999999989
 50
269.999999999996
 51
0.0
  0
LINE
  8
1
  6
CONTINUOUS
 62
     7
 10
-347.25
 20
-63.14999999999998
 11
-347.25
 21
-63.05
  0
LINE
  8
1
  6
CONTINUOUS
 62
     7
 10
-294.45
 20
-61.04999999999999
 11
-294.6500000000002
 21
-61.04999999999999
  0
LINE
  8
1
  6
CONTINUOUS
 62
     7
 10
-294.6500000000002
 20
-63.05
 11
-293.65
 21
-63.05
  0
LINE
  8
1
  6
CONTINUOUS
 62
     7
 10
-355.6500000000001
 20
-61.04999999999999
 11
-355.85
 21
-61.04999999999999
  0
LINE
  8
1
  6
CONTINUOUS
 62
     7
 10
-356.65
 20
-63.05
 11
-355.6500000000001
 21
-63.05
  0
LINE
  8
1
  6
CONTINUOUS
 62
     7
 10
-356.65
 20
-63.05
 11
-357.75
 21
-63.05
  0
LINE
  8
1
  6
CONTINUOUS
 62
     7
 10
-292.55
 20
-63.05
 11
-293.65
 21
-63.05
  0
LINE
  8
1
  6
CONTINUOUS
 62
     9
 10
-402.15
 20
-63.14999999999998
 11
-358.15
 21
-63.14999999999998
  0
LINE
  8
1
  6
CONTINUOUS
 62
     9
 10
-358.15
 20
-63.24999999999997
 11
-358.15
 21
-63.14999999999998
  0
LINE
  8
1
  6
CONTINUOUS
 62
     7
 10
-402.15
 20
-63.25
 11
-358.15
 21
-63.25
  0
LINE
  8
1
  6
CONTINUOUS
 62
     9
 10
-402.15
 20
-63.14999999999998
 11
-402.15
 21
-63.25
  0
ARC
  8
1
  6
CONTINUOUS
 62
     7
 10
-402.15
 20
-63.14999999999998
 40
0.099999999999989
 50
180.0
 51
270.0
  0
LINE
  8
1
  6
CONTINUOUS
 62
     9
 10
-402.15
 20
-63.14999999999998
 11
-402.25
 21
-63.14999999999998
  0
LINE
  8
1
  6
CONTINUOUS
 62
     9
 10
-402.15
 20
-63.05
 11
-402.15
 21
-63.14999999999998
  0
LINE
  8
1
  6
CONTINUOUS
 62
     7
 10
-402.25
 20
-63.14999999999998
 11
-402.25
 21
-63.05
  0
LINE
  8
1
  6
CONTINUOUS
 62
     9
 10
-358.05
 20
-63.14999999999998
 11
-358.15
 21
-63.14999999999998
  0
ARC
  8
1
  6
CONTINUOUS
 62
     7
 10
-358.15
 20
-63.14999999999998
 40
0.099999999999989
 50
270.0
 51
0.0
  0
LINE
  8
1
  6
CONTINUOUS
 62
     9
 10
-358.15
 20
-63.14999999999998
 11
-358.15
 21
-63.05
  0
LINE
  8
1
  6
CONTINUOUS
 62
     7
 10
-358.05
 20
-63.05
 11
-358.05
 21
-63.14999999999998
  0
LINE
  8
1
  6
CONTINUOUS
 62
     7
 10
-248.05
 20
-63.05
 11
-248.05
 21
-63.14999999999998
  0
LINE
  8
1
  6
CONTINUOUS
 62
     9
 10
-248.05
 20
-63.14999999999998
 11
-248.15
 21
-63.14999999999998
  0
LINE
  8
1
  6
CONTINUOUS
 62
     9
 10
-248.15
 20
-63.14999999999998
 11
-248.15
 21
-63.05
  0
LINE
  8
1
  6
CONTINUOUS
 62
     7
 10
-292.15
 20
-63.25
 11
-248.15
 21
-63.25
  0
LINE
  8
1
  6
CONTINUOUS
 62
     9
 10
-292.15
 20
-63.25
 11
-292.15
 21
-63.14999999999998
  0
LINE
  8
1
  6
CONTINUOUS
 62
     9
 10
-292.15
 20
-63.14999999999998
 11
-248.15
 21
-63.14999999999998
  0
LINE
  8
1
  6
CONTINUOUS
 62
     9
 10
-248.15
 20
-63.24999999999997
 11
-248.15
 21
-63.14999999999998
  0
ARC
  8
1
  6
CONTINUOUS
 62
     7
 10
-248.15
 20
-63.14999999999998
 40
0.099999999999989
 50
270.0
 51
0.0
  0
LINE
  8
1
  6
CONTINUOUS
 62
     9
 10
-292.15
 20
-63.05
 11
-292.15
 21
-63.14999999999998
  0
LINE
  8
1
  6
CONTINUOUS
 62
     9
 10
-292.25
 20
-63.14999999999998
 11
-292.15
 21
-63.14999999999998
  0
LINE
  8
1
  6
CONTINUOUS
 62
     7
 10
-292.25
 20
-63.14999999999998
 11
-292.25
 21
-63.05
  0
ARC
  8
1
  6
CONTINUOUS
 62
     7
 10
-292.15
 20
-63.14999999999998
 40
0.099999999999989
 50
180.0
 51
270.0
  0
LINE
  8
1
  6
CONTINUOUS
 62
     7
 10
-352.3114984467487
 20
-51.04999999999995
 11
-351.2372686779077
 21
-51.04999999999976
  0
LINE
  8
1
  6
CONTINUOUS
 62
     7
 10
-351.226936620293
 20
-52.23393653512606
 11
-351.2372686779077
 21
-51.04999999999976
  0
LINE
  8
1
  6
CONTINUOUS
 62
     7
 10
-299.073063379707
 20
-52.23393653512631
 11
-299.0627313220923
 21
-51.04999999999976
  0
LINE
  8
1
  6
CONTINUOUS
 62
     7
 10
-299.0627313220923
 20
-51.04999999999976
 11
-297.9885015532512
 21
-51.04999999999956
  0
LINE
  8
1
  6
CONTINUOUS
 62
     7
 10
-351.2372686779077
 20
-51.04999999999976
 11
-299.0627313220923
 21
-51.04999999999976
  0
LINE
  8
1
  6
CONTINUOUS
 62
     7
 10
-292.5086448032734
 20
-19.78883616872659
 11
-292.1311103460436
 21
-63.05
  0
ARC
  8
1
  6
CONTINUOUS
 62
     7
 10
-304.5081878800435
 20
-19.89355459470707
 40
12.0
 50
0.5000000000000568
 51
43.59991641040028
  0
LINE
  8
1
  6
CONTINUOUS
 62
     7
 10
-308.1499999999999
 20
1.331661661750944
 11
-295.8181134696581
 21
-11.61813274793919
  0
ARC
  8
1
  6
CONTINUOUS
 62
     7
 10
-325.15
 20
-232.05
 40
234.0000000000001
 50
85.83381578248009
 51
94.16618421751986
  0
LINE
  8
1
  6
CONTINUOUS
 62
     7
 10
-354.481886530342
 20
-11.61813274793919
 11
-342.15
 21
1.331661661750888
  0
ARC
  8
1
  6
CONTINUOUS
 62
     7
 10
-345.7918121199565
 20
-19.89355459470707
 40
12.0
 50
136.4000835895996
 51
179.5
  0
LINE
  8
1
  6
CONTINUOUS
 62
     7
 10
-358.1688896539565
 20
-63.04999999999991
 11
-357.7913551967266
 21
-19.78883616872659
  0
LINE
  8
1
  6
CONTINUOUS
 62
     7
 10
-358.1688896539565
 20
-63.04999999999991
 11
-359.4696242493141
 21
-63.05
  0
LINE
  8
1
  6
CONTINUOUS
 62
     7
 10
-292.1311103460436
 20
-63.05
 11
-290.8303757506858
 21
-63.05
  0
LINE
  8
1
  6
CONTINUOUS
 62
     7
 10
-289.7087514186938
 20
-19.76440186933112
 11
-289.3310037265635
 21
-63.05
  0
LINE
  8
1
  6
CONTINUOUS
 62
     7
 10
-289.3310037265635
 20
-63.05
 11
-290.8303757506858
 21
-63.05
  0
LINE
  8
1
  6
CONTINUOUS
 62
     7
 10
-360.9689962734365
 20
-63.05
 11
-360.5912485813062
 21
-19.76440186933112
  0
LINE
  8
1
  6
CONTINUOUS
 62
     7
 10
-359.4696242493141
 20
-63.05
 11
-360.9689962734365
 21
-63.05
  0
ARC
  8
1
  6
CONTINUOUS
 62
     7
 10
-345.7918121199564
 20
-19.89355459470704
 40
14.8
 50
136.4000835896001
 51
179.5000000000002
  0
ARC
  8
1
  6
CONTINUOUS
 62
     7
 10
-304.5081878800435
 20
-19.89355459470704
 40
14.8
 50
0.4999999999998295
 51
43.59991641039989
  0
LINE
  8
1
  6
CONTINUOUS
 62
     7
 10
-356.5095705594319
 20
-9.687200983693328
 11
-343.4344892403421
 21
4.04302711689683
  0
LINE
  8
1
  6
CONTINUOUS
 62
     7
 10
-343.4344892403421
 20
4.04302711689683
 11
-343.4341992826007
 21
4.043049572820173
  0
LINE
  8
1
  6
CONTINUOUS
 62
     7
 10
-306.8658007173993
 20
4.043049572820173
 11
-306.8655107596579
 21
4.04302711689683
  0
LINE
  8
1
  6
CONTINUOUS
 62
     7
 10
-306.8655107596579
 20
4.04302711689683
 11
-293.7904294405681
 21
-9.687200983693328
  0
ARC
  8
1
  6
CONTINUOUS
 62
     7
 10
-325.15
 20
-232.05
 40
236.8
 50
85.57157424968796
 51
94.42842575031216
  0
POLYLINE
  8
1
  6
CONTINUOUS
 62
     7
 66
     1
  0
VERTEX
  8
1
  6
CONTINUOUS
 62
     7
 10
-358.1208295022664
 20
-57.54285209283447
  0
VERTEX
  8
1
  6
CONTINUOUS
 62
     7
 10
-358.1205375763035
 20
-57.56484680215701
  0
VERTEX
  8
1
  6
CONTINUOUS
 62
     7
 10
-358.1192785472663
 20
-57.58680738741412
  0
VERTEX
  8
1
  6
CONTINUOUS
 62
     7
 10
-358.117054851892
 20
-57.60869134587307
  0
VERTEX
  8
1
  6
CONTINUOUS
 62
     7
 10
-358.1138707939425
 20
-57.63045632310543
  0
VERTEX
  8
1
  6
CONTINUOUS
 62
     7
 10
-358.1097325358749
 20
-57.65206019496016
  0
VERTEX
  8
1
  6
CONTINUOUS
 62
     7
 10
-358.1046480869144
 20
-57.67346114909122
  0
VERTEX
  8
1
  6
CONTINUOUS
 62
     7
 10
-358.0986272875538
 20
-57.6946177658815
  0
VERTEX
  8
1
  6
CONTINUOUS
 62
     7
 10
-358.0916817905073
 20
-57.71548909860671
  0
VERTEX
  8
1
  6
CONTINUOUS
 62
     7
 10
-358.0838250381581
 20
-57.73603475268427
  0
VERTEX
  8
1
  6
CONTINUOUS
 62
     7
 10
-358.075072236542
 20
-57.75621496385313
  0
VERTEX
  8
1
  6
CONTINUOUS
 62
     7
 10
-358.0654403259175
 20
-57.7759906751342
  0
VERTEX
  8
1
  6
CONTINUOUS
 62
     7
 10
-358.0549479479789
 20
-57.79532361242126
  0
VERTEX
  8
1
  6
CONTINUOUS
 62
     7
 10
-358.0436154097778
 20
-57.81417635855737
  0
VERTEX
  8
1
  6
CONTINUOUS
 62
     7
 10
-358.0314646444202
 20
-57.83251242575224
  0
VERTEX
  8
1
  6
CONTINUOUS
 62
     7
 10
-358.0185191686168
 20
-57.85029632620106
  0
VERTEX
  8
1
  6
CONTINUOUS
 62
     7
 10
-358.0048040371687
 20
-57.86749364076795
  0
VERTEX
  8
1
  6
CONTINUOUS
 62
     7
 10
-357.9903457944764
 20
-57.8840710856012
  0
VERTEX
  8
1
  6
CONTINUOUS
 62
     7
 10
-357.9751724231648
 20
-57.89999657655101
  0
VERTEX
  8
1
  6
CONTINUOUS
 62
     7
 10
-357.9593132899261
 20
-57.91523929126554
  0
VERTEX
  8
1
  6
CONTINUOUS
 62
     7
 10
-357.9427990886828
 20
-57.92976972884481
  0
VERTEX
  8
1
  6
CONTINUOUS
 62
     7
 10
-357.9256617811823
 20
-57.94355976693705
  0
VERTEX
  8
1
  6
CONTINUOUS
 62
     7
 10
-357.9079345351382
 20
-57.95658271616683
  0
VERTEX
  8
1
  6
CONTINUOUS
 62
     7
 10
-357.8896516600367
 20
-57.96881337179016
  0
VERTEX
  8
1
  6
CONTINUOUS
 62
     7
 10
-357.8708485407344
 20
-57.98022806247588
  0
SEQEND
  8
1
  6
CONTINUOUS
 62
     7
  0
ARC
  8
1
  6
CONTINUOUS
 62
     9
 10
-357.6208485407344
 20
-57.55157862833285
 40
1.0
 50
239.4974808661901
 51
239.9999999999993
  0
ARC
  8
1
  6
CONTINUOUS
 62
     9
 10
-292.6791514592657
 20
-57.55157862833285
 40
1.0
 50
300.0000000000007
 51
300.5025191338099
  0
POLYLINE
  8
1
  6
CONTINUOUS
 62
     7
 66
     1
  0
VERTEX
  8
1
  6
CONTINUOUS
 62
     7
 10
-292.4291514592656
 20
-57.98022806247588
  0
VERTEX
  8
1
  6
CONTINUOUS
 62
     7
 10
-292.4103483399632
 20
-57.96881337179016
  0
VERTEX
  8
1
  6
CONTINUOUS
 62
     7
 10
-292.3920654648618
 20
-57.95658271616683
  0
VERTEX
  8
1
  6
CONTINUOUS
 62
     7
 10
-292.3743382188177
 20
-57.94355976693705
  0
VERTEX
  8
1
  6
CONTINUOUS
 62
     7
 10
-292.3572009113172
 20
-57.92976972884481
  0
VERTEX
  8
1
  6
CONTINUOUS
 62
     7
 10
-292.3406867100738
 20
-57.91523929126554
  0
VERTEX
  8
1
  6
CONTINUOUS
 62
     7
 10
-292.3248275768352
 20
-57.89999657655101
  0
VERTEX
  8
1
  6
CONTINUOUS
 62
     7
 10
-292.3096542055236
 20
-57.8840710856012
  0
VERTEX
  8
1
  6
CONTINUOUS
 62
     7
 10
-292.2951959628313
 20
-57.86749364076795
  0
VERTEX
  8
1
  6
CONTINUOUS
 62
     7
 10
-292.2814808313831
 20
-57.85029632620106
  0
VERTEX
  8
1
  6
CONTINUOUS
 62
     7
 10
-292.2685353555797
 20
-57.83251242575224
  0
VERTEX
  8
1
  6
CONTINUOUS
 62
     7
 10
-292.2563845902221
 20
-57.81417635855737
  0
VERTEX
  8
1
  6
CONTINUOUS
 62
     7
 10
-292.245052052021
 20
-57.79532361242126
  0
VERTEX
  8
1
  6
CONTINUOUS
 62
     7
 10
-292.2345596740825
 20
-57.7759906751342
  0
VERTEX
  8
1
  6
CONTINUOUS
 62
     7
 10
-292.224927763458
 20
-57.75621496385313
  0
VERTEX
  8
1
  6
CONTINUOUS
 62
     7
 10
-292.2161749618419
 20
-57.73603475268427
  0
VERTEX
  8
1
  6
CONTINUOUS
 62
     7
 10
-292.2083182094927
 20
-57.71548909860671
  0
VERTEX
  8
1
  6
CONTINUOUS
 62
     7
 10
-292.2013727124462
 20
-57.6946177658815
  0
VERTEX
  8
1
  6
CONTINUOUS
 62
     7
 10
-292.1953519130855
 20
-57.67346114909122
  0
VERTEX
  8
1
  6
CONTINUOUS
 62
     7
 10
-292.1902674641251
 20
-57.65206019496016
  0
VERTEX
  8
1
  6
CONTINUOUS
 62
     7
 10
-292.1861292060574
 20
-57.6304563231054
  0
VERTEX
  8
1
  6
CONTINUOUS
 62
     7
 10
-292.182945148108
 20
-57.60869134587304
  0
VERTEX
  8
1
  6
CONTINUOUS
 62
     7
 10
-292.1807214527337
 20
-57.58680738741409
  0
VERTEX
  8
1
  6
CONTINUOUS
 62
     7
 10
-292.1794624236965
 20
-57.56484680215701
  0
VERTEX
  8
1
  6
CONTINUOUS
 62
     7
 10
-292.1791704977335
 20
-57.54285209283447
  0
SEQEND
  8
1
  6
CONTINUOUS
 62
     7
  0
LINE
  8
1
  6
CONTINUOUS
 62
     7
 10
-357.8708485407344
 20
-57.98022806247588
 11
-355.85
 21
-59.14696551146029
  0
POLYLINE
  8
1
  6
CONTINUOUS
 62
     7
 10
0.0
 20
0.0
 30
0.0
 66
     1
 70
     8
  0
VERTEX
  8
1
  6
CONTINUOUS
 62
     7
 10
-355.85
 20
-59.14696551146029
 30
0.0
 70
    32
  0
VERTEX
  8
1
  6
CONTINUOUS
 62
     7
 10
-355.85
 20
-59.14698199917867
 30
0.0
 70
    32
  0
SEQEND
  8
1
  6
CONTINUOUS
 62
     7
  0
POLYLINE
  8
1
  6
CONTINUOUS
 62
     7
 10
0.0
 20
0.0
 30
0.0
 66
     1
 70
     8
  0
VERTEX
  8
1
  6
CONTINUOUS
 62
     7
 10
-294.45
 20
-59.1469819991787
 30
0.0
 70
    32
  0
VERTEX
  8
1
  6
CONTINUOUS
 62
     7
 10
-294.45
 20
-59.14696551146032
 30
0.0
 70
    32
  0
SEQEND
  8
1
  6
CONTINUOUS
 62
     7
  0
LINE
  8
1
  6
CONTINUOUS
 62
     7
 10
-294.45
 20
-59.14696551146029
 11
-292.4291514592656
 21
-57.98022806247588
  0
POLYLINE
  8
1
  6
CONTINUOUS
 62
     7
 10
0.0
 20
0.0
 30
0.0
 66
     1
 70
     8
  0
VERTEX
  8
1
  6
CONTINUOUS
 62
     7
 10
-294.4499904808566
 20
-61.15000951914335
 30
0.0
 70
    32
  0
VERTEX
  8
1
  6
CONTINUOUS
 62
     7
 10
-294.45
 20
-61.15000000000001
 30
0.0
 70
    32
  0
SEQEND
  8
1
  6
CONTINUOUS
 62
     7
  0
LINE
  8
1
  6
CONTINUOUS
 62
     7
 10
-294.45
 20
-61.14999999999998
 11
-294.45
 21
-59.1469819991787
  0
LINE
  8
1
  6
CONTINUOUS
 62
     7
 10
-355.85
 20
-59.14698199917867
 11
-355.85
 21
-61.14999999999998
  0
POLYLINE
  8
1
  6
CONTINUOUS
 62
     7
 10
0.0
 20
0.0
 30
0.0
 66
     1
 70
     8
  0
VERTEX
  8
1
  6
CONTINUOUS
 62
     7
 10
-355.85
 20
-61.14999999999998
 30
0.0
 70
    32
  0
VERTEX
  8
1
  6
CONTINUOUS
 62
     7
 10
-355.8500095191433
 20
-61.15000951914335
 30
0.0
 70
    32
  0
SEQEND
  8
1
  6
CONTINUOUS
 62
     7
  0
LINE
  8
1
  6
CONTINUOUS
 62
     7
 10
-355.8500095191433
 20
-61.15000951914335
 11
-357.75
 21
-63.05
  0
LINE
  8
1
  6
CONTINUOUS
 62
     7
 10
-357.75
 20
-63.05
 11
-358.1688896539568
 21
-63.05
  0
LINE
  8
1
  6
CONTINUOUS
 62
     7
 10
-292.55
 20
-63.05
 11
-294.4499904808566
 21
-61.15000951914335
  0
LINE
  8
1
  6
CONTINUOUS
 62
     7
 10
-292.1311103460432
 20
-63.05
 11
-292.55
 21
-63.05
  0
LINE
  8
1
  6
CONTINUOUS
 62
     9
 10
-315.15
 20
1.640400210560944
 11
-315.248
 21
1.640400210560944
  0
LINE
  8
1
  6
CONTINUOUS
 62
     7
 10
-335.0403501122285
 20
1.568705848179391
 11
-335.0394484431246
 21
1.547835460500135
  0
LINE
  8
1
  6
CONTINUOUS
 62
     7
 10
-335.1411009368769
 20
1.63239354440306
 11
-335.15
 21
1.736227139239321
  0
LINE
  8
1
  6
CONTINUOUS
 62
     9
 10
-315.2521487349752
 20
1.540579333652203
 11
-315.248
 21
1.640400210560916
  0
ARC
  8
1
  6
CONTINUOUS
 62
     7
 10
-325.15
 20
-232.05
 40
233.8001828680728
 50
89.99851894767313
 51
90.00148105232688
  0
LINE
  8
1
  6
CONTINUOUS
 62
     7
 10
-315.15
 20
1.736227139239321
 11
-315.15
 21
1.640400210560944
  0
ARC
  8
1
  6
CONTINUOUS
 62
     7
 10
-325.15
 20
1.850000000000046
 40
0.0999999999999897
 50
266.5351855834319
 51
269.9999999999649
  0
ARC
  8
1
  6
CONTINUOUS
 62
     7
 10
-325.15
 20
1.850000000000046
 40
0.099999999999989
 50
269.9999999999649
 51
273.4648144165679
  0
POLYLINE
  8
1
  6
CONTINUOUS
 62
     7
 10
0.0
 20
0.0
 30
0.0
 66
     1
 70
     8
  0
VERTEX
  8
1
  6
CONTINUOUS
 62
     7
 10
-355.85
 20
-61.15000000000001
 30
0.0
 70
    32
  0
VERTEX
  8
1
  6
CONTINUOUS
 62
     7
 10
-355.8500095191433
 20
-61.15000951914335
 30
0.0
 70
    32
  0
SEQEND
  8
1
  6
CONTINUOUS
 62
     7
  0
POLYLINE
  8
1
  6
CONTINUOUS
 62
     7
 10
0.0
 20
0.0
 30
0.0
 66
     1
 70
     8
  0
VERTEX
  8
1
  6
CONTINUOUS
 62
     7
 10
-294.4499904808566
 20
-61.15000951914335
 30
0.0
 70
    32
  0
VERTEX
  8
1
  6
CONTINUOUS
 62
     7
 10
-294.45
 20
-61.15000000000001
 30
0.0
 70
    32
  0
SEQEND
  8
1
  6
CONTINUOUS
 62
     7
  0
LINE
  8
1
  6
CONTINUOUS
 62
     7
 10
-292.3615568212599
 20
-48.10231449083435
 11
-292.3115644365021
 21
-48.10144187051249
  0
LINE
  8
1
  6
CONTINUOUS
 62
     7
 10
-357.9384431787401
 20
-48.10231449083435
 11
-357.9884355634979
 21
-48.10144187051249
  0
POLYLINE
  8
1
  6
CONTINUOUS
 62
     7
 66
     1
  0
VERTEX
  8
1
  6
CONTINUOUS
 62
     7
 10
-357.937999236723
 20
-48.05144377435925
  0
VERTEX
  8
1
  6
CONTINUOUS
 62
     7
 10
-357.9388747764095
 20
-48.04168124610314
  0
VERTEX
  8
1
  6
CONTINUOUS
 62
     7
 10
-357.9416379952317
 20
-48.03227711917822
  0
VERTEX
  8
1
  6
CONTINUOUS
 62
     7
 10
-357.94618270424
 20
-48.02359278890832
  0
VERTEX
  8
1
  6
CONTINUOUS
 62
     7
 10
-357.952334252816
 20
-48.01596198923549
  0
VERTEX
  8
1
  6
CONTINUOUS
 62
     7
 10
-357.9598562403975
 20
-48.00967796751176
  0
VERTEX
  8
1
  6
CONTINUOUS
 62
     7
 10
-357.9684596012204
 20
-48.00498221516784
  0
VERTEX
  8
1
  6
CONTINUOUS
 62
     7
 10
-357.9778137129529
 20
-48.00205518733291
  0
VERTEX
  8
1
  6
CONTINUOUS
 62
     7
 10
-357.987559102327
 20
-48.00100936804516
  0
SEQEND
  8
1
  6
CONTINUOUS
 62
     7
  0
POLYLINE
  8
1
  6
CONTINUOUS
 62
     7
 66
     1
  0
VERTEX
  8
1
  6
CONTINUOUS
 62
     7
 10
-357.9813904614477
 20
-48.10056925019064
  0
VERTEX
  8
1
  6
CONTINUOUS
 62
     7
 10
-357.9714765437295
 20
-48.09819967326938
  0
VERTEX
  8
1
  6
CONTINUOUS
 62
     7
 10
-357.9622492044933
 20
-48.09386863499444
  0
VERTEX
  8
1
  6
CONTINUOUS
 62
     7
 10
-357.9540919619016
 20
-48.08775614737129
  0
VERTEX
  8
1
  6
CONTINUOUS
 62
     7
 10
-357.9473438574278
 20
-48.08011626522137
  0
VERTEX
  8
1
  6
CONTINUOUS
 62
     7
 10
-357.9422853641922
 20
-48.07126652683919
  0
VERTEX
  8
1
  6
CONTINUOUS
 62
     7
 10
-357.9391267295892
 20
-48.06157475607044
  0
VERTEX
  8
1
  6
CONTINUOUS
 62
     7
 10
-357.937999236723
 20
-48.05144377435929
  0
SEQEND
  8
1
  6
CONTINUOUS
 62
     7
  0
LINE
  8
1
  6
CONTINUOUS
 62
     7
 10
-357.9884317558768
 20
-48.10100556035157
 11
-357.9813904614477
 21
-48.10056925019064
  0
POLYLINE
  8
1
  6
CONTINUOUS
 62
     7
 66
     1
  0
VERTEX
  8
1
  6
CONTINUOUS
 62
     7
 10
-292.312440897673
 20
-48.00100936804516
  0
VERTEX
  8
1
  6
CONTINUOUS
 62
     7
 10
-292.3221862870471
 20
-48.00205518733291
  0
VERTEX
  8
1
  6
CONTINUOUS
 62
     7
 10
-292.3315403987796
 20
-48.00498221516784
  0
VERTEX
  8
1
  6
CONTINUOUS
 62
     7
 10
-292.3401437596025
 20
-48.00967796751176
  0
VERTEX
  8
1
  6
CONTINUOUS
 62
     7
 10
-292.347665747184
 20
-48.01596198923549
  0
VERTEX
  8
1
  6
CONTINUOUS
 62
     7
 10
-292.35381729576
 20
-48.02359278890832
  0
VERTEX
  8
1
  6
CONTINUOUS
 62
     7
 10
-292.3583620047683
 20
-48.03227711917822
  0
VERTEX
  8
1
  6
CONTINUOUS
 62
     7
 10
-292.3611252235905
 20
-48.04168124610314
  0
VERTEX
  8
1
  6
CONTINUOUS
 62
     7
 10
-292.362000763277
 20
-48.05144377435925
  0
SEQEND
  8
1
  6
CONTINUOUS
 62
     7
  0
LINE
  8
1
  6
CONTINUOUS
 62
     7
 10
-357.987559102327
 20
-48.00100936804513
 11
-358.0375552947059
 21
-48.00057305788422
  0
LINE
  8
1
  6
CONTINUOUS
 62
     7
 10
-357.9884355634979
 20
-48.10144187051246
 11
-358.0384279482557
 21
-48.10056925019062
  0
LINE
  8
1
  6
CONTINUOUS
 62
     7
 10
-292.312440897673
 20
-48.00100936804513
 11
-292.2624447052941
 21
-48.00057305788422
  0
LINE
  8
1
  6
CONTINUOUS
 62
     7
 10
-292.3115644365021
 20
-48.10144187051246
 11
-292.2615720517442
 21
-48.10056925019062
  0
LINE
  8
1
  6
CONTINUOUS
 62
     7
 10
-357.9884317558768
 20
-48.10100556035155
 11
-357.9813904614477
 21
-48.10056925019062
  0
LINE
  8
1
  6
CONTINUOUS
 62
     7
 10
-357.9813904614478
 20
-48.10056925019062
 11
-357.9384279482558
 21
-48.10056925019062
  0
LINE
  8
1
  6
CONTINUOUS
 62
     7
 10
-343.4344892403424
 20
4.043027116896774
 11
-343.3630568559453
 21
4.118038729261198
  0
LINE
  8
1
  6
CONTINUOUS
 62
     7
 10
-343.3630568559453
 20
4.118038729261198
 11
-343.1934699007834
 21
4.296123096037385
  0
LINE
  8
1
  6
CONTINUOUS
 62
     7
 10
-306.9369645116692
 20
4.118061167532411
 11
-306.8655107596576
 21
4.043027116896719
  0
LINE
  8
1
  6
CONTINUOUS
 62
     7
 10
-289.3310037265635
 20
-63.05
 11
-287.3310798804351
 21
-63.05
  0
LINE
  8
1
  6
CONTINUOUS
 62
     7
 10
-362.9689201195648
 20
-63.05
 11
-360.9689962734365
 21
-63.05
  0
LINE
  8
1
  6
CONTINUOUS
 62
     7
 10
-447.1499999999996
 20
-63.05
 11
-444.8780697176879
 21
-19.69898773821427
  0
LINE
  8
1
  6
CONTINUOUS
 62
     7
 10
-445.6486274885226
 20
-63.05
 11
-447.15
 21
-63.05
  0
LINE
  8
1
  6
CONTINUOUS
 62
     7
 10
-205.421930282312
 20
-19.69898773821427
 11
-203.1500000000003
 21
-63.05
  0
LINE
  8
1
  6
CONTINUOUS
 62
     7
 10
-203.15
 20
-63.05
 11
-204.6513725114774
 21
-63.05
  0
LINE
  8
1
  6
CONTINUOUS
 62
     7
 10
-445.6486274885225
 20
-63.05
 11
-362.9689201195648
 21
-63.05
  0
LINE
  8
1
  6
CONTINUOUS
 62
     7
 10
-204.6513725114774
 20
-63.05
 11
-287.3310798804351
 21
-63.05
  0
LINE
  8
1
  6
CONTINUOUS
 62
     7
 10
-205.8965279494345
 20
-10.64312478017485
 11
-205.421930282312
 21
-19.69898773821427
  0
LINE
  8
1
  6
CONTINUOUS
 62
     7
 10
-444.8780697176879
 20
-19.69898773821424
 11
-444.4034720505655
 21
-10.64312478017487
  0
LINE
  8
1
  6
CONTINUOUS
 62
     7
 10
-444.4034720505655
 20
-10.64312478017487
 11
-443.705777686538
 21
2.669676746092003
  0
LINE
  8
1
  6
CONTINUOUS
 62
     7
 10
-206.594222313462
 20
2.669676746092003
 11
-205.8965279494345
 21
-10.64312478017487
  0
LINE
  8
1
  6
CONTINUOUS
 62
     7
 10
-443.7057776865379
 20
2.669676746092281
 11
-443.6712500166693
 21
3.328503934364679
  0
LINE
  8
1
  6
CONTINUOUS
 62
     7
 10
-206.6287499833307
 20
3.328503934364679
 11
-206.5942223134621
 21
2.669676746092281
  0
POLYLINE
  8
1
  6
CONTINUOUS
 62
     7
 66
     1
  0
VERTEX
  8
1
  6
CONTINUOUS
 62
     7
 10
-229.2499999999999
 20
-465.7365923960148
  0
VERTEX
  8
1
  6
CONTINUOUS
 62
     7
 10
-229.2480785280403
 20
-465.7560301701545
  0
VERTEX
  8
1
  6
CONTINUOUS
 62
     7
 10
-229.2423879532511
 20
-465.7747209615348
  0
VERTEX
  8
1
  6
CONTINUOUS
 62
     7
 10
-229.2331469612302
 20
-465.7919464935249
  0
VERTEX
  8
1
  6
CONTINUOUS
 62
     7
 10
-229.2207106781186
 20
-465.8070447985907
  0
VERTEX
  8
1
  6
CONTINUOUS
 62
     7
 10
-229.2055570233019
 20
-465.8194356573355
  0
VERTEX
  8
1
  6
CONTINUOUS
 62
     7
 10
-229.1882683432364
 20
-465.828642896007
  0
VERTEX
  8
1
  6
CONTINUOUS
 62
     7
 10
-229.1695090322015
 20
-465.8343126855862
  0
VERTEX
  8
1
  6
CONTINUOUS
 62
     7
 10
-229.1499999999999
 20
-465.8362271392393
  0
VERTEX
  8
1
  6
CONTINUOUS
 62
     7
 10
-229.1304909677984
 20
-465.8343126855862
  0
VERTEX
  8
1
  6
CONTINUOUS
 62
     7
 10
-229.1117316567635
 20
-465.828642896007
  0
VERTEX
  8
1
  6
CONTINUOUS
 62
     7
 10
-229.094442976698
 20
-465.8194356573355
  0
VERTEX
  8
1
  6
CONTINUOUS
 62
     7
 10
-229.0792893218813
 20
-465.8070447985907
  0
VERTEX
  8
1
  6
CONTINUOUS
 62
     7
 10
-229.0668530387697
 20
-465.7919464935249
  0
VERTEX
  8
1
  6
CONTINUOUS
 62
     7
 10
-229.0576120467488
 20
-465.7747209615348
  0
VERTEX
  8
1
  6
CONTINUOUS
 62
     7
 10
-229.0519214719596
 20
-465.7560301701545
  0
VERTEX
  8
1
  6
CONTINUOUS
 62
     7
 10
-229.05
 20
-465.7365923960148
  0
SEQEND
  8
1
  6
CONTINUOUS
 62
     7
  0
POLYLINE
  8
1
  6
CONTINUOUS
 62
     7
 66
     1
  0
VERTEX
  8
1
  6
CONTINUOUS
 62
     7
 10
-229.2499999999999
 20
-465.7365923960148
  0
VERTEX
  8
1
  6
CONTINUOUS
 62
     7
 10
-229.2480785280403
 20
-465.7560301701545
  0
VERTEX
  8
1
  6
CONTINUOUS
 62
     7
 10
-229.2423879532511
 20
-465.7747209615348
  0
VERTEX
  8
1
  6
CONTINUOUS
 62
     7
 10
-229.2331469612302
 20
-465.7919464935249
  0
VERTEX
  8
1
  6
CONTINUOUS
 62
     7
 10
-229.2207106781186
 20
-465.8070447985907
  0
VERTEX
  8
1
  6
CONTINUOUS
 62
     7
 10
-229.2055570233019
 20
-465.8194356573355
  0
VERTEX
  8
1
  6
CONTINUOUS
 62
     7
 10
-229.1882683432364
 20
-465.828642896007
  0
VERTEX
  8
1
  6
CONTINUOUS
 62
     7
 10
-229.1695090322015
 20
-465.8343126855862
  0
VERTEX
  8
1
  6
CONTINUOUS
 62
     7
 10
-229.1499999999999
 20
-465.8362271392393
  0
VERTEX
  8
1
  6
CONTINUOUS
 62
     7
 10
-229.1304909677984
 20
-465.8343126855862
  0
VERTEX
  8
1
  6
CONTINUOUS
 62
     7
 10
-229.1117316567635
 20
-465.828642896007
  0
VERTEX
  8
1
  6
CONTINUOUS
 62
     7
 10
-229.094442976698
 20
-465.8194356573355
  0
VERTEX
  8
1
  6
CONTINUOUS
 62
     7
 10
-229.0792893218813
 20
-465.8070447985907
  0
VERTEX
  8
1
  6
CONTINUOUS
 62
     7
 10
-229.0668530387697
 20
-465.7919464935249
  0
VERTEX
  8
1
  6
CONTINUOUS
 62
     7
 10
-229.0576120467488
 20
-465.7747209615348
  0
VERTEX
  8
1
  6
CONTINUOUS
 62
     7
 10
-229.0519214719596
 20
-465.7560301701545
  0
VERTEX
  8
1
  6
CONTINUOUS
 62
     7
 10
-229.05
 20
-465.7365923960148
  0
SEQEND
  8
1
  6
CONTINUOUS
 62
     7
  0
POLYLINE
  8
1
  6
CONTINUOUS
 62
     7
 66
     1
  0
VERTEX
  8
1
  6
CONTINUOUS
 62
     7
 10
-335.14098582738
 20
1.631050455507613
  0
VERTEX
  8
1
  6
CONTINUOUS
 62
     7
 10
-335.1380277463488
 20
1.617723327303297
  0
VERTEX
  8
1
  6
CONTINUOUS
 62
     7
 10
-335.1315736119718
 20
1.605197272218714
  0
VERTEX
  8
1
  6
CONTINUOUS
 62
     7
 10
-335.1218617327898
 20
1.593934794709716
  0
VERTEX
  8
1
  6
CONTINUOUS
 62
     7
 10
-335.1092507043356
 20
1.58435174366062
  0
VERTEX
  8
1
  6
CONTINUOUS
 62
     7
 10
-335.0942061685699
 20
1.57680195783239
  0
VERTEX
  8
1
  6
CONTINUOUS
 62
     7
 10
-335.0772836208012
 20
1.571564200934964
  0
VERTEX
  8
1
  6
CONTINUOUS
 62
     7
 10
-335.0591078989126
 20
1.568831868725216
  0
VERTEX
  8
1
  6
CONTINUOUS
 62
     7
 10
-335.0403501122285
 20
1.568705848179401
  0
SEQEND
  8
1
  6
CONTINUOUS
 62
     7
  0
ARC
  8
1
  6
CONTINUOUS
 62
     7
 10
-325.15
 20
-232.05
 40
233.8001828680729
 50
87.57367536640555
 51
89.99848836774505
  0
ARC
  8
1
  6
CONTINUOUS
 62
     7
 10
-325.15
 20
-232.05
 40
233.8001828680729
 50
90.00148105232688
 51
92.42418420508943
  0
LINE
  8
1
  6
CONTINUOUS
 62
     7
 10
-292.3615568212599
 20
-48.10231449083435
 11
-292.2765449661464
 21
-57.84370821327695
  0
LINE
  8
1
  6
CONTINUOUS
 62
     7
 10
-358.0234550338536
 20
-57.84370821327697
 11
-357.9384431787401
 21
-48.10231449083435
  0
LINE
  8
1
  6
CONTINUOUS
 62
     7
 10
-357.9384431787401
 20
-48.10231449083435
 11
-357.937999236723
 21
-48.0514437743593
  0
LINE
  8
1
  6
CONTINUOUS
 62
     7
 10
-292.362000763277
 20
-48.0514437743593
 11
-292.3615568212599
 21
-48.10231449083435
  0
LINE
  8
1
  6
CONTINUOUS
 62
     7
 10
-292.3465975461249
 20
-48.01490447134965
 11
-292.3469471845198
 21
-48.01524543928743
  0
ARC
  8
1
  6
CONTINUOUS
 62
     7
 10
-442.1733057145375
 20
3.249999999999975
 40
1.500000000000001
 50
90.0
 51
177.0000000000001
  0
ARC
  8
1
  6
CONTINUOUS
 62
     7
 10
-208.1266942854625
 20
3.249999999999975
 40
1.499999999999987
 50
2.999999999999923
 51
90.00000000000006
  0
LINE
  8
1
  6
CONTINUOUS
 62
     7
 10
-325.1500000000005
 20
4.749999999999976
 11
-442.1733057145375
 21
4.749999999999976
  0
LINE
  8
1
  6
CONTINUOUS
 62
     7
 10
-208.1266942854626
 20
4.749999999999976
 11
-325.1500000000005
 21
4.749999999999976
  0
ENDBLK
  8
0
  0
BLOCK
  8
0
  2
D_FRAME_VIEW_2740
 70
     0
 10
0.0
 20
0.0
  0
POLYLINE
  8
1
  6
CONTINUOUS
 62
     7
 66
     1
  0
VERTEX
  8
1
  6
CONTINUOUS
 62
     7
 10
-443.705777686538
 20
202.7457387323465
  0
VERTEX
  8
1
  6
CONTINUOUS
 62
     7
 10
-443.6705877286502
 20
202.8637624352727
  0
VERTEX
  8
1
  6
CONTINUOUS
 62
     7
 10
-443.5963689719975
 20
202.9735488193473
  0
VERTEX
  8
1
  6
CONTINUOUS
 62
     7
 10
-443.5040602106851
 20
203.0617565605142
  0
SEQEND
  8
1
  6
CONTINUOUS
 62
     7
  0
ARC
  8
1
  6
CONTINUOUS
 62
     7
 10
-442.2390452210266
 20
201.1007668165537
 40
2.333611728625598
 50
89.28981592419547
 51
122.825659931233
  0
POLYLINE
  8
1
  6
CONTINUOUS
 62
     7
 66
     1
  0
VERTEX
  8
1
  6
CONTINUOUS
 62
     7
 10
-443.705777686538
 20
167.554261267654
  0
VERTEX
  8
1
  6
CONTINUOUS
 62
     7
 10
-443.6705877286502
 20
167.4362375647269
  0
VERTEX
  8
1
  6
CONTINUOUS
 62
     7
 10
-443.5963689719975
 20
167.3264511806531
  0
VERTEX
  8
1
  6
CONTINUOUS
 62
     7
 10
-443.5040602106851
 20
167.2382434394862
  0
SEQEND
  8
1
  6
CONTINUOUS
 62
     7
  0
ARC
  8
1
  6
CONTINUOUS
 62
     7
 10
-442.2390452210268
 20
169.1992331834462
 40
2.333611728625057
 50
237.1743400687658
 51
270.7101840758108
  0
LINE
  8
1
  6
CONTINUOUS
 62
     7
 10
-208.1140430153679
 20
166.8655107596578
 11
-208.0898792733458
 21
166.8658007173993
  0
LINE
  8
1
  6
CONTINUOUS
 62
     7
 10
-208.1140430153679
 20
166.8655107596578
 11
-283.7010395936843
 21
166.8655107596578
  0
LINE
  8
1
  6
CONTINUOUS
 62
     7
 10
-442.1859569846321
 20
166.8655107596578
 11
-366.5989604063157
 21
166.8655107596578
  0
LINE
  8
1
  6
CONTINUOUS
 62
     7
 10
-442.2101207266542
 20
166.8658007173993
 11
-442.1859569846321
 21
166.8655107596578
  0
LINE
  8
1
  6
CONTINUOUS
 62
     7
 10
-442.1859569846321
 20
203.4344892403426
 11
-442.2101207266542
 21
203.4341992826012
  0
LINE
  8
1
  6
CONTINUOUS
 62
     7
 10
-442.1859569846321
 20
203.4344892403426
 11
-208.114043015368
 21
203.4344892403422
  0
LINE
  8
1
  6
CONTINUOUS
 62
     7
 10
-208.0898792733458
 20
203.4341992826007
 11
-208.114043015368
 21
203.4344892403422
  0
ARC
  8
1
  6
CONTINUOUS
 62
     7
 10
-208.077767238195
 20
201.0120178703566
 40
2.422211694963178
 50
58.9938051119019
 51
90.28650319413975
  0
POLYLINE
  8
1
  6
CONTINUOUS
 62
     7
 66
     1
  0
VERTEX
  8
1
  6
CONTINUOUS
 62
     7
 10
-206.8300115114695
 20
203.0881236339534
  0
VERTEX
  8
1
  6
CONTINUOUS
 62
     7
 10
-206.7395190129223
 20
203.0115448433416
  0
VERTEX
  8
1
  6
CONTINUOUS
 62
     7
 10
-206.6686171344191
 20
202.9292674366608
  0
VERTEX
  8
1
  6
CONTINUOUS
 62
     7
 10
-206.6132812589593
 20
202.8259300848594
  0
VERTEX
  8
1
  6
CONTINUOUS
 62
     7
 10
-206.594222313462
 20
202.745738732346
  0
SEQEND
  8
1
  6
CONTINUOUS
 62
     7
  0
ARC
  8
1
  6
CONTINUOUS
 62
     7
 10
-208.0777672381952
 20
169.2879821296445
 40
2.422211694964288
 50
269.7134968058649
 51
301.006194888088
  0
POLYLINE
  8
1
  6
CONTINUOUS
 62
     7
 66
     1
  0
VERTEX
  8
1
  6
CONTINUOUS
 62
     7
 10
-206.8300115114695
 20
167.2118763660465
  0
VERTEX
  8
1
  6
CONTINUOUS
 62
     7
 10
-206.7395190129223
 20
167.2884551566583
  0
VERTEX
  8
1
  6
CONTINUOUS
 62
     7
 10
-206.6686171344191
 20
167.370732563339
  0
VERTEX
  8
1
  6
CONTINUOUS
 62
     7
 10
-206.6132812589605
 20
167.4740699151894
  0
VERTEX
  8
1
  6
CONTINUOUS
 62
     7
 10
-206.594222313462
 20
167.554261267654
  0
SEQEND
  8
1
  6
CONTINUOUS
 62
     7
  0
LINE
  8
1
  6
CONTINUOUS
 62
     7
 10
-343.4344892403421
 20
68.11404301536747
 11
-343.4341992826007
 21
68.08987927334603
  0
LINE
  8
1
  6
CONTINUOUS
 62
     7
 10
-343.4344892403421
 20
143.7010395936833
 11
-343.4344892403421
 21
68.11404301536747
  0
LINE
  8
1
  6
CONTINUOUS
 62
     7
 10
-306.8655107596579
 20
143.7010395936833
 11
-306.8655107596579
 21
68.11404301536747
  0
LINE
  8
1
  6
CONTINUOUS
 62
     7
 10
-306.8658007173993
 20
68.08987927334604
 11
-306.8655107596579
 21
68.11404301536747
  0
ARC
  8
1
  6
CONTINUOUS
 62
     7
 10
-309.2879821296439
 20
68.07776723819487
 40
2.422211694963604
 50
328.993805111915
 51
0.2865031941486222
  0
POLYLINE
  8
1
  6
CONTINUOUS
 62
     7
 66
     1
  0
VERTEX
  8
1
  6
CONTINUOUS
 62
     7
 10
-307.2118763660463
 20
66.83001151146959
  0
VERTEX
  8
1
  6
CONTINUOUS
 62
     7
 10
-307.288455156658
 20
66.73951901292243
  0
VERTEX
  8
1
  6
CONTINUOUS
 62
     7
 10
-307.3707325633387
 20
66.66861713441915
  0
VERTEX
  8
1
  6
CONTINUOUS
 62
     7
 10
-307.474069915267
 20
66.61328125896259
  0
VERTEX
  8
1
  6
CONTINUOUS
 62
     7
 10
-307.5542612676539
 20
66.59422231346201
  0
SEQEND
  8
1
  6
CONTINUOUS
 62
     7
  0
LINE
  8
1
  6
CONTINUOUS
 62
     9
 10
-307.5542612676539
 20
66.59422231346224
 11
-342.7457387323461
 21
66.59422231346224
  0
ARC
  8
1
  6
CONTINUOUS
 62
     7
 10
-341.0120178703551
 20
68.0777672381953
 40
2.422211694964695
 50
179.7134968058624
 51
211.0061948880827
  0
POLYLINE
  8
1
  6
CONTINUOUS
 62
     7
 66
     1
  0
VERTEX
  8
1
  6
CONTINUOUS
 62
     7
 10
-343.0881236339536
 20
66.83001151146956
  0
VERTEX
  8
1
  6
CONTINUOUS
 62
     7
 10
-343.0115448433419
 20
66.7395190129224
  0
VERTEX
  8
1
  6
CONTINUOUS
 62
     7
 10
-342.9292674366613
 20
66.66861713441914
  0
VERTEX
  8
1
  6
CONTINUOUS
 62
     7
 10
-342.8259300847358
 20
66.6132812589625
  0
VERTEX
  8
1
  6
CONTINUOUS
 62
     7
 10
-342.745738732346
 20
66.59422231346201
  0
SEQEND
  8
1
  6
CONTINUOUS
 62
     7
  0
ARC
  8
1
  6
CONTINUOUS
 62
     7
 10
-283.3926817911461
 20
1195.23861045233
 40
1028.373145923234
 50
268.7593812392491
 51
269.9828198538632
  0
ARC
  8
1
  6
CONTINUOUS
 62
     7
 10
-305.8053501563155
 20
165.805350156316
 40
1.309475854757021
 50
83.54716595604201
 51
186.4528340436937
  0
ARC
  8
1
  6
CONTINUOUS
 62
     7
 10
-1335.245270622563
 20
143.3926086837436
 40
1028.379806115091
 50
0.0171841080219224
 51
1.240614798866147
  0
ARC
  8
1
  6
CONTINUOUS
 62
     7
 10
684.9386104519901
 20
143.3926817911516
 40
1028.373145922894
 50
178.7593812392486
 51
179.9828198538636
  0
ARC
  8
1
  6
CONTINUOUS
 62
     7
 10
-344.4946498436838
 20
165.8053501563161
 40
1.309475854756325
 50
353.5471659562813
 51
96.45283404371787
  0
ARC
  8
1
  6
CONTINUOUS
 62
     7
 10
-366.907391316264
 20
1195.245270623427
 40
1028.379806115955
 50
270.0171841080224
 51
271.2406147988655
  0
LINE
  8
1
  6
CONTINUOUS
 62
     7
 10
-292.5086448032734
 20
65.41722152559723
 11
-292.1311103460436
 21
63.15000000000001
  0
POLYLINE
  8
1
  6
CONTINUOUS
 62
     7
 66
     1
  0
VERTEX
  8
1
  6
CONTINUOUS
 62
     7
 10
-292.5086448032734
 20
65.417221525597
  0
VERTEX
  8
1
  6
CONTINUOUS
 62
     7
 10
-292.7397862703437
 20
65.53469336908974
  0
VERTEX
  8
1
  6
CONTINUOUS
 62
     7
 10
-293.3859054461714
 20
65.64782939699958
  0
VERTEX
  8
1
  6
CONTINUOUS
 62
     7
 10
-294.4242188581948
 20
65.75264020352641
  0
VERTEX
  8
1
  6
CONTINUOUS
 62
     7
 10
-295.818113469658
 20
65.84542994706082
  0
SEQEND
  8
1
  6
CONTINUOUS
 62
     7
  0
LINE
  8
1
  6
CONTINUOUS
 62
     7
 10
-308.1499999999999
 20
66.52409991424487
 11
-295.818113469658
 21
65.8454299470609
  0
LINE
  8
1
  6
CONTINUOUS
 62
     7
 10
-308.1499999999997
 20
66.52409991424472
 11
-342.1500000000001
 21
66.52409991424472
  0
LINE
  8
1
  6
CONTINUOUS
 62
     7
 10
-354.481886530342
 20
65.84542994706096
 11
-342.15
 21
66.52409991424479
  0
POLYLINE
  8
1
  6
CONTINUOUS
 62
     7
 66
     1
  0
VERTEX
  8
1
  6
CONTINUOUS
 62
     7
 10
-354.481886530342
 20
65.84542994706081
  0
VERTEX
  8
1
  6
CONTINUOUS
 62
     7
 10
-355.8757811418052
 20
65.75264020352643
  0
VERTEX
  8
1
  6
CONTINUOUS
 62
     7
 10
-356.9140945538285
 20
65.64782939699958
  0
VERTEX
  8
1
  6
CONTINUOUS
 62
     7
 10
-357.5602137296562
 20
65.53469336908974
  0
VERTEX
  8
1
  6
CONTINUOUS
 62
     7
 10
-357.7913551967266
 20
65.417221525597
  0
SEQEND
  8
1
  6
CONTINUOUS
 62
     7
  0
LINE
  8
1
  6
CONTINUOUS
 62
     7
 10
-358.1688896539565
 20
63.15
 11
-357.7913551967266
 21
65.41722152559684
  0
LINE
  8
1
  6
CONTINUOUS
 62
     7
 10
-358.1688896539565
 20
63.15
 11
-359.4696242493142
 21
63.15
  0
LINE
  8
1
  6
CONTINUOUS
 62
     7
 10
-292.1311103460436
 20
63.15000000000001
 11
-290.8303757506858
 21
63.15
  0
LINE
  8
1
  6
CONTINUOUS
 62
     7
 10
-447.1499999999996
 20
152.1311103460436
 11
-447.1499999999996
 21
150.8303757506859
  0
LINE
  8
1
  6
CONTINUOUS
 62
     7
 10
-444.8827784744032
 20
152.5086448032735
 11
-447.1499999999996
 21
152.1311103460436
  0
POLYLINE
  8
1
  6
CONTINUOUS
 62
     7
 66
     1
  0
VERTEX
  8
1
  6
CONTINUOUS
 62
     7
 10
-444.8827784744032
 20
152.5086448032735
  0
VERTEX
  8
1
  6
CONTINUOUS
 62
     7
 10
-444.7653066309104
 20
152.7397862703437
  0
VERTEX
  8
1
  6
CONTINUOUS
 62
     7
 10
-444.6521706030006
 20
153.3859054461714
  0
VERTEX
  8
1
  6
CONTINUOUS
 62
     7
 10
-444.5473597964737
 20
154.4242188581948
  0
VERTEX
  8
1
  6
CONTINUOUS
 62
     7
 10
-444.4545700529393
 20
155.818113469658
  0
SEQEND
  8
1
  6
CONTINUOUS
 62
     7
  0
LINE
  8
1
  6
CONTINUOUS
 62
     7
 10
-443.7759000857555
 20
168.15
 11
-444.4545700529393
 21
155.8181134696581
  0
LINE
  8
1
  6
CONTINUOUS
 62
     7
 10
-443.7759000857556
 20
168.1499999999999
 11
-443.7759000857556
 21
202.1500000000001
  0
LINE
  8
1
  6
CONTINUOUS
 62
     7
 10
-444.4545700529393
 20
214.4818865303419
 11
-443.7759000857555
 21
202.15
  0
POLYLINE
  8
1
  6
CONTINUOUS
 62
     7
 66
     1
  0
VERTEX
  8
1
  6
CONTINUOUS
 62
     7
 10
-444.4545700529393
 20
214.4818865303419
  0
VERTEX
  8
1
  6
CONTINUOUS
 62
     7
 10
-444.5473597964737
 20
215.8757811418052
  0
VERTEX
  8
1
  6
CONTINUOUS
 62
     7
 10
-444.6521706030006
 20
216.9140945538286
  0
VERTEX
  8
1
  6
CONTINUOUS
 62
     7
 10
-444.7653066309104
 20
217.5602137296563
  0
VERTEX
  8
1
  6
CONTINUOUS
 62
     7
 10
-444.8827784744032
 20
217.7913551967266
  0
SEQEND
  8
1
  6
CONTINUOUS
 62
     7
  0
LINE
  8
1
  6
CONTINUOUS
 62
     7
 10
-447.15
 20
218.1688896539564
 11
-444.8827784744032
 21
217.7913551967265
  0
LINE
  8
1
  6
CONTINUOUS
 62
     7
 10
-447.15
 20
218.1688896539564
 11
-447.15
 21
219.4696242493145
  0
LINE
  8
1
  6
CONTINUOUS
 62
     7
 10
-205.4172215255968
 20
217.7913551967265
 11
-203.15
 21
218.1688896539564
  0
POLYLINE
  8
1
  6
CONTINUOUS
 62
     7
 66
     1
  0
VERTEX
  8
1
  6
CONTINUOUS
 62
     7
 10
-205.4172215255968
 20
217.7913551967265
  0
VERTEX
  8
1
  6
CONTINUOUS
 62
     7
 10
-205.5346933690896
 20
217.5602137296563
  0
VERTEX
  8
1
  6
CONTINUOUS
 62
     7
 10
-205.6478293969994
 20
216.9140945538286
  0
VERTEX
  8
1
  6
CONTINUOUS
 62
     7
 10
-205.7526402035263
 20
215.8757811418052
  0
VERTEX
  8
1
  6
CONTINUOUS
 62
     7
 10
-205.8454299470607
 20
214.4818865303419
  0
SEQEND
  8
1
  6
CONTINUOUS
 62
     7
  0
LINE
  8
1
  6
CONTINUOUS
 62
     7
 10
-206.5240999142445
 20
202.15
 11
-205.8454299470607
 21
214.4818865303419
  0
LINE
  8
1
  6
CONTINUOUS
 62
     7
 10
-206.5240999142445
 20
202.1499999999998
 11
-206.5240999142445
 21
168.1500000000003
  0
LINE
  8
1
  6
CONTINUOUS
 62
     7
 10
-205.8454299470607
 20
155.8181134696581
 11
-206.5240999142445
 21
168.15
  0
POLYLINE
  8
1
  6
CONTINUOUS
 62
     7
 66
     1
  0
VERTEX
  8
1
  6
CONTINUOUS
 62
     7
 10
-205.8454299470607
 20
155.818113469658
  0
VERTEX
  8
1
  6
CONTINUOUS
 62
     7
 10
-205.7526402035263
 20
154.4242188581948
  0
VERTEX
  8
1
  6
CONTINUOUS
 62
     7
 10
-205.6478293969994
 20
153.3859054461714
  0
VERTEX
  8
1
  6
CONTINUOUS
 62
     7
 10
-205.5346933690896
 20
152.7397862703437
  0
VERTEX
  8
1
  6
CONTINUOUS
 62
     7
 10
-205.4172215255968
 20
152.5086448032735
  0
SEQEND
  8
1
  6
CONTINUOUS
 62
     7
  0
LINE
  8
1
  6
CONTINUOUS
 62
     7
 10
-203.1500000000003
 20
152.1311103460436
 11
-205.4172215255968
 21
152.5086448032735
  0
LINE
  8
1
  6
CONTINUOUS
 62
     7
 10
-203.1500000000003
 20
152.1311103460436
 11
-203.1500000000003
 21
150.8303757506859
  0
LINE
  8
1
  6
CONTINUOUS
 62
     7
 10
-203.1500000000001
 20
218.1688896539564
 11
-203.1500000000001
 21
219.4696242493141
  0
POLYLINE
  8
1
  6
CONTINUOUS
 62
     7
 66
     1
  0
VERTEX
  8
1
  6
CONTINUOUS
 62
     7
 10
-290.8303757506858
 20
63.15000000000018
  0
VERTEX
  8
1
  6
CONTINUOUS
 62
     7
 10
-290.5378263030136
 20
63.17884490648225
  0
VERTEX
  8
1
  6
CONTINUOUS
 62
     7
 10
-290.256539163446
 20
63.26427177477698
  0
VERTEX
  8
1
  6
CONTINUOUS
 62
     7
 10
-289.9973177742364
 20
63.4029996008544
  0
VERTEX
  8
1
  6
CONTINUOUS
 62
     7
 10
-289.7701180946705
 20
63.58970024187714
  0
VERTEX
  8
1
  6
CONTINUOUS
 62
     7
 10
-289.5836662208714
 20
63.81720305507417
  0
VERTEX
  8
1
  6
CONTINUOUS
 62
     7
 10
-289.445123241166
 20
64.07677030181803
  0
VERTEX
  8
1
  6
CONTINUOUS
 62
     7
 10
-289.359810198966
 20
64.35843273941484
  0
VERTEX
  8
1
  6
CONTINUOUS
 62
     7
 10
-289.3310037265635
 20
64.6513725114772
  0
SEQEND
  8
1
  6
CONTINUOUS
 62
     7
  0
POLYLINE
  8
1
  6
CONTINUOUS
 62
     7
 66
     1
  0
VERTEX
  8
1
  6
CONTINUOUS
 62
     7
 10
-447.15
 20
150.8303757506859
  0
VERTEX
  8
1
  6
CONTINUOUS
 62
     7
 10
-447.1211550935179
 20
150.5378263030135
  0
VERTEX
  8
1
  6
CONTINUOUS
 62
     7
 10
-447.0357282252232
 20
150.256539163446
  0
VERTEX
  8
1
  6
CONTINUOUS
 62
     7
 10
-446.8970003991457
 20
149.9973177742364
  0
VERTEX
  8
1
  6
CONTINUOUS
 62
     7
 10
-446.7102997581229
 20
149.7701180946704
  0
VERTEX
  8
1
  6
CONTINUOUS
 62
     7
 10
-446.4827969449258
 20
149.5836662208714
  0
VERTEX
  8
1
  6
CONTINUOUS
 62
     7
 10
-446.2232296981819
 20
149.445123241166
  0
VERTEX
  8
1
  6
CONTINUOUS
 62
     7
 10
-445.941567260585
 20
149.359810198966
  0
VERTEX
  8
1
  6
CONTINUOUS
 62
     7
 10
-445.6486274885225
 20
149.3310037265635
  0
SEQEND
  8
1
  6
CONTINUOUS
 62
     7
  0
POLYLINE
  8
1
  6
CONTINUOUS
 62
     7
 66
     1
  0
VERTEX
  8
1
  6
CONTINUOUS
 62
     7
 10
-204.6513725114774
 20
149.3310037265635
  0
VERTEX
  8
1
  6
CONTINUOUS
 62
     7
 10
-204.358432739415
 20
149.359810198966
  0
VERTEX
  8
1
  6
CONTINUOUS
 62
     7
 10
-204.0767703018181
 20
149.445123241166
  0
VERTEX
  8
1
  6
CONTINUOUS
 62
     7
 10
-203.8172030550742
 20
149.5836662208714
  0
VERTEX
  8
1
  6
CONTINUOUS
 62
     7
 10
-203.5897002418771
 20
149.7701180946704
  0
VERTEX
  8
1
  6
CONTINUOUS
 62
     7
 10
-203.4029996008543
 20
149.9973177742364
  0
VERTEX
  8
1
  6
CONTINUOUS
 62
     7
 10
-203.2642717747768
 20
150.256539163446
  0
VERTEX
  8
1
  6
CONTINUOUS
 62
     7
 10
-203.1788449064821
 20
150.5378263030135
  0
VERTEX
  8
1
  6
CONTINUOUS
 62
     7
 10
-203.15
 20
150.8303757506859
  0
SEQEND
  8
1
  6
CONTINUOUS
 62
     7
  0
POLYLINE
  8
1
  6
CONTINUOUS
 62
     7
 66
     1
  0
VERTEX
  8
1
  6
CONTINUOUS
 62
     7
 10
-360.9689962734365
 20
64.6513725114772
  0
VERTEX
  8
1
  6
CONTINUOUS
 62
     7
 10
-360.940189801034
 20
64.35843273941484
  0
VERTEX
  8
1
  6
CONTINUOUS
 62
     7
 10
-360.8548767588339
 20
64.07677030181803
  0
VERTEX
  8
1
  6
CONTINUOUS
 62
     7
 10
-360.7163337791285
 20
63.81720305507417
  0
VERTEX
  8
1
  6
CONTINUOUS
 62
     7
 10
-360.5298819053295
 20
63.58970024187714
  0
VERTEX
  8
1
  6
CONTINUOUS
 62
     7
 10
-360.3026822257635
 20
63.4029996008544
  0
VERTEX
  8
1
  6
CONTINUOUS
 62
     7
 10
-360.0434608365539
 20
63.26427177477698
  0
VERTEX
  8
1
  6
CONTINUOUS
 62
     7
 10
-359.7621736969864
 20
63.17884490648225
  0
VERTEX
  8
1
  6
CONTINUOUS
 62
     7
 10
-359.4696242493141
 20
63.15000000000018
  0
SEQEND
  8
1
  6
CONTINUOUS
 62
     7
  0
POLYLINE
  8
1
  6
CONTINUOUS
 62
     7
 66
     1
  0
VERTEX
  8
1
  6
CONTINUOUS
 62
     7
 10
-203.15
 20
219.4696242493142
  0
VERTEX
  8
1
  6
CONTINUOUS
 62
     7
 10
-203.1788449064821
 20
219.7621736969865
  0
VERTEX
  8
1
  6
CONTINUOUS
 62
     7
 10
-203.2642717747769
 20
220.0434608365541
  0
VERTEX
  8
1
  6
CONTINUOUS
 62
     7
 10
-203.4029996008544
 20
220.3026822257637
  0
VERTEX
  8
1
  6
CONTINUOUS
 62
     7
 10
-203.5897002418772
 20
220.5298819053297
  0
VERTEX
  8
1
  6
CONTINUOUS
 62
     7
 10
-203.8172030550743
 20
220.7163337791287
  0
VERTEX
  8
1
  6
CONTINUOUS
 62
     7
 10
-204.0767703018182
 20
220.8548767588341
  0
VERTEX
  8
1
  6
CONTINUOUS
 62
     7
 10
-204.3584327394151
 20
220.9401898010341
  0
VERTEX
  8
1
  6
CONTINUOUS
 62
     7
 10
-204.6513725114776
 20
220.9689962734365
  0
SEQEND
  8
1
  6
CONTINUOUS
 62
     7
  0
POLYLINE
  8
1
  6
CONTINUOUS
 62
     7
 66
     1
  0
VERTEX
  8
1
  6
CONTINUOUS
 62
     7
 10
-445.6486274885225
 20
220.9689962734369
  0
VERTEX
  8
1
  6
CONTINUOUS
 62
     7
 10
-445.941567260585
 20
220.9401898010344
  0
VERTEX
  8
1
  6
CONTINUOUS
 62
     7
 10
-446.2232296981819
 20
220.8548767588345
  0
VERTEX
  8
1
  6
CONTINUOUS
 62
     7
 10
-446.4827969449258
 20
220.7163337791291
  0
VERTEX
  8
1
  6
CONTINUOUS
 62
     7
 10
-446.7102997581229
 20
220.52988190533
  0
VERTEX
  8
1
  6
CONTINUOUS
 62
     7
 10
-446.8970003991457
 20
220.302682225764
  0
VERTEX
  8
1
  6
CONTINUOUS
 62
     7
 10
-447.0357282252232
 20
220.0434608365544
  0
VERTEX
  8
1
  6
CONTINUOUS
 62
     7
 10
-447.1211550935179
 20
219.7621736969869
  0
VERTEX
  8
1
  6
CONTINUOUS
 62
     7
 10
-447.15
 20
219.4696242493145
  0
SEQEND
  8
1
  6
CONTINUOUS
 62
     7
  0
LINE
  8
1
  6
CONTINUOUS
 62
     7
 10
-289.3310037265635
 20
147.3310798804348
 11
-289.3310037265635
 21
64.6513725114772
  0
LINE
  8
1
  6
CONTINUOUS
 62
     7
 10
-360.9689962734365
 20
147.3310798804348
 11
-360.9689962734365
 21
64.6513725114772
  0
LINE
  8
1
  6
CONTINUOUS
 62
     7
 10
-204.6513725114774
 20
149.3310037265636
 11
-287.3310798804352
 21
149.3310037265636
  0
LINE
  8
1
  6
CONTINUOUS
 62
     7
 10
-445.6486274885225
 20
149.3310037265636
 11
-362.9689201195648
 21
149.3310037265636
  0
POLYLINE
  8
1
  6
CONTINUOUS
 62
     7
 66
     1
  0
VERTEX
  8
1
  6
CONTINUOUS
 62
     7
 10
-360.9689962734365
 20
147.3310798804348
  0
VERTEX
  8
1
  6
CONTINUOUS
 62
     7
 10
-361.0074234617582
 20
147.7212537814391
  0
VERTEX
  8
1
  6
CONTINUOUS
 62
     7
 10
-361.1212284341478
 20
148.0964291147226
  0
VERTEX
  8
1
  6
CONTINUOUS
 62
     7
 10
-361.3060381520172
 20
148.4421894960524
  0
VERTEX
  8
1
  6
CONTINUOUS
 62
     7
 10
-361.554751167946
 20
148.7452488320537
  0
VERTEX
  8
1
  6
CONTINUOUS
 62
     7
 10
-361.8578105039472
 20
148.9939618479825
  0
VERTEX
  8
1
  6
CONTINUOUS
 62
     7
 10
-362.203570885277
 20
149.1787715658521
  0
VERTEX
  8
1
  6
CONTINUOUS
 62
     7
 10
-362.5787462185605
 20
149.2925765382416
  0
VERTEX
  8
1
  6
CONTINUOUS
 62
     7
 10
-362.9689201195648
 20
149.3310037265635
  0
SEQEND
  8
1
  6
CONTINUOUS
 62
     7
  0
POLYLINE
  8
1
  6
CONTINUOUS
 62
     7
 66
     1
  0
VERTEX
  8
1
  6
CONTINUOUS
 62
     7
 10
-287.3310798804351
 20
149.3310037265635
  0
VERTEX
  8
1
  6
CONTINUOUS
 62
     7
 10
-287.7212537814394
 20
149.2925765382416
  0
VERTEX
  8
1
  6
CONTINUOUS
 62
     7
 10
-288.096429114723
 20
149.1787715658521
  0
VERTEX
  8
1
  6
CONTINUOUS
 62
     7
 10
-288.4421894960527
 20
148.9939618479825
  0
VERTEX
  8
1
  6
CONTINUOUS
 62
     7
 10
-288.7452488320539
 20
148.7452488320536
  0
VERTEX
  8
1
  6
CONTINUOUS
 62
     7
 10
-288.9939618479827
 20
148.4421894960524
  0
VERTEX
  8
1
  6
CONTINUOUS
 62
     7
 10
-289.1787715658522
 20
148.0964291147226
  0
VERTEX
  8
1
  6
CONTINUOUS
 62
     7
 10
-289.2925765382417
 20
147.721253781439
  0
VERTEX
  8
1
  6
CONTINUOUS
 62
     7
 10
-289.3310037265634
 20
147.3310798804348
  0
SEQEND
  8
1
  6
CONTINUOUS
 62
     7
  0
LINE
  8
1
  6
CONTINUOUS
 62
     7
 10
-445.6486274885225
 20
220.9689962734369
 11
-204.6513725114776
 21
220.9689962734365
  0
ENDBLK
  8
0
  0
ENDSEC
  0
SECTION
  2
ENTITIES
  0
LINE
  8
1
  6
CENTER
 62
     1
 10
-455.15
 20
185.1500000000002
 11
-200.15
 21
185.1499999999998
  0
LINE
  8
1
  6
CENTER
 62
     1
 10
-325.15
 20
-70.64999999999999
 11
-325.15
 21
9.349999999999998
  0
LINE
  8
1
  6
CENTER
 62
     1
 10
-148.05
 20
185.15
 11
-63.05000000000002
 21
185.15
  0
LINE
  8
1
  6
CENTER
 62
     1
 10
-325.15
 20
230.15
 11
-325.15
 21
45.14999999999998
  0
TEXT
  8
図面枠
  6
CONTINUOUS
 62
     7
 10
-149.7273164936852
 20
-73.47193322495937
 40
10.0
  1
RMT-40
  0
INSERT
  8
1
  6
CONTINUOUS
 62
     7
  2
D_FRAME_VIEW_5182
 10
0.0
 20
0.0
 30
0.0
  0
INSERT
  8
1
  6
CONTINUOUS
 62
     7
  2
D_FRAME_VIEW_4927
 10
0.0
 20
0.0
 30
0.0
  0
INSERT
  8
1
  6
CONTINUOUS
 62
     7
  2
D_FRAME_VIEW_2740
 10
0.0
 20
0.0
 30
0.0
  0
ENDSEC
  0
EOF
