  0
SECTION
  2
HEADER
  9
$ACADVER
  1
AC1014
  9
$ACADMAINTVER
 70
     9
  9
$DWGCODEPAGE
  3
ANSI_932
  9
$INSBASE
 10
0.0
 20
0.0
 30
0.0
  9
$EXTMIN
 10
542.5000000000001
 20
272.7006060606061
 30
0.0
  9
$EXTMAX
 10
823.3333333333334
 20
378.3333333333334
 30
0.0
  9
$LIMMIN
 10
0.0
 20
0.0
  9
$LIMMAX
 10
12.0
 20
9.0
  9
$ORTHOMODE
 70
     0
  9
$REGENMODE
 70
     1
  9
$FILLMODE
 70
     1
  9
$QTEXTMODE
 70
     0
  9
$MIRRTEXT
 70
     1
  9
$DRAGMODE
 70
     2
  9
$LTSCALE
 40
1.0
  9
$OSMODE
 70
    37
  9
$ATTMODE
 70
     1
  9
$TEXTSIZE
 40
0.2
  9
$TRACEWID
 40
0.05
  9
$TEXTSTYLE
  7
STANDARD
  9
$CLAYER
  8
0
  9
$CELTYPE
  6
BYLAYER
  9
$CECOLOR
 62
   256
  9
$CELTSCALE
 40
1.0
  9
$DELOBJ
 70
     1
  9
$DISPSILH
 70
     0
  9
$DIMSCALE
 40
1.0
  9
$DIMASZ
 40
3.0
  9
$DIMEXO
 40
0.0625
  9
$DIMDLI
 40
0.38
  9
$DIMRND
 40
0.0
  9
$DIMDLE
 40
0.0
  9
$DIMEXE
 40
1.5
  9
$DIMTP
 40
0.0
  9
$DIMTM
 40
0.0
  9
$DIMTXT
 40
3.0
  9
$DIMCEN
 40
0.09
  9
$DIMTSZ
 40
0.0
  9
$DIMTOL
 70
     0
  9
$DIMLIM
 70
     0
  9
$DIMTIH
 70
     1
  9
$DIMTOH
 70
     1
  9
$DIMSE1
 70
     0
  9
$DIMSE2
 70
     0
  9
$DIMTAD
 70
     1
  9
$DIMZIN
 70
     0
  9
$DIMBLK
  1

  9
$DIMASO
 70
     1
  9
$DIMSHO
 70
     1
  9
$DIMPOST
  1

  9
$DIMAPOST
  1

  9
$DIMALT
 70
     0
  9
$DIMALTD
 70
     2
  9
$DIMALTF
 40
25.4
  9
$DIMLFAC
 40
1.0
  9
$DIMTOFL
 70
     0
  9
$DIMTVP
 40
0.0
  9
$DIMTIX
 70
     0
  9
$DIMSOXD
 70
     0
  9
$DIMSAH
 70
     0
  9
$DIMBLK1
  1

  9
$DIMBLK2
  1

  9
$DIMSTYLE
  2
STANDARD
  9
$DIMCLRD
 70
     0
  9
$DIMCLRE
 70
     0
  9
$DIMCLRT
 70
     0
  9
$DIMTFAC
 40
1.0
  9
$DIMGAP
 40
1.5
  9
$DIMJUST
 70
     0
  9
$DIMSD1
 70
     0
  9
$DIMSD2
 70
     0
  9
$DIMTOLJ
 70
     1
  9
$DIMTZIN
 70
     0
  9
$DIMALTZ
 70
     0
  9
$DIMALTTZ
 70
     0
  9
$DIMFIT
 70
     3
  9
$DIMUPT
 70
     0
  9
$DIMUNIT
 70
     2
  9
$DIMDEC
 70
     2
  9
$DIMTDEC
 70
     4
  9
$DIMALTU
 70
     2
  9
$DIMALTTD
 70
     2
  9
$DIMTXSTY
  7
ＭＳ_ゴシック
  9
$DIMAUNIT
 70
     0
  9
$LUNITS
 70
     2
  9
$LUPREC
 70
     4
  9
$SKETCHINC
 40
0.1
  9
$FILLETRAD
 40
0.5
  9
$AUNITS
 70
     0
  9
$AUPREC
 70
     0
  9
$MENU
  1
.
  9
$ELEVATION
 40
0.0
  9
$PELEVATION
 40
0.0
  9
$THICKNESS
 40
0.0
  9
$LIMCHECK
 70
     0
  9
$CHAMFERA
 40
0.0
  9
$CHAMFERB
 40
0.0
  9
$CHAMFERC
 40
0.0
  9
$CHAMFERD
 40
0.0
  9
$SKPOLY
 70
     0
  9
$TDCREATE
 40
2460189.613813137
  9
$TDUPDATE
 40
2460189.613813414
  9
$TDINDWG
 40
0.0000000116
  9
$TDUSRTIMER
 40
0.0000000116
  9
$USRTIMER
 70
     1
  9
$ANGBASE
 50
0.0
  9
$ANGDIR
 70
     0
  9
$PDMODE
 70
     0
  9
$PDSIZE
 40
0.0
  9
$PLINEWID
 40
0.0
  9
$COORDS
 70
     1
  9
$SPLFRAME
 70
     0
  9
$SPLINETYPE
 70
     6
  9
$SPLINESEGS
 70
     8
  9
$ATTDIA
 70
     0
  9
$ATTREQ
 70
     1
  9
$HANDLING
 70
     1
  9
$HANDSEED
  5
11B
  9
$SURFTAB1
 70
     6
  9
$SURFTAB2
 70
     6
  9
$SURFTYPE
 70
     6
  9
$SURFU
 70
     6
  9
$SURFV
 70
     6
  9
$UCSNAME
  2

  9
$UCSORG
 10
0.0
 20
0.0
 30
0.0
  9
$UCSXDIR
 10
1.0
 20
0.0
 30
0.0
  9
$UCSYDIR
 10
0.0
 20
1.0
 30
0.0
  9
$PUCSNAME
  2

  9
$PUCSORG
 10
0.0
 20
0.0
 30
0.0
  9
$PUCSXDIR
 10
1.0
 20
0.0
 30
0.0
  9
$PUCSYDIR
 10
0.0
 20
1.0
 30
0.0
  9
$USERI1
 70
     0
  9
$USERI2
 70
     0
  9
$USERI3
 70
     0
  9
$USERI4
 70
     0
  9
$USERI5
 70
     0
  9
$USERR1
 40
0.0
  9
$USERR2
 40
0.0
  9
$USERR3
 40
0.0
  9
$USERR4
 40
0.0
  9
$USERR5
 40
0.0
  9
$WORLDVIEW
 70
     1
  9
$SHADEDGE
 70
     3
  9
$SHADEDIF
 70
    70
  9
$TILEMODE
 70
     1
  9
$MAXACTVP
 70
    64
  9
$PINSBASE
 10
0.0
 20
0.0
 30
0.0
  9
$PLIMCHECK
 70
     0
  9
$PEXTMIN
 10
1.000000000000000E+20
 20
1.000000000000000E+20
 30
1.000000000000000E+20
  9
$PEXTMAX
 10
-1.000000000000000E+20
 20
-1.000000000000000E+20
 30
-1.000000000000000E+20
  9
$PLIMMIN
 10
0.0
 20
0.0
  9
$PLIMMAX
 10
12.0
 20
9.0
  9
$UNITMODE
 70
     0
  9
$VISRETAIN
 70
     1
  9
$PLINEGEN
 70
     0
  9
$PSLTSCALE
 70
     1
  9
$TREEDEPTH
 70
  3020
  9
$PICKSTYLE
 70
     1
  9
$CMLSTYLE
  2
STANDARD
  9
$CMLJUST
 70
     0
  9
$CMLSCALE
 40
1.0
  9
$PROXYGRAPHICS
 70
     1
  9
$MEASUREMENT
 70
     1
  0
ENDSEC
  0
SECTION
  2
CLASSES
  0
CLASS
  1
ACDBDICTIONARYWDFLT
  2
AcDbDictionaryWithDefault
  3
ObjectDBX Classes
 90
        0
280
     0
281
     0
  0
CLASS
  1
VISUALSTYLE
  2
AcDbVisualStyle
  3
ObjectDBX Classes
 90
     4095
280
     0
281
     0
  0
CLASS
  1
MATERIAL
  2
AcDbMaterial
  3
ObjectDBX Classes
 90
     1153
280
     0
281
     0
  0
CLASS
  1
SCALE
  2
AcDbScale
  3
ObjectDBX Classes
 90
     1153
280
     0
281
     0
  0
CLASS
  1
TABLESTYLE
  2
AcDbTableStyle
  3
ObjectDBX Classes
 90
     4095
280
     0
281
     0
  0
CLASS
  1
MLEADERSTYLE
  2
AcDbMLeaderStyle
  3
ACDB_MLEADERSTYLE_CLASS
 90
     4095
280
     0
281
     0
  0
CLASS
  1
SUN
  2
AcDbSun
  3
SCENEOE
 90
     1153
280
     0
281
     0
  0
CLASS
  1
DICTIONARYVAR
  2
AcDbDictionaryVar
  3
ObjectDBX Classes
 90
        0
280
     0
281
     0
  0
CLASS
  1
XRECORD
  2
AcDbXrecord
  3
ObjectDBX Classes
 90
        0
280
     0
281
     0
  0
CLASS
  1
LWPOLYLINE
  2
AcDbPolyline
  3
ObjectDBX Classes
 90
        0
280
     0
281
     1
  0
CLASS
  1
HATCH
  2
AcDbHatch
  3
ObjectDBX Classes
 90
        0
280
     0
281
     1
  0
CLASS
  1
ACDBPLACEHOLDER
  2
AcDbPlaceHolder
  3
ObjectDBX Classes
 90
        0
280
     0
281
     0
  0
CLASS
  1
LAYOUT
  2
AcDbLayout
  3
ObjectDBX Classes
 90
        0
280
     0
281
     0
  0
ENDSEC
  0
SECTION
  2
TABLES
  0
TABLE
  2
VPORT
  5
8
102
{ACAD_XDICTIONARY
360
110
102
}
330
0
100
AcDbSymbolTable
 70
     1
  0
VPORT
  5
29
330
8
100
AcDbSymbolTableRecord
100
AcDbViewportTableRecord
  2
*ACTIVE
 70
     0
 10
0.0
 20
0.0
 11
1.0
 21
1.0
 12
682.9166666666667
 22
325.5169696969698
 13
0.0
 23
0.0
 14
0.5
 24
0.5
 15
0.5
 25
0.5
 16
0.0
 26
0.0
 36
1.0
 17
0.0
 27
0.0
 37
0.0
 40
105.6327272727273
 41
1.6
 42
50.0
 43
0.0
 44
0.0
 50
0.0
 51
0.0
 71
     0
 72
   100
 73
     1
 74
     3
 75
     0
 76
     0
 77
     0
 78
     0
  0
ENDTAB
  0
TABLE
  2
LTYPE
  5
5
330
0
100
AcDbSymbolTable
 70
     2
  0
LTYPE
  5
14
330
5
100
AcDbSymbolTableRecord
100
AcDbLinetypeTableRecord
  2
BYBLOCK
 70
     0
  3

 72
    65
 73
     0
 40
0.0
  0
LTYPE
  5
15
330
5
100
AcDbSymbolTableRecord
100
AcDbLinetypeTableRecord
  2
BYLAYER
 70
     0
  3

 72
    65
 73
     0
 40
0.0
  0
LTYPE
  5
16
330
5
100
AcDbSymbolTableRecord
100
AcDbLinetypeTableRecord
  2
CONTINUOUS
 70
     0
  3
Solid line
 72
    65
 73
     0
 40
0.0
  0
LTYPE
  5
E3
330
5
100
AcDbSymbolTableRecord
100
AcDbLinetypeTableRecord
  2
________________
 70
     0
  3

 72
    65
 73
     4
 40
6.0
 49
2.25
 74
     0
 49
-1.5
 74
     0
 49
0.7499999999999999
 74
     0
 49
-1.5
 74
     0
  0
ENDTAB
  0
TABLE
  2
LAYER
  5
2
330
0
100
AcDbSymbolTable
 70
     2
  0
LAYER
  5
10
330
2
100
AcDbSymbolTableRecord
100
AcDbLayerTableRecord
  2
0
 70
     0
 62
     7
  6
CONTINUOUS
  0
LAYER
  5
6E
330
2
100
AcDbSymbolTableRecord
100
AcDbLayerTableRecord
  2
1
 70
     0
 62
     7
  6
CONTINUOUS
  0
ENDTAB
  0
TABLE
  2
STYLE
  5
3
330
0
100
AcDbSymbolTable
 70
     2
  0
STYLE
  5
11
330
3
100
AcDbSymbolTableRecord
100
AcDbTextStyleTableRecord
  2
STANDARD
 70
     0
 40
0.0
 41
1.0
 50
0.0
 71
     0
 42
0.2
  3
txt
  4

  0
STYLE
  5
6F
330
3
100
AcDbSymbolTableRecord
100
AcDbTextStyleTableRecord
  2
ＭＳ_ゴシック
 70
     0
 40
0.0
 41
1.0
 50
0.0
 71
     0
 42
0.2
  3
ＭＳ ゴシック.shx
  4

  0
ENDTAB
  0
TABLE
  2
VIEW
  5
6
330
0
100
AcDbSymbolTable
 70
     0
  0
ENDTAB
  0
TABLE
  2
UCS
  5
7
330
0
100
AcDbSymbolTable
 70
     0
  0
ENDTAB
  0
TABLE
  2
APPID
  5
9
330
0
100
AcDbSymbolTable
 70
     2
  0
APPID
  5
12
330
9
100
AcDbSymbolTableRecord
100
AcDbRegAppTableRecord
  2
ACAD
 70
     0
  0
APPID
  5
11A
330
9
100
AcDbSymbolTableRecord
100
AcDbRegAppTableRecord
  2
ACAD_MLEADERVER
 70
     0
  0
ENDTAB
  0
TABLE
  2
DIMSTYLE
  5
A
330
0
100
AcDbSymbolTable
 70
     1
  0
DIMSTYLE
105
27
330
A
100
AcDbSymbolTableRecord
100
AcDbDimStyleTableRecord
  2
STANDARD
 70
     0
  3

  4

  5

  6

  7

 40
1.0
 41
0.18
 42
0.0625
 43
0.38
 44
0.18
 45
0.0
 46
0.0
 47
0.0
 48
0.0
140
0.18
141
0.09
142
0.0
143
25.4
144
1.0
145
0.0
146
1.0
147
0.09
 71
     0
 72
     0
 73
     1
 74
     1
 75
     0
 76
     0
 77
     0
 78
     0
170
     0
171
     2
172
     0
173
     0
174
     0
175
     0
176
     0
177
     0
178
     0
270
     2
271
     4
272
     4
273
     2
274
     2
340
11
275
     0
280
     0
281
     0
282
     0
283
     1
284
     0
285
     0
286
     0
287
     3
288
     0
  0
ENDTAB
  0
TABLE
  2
BLOCK_RECORD
  5
1
330
0
100
AcDbSymbolTable
 70
     0
  0
BLOCK_RECORD
  5
1F
330
1
100
AcDbSymbolTableRecord
100
AcDbBlockTableRecord
  2
*MODEL_SPACE
  0
BLOCK_RECORD
  5
1B
330
1
100
AcDbSymbolTableRecord
100
AcDbBlockTableRecord
  2
*PAPER_SPACE
  0
ENDTAB
  0
ENDSEC
  0
SECTION
  2
BLOCKS
  0
BLOCK
  5
20
330
1F
100
AcDbEntity
  8
0
100
AcDbBlockBegin
  2
*MODEL_SPACE
 70
     0
 10
0.0
 20
0.0
 30
0.0
  3
*MODEL_SPACE
  1

  0
ENDBLK
  5
21
330
1F
100
AcDbEntity
  8
0
100
AcDbBlockEnd
  0
BLOCK
  5
1C
330
1B
100
AcDbEntity
 67
     1
  8
0
100
AcDbBlockBegin
  2
*PAPER_SPACE
 70
     0
 10
0.0
 20
0.0
 30
0.0
  3
*PAPER_SPACE
  1

  0
ENDBLK
  5
1D
330
1B
100
AcDbEntity
 67
     1
  8
0
100
AcDbBlockEnd
  0
ENDSEC
  0
SECTION
  2
ENTITIES
  0
LINE
  5
70
330
1F
100
AcDbEntity
  8
1
  6
CONTINUOUS
 62
     7
100
AcDbLine
 10
820.3333333333287
 20
328.8333333333334
 30
0.0
 11
820.3333333333287
 21
327.8333333333334
 31
0.0
  0
LINE
  5
71
330
1F
100
AcDbEntity
  8
1
  6
CONTINUOUS
 62
     7
100
AcDbLine
 10
820.3333333333287
 20
327.8333333333334
 30
0.0
 11
818.3333333333287
 21
327.8333333333334
 31
0.0
  0
LINE
  5
72
330
1F
100
AcDbEntity
  8
1
  6
CONTINUOUS
 62
     7
100
AcDbLine
 10
818.3333333333287
 20
327.8333333333334
 30
0.0
 11
818.3333333333287
 21
328.8333333333334
 31
0.0
  0
LINE
  5
73
330
1F
100
AcDbEntity
  8
1
  6
CONTINUOUS
 62
     7
100
AcDbLine
 10
818.3333333333287
 20
348.8333333333334
 30
0.0
 11
820.3333333333287
 21
348.8333333333334
 31
0.0
  0
LINE
  5
74
330
1F
100
AcDbEntity
  8
1
  6
CONTINUOUS
 62
     7
100
AcDbLine
 10
820.3333333333287
 20
348.8333333333334
 30
0.0
 11
820.3333333333287
 21
347.8333333333334
 31
0.0
  0
LINE
  5
75
330
1F
100
AcDbEntity
  8
1
  6
CONTINUOUS
 62
     7
100
AcDbLine
 10
818.3333333333287
 20
347.8333333333334
 30
0.0
 11
818.3333333333287
 21
348.8333333333334
 31
0.0
  0
LINE
  5
76
330
1F
100
AcDbEntity
  8
1
  6
CONTINUOUS
 62
     7
100
AcDbLine
 10
820.3333333333287
 20
328.8333333333334
 30
0.0
 11
820.3333333333287
 21
347.8333333333334
 31
0.0
  0
LINE
  5
77
330
1F
100
AcDbEntity
  8
1
  6
CONTINUOUS
 62
     7
100
AcDbLine
 10
818.3333333333287
 20
338.8333333333334
 30
0.0
 11
818.8333333333287
 21
338.3333333333334
 31
0.0
  0
LINE
  5
78
330
1F
100
AcDbEntity
  8
1
  6
CONTINUOUS
 62
     7
100
AcDbLine
 10
818.8333333333287
 20
338.3333333333334
 30
0.0
 11
818.3333333333287
 21
337.8333333333334
 31
0.0
  0
LINE
  5
79
330
1F
100
AcDbEntity
  8
1
  6
CONTINUOUS
 62
     7
100
AcDbLine
 10
818.3333333333287
 20
347.8333333333334
 30
0.0
 11
818.3333333333287
 21
338.8333333333334
 31
0.0
  0
LINE
  5
7A
330
1F
100
AcDbEntity
  8
1
  6
CONTINUOUS
 62
     7
100
AcDbLine
 10
818.3333333333287
 20
337.8333333333334
 30
0.0
 11
818.3333333333287
 21
328.8333333333334
 31
0.0
  0
LINE
  5
7B
330
1F
100
AcDbEntity
  8
1
  6
CONTINUOUS
 62
     7
100
AcDbLine
 10
818.3333333333287
 20
338.8333333333334
 30
0.0
 11
818.3333333333287
 21
337.8333333333334
 31
0.0
  0
LINE
  5
7C
330
1F
100
AcDbEntity
  8
1
  6
CONTINUOUS
 62
     7
100
AcDbLine
 10
794.3333333333287
 20
314.8102318958931
 30
0.0
 11
794.3333333333287
 21
317.8333333333334
 31
0.0
  0
ARC
  5
7D
330
1F
100
AcDbEntity
  8
1
  6
CONTINUOUS
 62
     7
100
AcDbCircle
 10
794.3333333333287
 20
338.3333333333334
 30
0.0
 40
20.5
100
AcDbArc
 50
270.0
 51
90.0
  0
LINE
  5
7E
330
1F
100
AcDbEntity
  8
1
  6
CONTINUOUS
 62
     7
100
AcDbLine
 10
794.3333333333287
 20
358.8333333333334
 30
0.0
 11
794.3333333333287
 21
361.8564347707737
 31
0.0
  0
LINE
  5
7F
330
1F
100
AcDbEntity
  8
1
  6
CONTINUOUS
 62
     7
100
AcDbLine
 10
820.3333333333287
 20
348.8333333333334
 30
0.0
 11
820.3333333333287
 21
362.0833333333334
 31
0.0
  0
LINE
  5
80
330
1F
100
AcDbEntity
  8
1
  6
CONTINUOUS
 62
     7
100
AcDbLine
 10
820.3333333333287
 20
314.5833333333334
 30
0.0
 11
820.3333333333287
 21
327.8333333333334
 31
0.0
  0
LINE
  5
81
330
1F
100
AcDbEntity
  8
1
  6
CONTINUOUS
 62
     7
100
AcDbLine
 10
820.3333333333287
 20
314.2333333333333
 30
0.0
 11
820.3333333333287
 21
314.5833333333334
 31
0.0
  0
LINE
  5
82
330
1F
100
AcDbEntity
  8
1
  6
CONTINUOUS
 62
     7
100
AcDbLine
 10
820.3333333333287
 20
362.0833333333334
 30
0.0
 11
820.3333333333287
 21
362.4333333333334
 31
0.0
  0
LINE
  5
83
330
1F
100
AcDbEntity
  8
1
  6
CONTINUOUS
 62
     7
100
AcDbLine
 10
794.3333333333287
 20
314.2333333333333
 30
0.0
 11
794.3333333333287
 21
314.8102318958931
 31
0.0
  0
LINE
  5
84
330
1F
100
AcDbEntity
  8
1
  6
CONTINUOUS
 62
     7
100
AcDbLine
 10
794.3333333333287
 20
361.8564347707737
 30
0.0
 11
794.3333333333287
 21
362.4333333333334
 31
0.0
  0
LINE
  5
85
330
1F
100
AcDbEntity
  8
1
  6
CONTINUOUS
 62
     7
100
AcDbLine
 10
789.2539572736382
 20
364.7333333333333
 30
0.0
 11
820.3333333333287
 21
364.7333333333333
 31
0.0
  0
LINE
  5
86
330
1F
100
AcDbEntity
  8
1
  6
CONTINUOUS
 62
     7
100
AcDbLine
 10
820.3333333333287
 20
364.7333333333333
 30
0.0
 11
820.3333333333287
 21
363.2333333333334
 31
0.0
  0
LINE
  5
87
330
1F
100
AcDbEntity
  8
1
  6
CONTINUOUS
 62
     7
100
AcDbLine
 10
820.3333333333287
 20
311.9333333333334
 30
0.0
 11
784.4333333333286
 21
311.9333333333334
 31
0.0
  0
LINE
  5
88
330
1F
100
AcDbEntity
  8
1
  6
CONTINUOUS
 62
     7
100
AcDbLine
 10
784.4333333333286
 20
311.9333333333334
 30
0.0
 11
784.4323088851762
 21
311.9342820649769
 31
0.0
  0
LINE
  5
89
330
1F
100
AcDbEntity
  8
1
  6
CONTINUOUS
 62
     7
100
AcDbLine
 10
820.3333333333287
 20
313.4333333333334
 30
0.0
 11
820.3333333333287
 21
311.9333333333334
 31
0.0
  0
LINE
  5
8A
330
1F
100
AcDbEntity
  8
1
  6
CONTINUOUS
 62
     7
100
AcDbLine
 10
789.2539572736382
 20
362.4333333333334
 30
0.0
 11
820.3333333333287
 21
362.4333333333334
 31
0.0
  0
ARC
  5
8B
330
1F
100
AcDbEntity
  8
1
  6
CONTINUOUS
 62
     7
100
AcDbCircle
 10
789.2539572736382
 20
352.4333333333334
 30
0.0
 40
10.0
100
AcDbArc
 50
90.0
 51
132.8024765002882
  0
LINE
  5
8C
330
1F
100
AcDbEntity
  8
1
  6
CONTINUOUS
 62
     7
100
AcDbLine
 10
772.7838282836618
 20
350.8100439220667
 30
0.0
 11
782.4592270966946
 21
359.770338296023
 31
0.0
  0
ARC
  5
8D
330
1F
100
AcDbEntity
  8
1
  6
CONTINUOUS
 62
     7
100
AcDbCircle
 10
-945.3333333333293
 20
338.3333333333334
 30
0.0
 40
173.0000000000006
210
0.0
220
0.0
230
-1.0
100
AcDbArc
 50
357.2336892666125
 51
4.135745728383312
  0
ARC
  5
8E
330
1F
100
AcDbEntity
  8
1
  6
CONTINUOUS
 62
     7
100
AcDbCircle
 10
782.5232792235877
 20
330.4665499510859
 30
0.0
 40
10.0
100
AcDbArc
 50
182.7663107333875
 51
227.1975234997123
  0
LINE
  5
8F
330
1F
100
AcDbEntity
  8
1
  6
CONTINUOUS
 62
     7
100
AcDbLine
 10
785.334750818102
 20
314.2333333333333
 30
0.0
 11
775.7285490466442
 21
323.1295449883963
 31
0.0
  0
LINE
  5
90
330
1F
100
AcDbEntity
  8
1
  6
CONTINUOUS
 62
     7
100
AcDbLine
 10
820.3333333333287
 20
314.2333333333334
 30
0.0
 11
785.334750818102
 21
314.2333333333333
 31
0.0
  0
LINE
  5
91
330
1F
100
AcDbEntity
  8
1
  6
CONTINUOUS
 62
     7
100
AcDbLine
 10
820.3333333333287
 20
314.2333333333334
 30
0.0
 11
820.3333333333287
 21
313.4333333333334
 31
0.0
  0
LINE
  5
92
330
1F
100
AcDbEntity
  8
1
  6
CONTINUOUS
 62
     7
100
AcDbLine
 10
820.3333333333287
 20
363.2333333333334
 30
0.0
 11
820.3333333333287
 21
362.4333333333334
 31
0.0
  0
ARC
  5
93
330
1F
100
AcDbEntity
  8
1
  6
CONTINUOUS
 62
     7
100
AcDbCircle
 10
-789.2539572736382
 20
352.4333333333334
 30
0.0
 40
12.3
210
0.0
220
0.0
230
-1.0
100
AcDbArc
 50
47.19752349971215
 51
90.0
  0
LINE
  5
94
330
1F
100
AcDbEntity
  8
1
  6
CONTINUOUS
 62
     7
100
AcDbLine
 10
784.4323088851762
 20
311.9342820649769
 30
0.0
 11
774.165761105947
 21
321.4420338469777
 31
0.0
  0
LINE
  5
95
330
1F
100
AcDbEntity
  8
1
  6
CONTINUOUS
 62
     7
100
AcDbLine
 10
770.5577750930739
 20
351.8830285995498
 30
0.0
 11
770.5577987182116
 21
351.8833333333334
 31
0.0
  0
LINE
  5
96
330
1F
100
AcDbEntity
  8
1
  6
CONTINUOUS
 62
     7
100
AcDbLine
 10
770.5577987182116
 20
351.8833333333334
 30
0.0
 11
780.8964391559975
 21
361.4578494374416
 31
0.0
  0
ARC
  5
97
330
1F
100
AcDbEntity
  8
1
  6
CONTINUOUS
 62
     7
100
AcDbCircle
 10
-782.5232792235877
 20
330.4665499510859
 30
0.0
 40
12.3
210
0.0
220
0.0
230
-1.0
100
AcDbArc
 50
312.8024765002879
 51
357.2336892666125
  0
ARC
  5
98
330
1F
100
AcDbEntity
  8
1
  6
CONTINUOUS
 62
     7
100
AcDbCircle
 10
-945.3333333333293
 20
338.3333333333334
 30
0.0
 40
175.3000000000006
210
0.0
220
0.0
230
-1.0
100
AcDbArc
 50
357.2336892666128
 51
4.433060283859561
  0
LINE
  5
99
330
1F
100
AcDbEntity
  8
1
  6
CONTINUOUS
 62
     7
100
AcDbLine
 10
761.1589748042421
 20
376.316926529847
 30
0.0
 11
820.3333333333287
 21
376.8333333333334
 31
0.0
  0
LINE
  5
9A
330
1F
100
AcDbEntity
  8
1
  6
CONTINUOUS
 62
     7
100
AcDbLine
 10
820.3333333333287
 20
376.8333333333334
 30
0.0
 11
820.3333333333287
 21
365.3095839719121
 31
0.0
  0
LINE
  5
9B
330
1F
100
AcDbEntity
  8
1
  6
CONTINUOUS
 62
     7
100
AcDbLine
 10
820.3333333333287
 20
299.8333333333334
 30
0.0
 11
761.1589748042421
 21
300.3497401368197
 31
0.0
  0
LINE
  5
9C
330
1F
100
AcDbEntity
  8
1
  6
CONTINUOUS
 62
     7
100
AcDbLine
 10
820.3333333333287
 20
311.3570826947547
 30
0.0
 11
820.3333333333287
 21
299.8333333333334
 31
0.0
  0
LINE
  5
9D
330
1F
100
AcDbEntity
  8
1
  6
CONTINUOUS
 62
     7
100
AcDbLine
 10
820.3333333333287
 20
311.9333333333334
 30
0.0
 11
820.3333333333287
 21
311.3570826947547
 31
0.0
  0
LINE
  5
9E
330
1F
100
AcDbEntity
  8
1
  6
CONTINUOUS
 62
     7
100
AcDbLine
 10
820.3333333333287
 20
365.309583971912
 30
0.0
 11
820.3333333333287
 21
364.7333333333333
 31
0.0
  0
LINE
  5
9F
330
1F
100
AcDbEntity
  8
1
  6
CONTINUOUS
 62
     7
100
AcDbLine
 10
756.3333333333286
 20
303.8614421090243
 30
0.0
 11
756.3333333333286
 21
372.8052245576424
 31
0.0
  0
ARC
  5
A0
330
1F
100
AcDbEntity
  8
1
  6
CONTINUOUS
 62
     7
100
AcDbCircle
 10
-759.8333333333287
 20
372.8052245576424
 30
0.0
 40
3.500000000000059
210
0.0
220
0.0
230
-1.0
100
AcDbArc
 50
0.0
 51
89.49999999999999
  0
LINE
  5
A1
330
1F
100
AcDbEntity
  8
1
  6
CONTINUOUS
 62
     7
100
AcDbLine
 10
759.8027904590843
 20
376.305091288367
 30
0.0
 11
761.158974804242
 21
376.316926529847
 31
0.0
  0
ARC
  5
A2
330
1F
100
AcDbEntity
  8
1
  6
CONTINUOUS
 62
     7
100
AcDbCircle
 10
759.8333333333287
 20
303.8614421090243
 30
0.0
 40
3.499999999999938
100
AcDbArc
 50
206.8434343197112
 51
242.6332395238211
  0
LINE
  5
A3
330
1F
100
AcDbEntity
  8
1
  6
CONTINUOUS
 62
     7
100
AcDbLine
 10
778.2540007295472
 20
355.8763491509826
 30
0.0
 11
783.8511130047257
 21
355.9507411297124
 31
0.0
  0
ARC
  5
A4
330
1F
100
AcDbEntity
  8
1
  6
CONTINUOUS
 62
     7
100
AcDbCircle
 10
-794.3338522525751
 20
338.3329328503102
 30
0.0
 40
20.50060952040634
210
0.0
220
0.0
230
-1.0
100
AcDbArc
 50
16.07419090432562
 51
59.24701021453745
  0
LWPOLYLINE
  5
A5
330
1F
100
AcDbEntity
  8
1
  6
CONTINUOUS
 62
     7
100
AcDbPolyline
 90
       74
 70
     0
 43
0.0
 10
774.2933214492897
 20
342.6516575228287
 10
774.3241157821944
 20
342.6451993197825
 10
774.3552185955978
 20
342.6401237485157
 10
774.3865307505398
 20
342.6364465077496
 10
774.4179531080614
 20
342.6341832962055
 10
774.4464212176915
 20
342.6333615956763
 10
774.4749269979329
 20
342.6336989471484
 10
774.5033959991782
 20
342.6351930068205
 10
774.5317537718203
 20
342.6378414308912
 10
774.5608002575245
 20
342.6417743242203
 10
774.5896757734471
 20
342.6469230154191
 10
774.6183011831378
 20
342.6532703639548
 10
774.646597350147
 20
342.6607992292948
 10
774.6736287452943
 20
342.6692012539969
 10
774.7003053319642
 20
342.6786914097848
 10
774.7265601816272
 20
342.6892418887901
 10
774.7523263657541
 20
342.7008248831445
 10
774.7782932267147
 20
342.7138053986609
 10
774.8036989706345
 20
342.7278504635913
 10
774.8284784971127
 20
342.7429182015101
 10
774.852566705749
 20
342.7589667359916
 10
774.8755294431938
 20
342.7756681129531
 10
774.8977894764779
 20
342.7932810130607
 10
774.9192943504546
 20
342.8117568693189
 10
774.9399916099775
 20
342.8310471147321
 10
774.9604048064227
 20
342.851704423395
 10
774.9799348906387
 20
342.8731799364421
 10
774.9985361678927
 20
342.8954138597037
 10
775.0161629434522
 20
342.9183463990103
 10
775.0327184983838
 20
342.941834320111
 10
775.0482882093012
 20
342.9659682654345
 10
775.0628386818369
 20
342.9906849225544
 10
775.0763365216238
 20
343.0159209790443
 10
775.0890974492326
 20
343.0423667813763
 10
775.1007331386114
 20
343.0693111396183
 10
775.1112197703836
 20
343.0966830441934
 10
775.120533525173
 20
343.1244114855251
 10
775.1286828253902
 20
343.1525299062446
 10
775.1356479205708
 20
343.1809562181829
 10
775.1414166596219
 20
343.2096185665812
 10
775.1459768914509
 20
343.2384450966808
 10
775.1493999127525
 20
343.2682115737599
 10
775.1515465834541
 20
343.2980994237898
 10
775.1524155998304
 20
343.3280316923288
 10
775.1520056581566
 20
343.3579314249347
 10
775.1503184272989
 20
343.387737078048
 10
775.1473604261498
 20
343.4174597421959
 10
775.1431413831715
 20
343.4470245610233
 10
775.1376710268257
 20
343.476356678175
 10
775.1307412064712
 20
343.5062531373043
 10
775.1224980041028
 20
343.535850945761
 10
775.1129636335238
 20
343.5650710982986
 10
775.1021603085366
 20
343.5938345896708
 10
775.0903217580437
 20
343.6216057125077
 10
775.0772741940896
 20
343.6488864965098
 10
775.0630499145734
 20
343.6756047948638
 10
775.0476812173943
 20
343.7016884607569
 10
775.0306622631938
 20
343.7278617962318
 10
775.0124502449029
 20
343.7533085759403
 10
774.9930938243093
 20
343.7779537359831
 10
774.972641663202
 20
343.8017222124608
 10
774.9521032406635
 20
343.8235690316853
 10
774.9305924008576
 20
343.8445690616606
 10
774.9081642023122
 20
343.8646618916198
 10
774.884873703555
 20
343.8837871107958
 10
774.8599628180716
 20
343.9024721817453
 10
774.834171940072
 20
343.9200796335265
 10
774.8075762271452
 20
343.9365516719336
 10
774.7802508368807
 20
343.95183050276
 10
774.7523482692781
 20
343.9658245267179
 10
774.7237554587483
 20
343.9785985609313
 10
774.6945623576489
 20
343.9901104636887
 10
774.6648589183376
 20
344.0003180932777
 10
774.634735093172
 20
344.0091793079868
  0
ARC
  5
A6
330
1F
100
AcDbEntity
  8
1
  6
CONTINUOUS
 62
     7
100
AcDbCircle
 10
794.3361032694094
 20
338.3333333469973
 30
0.0
 40
20.50270779132572
100
AcDbArc
 50
167.8411863226465
 51
192.1588136773537
  0
LWPOLYLINE
  5
A7
330
1F
100
AcDbEntity
  8
1
  6
CONTINUOUS
 62
     7
100
AcDbPolyline
 90
       75
 70
     0
 43
0.0
 10
-774.2933214492897
 20
334.0150091711659
 10
-774.3210364478764
 20
334.0208872502112
 10
-774.3490041546302
 20
334.0256451515708
 10
-774.3771523298993
 20
334.0292707046183
 10
-774.4054087340322
 20
334.0317517387276
 10
-774.4345729349436
 20
334.0331026980056
 10
-774.4637990841275
 20
334.0332364495504
 10
-774.4930069402398
 20
334.0321541139845
 10
-774.5221162619375
 20
334.0298568119308
 10
-774.5502847287896
 20
334.0264586834517
 10
-774.5783104515992
 20
334.0219190589303
 10
-774.6061213502533
 20
334.0162521843484
 10
-774.6336453446378
 20
334.0094723056872
 10
-774.6616407611242
 20
334.0013382731229
 10
-774.6892824389714
 20
333.9920428950408
 10
-774.7164966699353
 20
333.981615221805
 10
-774.7432097457713
 20
333.9700843037794
 10
-774.7687208765259
 20
333.9578027005567
 10
-774.7937140547929
 20
333.9445002823314
 10
-774.8181281303606
 20
333.930214870355
 10
-774.8419019530172
 20
333.9149842858794
 10
-774.8656562336063
 20
333.8983530744583
 10
-774.8886954348549
 20
333.8807576886049
 10
-774.9109626982613
 20
333.8622489289805
 10
-774.9324011653239
 20
333.8428775962457
 10
-774.9527558400937
 20
333.8229035411371
 10
-774.972271433738
 20
333.80212724975
 10
-774.9909036397147
 20
333.7806046982193
 10
-775.0086081514814
 20
333.7583918626797
 10
-775.0258198157602
 20
333.7348679637922
 10
-775.0420291170766
 20
333.7106615217256
 10
-775.057200033402
 20
333.6858381380363
 10
-775.0712965427076
 20
333.6604634142805
 10
-775.0842962706985
 20
333.6345842079883
 10
-775.0962091509573
 20
333.6082029540636
 10
-775.107011191359
 20
333.5813875413398
 10
-775.1166783997783
 20
333.5542058586506
 10
-775.1254211146646
 20
333.5259223560633
 10
-775.1329584818385
 20
333.4973034448133
 10
-775.1392767603819
 20
333.4684233460774
 10
-775.144362209377
 20
333.4393562810328
 10
-775.1482176288446
 20
333.4100642345509
 10
-775.1508340849682
 20
333.3806350158533
 10
-775.1522092130799
 20
333.3511424736356
 10
-775.1523406485119
 20
333.3216604565932
 10
-775.1511781431634
 20
333.2913943467171
 10
-775.1487063784258
 20
333.2611915656855
 10
-775.1449343803773
 20
333.231130465894
 10
-775.1398711750969
 20
333.2012893997388
 10
-775.1335674161721
 20
333.1719038122632
 10
-775.1260000195923
 20
333.1427854671163
 10
-775.1171887300111
 20
333.1140088238105
 10
-775.1071532920828
 20
333.0856483418583
 10
-775.095551607577
 20
333.0569257089402
 10
-775.0826681061636
 20
333.0286967613071
 10
-775.0685364680595
 20
333.0010398297555
 10
-775.0531903734814
 20
332.9740332450817
 10
-775.0371446304805
 20
332.9484766480892
 10
-775.0199745075121
 20
332.9235820139875
 10
-775.0017227036777
 20
332.8994176304155
 10
-774.9824319180788
 20
332.8760517850119
 10
-774.9614714778455
 20
332.8528329209238
 10
-774.9394349174601
 20
332.8305148342326
 10
-774.9163833965576
 20
332.8091669349434
 10
-774.8923780747738
 20
332.7888586330614
 10
-774.8688912655539
 20
332.7706940521066
 10
-774.8445902730948
 20
332.7534971327989
 10
-774.8195390555231
 20
332.7373189783225
 10
-774.7938015709657
 20
332.7222106918616
 10
-774.7665476048029
 20
332.7077691561636
 10
-774.7386085237544
 20
332.6945076492107
 10
-774.710068067596
 20
332.6824707166048
 10
-774.6810099761047
 20
332.6717029039478
 10
-774.6580069092805
 20
332.6641986695125
 10
-774.634735093172
 20
332.6574873860078
210
0.0
220
0.0
230
-1.0
  0
ARC
  5
A8
330
1F
100
AcDbEntity
  8
1
  6
CONTINUOUS
 62
     7
100
AcDbCircle
 10
794.3338567039365
 20
338.3337372792005
 30
0.0
 40
20.50061474896932
100
AcDbArc
 50
196.0741966859951
 51
239.2470044328679
  0
LINE
  5
A9
330
1F
100
AcDbEntity
  8
1
  6
CONTINUOUS
 62
     7
100
AcDbLine
 10
778.2540006996061
 20
320.7903175434108
 30
0.0
 11
783.8511130047257
 21
320.7159255642822
 31
0.0
  0
LWPOLYLINE
  5
AA
330
1F
100
AcDbEntity
  8
1
  6
CONTINUOUS
 62
     7
100
AcDbPolyline
 90
       33
 70
     0
 43
0.0
 10
794.3333333333287
 20
317.3392865717854
 10
794.3327491792368
 20
317.3634487913842
 10
794.3309980819049
 20
317.3875545531453
 10
794.328084132976
 20
317.4115475311511
 10
794.3240141412305
 20
317.4353716630164
 10
794.3187976166779
 20
317.4589712808849
 10
794.3124467483349
 20
317.4822912415031
 10
794.3049763757443
 20
317.5052770550695
 10
794.2964039543012
 20
317.5278750125556
 10
794.2867495144656
 20
317.5500323112043
 10
794.2760356149597
 20
317.5716971779088
 10
794.2642872900565
 20
317.592818990187
 10
794.2515319910843
 20
317.6133483944666
 10
794.2377995222834
 20
317.6332374214056
 10
794.2231219711651
 20
317.6524395979779
 10
794.2075336335357
 20
317.6709100560637
 10
794.19107093336
 20
317.6886056372882
 10
794.1737723376527
 20
317.7054849938666
 10
794.1556782665957
 20
317.7215086852181
 10
794.1368309990914
 20
317.7366392701233
 10
794.117274573974
 20
317.7508413942097
 10
794.097054687106
 20
317.7640818725619
 10
794.0762185846062
 20
317.7763297672612
 10
794.0548149524528
 20
317.7875564596766
 10
794.0328938027232
 20
317.7977357173348
 10
794.0105063567341
 20
317.8068437552157
 10
793.9877049253588
 20
317.8148592913288
 10
793.9645427867948
 20
317.8217635964415
 10
793.9410740620742
 20
317.8275405378412
 10
793.9173535886034
 20
317.8321766170322
 10
793.8934367920289
 20
317.835661001276
 10
793.869379556729
 20
317.8379855489033
 10
793.8452380952334
 20
317.8391448283381
  0
ARC
  5
AB
330
1F
100
AcDbEntity
  8
1
  6
CONTINUOUS
 62
     7
100
AcDbCircle
 10
794.3333333333287
 20
338.3333333469973
 30
0.0
 40
20.5
100
AcDbArc
 50
239.2476842351857
 51
268.6356858493332
  0
LWPOLYLINE
  5
AC
330
1F
100
AcDbEntity
  8
1
  6
CONTINUOUS
 62
     7
100
AcDbPolyline
 90
       33
 70
     0
 43
0.0
 10
-794.3333333333287
 20
359.3273801222092
 10
-794.3327491792368
 20
359.3032179026104
 10
-794.3309980819049
 20
359.2791121408493
 10
-794.328084132976
 20
359.2551191628436
 10
-794.3240141412305
 20
359.2312950309782
 10
-794.3187976166779
 20
359.2076954131097
 10
-794.3124467483349
 20
359.1843754524915
 10
-794.3049763757443
 20
359.1613896389252
 10
-794.2964039543012
 20
359.138791681439
 10
-794.2867495144656
 20
359.1166343827903
 10
-794.2760356149597
 20
359.0949695160858
 10
-794.2642872900565
 20
359.0738477038076
 10
-794.2515319910843
 20
359.053318299528
 10
-794.2377995222834
 20
359.033429272589
 10
-794.2231219711651
 20
359.0142270960167
 10
-794.2075336335357
 20
358.9957566379309
 10
-794.19107093336
 20
358.9780610567065
 10
-794.1737723376527
 20
358.961181700128
 10
-794.1556782665957
 20
358.9451580087764
 10
-794.1368309990914
 20
358.9300274238713
 10
-794.117274573974
 20
358.9158252997849
 10
-794.097054687106
 20
358.9025848214327
 10
-794.0762185846062
 20
358.8903369267334
 10
-794.0548149524528
 20
358.879110234318
 10
-794.0328938027232
 20
358.8689309766598
 10
-794.0105063567341
 20
358.8598229387789
 10
-793.9877049253588
 20
358.8518074026658
 10
-793.9645427867948
 20
358.8449030975531
 10
-793.9410740620742
 20
358.8391261561534
 10
-793.9173535886034
 20
358.8344900769624
 10
-793.8934367920289
 20
358.8310056927186
 10
-793.869379556729
 20
358.8286811450913
 10
-793.8452380952334
 20
358.8275218656566
210
0.0
220
0.0
230
-1.0
  0
ARC
  5
AD
330
1F
100
AcDbEntity
  8
1
  6
CONTINUOUS
 62
     7
100
AcDbCircle
 10
-794.3333333333287
 20
338.3333333469973
 30
0.0
 40
20.5
210
0.0
220
0.0
230
-1.0
100
AcDbArc
 50
59.24768423518556
 51
88.6356858493332
  0
LINE
  5
AE
330
1F
100
AcDbEntity
  8
1
  6
CONTINUOUS
 62
     7
100
AcDbLine
 10
787.3333333333286
 20
315.8944214215381
 30
0.0
 11
783.5050188571253
 21
315.9278306158333
 31
0.0
  0
LINE
  5
AF
330
1F
100
AcDbEntity
  8
1
  6
CONTINUOUS
 62
     7
100
AcDbLine
 10
787.3333333333286
 20
360.7722452724565
 30
0.0
 11
783.68688825338
 21
360.7404232283376
 31
0.0
  0
LINE
  5
B0
330
1F
100
AcDbEntity
  8
1
  6
CONTINUOUS
 62
     7
100
AcDbLine
 10
787.3333333333286
 20
314.2333333333333
 30
0.0
 11
787.3333333333286
 21
315.8944401298947
 31
0.0
  0
LINE
  5
B1
330
1F
100
AcDbEntity
  8
1
  6
CONTINUOUS
 62
     7
100
AcDbLine
 10
787.3333333333286
 20
362.2471605011561
 30
0.0
 11
787.3333333333286
 21
360.7722265641
 31
0.0
  0
ARC
  5
B2
330
1F
100
AcDbEntity
  8
1
  6
CONTINUOUS
 62
     7
100
AcDbCircle
 10
760.0965763377393
 20
304.8290619538283
 30
0.0
 40
4.485302158800864
100
AcDbArc
 50
245.3300404975589
 51
275.2062018294017
  0
LINE
  5
B3
330
1F
100
AcDbEntity
  8
1
  6
CONTINUOUS
 62
     7
100
AcDbLine
 10
760.5035743444662
 20
300.3622635390502
 30
0.0
 11
761.1589748042421
 21
300.3497401368197
 31
0.0
  0
ARC
  5
B4
330
1F
100
AcDbEntity
  8
1
  6
CONTINUOUS
 62
     7
100
AcDbCircle
 10
759.8495403052407
 20
303.8653096206433
 30
0.0
 40
3.51620909886895
100
AcDbArc
 50
180.0630201820864
 51
206.7802302112926
  0
CIRCLE
  5
B5
330
1F
100
AcDbEntity
  8
1
  6
CONTINUOUS
 62
     7
100
AcDbCircle
 10
-627.5
 20
338.3333333333334
 30
0.0
 40
17.90000000000003
210
0.0
220
0.0
230
-1.0
  0
LINE
  5
B6
330
1F
100
AcDbEntity
  8
1
  6
CONTINUOUS
 62
     7
100
AcDbLine
 10
671.5007615387166
 20
376.8333333333334
 30
0.0
 11
583.4992384612834
 21
376.8333333333334
 31
0.0
  0
LINE
  5
B7
330
1F
100
AcDbEntity
  8
1
  6
CONTINUOUS
 62
     7
100
AcDbLine
 10
583.4992384612834
 20
299.8333333333334
 30
0.0
 11
671.5007615387166
 21
299.8333333333334
 31
0.0
  0
LWPOLYLINE
  5
B8
330
1F
100
AcDbEntity
  8
1
  6
CONTINUOUS
 62
     7
100
AcDbPolyline
 90
        7
 70
     0
 43
0.0
 10
-565.384632991889
 20
365.309583971912
 10
-567.2978920514078
 20
368.5597376815196
 10
-569.7873220427708
 20
371.3928756207503
 10
-572.7643993130267
 20
373.7082519479587
 10
-576.12325956553
 20
375.4235323251021
 10
-579.7444623740237
 20
376.4777217110071
 10
-583.4992384612835
 20
376.8333333333333
210
0.0
220
0.0
230
-1.0
  0
LWPOLYLINE
  5
B9
330
1F
100
AcDbEntity
  8
1
  6
CONTINUOUS
 62
     7
100
AcDbPolyline
 90
        7
 70
     0
 43
0.0
 10
-583.4992384612834
 20
299.8333333333334
 10
-579.7444623740236
 20
300.1889449556596
 10
-576.12325956553
 20
301.2431343415646
 10
-572.7643993130267
 20
302.958414718708
 10
-569.7873220427708
 20
305.2737910459164
 10
-567.2978920514078
 20
308.106928985147
 10
-565.384632991889
 20
311.3570826947547
210
0.0
220
0.0
230
-1.0
  0
LWPOLYLINE
  5
BA
330
1F
100
AcDbEntity
  8
1
  6
CONTINUOUS
 62
     7
100
AcDbPolyline
 90
        7
 70
     0
 43
0.0
 10
-689.6153670081111
 20
311.3570826947547
 10
-687.7021079485924
 20
308.1069289851471
 10
-685.2126779572292
 20
305.2737910459164
 10
-682.2356006869734
 20
302.958414718708
 10
-678.8767404344701
 20
301.2431343415646
 10
-675.2555376259764
 20
300.1889449556596
 10
-671.5007615387166
 20
299.8333333333334
210
0.0
220
0.0
230
-1.0
  0
LWPOLYLINE
  5
BB
330
1F
100
AcDbEntity
  8
1
  6
CONTINUOUS
 62
     7
100
AcDbPolyline
 90
        7
 70
     0
 43
0.0
 10
-671.5007615387167
 20
376.8333333333333
 10
-675.2555376259766
 20
376.4777217110071
 10
-678.8767404344701
 20
375.423532325102
 10
-682.2356006869734
 20
373.7082519479587
 10
-685.2126779572292
 20
371.3928756207503
 10
-687.7021079485924
 20
368.5597376815197
 10
-689.6153670081111
 20
365.309583971912
210
0.0
220
0.0
230
-1.0
  0
LINE
  5
BC
330
1F
100
AcDbEntity
  8
1
  6
CONTINUOUS
 62
     7
100
AcDbLine
 10
547.5323085010901
 20
324.783638067117
 30
0.0
 11
547.5572692428912
 21
324.7833333333334
 31
0.0
  0
LINE
  5
BD
330
1F
100
AcDbEntity
  8
1
  6
CONTINUOUS
 62
     7
100
AcDbLine
 10
547.5572692428912
 20
351.8833333333334
 30
0.0
 11
547.5323085010901
 21
351.8830285995498
 31
0.0
  0
LINE
  5
BE
330
1F
100
AcDbEntity
  8
1
  6
CONTINUOUS
 62
     7
100
AcDbLine
 10
709.8711989192091
 20
362.4333333333334
 30
0.0
 11
711.5
 21
362.4333333333334
 31
0.0
  0
LWPOLYLINE
  5
BF
330
1F
100
AcDbEntity
  8
1
  6
CONTINUOUS
 62
     7
100
AcDbPolyline
 90
        5
 70
     0
 43
0.0
 10
709.8711989192091
 20
362.4333333333334
 10
709.7738896046214
 20
362.2594412354866
 10
709.6799645542045
 20
361.743812634285
 10
709.5926903327698
 20
360.9043802775631
 10
709.515102199808
 20
359.770338296023
  0
LINE
  5
C0
330
1F
100
AcDbEntity
  8
1
  6
CONTINUOUS
 62
     7
100
AcDbLine
 10
709.0080360343393
 20
350.8100439220667
 30
0.0
 11
709.5151021998081
 21
359.770338296023
 31
0.0
  0
LINE
  5
C1
330
1F
100
AcDbEntity
  8
1
  6
CONTINUOUS
 62
     7
100
AcDbLine
 10
708.9949919509575
 20
329.9839252037088
 30
0.0
 11
709.0080360343392
 21
350.8100439220666
 31
0.0
  0
LWPOLYLINE
  5
C2
330
1F
100
AcDbEntity
  8
1
  6
CONTINUOUS
 62
     7
100
AcDbPolyline
 90
        5
 70
     0
 43
0.0
 10
708.9949919509576
 20
329.9839252037088
 10
709.0096712498793
 20
328.068655441611
 10
709.0434133666243
 20
326.2432279045456
 10
709.0949540809221
 20
324.576036123136
 10
709.1623623101358
 20
323.1295449883963
  0
LINE
  5
C3
330
1F
100
AcDbEntity
  8
1
  6
CONTINUOUS
 62
     7
100
AcDbLine
 10
709.6658020123227
 20
314.2333333333333
 30
0.0
 11
709.1623623101358
 21
323.1295449883963
 31
0.0
  0
LINE
  5
C4
330
1F
100
AcDbEntity
  8
1
  6
CONTINUOUS
 62
     7
100
AcDbLine
 10
711.5
 20
314.2333333333334
 30
0.0
 11
709.6658020123227
 21
314.2333333333333
 31
0.0
  0
LINE
  5
C5
330
1F
100
AcDbEntity
  8
1
  6
CONTINUOUS
 62
     7
100
AcDbLine
 10
711.5
 20
314.2333333333334
 30
0.0
 11
711.5
 21
313.4333333333334
 31
0.0
  0
LINE
  5
C6
330
1F
100
AcDbEntity
  8
1
  6
CONTINUOUS
 62
     7
100
AcDbLine
 10
711.5
 20
363.2333333333334
 30
0.0
 11
711.5
 21
362.4333333333334
 31
0.0
  0
LINE
  5
C7
330
1F
100
AcDbEntity
  8
1
  6
CONTINUOUS
 62
     7
100
AcDbLine
 10
543.5000000000001
 20
314.2333333333333
 30
0.0
 11
543.5000000000001
 21
313.4333333333334
 31
0.0
  0
LINE
  5
C8
330
1F
100
AcDbEntity
  8
1
  6
CONTINUOUS
 62
     7
100
AcDbLine
 10
543.5000000000001
 20
314.2333333333333
 30
0.0
 11
545.1288010807909
 21
314.2333333333333
 31
0.0
  0
LWPOLYLINE
  5
C9
330
1F
100
AcDbEntity
  8
1
  6
CONTINUOUS
 62
     7
100
AcDbPolyline
 90
        5
 70
     0
 43
0.0
 10
545.1288010807909
 20
314.2333333333333
 10
545.2261103953786
 20
314.4072254311801
 10
545.3200354457955
 20
314.9228540323817
 10
545.4073096672302
 20
315.7622863891037
 10
545.484897800192
 20
316.8963283706437
  0
LINE
  5
CA
330
1F
100
AcDbEntity
  8
1
  6
CONTINUOUS
 62
     7
100
AcDbLine
 10
545.484897800192
 20
316.8963283706437
 30
0.0
 11
545.9919639656608
 21
325.8566227446001
 31
0.0
  0
LINE
  5
CB
330
1F
100
AcDbEntity
  8
1
  6
CONTINUOUS
 62
     7
100
AcDbLine
 10
545.991963965661
 20
325.8566227446001
 30
0.0
 11
545.991963965661
 21
350.8100439220666
 31
0.0
  0
LINE
  5
CC
330
1F
100
AcDbEntity
  8
1
  6
CONTINUOUS
 62
     7
100
AcDbLine
 10
545.9919639656608
 20
350.8100439220666
 30
0.0
 11
545.484897800192
 21
359.770338296023
 31
0.0
  0
LWPOLYLINE
  5
CD
330
1F
100
AcDbEntity
  8
1
  6
CONTINUOUS
 62
     7
100
AcDbPolyline
 90
        5
 70
     0
 43
0.0
 10
545.484897800192
 20
359.770338296023
 10
545.4073096672302
 20
360.9043802775631
 10
545.3200354457955
 20
361.743812634285
 10
545.2261103953786
 20
362.2594412354866
 10
545.1288010807909
 20
362.4333333333334
  0
LINE
  5
CE
330
1F
100
AcDbEntity
  8
1
  6
CONTINUOUS
 62
     7
100
AcDbLine
 10
545.1288010807909
 20
362.4333333333334
 30
0.0
 11
543.5000000000001
 21
362.4333333333334
 31
0.0
  0
LINE
  5
CF
330
1F
100
AcDbEntity
  8
1
  6
CONTINUOUS
 62
     7
100
AcDbLine
 10
543.5000000000001
 20
363.2333333333333
 30
0.0
 11
543.5000000000001
 21
362.4333333333334
 31
0.0
  0
LINE
  5
D0
330
1F
100
AcDbEntity
  8
1
  6
CONTINUOUS
 62
     7
100
AcDbLine
 10
690.1771453395613
 20
311.9333333333334
 30
0.0
 11
708.116502204742
 21
311.9333333333334
 31
0.0
  0
LINE
  5
D1
330
1F
100
AcDbEntity
  8
1
  6
CONTINUOUS
 62
     7
100
AcDbLine
 10
708.1165022047418
 20
311.9333333333334
 30
0.0
 11
708.1698630235994
 21
311.9342820649769
 31
0.0
  0
LINE
  5
D2
330
1F
100
AcDbEntity
  8
1
  6
CONTINUOUS
 62
     7
100
AcDbLine
 10
564.8792735925438
 20
311.9333333333334
 30
0.0
 11
546.6308595997879
 21
311.9333333333334
 31
0.0
  0
LINE
  5
D3
330
1F
100
AcDbEntity
  8
1
  6
CONTINUOUS
 62
     7
100
AcDbLine
 10
546.6308595997879
 20
364.7333333333333
 30
0.0
 11
564.8792735925438
 21
364.7333333333333
 31
0.0
  0
LINE
  5
D4
330
1F
100
AcDbEntity
  8
1
  6
CONTINUOUS
 62
     7
100
AcDbLine
 10
690.1207264074563
 20
364.7333333333333
 30
0.0
 11
708.3691404002122
 21
364.7333333333333
 31
0.0
  0
LINE
  5
D5
330
1F
100
AcDbEntity
  8
1
  6
CONTINUOUS
 62
     7
100
AcDbLine
 10
690.5212208075669
 20
311.9333333333334
 30
0.0
 11
690.2105201293416
 21
311.8838494702502
 31
0.0
  0
LWPOLYLINE
  5
D6
330
1F
100
AcDbEntity
  8
1
  6
CONTINUOUS
 62
     7
100
AcDbPolyline
 90
       22
 70
     0
 43
0.0
 10
690.2105201293416
 20
311.8838494702502
 10
690.190167689575
 20
311.8769549810036
 10
690.1514022209868
 20
311.8624493925473
 10
690.1132052036546
 20
311.846323245634
 10
690.0755160597345
 20
311.8285315626193
 10
690.038537309195
 20
311.8091500178167
 10
690.0016878952208
 20
311.7878096855612
 10
689.9657159018877
 20
311.7648770350735
 10
689.930564663264
 20
311.7402921658393
 10
689.8964381765185
 20
311.7141730782957
 10
689.8646609822559
 20
311.687654166592
 10
689.8339566227156
 20
311.6597942293679
 10
689.8040460765267
 20
311.6302867115484
 10
689.7754008243633
 20
311.5995493745095
 10
689.7478820338652
 20
311.5674030922834
 10
689.7217472345984
 20
311.5341218733013
 10
689.6967169749848
 20
311.4992882456033
 10
689.6731615778198
 20
311.4633461061467
 10
689.6575483645166
 20
311.4375081962318
 10
689.6426957775037
 20
311.4111621711007
 10
689.6286342273903
 20
311.3843542968424
 10
689.615367008111
 20
311.3570826947547
  0
LWPOLYLINE
  5
D7
330
1F
100
AcDbEntity
  8
1
  6
CONTINUOUS
 62
     7
100
AcDbPolyline
 90
        9
 70
     0
 43
0.0
 10
-711.5000000000001
 20
313.4333333333334
 10
-711.4711383667398
 20
313.1406978503092
 10
-711.3856626033387
 20
312.8593081847857
 10
-711.2468574954494
 20
312.5999779838039
 10
-711.060057245525
 20
312.3726731615535
 10
-710.8324404824114
 20
312.1861289148795
 10
-710.5727543906661
 20
312.0475140345664
 10
-710.2909785611613
 20
311.9621554127285
 10
-709.9979414810031
 20
311.9333333333333
210
0.0
220
0.0
230
-1.0
  0
LINE
  5
D8
330
1F
100
AcDbEntity
  8
1
  6
CONTINUOUS
 62
     7
100
AcDbLine
 10
709.9979414810032
 20
311.9333333333334
 30
0.0
 11
708.116502204742
 21
311.9333333333334
 31
0.0
  0
LWPOLYLINE
  5
D9
330
1F
100
AcDbEntity
  8
1
  6
CONTINUOUS
 62
     7
100
AcDbPolyline
 90
        9
 70
     0
 43
0.0
 10
-543.5000000000001
 20
363.2333333333333
 10
-543.5288616332605
 20
363.5259688163575
 10
-543.6143373966615
 20
363.807358481881
 10
-543.7531425045509
 20
364.0666886828628
 10
-543.9399427544753
 20
364.2939935051132
 10
-544.1675595175888
 20
364.4805377517872
 10
-544.427245609334
 20
364.6191526321003
 10
-544.7090214388388
 20
364.7045112539383
 10
-545.0020585189969
 20
364.7333333333334
210
0.0
220
0.0
230
-1.0
  0
LINE
  5
DA
330
1F
100
AcDbEntity
  8
1
  6
CONTINUOUS
 62
     7
100
AcDbLine
 10
545.0020585189969
 20
364.7333333333333
 30
0.0
 11
546.6308595997879
 21
364.7333333333333
 31
0.0
  0
LINE
  5
DB
330
1F
100
AcDbEntity
  8
1
  6
CONTINUOUS
 62
     7
100
AcDbLine
 10
546.6308595997879
 20
311.9333333333334
 30
0.0
 11
545.0020585189969
 21
311.9333333333334
 31
0.0
  0
LWPOLYLINE
  5
DC
330
1F
100
AcDbEntity
  8
1
  6
CONTINUOUS
 62
     7
100
AcDbPolyline
 90
        9
 70
     0
 43
0.0
 10
-545.0020585189969
 20
311.9333333333335
 10
-544.7090214388388
 20
311.9621554127286
 10
-544.427245609334
 20
312.0475140345665
 10
-544.1675595175888
 20
312.1861289148796
 10
-543.9399427544752
 20
312.3726731615536
 10
-543.7531425045509
 20
312.599977983804
 10
-543.6143373966615
 20
312.8593081847858
 10
-543.5288616332605
 20
313.1406978503092
 10
-543.5000000000001
 20
313.4333333333334
210
0.0
220
0.0
230
-1.0
  0
LINE
  5
DD
330
1F
100
AcDbEntity
  8
1
  6
CONTINUOUS
 62
     7
100
AcDbLine
 10
708.3691404002122
 20
364.7333333333333
 30
0.0
 11
709.9979414810032
 21
364.7333333333333
 31
0.0
  0
LWPOLYLINE
  5
DE
330
1F
100
AcDbEntity
  8
1
  6
CONTINUOUS
 62
     7
100
AcDbPolyline
 90
        9
 70
     0
 43
0.0
 10
-709.9979414810032
 20
364.7333333333334
 10
-710.2909785611614
 20
364.7045112539383
 10
-710.5727543906662
 20
364.6191526321003
 10
-710.8324404824115
 20
364.4805377517873
 10
-711.0600572455251
 20
364.2939935051132
 10
-711.2468574954495
 20
364.0666886828628
 10
-711.3856626033388
 20
363.807358481881
 10
-711.4711383667399
 20
363.5259688163576
 10
-711.5000000000002
 20
363.2333333333333
210
0.0
220
0.0
230
-1.0
  0
LWPOLYLINE
  5
DF
330
1F
100
AcDbEntity
  8
1
  6
CONTINUOUS
 62
     7
100
AcDbPolyline
 90
       29
 70
     0
 43
0.0
 10
564.4787791924331
 20
364.7333333333333
 10
564.5201608321821
 20
364.7341897796622
 10
564.5615424719311
 20
364.7367635347891
 10
564.6029961567099
 20
364.7410769766993
 10
564.6443057514291
 20
364.7471257215778
 10
564.6861416092415
 20
364.7550655362829
 10
564.7276765968862
 20
364.7647982302734
 10
564.7689840055835
 20
364.7763615553921
 10
564.8098323104251
 20
364.7897116856631
 10
564.8485977790133
 20
364.8042172741194
 10
564.8867947963455
 20
364.8203434210328
 10
564.9244839402656
 20
364.8381351040474
 10
564.9614626908051
 20
364.85751664885
 10
564.9983121047792
 20
364.8788569811056
 10
565.0342840981124
 20
364.9017896315933
 10
565.069435336736
 20
364.9263745008275
 10
565.1035618234816
 20
364.952493588371
 10
565.1353390177442
 20
364.9790125000747
 10
565.1660433772845
 20
365.0068724372989
 10
565.1959539234734
 20
365.0363799551183
 10
565.2245991756369
 20
365.0671172921572
 10
565.252117966135
 20
365.0992635743834
 10
565.2782527654017
 20
365.1325447933655
 10
565.3032830250153
 20
365.1673784210635
 10
565.3268384221803
 20
365.2033205605201
 10
565.3424516354835
 20
365.2291584704349
 10
565.3573042224964
 20
365.255504495566
 10
565.3713657726098
 20
365.2823123698243
 10
565.384632991889
 20
365.309583971912
  0
LWPOLYLINE
  5
E0
330
1F
100
AcDbEntity
  8
1
  6
CONTINUOUS
 62
     7
100
AcDbPolyline
 90
       29
 70
     0
 43
0.0
 10
565.3846329918891
 20
311.3570826947547
 10
565.3663228427265
 20
311.3941972054589
 10
565.3464572982024
 20
311.4305839983517
 10
565.3249855721309
 20
311.4662988523169
 10
565.3020032460629
 20
311.5011478666285
 10
565.2770851774145
 20
311.5356722013325
 10
565.2506708357703
 20
311.5691643201255
 10
565.2226949954539
 20
311.6016746185114
 10
565.1932954800034
 20
311.633011999283
 10
565.1637322180063
 20
311.661973385544
 10
565.1329422244273
 20
311.6897333173735
 10
565.100592699462
 20
311.7165386831524
 10
565.0671463654336
 20
311.7419623367249
 10
565.0324111984716
 20
311.7661244765184
 10
564.9966855093993
 20
311.7887963971268
 10
564.9595261578735
 20
311.8102143249969
 10
564.9214116944532
 20
311.830054367071
 10
564.8839267336192
 20
311.847599377894
 10
564.8456818176709
 20
311.8636045570149
 10
564.8066024542707
 20
311.8780817340938
 10
564.766884379998
 20
311.8909392120939
 10
564.7258576455012
 20
311.9023339802993
 10
564.6843073016902
 20
311.9119880869101
 10
564.6421509410935
 20
311.919900133242
 10
564.5996155318336
 20
311.9260069829577
 10
564.5695726018778
 20
311.9292037612805
 10
564.5393915017524
 20
311.9314950189877
 10
564.5091271340799
 20
311.9328728040603
 10
564.4787791924331
 20
311.9333333333334
  0
LWPOLYLINE
  5
E1
330
1F
100
AcDbEntity
  8
1
  6
CONTINUOUS
 62
     7
100
AcDbPolyline
 90
       29
 70
     0
 43
0.0
 10
689.615367008111
 20
365.309583971912
 10
689.6336771572736
 20
365.2724694612079
 10
689.6535427017976
 20
365.2360826683151
 10
689.6750144278692
 20
365.2003678143499
 10
689.6979967539371
 20
365.1655188000383
 10
689.7229148225856
 20
365.1309944653342
 10
689.7493291642298
 20
365.0975023465413
 10
689.7773050045462
 20
365.0649920481554
 10
689.8067045199967
 20
365.0336546673838
 10
689.8362677819938
 20
365.0046932811227
 10
689.8670577755727
 20
364.9769333492932
 10
689.8994073005381
 20
364.9501279835144
 10
689.9328536345664
 20
364.9247043299418
 10
689.9675888015286
 20
364.9005421901483
 10
690.0033144906008
 20
364.8778702695399
 10
690.0404738421266
 20
364.8564523416699
 10
690.0785883055468
 20
364.8366122995957
 10
690.1160732663809
 20
364.8190672887728
 10
690.1543181823291
 20
364.8030621096518
 10
690.1933975457293
 20
364.7885849325729
 10
690.2331156200021
 20
364.7757274545729
 10
690.2741423544987
 20
364.7643326863675
 10
690.3156926983099
 20
364.7546785797567
 10
690.3578490589065
 20
364.7467665334247
 10
690.4003844681665
 20
364.7406596837091
 10
690.4304273981223
 20
364.7374629053863
 10
690.4606084982477
 20
364.735171647679
 10
690.4908728659201
 20
364.7337938626065
 10
690.521220807567
 20
364.7333333333333
  0
LINE
  5
E2
330
1F
100
AcDbEntity
  8
1
  6
________________
 62
     1
100
AcDbLine
 10
542.5000000000001
 20
338.3333333333334
 30
0.0
 11
712.5
 21
338.3333333333334
 31
0.0
  0
LINE
  5
E4
330
1F
100
AcDbEntity
  8
1
  6
________________
 62
     1
100
AcDbLine
 10
627.5
 20
298.3333333333334
 30
0.0
 11
627.5
 21
378.3333333333334
 31
0.0
  0
LINE
  5
E5
330
1F
100
AcDbEntity
  8
1
  6
________________
 62
     1
100
AcDbLine
 10
753.3333333333333
 20
338.3333333333334
 30
0.0
 11
823.3333333333334
 21
338.3333333333334
 31
0.0
  0
LINE
  5
E6
330
1F
100
AcDbEntity
  8
1
  6
________________
 62
     1
100
AcDbLine
 10
794.3333333333287
 20
298.3333333333334
 30
0.0
 11
794.3333333333287
 21
378.3333333333334
 31
0.0
  0
MTEXT
  5
E7
330
1F
100
AcDbEntity
  8
1
 62
     7
100
AcDbMText
 10
783.5144242424242
 20
275.7006060606061
 30
0.0
 40
3.0
 41
0.0
 71
     1
 72
     1
  1
{\fＭＳ ゴシック;設RMTB-25M-15}
  0
ENDSEC
  0
SECTION
  2
OBJECTS
  0
DICTIONARY
  5
C
330
0
100
AcDbDictionary
  3
ACAD_GROUP
350
D
  3
ACAD_LAYOUT
350
1A
  3
ACAD_MATERIAL
350
43
  3
ACAD_MLEADERSTYLE
350
6B
  3
ACAD_MLINESTYLE
350
17
  3
ACAD_PLOTSETTINGS
350
19
  3
ACAD_SCALELIST
350
47
  3
ACAD_VISUALSTYLE
350
2A
  3
ACDBHEADERROUNDTRIPXREC
350
E8
  3
ACDBVARIABLEDICTIONARY
350
109
  0
DICTIONARY
  5
110
330
8
100
AcDbDictionary
280
     1
  3
ACAD_XREC_ROUNDTRIP
360
111
  0
DICTIONARY
  5
D
102
{ACAD_REACTORS
330
C
102
}
330
C
100
AcDbDictionary
  0
DICTIONARY
  5
1A
102
{ACAD_REACTORS
330
C
102
}
330
C
100
AcDbDictionary
  0
DICTIONARY
  5
43
102
{ACAD_REACTORS
330
C
102
}
330
C
100
AcDbDictionary
  3
BYBLOCK
350
45
  3
BYLAYER
350
44
  3
GLOBAL
350
46
  0
DICTIONARY
  5
6B
102
{ACAD_REACTORS
330
C
102
}
330
C
100
AcDbDictionary
  3
STANDARD
350
6C
  0
DICTIONARY
  5
17
102
{ACAD_REACTORS
330
C
102
}
330
C
100
AcDbDictionary
  3
STANDARD
350
18
  0
DICTIONARY
  5
19
102
{ACAD_REACTORS
330
C
102
}
330
C
100
AcDbDictionary
  0
DICTIONARY
  5
47
102
{ACAD_REACTORS
330
C
102
}
330
C
100
AcDbDictionary
  3
A0
350
48
  3
A1
350
49
  3
A2
350
4A
  3
A3
350
4B
  3
A4
350
4C
  3
A5
350
4D
  3
A6
350
4E
  3
A7
350
4F
  3
A8
350
50
  3
A9
350
51
  3
B0
350
52
  3
B1
350
53
  3
B2
350
54
  3
B3
350
55
  3
B4
350
56
  3
B5
350
57
  3
B6
350
58
  3
B7
350
59
  3
B8
350
5A
  3
B9
350
5B
  3
C0
350
5C
  3
C1
350
5D
  3
C2
350
5E
  3
C3
350
5F
  3
C4
350
60
  3
C5
350
61
  3
C6
350
62
  3
C7
350
63
  3
C8
350
64
  3
C9
350
65
  3
D0
350
66
  3
D1
350
67
  3
D2
350
68
  0
DICTIONARY
  5
2A
102
{ACAD_REACTORS
330
C
102
}
330
C
100
AcDbDictionary
  3
2DWIREFRAME
350
2F
  3
BASIC
350
32
  3
BRIGHTEN
350
36
  3
COLORCHANGE
350
3A
  3
CONCEPTUAL
350
34
  3
DIM
350
35
  3
EDGECOLOROFF
350
3D
  3
FACEPATTERN
350
39
  3
FLAT
350
2B
  3
FLATWITHEDGES
350
2C
  3
GOURAUD
350
2D
  3
GOURAUDWITHEDGES
350
2E
  3
HIDDEN
350
31
  3
JITTEROFF
350
3B
  3
LINEPATTERN
350
38
  3
OVERHANGOFF
350
3C
  3
REALISTIC
350
33
  3
SHADED
350
42
  3
SHADED_WITH_EDGES
350
41
  3
SHADES_OF_GRAY
350
3E
  3
SKETCHY
350
3F
  3
THICKEN
350
37
  3
WIREFRAME
350
30
  3
X-RAY
350
40
  0
DICTIONARY
  5
E8
102
{ACAD_REACTORS
330
C
102
}
330
C
100
AcDbDictionary
  3
CEPSNID
350
F2
  3
CEPSNTYPE
350
F1
  3
DIMSTYLEDATA
350
108
  3
FINGERPRINTGUID
350
F3
  3
HYPERLINKBASE
350
EB
  3
INSUNITS
350
F0
  3
LAYOUTDICT
350
ED
  3
LWETCUNION
350
EF
  3
PLOTSETDICT
350
EE
  3
PSVPSCALE
350
F5
  3
PUCSBASE
350
F8
  3
PUCSORGBACK
350
FE
  3
PUCSORGBOTTOM
350
FA
  3
PUCSORGFRONT
350
FD
  3
PUCSORGLEFT
350
FB
  3
PUCSORGRIGHT
350
FC
  3
PUCSORGTOP
350
F9
  3
PUCSORTHOREF
350
F6
  3
PUCSORTHOVIEW
350
F7
  3
STYLESHEET
350
EC
  3
TSTACKALIGN
350
E9
  3
TSTACKSIZE
350
EA
  3
UCSBASE
350
101
  3
UCSORGBACK
350
107
  3
UCSORGBOTTOM
350
103
  3
UCSORGFRONT
350
106
  3
UCSORGLEFT
350
104
  3
UCSORGRIGHT
350
105
  3
UCSORGTOP
350
102
  3
UCSORTHOREF
350
FF
  3
UCSORTHOVIEW
350
100
  3
VERSIONGUID
350
F4
  0
DICTIONARY
  5
109
102
{ACAD_REACTORS
330
C
102
}
330
C
100
AcDbDictionary
  3
CANNOSCALE
350
112
  3
CMLEADERSTYLE
350
10B
  3
CTABLESTYLE
350
10A
  3
DIMASSOC
350
10E
  3
HIDETEXT
350
10F
  3
MSLTSCALE
350
113
  0
XRECORD
  5
111
102
{ACAD_REACTORS
330
110
102
}
330
110
100
AcDbXrecord
102
VTR_0.000_0.000_1.000_1.000_VISUALSTYLE
340
2F
102
VTR_0.000_0.000_1.000_1.000_GRIDDISPLAY
 70
     3
102
VTR_0.000_0.000_1.000_1.000_GRIDMAJOR
 70
     5
102
VTR_0.000_0.000_1.000_1.000_DEFAULTLIGHTING
280
     1
102
VTR_0.000_0.000_1.000_1.000_DEFAULTLIGHTINGTYPE
 70
     1
102
VTR_0.000_0.000_1.000_1.000_BRIGHTNESS
141
0.0
102
VTR_0.000_0.000_1.000_1.000_CONTRAST
142
0.0
  0
MATERIAL
  5
45
102
{ACAD_REACTORS
330
43
102
}
102
{ACAD_XDICTIONARY
360
116
102
}
330
43
100
AcDbMaterial
  1
BYBLOCK
  0
MATERIAL
  5
44
102
{ACAD_REACTORS
330
43
102
}
102
{ACAD_XDICTIONARY
360
114
102
}
330
43
100
AcDbMaterial
  1
BYLAYER
  0
MATERIAL
  5
46
102
{ACAD_REACTORS
330
43
102
}
102
{ACAD_XDICTIONARY
360
118
102
}
330
43
100
AcDbMaterial
  1
GLOBAL
  0
ACAD_PROXY_OBJECT
  5
6C
102
{ACAD_REACTORS
330
6B
102
}
330
6B
100
AcDbProxyObject
 90
      499
 91
      505
 93
      610
310
40901902A4063FBFFFFFE056BD1B81E855B9FC0AD7A3703D0AD73F4214DD185B99185C9900AD7A3703D0AC73F90141901A02B5E8DC0F42B1CFC02B5E8DC0F42B1CFE5764000000000000300FC0
340
14
340
0
340
11
340
0
 94
        0
1001
ACAD_MLEADERVER
1070
     2
  0
MLINESTYLE
  5
18
102
{ACAD_REACTORS
330
17
102
}
330
17
100
AcDbMlineStyle
  2
Standard
 70
     0
  3

 62
   256
 51
90.0
 52
90.0
 71
     2
 49
0.5
 62
   256
  6
BYLAYER
 49
-0.5
 62
   256
  6
BYLAYER
  0
ACAD_PROXY_OBJECT
  5
48
102
{ACAD_REACTORS
330
47
102
}
330
47
100
AcDbProxyObject
 90
      499
 91
      503
 93
       41
310
903313A31580
  0
ACAD_PROXY_OBJECT
  5
49
102
{ACAD_REACTORS
330
47
102
}
330
47
100
AcDbProxyObject
 90
      499
 91
      503
 93
      105
310
903313A324000000000000004000
  0
ACAD_PROXY_OBJECT
  5
4A
102
{ACAD_REACTORS
330
47
102
}
330
47
100
AcDbProxyObject
 90
      499
 91
      503
 93
      105
310
903313A344000000000000104000
  0
ACAD_PROXY_OBJECT
  5
4B
102
{ACAD_REACTORS
330
47
102
}
330
47
100
AcDbProxyObject
 90
      499
 91
      503
 93
      105
310
903313A354000000000000144000
  0
ACAD_PROXY_OBJECT
  5
4C
102
{ACAD_REACTORS
330
47
102
}
330
47
100
AcDbProxyObject
 90
      499
 91
      503
 93
      105
310
903313A384000000000000204000
  0
ACAD_PROXY_OBJECT
  5
4D
102
{ACAD_REACTORS
330
47
102
}
330
47
100
AcDbProxyObject
 90
      499
 91
      503
 93
      113
310
904313A31304000000000000244000
  0
ACAD_PROXY_OBJECT
  5
4E
102
{ACAD_REACTORS
330
47
102
}
330
47
100
AcDbProxyObject
 90
      499
 91
      503
 93
      113
310
904313A31364000000000000304000
  0
ACAD_PROXY_OBJECT
  5
4F
102
{ACAD_REACTORS
330
47
102
}
330
47
100
AcDbProxyObject
 90
      499
 91
      503
 93
      113
310
904313A32304000000000000344000
  0
ACAD_PROXY_OBJECT
  5
50
102
{ACAD_REACTORS
330
47
102
}
330
47
100
AcDbProxyObject
 90
      499
 91
      503
 93
      113
310
904313A333040000000000003E4000
  0
ACAD_PROXY_OBJECT
  5
51
102
{ACAD_REACTORS
330
47
102
}
330
47
100
AcDbProxyObject
 90
      499
 91
      503
 93
      113
310
904313A34304000000000000444000
  0
ACAD_PROXY_OBJECT
  5
52
102
{ACAD_REACTORS
330
47
102
}
330
47
100
AcDbProxyObject
 90
      499
 91
      503
 93
      113
310
904313A35304000000000000494000
  0
ACAD_PROXY_OBJECT
  5
53
102
{ACAD_REACTORS
330
47
102
}
330
47
100
AcDbProxyObject
 90
      499
 91
      503
 93
      121
310
905313A3130304000000000000594000
  0
ACAD_PROXY_OBJECT
  5
54
102
{ACAD_REACTORS
330
47
102
}
330
47
100
AcDbProxyObject
 90
      499
 91
      503
 93
      105
310
903323A310000000000000010100
  0
ACAD_PROXY_OBJECT
  5
55
102
{ACAD_REACTORS
330
47
102
}
330
47
100
AcDbProxyObject
 90
      499
 91
      503
 93
      105
310
903343A310000000000000410100
  0
ACAD_PROXY_OBJECT
  5
56
102
{ACAD_REACTORS
330
47
102
}
330
47
100
AcDbProxyObject
 90
      499
 91
      503
 93
      105
310
903383A310000000000000810100
  0
ACAD_PROXY_OBJECT
  5
57
102
{ACAD_REACTORS
330
47
102
}
330
47
100
AcDbProxyObject
 90
      499
 91
      503
 93
      113
310
90431303A310000000000000910100
  0
ACAD_PROXY_OBJECT
  5
58
102
{ACAD_REACTORS
330
47
102
}
330
47
100
AcDbProxyObject
 90
      499
 91
      503
 93
      121
310
9053130303A310000000000001650100
  0
ACAD_PROXY_OBJECT
  5
59
102
{ACAD_REACTORS
330
47
102
}
330
47
100
AcDbProxyObject
 90
      499
 91
      503
 93
      257
310
90E312F31323822203D2031272D3022000000000000200FC000000000000284000
  0
ACAD_PROXY_OBJECT
  5
5A
102
{ACAD_REACTORS
330
47
102
}
330
47
100
AcDbProxyObject
 90
      499
 91
      503
 93
      249
310
90D312F363422203D2031272D3022000000000000240FC000000000000284000
  0
ACAD_PROXY_OBJECT
  5
5B
102
{ACAD_REACTORS
330
47
102
}
330
47
100
AcDbProxyObject
 90
      499
 91
      503
 93
      249
310
90D312F333222203D2031272D3022000000000000280FC000000000000284000
  0
ACAD_PROXY_OBJECT
  5
5C
102
{ACAD_REACTORS
330
47
102
}
330
47
100
AcDbProxyObject
 90
      499
 91
      503
 93
      249
310
90D312F313622203D2031272D30220000000000002C0FC000000000000284000
  0
ACAD_PROXY_OBJECT
  5
5D
102
{ACAD_REACTORS
330
47
102
}
330
47
100
AcDbProxyObject
 90
      499
 91
      503
 93
      249
310
90D332F333222203D2031272D30220000000000002E0FC000000000000284000
  0
ACAD_PROXY_OBJECT
  5
5E
102
{ACAD_REACTORS
330
47
102
}
330
47
100
AcDbProxyObject
 90
      499
 91
      503
 93
      241
310
90C312F3822203D2031272D3022000000000000300FC000000000000284000
  0
ACAD_PROXY_OBJECT
  5
5F
102
{ACAD_REACTORS
330
47
102
}
330
47
100
AcDbProxyObject
 90
      499
 91
      503
 93
      249
310
90D332F313622203D2031272D3022000000000000320FC000000000000284000
  0
ACAD_PROXY_OBJECT
  5
60
102
{ACAD_REACTORS
330
47
102
}
330
47
100
AcDbProxyObject
 90
      499
 91
      503
 93
      241
310
90C312F3422203D2031272D3022000000000000340FC000000000000284000
  0
ACAD_PROXY_OBJECT
  5
61
102
{ACAD_REACTORS
330
47
102
}
330
47
100
AcDbProxyObject
 90
      499
 91
      503
 93
      241
310
90C332F3822203D2031272D3022000000000000360FC000000000000284000
  0
ACAD_PROXY_OBJECT
  5
62
102
{ACAD_REACTORS
330
47
102
}
330
47
100
AcDbProxyObject
 90
      499
 91
      503
 93
      241
310
90C312F3222203D2031272D3022000000000000380FC000000000000284000
  0
ACAD_PROXY_OBJECT
  5
63
102
{ACAD_REACTORS
330
47
102
}
330
47
100
AcDbProxyObject
 90
      499
 91
      503
 93
      241
310
90C332F3422203D2031272D30220000000000003A0FC000000000000284000
  0
ACAD_PROXY_OBJECT
  5
64
102
{ACAD_REACTORS
330
47
102
}
330
47
100
AcDbProxyObject
 90
      499
 91
      503
 93
      161
310
90A3122203D2031272D30224000000000000284000
  0
ACAD_PROXY_OBJECT
  5
65
102
{ACAD_REACTORS
330
47
102
}
330
47
100
AcDbProxyObject
 90
      499
 91
      503
 93
      257
310
90E312D312F3222203D2031272D30220000000000003E0FC000000000000284000
  0
ACAD_PROXY_OBJECT
  5
66
102
{ACAD_REACTORS
330
47
102
}
330
47
100
AcDbProxyObject
 90
      499
 91
      503
 93
      225
310
90A3322203D2031272D302200000000000002100000000000000284000
  0
ACAD_PROXY_OBJECT
  5
67
102
{ACAD_REACTORS
330
47
102
}
330
47
100
AcDbProxyObject
 90
      499
 91
      503
 93
      225
310
90A3622203D2031272D302200000000000006100000000000000284000
  0
ACAD_PROXY_OBJECT
  5
68
102
{ACAD_REACTORS
330
47
102
}
330
47
100
AcDbProxyObject
 90
      499
 91
      503
 93
      249
310
90D31272D3022203D2031272D30220000000000000A100000000000000284000
  0
ACAD_PROXY_OBJECT
  5
2F
102
{ACAD_REACTORS
330
2A
102
}
330
2A
100
AcDbProxyObject
 90
      499
 91
      501
 93
      436
310
42CC9915DA5C99599C985B595049028333333333333E33F0000000000000F90107901411070040501600405405064090741402480A0340
1001
ACAD
1000
AcDbSavedByObjectVersion
1070
     0
  0
ACAD_PROXY_OBJECT
  5
32
102
{ACAD_REACTORS
330
2A
102
}
330
2A
100
AcDbProxyObject
 90
      499
 91
      501
 93
      388
310
4150985CDA58D07406404333333333333E33F0000000000000F90107A41107004050150841D405064090741402480A0350
1001
ACAD
1000
AcDbSavedByObjectVersion
1070
     0
  0
ACAD_PROXY_OBJECT
  5
36
102
{ACAD_REACTORS
330
2A
102
}
330
2A
100
AcDbProxyObject
 90
      499
 91
      501
 93
      428
310
42109C9A59DA1D195B90C409028333333333333E33F0000000000000F9010790141107004050150841D405064090741402480A029950
1001
ACAD
1000
AcDbSavedByObjectVersion
1070
     0
  0
ACAD_PROXY_OBJECT
  5
3A
102
{ACAD_REACTORS
330
2A
102
}
330
2A
100
AcDbProxyObject
 90
      499
 91
      501
 93
      452
310
42D0DBDB1BDC90DA185B99D95104090240C333333333333E33F0000000000000F90108901411070040501508421405064090741402480A0350
1001
ACAD
1000
AcDbSavedByObjectVersion
1070
     0
  0
ACAD_PROXY_OBJECT
  5
34
102
{ACAD_REACTORS
330
2A
102
}
330
2A
100
AcDbProxyObject
 90
      499
 91
      501
 93
      500
310
4290DBDB98D95C1D1D585B10940D028333333333333E33F0000000000000F90107902409070040501000000000018199010841D405064090740C02480A0340
1001
ACAD
1000
AcDbSavedByObjectVersion
1070
     0
  0
ACAD_PROXY_OBJECT
  5
35
102
{ACAD_REACTORS
330
2A
102
}
330
2A
100
AcDbProxyObject
 90
      499
 91
      501
 93
      412
310
40D11A5B50B409028333333333333E33F0000000000000F9010790141107004050150841D405064090741402480A02677FFFFFD0
1001
ACAD
1000
AcDbSavedByObjectVersion
1070
     0
  0
ACAD_PROXY_OBJECT
  5
3D
102
{ACAD_REACTORS
330
2A
102
}
330
2A
100
AcDbProxyObject
 90
      499
 91
      501
 93
      452
310
43115919D950DBDB1BDC93D999916409028333333333333E33F0000000000000F9010790141107004050150841D405064090741402480A0350
1001
ACAD
1000
AcDbSavedByObjectVersion
1070
     0
  0
ACAD_PROXY_OBJECT
  5
39
102
{ACAD_REACTORS
330
2A
102
}
330
2A
100
AcDbProxyObject
 90
      499
 91
      501
 93
      444
310
42D19858D95C185D1D195C9B90F409028333333333333E33F0000000000000F9010790141107004050150841D405064090741402480A0350
1001
ACAD
1000
AcDbSavedByObjectVersion
1070
     0
  0
ACAD_PROXY_OBJECT
  5
2B
102
{ACAD_REACTORS
330
2A
102
}
330
2A
100
AcDbProxyObject
 90
      499
 91
      501
 93
      380
310
41119B185D240901404333333333333E33F0000000000000F9010740A907004050150841D405064090741402480A1B50
1001
ACAD
1000
AcDbSavedByObjectVersion
1070
     0
  0
ACAD_PROXY_OBJECT
  5
2C
102
{ACAD_REACTORS
330
2A
102
}
330
2A
100
AcDbProxyObject
 90
      499
 91
      501
 93
      468
310
43519B185D15DA5D1A115919D95CD0140901404333333333333E33F0000000000000F90107409019070040501600405405064090741402480A1B50
1001
ACAD
1000
AcDbSavedByObjectVersion
1070
     0
  0
ACAD_PROXY_OBJECT
  5
2D
102
{ACAD_REACTORS
330
2A
102
}
330
2A
100
AcDbProxyObject
 90
      499
 91
      501
 93
      404
310
41D1DBDD5C985D5910240902404333333333333E33F0000000000000F9010740A9070040501641D405064090741402480A1B50
1001
ACAD
1000
AcDbSavedByObjectVersion
1070
     0
  0
ACAD_PROXY_OBJECT
  5
2E
102
{ACAD_REACTORS
330
2A
102
}
330
2A
100
AcDbProxyObject
 90
      499
 91
      501
 93
      492
310
4411DBDD5C985D5915DA5D1A115919D95CD0340902404333333333333E33F0000000000000F90107409019070040501600405405064090741402480A1B50
1001
ACAD
1000
AcDbSavedByObjectVersion
1070
     0
  0
ACAD_PROXY_OBJECT
  5
31
102
{ACAD_REACTORS
330
2A
102
}
330
2A
100
AcDbProxyObject
 90
      499
 91
      501
 93
      476
310
41921A5919195B90640502408333333333333E33F0000000000000F901079024090700405020000000000001110200405405064090740C02480A0340
1001
ACAD
1000
AcDbSavedByObjectVersion
1070
     0
  0
ACAD_PROXY_OBJECT
  5
3B
102
{ACAD_REACTORS
330
2A
102
}
330
2A
100
AcDbProxyObject
 90
      499
 91
      501
 93
      428
310
42529A5D1D195C93D999914409028333333333333E33F0000000000000F9010790141107004050150A41D405064090741402480A0350
1001
ACAD
1000
AcDbSavedByObjectVersion
1070
     0
  0
ACAD_PROXY_OBJECT
  5
38
102
{ACAD_REACTORS
330
2A
102
}
330
2A
100
AcDbProxyObject
 90
      499
 91
      501
 93
      444
310
42D31A5B995C185D1D195C9B90E409028333333333333E33F0000000000000F9010790141107004050750841D405064090741402483A0350
1001
ACAD
1000
AcDbSavedByObjectVersion
1070
     0
  0
ACAD_PROXY_OBJECT
  5
3C
102
{ACAD_REACTORS
330
2A
102
}
330
2A
100
AcDbProxyObject
 90
      499
 91
      501
 93
      444
310
42D3DD995C9A185B99D3D999915409028333333333333E33F0000000000000F9010790141107004050150941D405064090741402480A0350
1001
ACAD
1000
AcDbSavedByObjectVersion
1070
     0
  0
ACAD_PROXY_OBJECT
  5
33
102
{ACAD_REACTORS
330
2A
102
}
330
2A
100
AcDbProxyObject
 90
      499
 91
      501
 93
      428
310
425499585B1A5CDD1A58D08409038333333333333E33F0000000000000F9010740A907004050150800405405064090740C02480A1B40
1001
ACAD
1000
AcDbSavedByObjectVersion
1070
     0
  0
ACAD_PROXY_OBJECT
  5
42
102
{ACAD_REACTORS
330
2A
102
}
330
2A
100
AcDbProxyObject
 90
      499
 91
      501
 93
      420
310
4194DA1859195911B40902404333333333333E33F0000000000000F9010740A41107004050150800405405064090840C02480A0B40
1001
ACAD
1000
AcDbSavedByObjectVersion
1070
     0
  0
ACAD_PROXY_OBJECT
  5
41
102
{ACAD_REACTORS
330
2A
102
}
330
2A
100
AcDbProxyObject
 90
      499
 91
      501
 93
      516
310
4454DA18591959081DDA5D1A08195919D95CD1A40902404333333333333E33F0000000000000F901074090142907004050250800405405064090740C02480A0B40
1001
ACAD
1000
AcDbSavedByObjectVersion
1070
     0
  0
ACAD_PROXY_OBJECT
  5
3E
102
{ACAD_REACTORS
330
2A
102
}
330
2A
100
AcDbProxyObject
 90
      499
 91
      501
 93
      532
310
4394DA1859195CC81BD98811DC985E5174090240C333333333333E33F0000000000000F901079024090741D01000000000000111010841D405064090740C02480A0340
1001
ACAD
1000
AcDbSavedByObjectVersion
1070
     0
  0
ACAD_PROXY_OBJECT
  5
3F
102
{ACAD_REACTORS
330
2A
102
}
330
2A
100
AcDbProxyObject
 90
      499
 91
      501
 93
      476
310
41D4DAD95D18DA1E51840502408333333333333E33F0000000000000F901079024090741D01000000000000111010B41D405064090741802480A0340
1001
ACAD
1000
AcDbSavedByObjectVersion
1070
     0
  0
ACAD_PROXY_OBJECT
  5
37
102
{ACAD_REACTORS
330
2A
102
}
330
2A
100
AcDbProxyObject
 90
      499
 91
      501
 93
      412
310
41D51A1A58DAD95B90D409028333333333333E33F0000000000000F9010790141107004050150C41D405064090741402480A0350
1001
ACAD
1000
AcDbSavedByObjectVersion
1070
     0
  0
ACAD_PROXY_OBJECT
  5
30
102
{ACAD_REACTORS
330
2A
102
}
330
2A
100
AcDbProxyObject
 90
      499
 91
      501
 93
      420
310
4255DA5C99599C985B595059028333333333333E33F0000000000000F90107901411070040501600405405064090740C02480A0340
1001
ACAD
1000
AcDbSavedByObjectVersion
1070
     0
  0
ACAD_PROXY_OBJECT
  5
40
102
{ACAD_REACTORS
330
2A
102
}
330
2A
100
AcDbProxyObject
 90
      499
 91
      501
 93
      404
310
41560B54985E51940902404000000000000E03F0000000000000F9010740501907004050150841D405064090740C02480A1B40
1001
ACAD
1000
AcDbSavedByObjectVersion
1070
     0
  0
XRECORD
  5
F2
102
{ACAD_REACTORS
330
E8
102
}
330
E8
100
AcDbXrecord
340
0
  0
XRECORD
  5
F1
102
{ACAD_REACTORS
330
E8
102
}
330
E8
100
AcDbXrecord
 90
        0
  0
XRECORD
  5
108
102
{ACAD_REACTORS
330
E8
102
}
330
E8
100
AcDbXrecord
1000
DSTYLE
1002
{
1070
   179
 70
     2
1070
   171
 70
     2
1070
   143
 40
25.4
1070
   274
 70
     2
1070
    41
 40
3.0
1070
   141
 40
0.09
1070
    43
 40
0.38
1070
   278
 70
    46
1070
    44
 40
1.5
1070
    42
 40
0.0625
1070
   147
 40
1.5
1070
   272
 70
     4
1070
    73
 70
     1
1070
   172
 70
     0
1070
    74
 70
     1
1070
   283
 70
     1
1070
   340
340
6F
1070
   140
 40
3.0
1070
   284
 70
     0
1070
    78
 70
     0
1002
}
  0
XRECORD
  5
F3
102
{ACAD_REACTORS
330
E8
102
}
330
E8
100
AcDbXrecord
  1
{D9809A38-68A4-4CAC-BDB4-E1D0E88F3911}
  0
XRECORD
  5
EB
102
{ACAD_REACTORS
330
E8
102
}
330
E8
100
AcDbXrecord
  1

  0
XRECORD
  5
F0
102
{ACAD_REACTORS
330
E8
102
}
330
E8
100
AcDbXrecord
 90
        4
  0
XRECORD
  5
ED
102
{ACAD_REACTORS
330
E8
102
}
330
E8
100
AcDbXrecord
340
1A
  0
XRECORD
  5
EF
102
{ACAD_REACTORS
330
E8
102
}
330
E8
100
AcDbXrecord
 90
    10269
  0
XRECORD
  5
EE
102
{ACAD_REACTORS
330
E8
102
}
330
E8
100
AcDbXrecord
340
19
  0
XRECORD
  5
F5
102
{ACAD_REACTORS
330
E8
102
}
330
E8
100
AcDbXrecord
 40
0.0
  0
XRECORD
  5
F8
102
{ACAD_REACTORS
330
E8
102
}
330
E8
100
AcDbXrecord
340
0
  0
XRECORD
  5
FE
102
{ACAD_REACTORS
330
E8
102
}
330
E8
100
AcDbXrecord
 10
0.0
 20
0.0
 30
0.0
  0
XRECORD
  5
FA
102
{ACAD_REACTORS
330
E8
102
}
330
E8
100
AcDbXrecord
 10
0.0
 20
0.0
 30
0.0
  0
XRECORD
  5
FD
102
{ACAD_REACTORS
330
E8
102
}
330
E8
100
AcDbXrecord
 10
0.0
 20
0.0
 30
0.0
  0
XRECORD
  5
FB
102
{ACAD_REACTORS
330
E8
102
}
330
E8
100
AcDbXrecord
 10
0.0
 20
0.0
 30
0.0
  0
XRECORD
  5
FC
102
{ACAD_REACTORS
330
E8
102
}
330
E8
100
AcDbXrecord
 10
0.0
 20
0.0
 30
0.0
  0
XRECORD
  5
F9
102
{ACAD_REACTORS
330
E8
102
}
330
E8
100
AcDbXrecord
 10
0.0
 20
0.0
 30
0.0
  0
XRECORD
  5
F6
102
{ACAD_REACTORS
330
E8
102
}
330
E8
100
AcDbXrecord
340
0
  0
XRECORD
  5
F7
102
{ACAD_REACTORS
330
E8
102
}
330
E8
100
AcDbXrecord
 70
     0
  0
XRECORD
  5
EC
102
{ACAD_REACTORS
330
E8
102
}
330
E8
100
AcDbXrecord
  1

  0
XRECORD
  5
E9
102
{ACAD_REACTORS
330
E8
102
}
330
E8
100
AcDbXrecord
 90
        1
  0
XRECORD
  5
EA
102
{ACAD_REACTORS
330
E8
102
}
330
E8
100
AcDbXrecord
 90
       70
  0
XRECORD
  5
101
102
{ACAD_REACTORS
330
E8
102
}
330
E8
100
AcDbXrecord
340
0
  0
XRECORD
  5
107
102
{ACAD_REACTORS
330
E8
102
}
330
E8
100
AcDbXrecord
 10
0.0
 20
0.0
 30
0.0
  0
XRECORD
  5
103
102
{ACAD_REACTORS
330
E8
102
}
330
E8
100
AcDbXrecord
 10
0.0
 20
0.0
 30
0.0
  0
XRECORD
  5
106
102
{ACAD_REACTORS
330
E8
102
}
330
E8
100
AcDbXrecord
 10
0.0
 20
0.0
 30
0.0
  0
XRECORD
  5
104
102
{ACAD_REACTORS
330
E8
102
}
330
E8
100
AcDbXrecord
 10
0.0
 20
0.0
 30
0.0
  0
XRECORD
  5
105
102
{ACAD_REACTORS
330
E8
102
}
330
E8
100
AcDbXrecord
 10
0.0
 20
0.0
 30
0.0
  0
XRECORD
  5
102
102
{ACAD_REACTORS
330
E8
102
}
330
E8
100
AcDbXrecord
 10
0.0
 20
0.0
 30
0.0
  0
XRECORD
  5
FF
102
{ACAD_REACTORS
330
E8
102
}
330
E8
100
AcDbXrecord
340
0
  0
XRECORD
  5
100
102
{ACAD_REACTORS
330
E8
102
}
330
E8
100
AcDbXrecord
 70
     0
  0
XRECORD
  5
F4
102
{ACAD_REACTORS
330
E8
102
}
330
E8
100
AcDbXrecord
  1
{FAEB1C32-E019-11D5-929B-00C0DF256EC4}
  0
DICTIONARYVAR
  5
112
102
{ACAD_REACTORS
330
109
102
}
330
109
100
DictionaryVariables
280
     0
  1
1:1
  0
DICTIONARYVAR
  5
10B
102
{ACAD_REACTORS
330
109
102
}
330
109
100
DictionaryVariables
280
     0
  1
Standard
  0
DICTIONARYVAR
  5
10A
102
{ACAD_REACTORS
330
109
102
}
330
109
100
DictionaryVariables
280
     0
  1
Standard
  0
DICTIONARYVAR
  5
10E
102
{ACAD_REACTORS
330
109
102
}
330
109
100
DictionaryVariables
280
     0
  1
2
  0
DICTIONARYVAR
  5
10F
102
{ACAD_REACTORS
330
109
102
}
330
109
100
DictionaryVariables
280
     0
  1
1
  0
DICTIONARYVAR
  5
113
102
{ACAD_REACTORS
330
109
102
}
330
109
100
DictionaryVariables
280
     0
  1
1
  0
DICTIONARY
  5
116
330
45
100
AcDbDictionary
280
     1
  3
ACAD_XREC_ROUNDTRIP
360
117
  0
DICTIONARY
  5
114
330
44
100
AcDbDictionary
280
     1
  3
ACAD_XREC_ROUNDTRIP
360
115
  0
DICTIONARY
  5
118
330
46
100
AcDbDictionary
280
     1
  3
ACAD_XREC_ROUNDTRIP
360
119
  0
XRECORD
  5
117
102
{ACAD_REACTORS
330
116
102
}
330
116
100
AcDbXrecord
102
MATERIAL
148
0.0
149
0.0
149
0.0
 93
        0
 94
      127
282
     0
 72
     1
 77
     1
171
     1
175
     1
179
     1
273
     0
  0
XRECORD
  5
115
102
{ACAD_REACTORS
330
114
102
}
330
114
100
AcDbXrecord
102
MATERIAL
148
0.0
149
0.0
149
0.0
 93
        0
 94
      127
282
     0
 72
     1
 77
     1
171
     1
175
     1
179
     1
273
     0
  0
XRECORD
  5
119
102
{ACAD_REACTORS
330
118
102
}
330
118
100
AcDbXrecord
102
MATERIAL
148
0.0
149
0.0
149
0.0
 93
        0
 94
      127
282
     0
 72
     1
 77
     1
171
     1
175
     1
179
     1
273
     0
  0
ENDSEC
  0
EOF
