  0
SECTION
  2
HEADER
  9
$ACADVER
  1
AC1021
  9
$ACADMAINTVER
 70
    25
  9
$DWGCODEPAGE
  3
ANSI_932
  9
$INSBASE
 10
0.0
 20
0.0
 30
0.0
  9
$EXTMIN
 10
310.0
 20
35.00000000000001
 30
0.0
  9
$EXTMAX
 10
542.7499999999953
 20
329.9999999999999
 30
0.0
  9
$LIMMIN
 10
0.0
 20
0.0
  9
$LIMMAX
 10
12.0
 20
9.0
  9
$ORTHOMODE
 70
     0
  9
$REGENMODE
 70
     1
  9
$FILLMODE
 70
     1
  9
$QTEXTMODE
 70
     0
  9
$MIRRTEXT
 70
     1
  9
$LTSCALE
 40
1.0
  9
$ATTMODE
 70
     1
  9
$TEXTSIZE
 40
0.2
  9
$TRACEWID
 40
0.05
  9
$TEXTSTYLE
  7
Standard
  9
$CLAYER
  8
0
  9
$CELTYPE
  6
ByLayer
  9
$CECOLOR
 62
   256
  9
$CELTSCALE
 40
1.0
  9
$DISPSILH
 70
     0
  9
$DIMSCALE
 40
1.0
  9
$DIMASZ
 40
3.0
  9
$DIMEXO
 40
0.0625
  9
$DIMDLI
 40
0.38
  9
$DIMRND
 40
0.0
  9
$DIMDLE
 40
0.0
  9
$DIMEXE
 40
0.18
  9
$DIMTP
 40
0.0
  9
$DIMTM
 40
0.0
  9
$DIMTXT
 40
3.0
  9
$DIMCEN
 40
0.09
  9
$DIMTSZ
 40
0.0
  9
$DIMTOL
 70
     0
  9
$DIMLIM
 70
     0
  9
$DIMTIH
 70
     1
  9
$DIMTOH
 70
     1
  9
$DIMSE1
 70
     0
  9
$DIMSE2
 70
     0
  9
$DIMTAD
 70
     1
  9
$DIMZIN
 70
     0
  9
$DIMBLK
  1

  9
$DIMASO
 70
     1
  9
$DIMSHO
 70
     1
  9
$DIMPOST
  1

  9
$DIMAPOST
  1

  9
$DIMALT
 70
     0
  9
$DIMALTD
 70
     2
  9
$DIMALTF
 40
25.4
  9
$DIMLFAC
 40
1.0
  9
$DIMTOFL
 70
     0
  9
$DIMTVP
 40
0.0
  9
$DIMTIX
 70
     0
  9
$DIMSOXD
 70
     0
  9
$DIMSAH
 70
     0
  9
$DIMBLK1
  1

  9
$DIMBLK2
  1

  9
$DIMSTYLE
  2
Standard
  9
$DIMCLRD
 70
     0
  9
$DIMCLRE
 70
     0
  9
$DIMCLRT
 70
     0
  9
$DIMTFAC
 40
1.0
  9
$DIMGAP
 40
0.09
  9
$DIMJUST
 70
     0
  9
$DIMSD1
 70
     0
  9
$DIMSD2
 70
     0
  9
$DIMTOLJ
 70
     1
  9
$DIMTZIN
 70
     0
  9
$DIMALTZ
 70
     0
  9
$DIMALTTZ
 70
     0
  9
$DIMUPT
 70
     0
  9
$DIMDEC
 70
     2
  9
$DIMTDEC
 70
     4
  9
$DIMALTU
 70
     2
  9
$DIMALTTD
 70
     2
  9
$DIMTXSTY
  7
Standard
  9
$DIMAUNIT
 70
     0
  9
$DIMADEC
 70
     2
  9
$DIMALTRND
 40
0.0
  9
$DIMAZIN
 70
     0
  9
$DIMDSEP
 70
    46
  9
$DIMATFIT
 70
     3
  9
$DIMFRAC
 70
     0
  9
$DIMLDRBLK
  1

  9
$DIMLUNIT
 70
     2
  9
$DIMLWD
 70
    -2
  9
$DIMLWE
 70
    -2
  9
$DIMTMOVE
 70
     0
  9
$DIMFXL
 40
1.0
  9
$DIMFXLON
 70
     0
  9
$DIMJOGANG
 40
0.7853981633974483
  9
$DIMTFILL
 70
     0
  9
$DIMTFILLCLR
 70
     0
  9
$DIMARCSYM
 70
     0
  9
$DIMLTYPE
  6

  9
$DIMLTEX1
  6

  9
$DIMLTEX2
  6

  9
$LUNITS
 70
     2
  9
$LUPREC
 70
     4
  9
$SKETCHINC
 40
0.1
  9
$FILLETRAD
 40
0.5
  9
$AUNITS
 70
     0
  9
$AUPREC
 70
     0
  9
$MENU
  1
.
  9
$ELEVATION
 40
0.0
  9
$PELEVATION
 40
0.0
  9
$THICKNESS
 40
0.0
  9
$LIMCHECK
 70
     0
  9
$CHAMFERA
 40
0.5
  9
$CHAMFERB
 40
0.5
  9
$CHAMFERC
 40
1.0
  9
$CHAMFERD
 40
0.0
  9
$SKPOLY
 70
     0
  9
$TDCREATE
 40
2460131.550532141
  9
$TDUCREATE
 40
2460131.175532141
  9
$TDUPDATE
 40
2460131.550532153
  9
$TDUUPDATE
 40
2460131.175532153
  9
$TDINDWG
 40
0.0000000116
  9
$TDUSRTIMER
 40
0.0000000116
  9
$USRTIMER
 70
     1
  9
$ANGBASE
 50
0.0
  9
$ANGDIR
 70
     0
  9
$PDMODE
 70
     0
  9
$PDSIZE
 40
0.0
  9
$PLINEWID
 40
0.0
  9
$SPLFRAME
 70
     0
  9
$SPLINETYPE
 70
     6
  9
$SPLINESEGS
 70
     8
  9
$HANDSEED
  5
25C
  9
$SURFTAB1
 70
     6
  9
$SURFTAB2
 70
     6
  9
$SURFTYPE
 70
     6
  9
$SURFU
 70
     6
  9
$SURFV
 70
     6
  9
$UCSBASE
  2

  9
$UCSNAME
  2

  9
$UCSORG
 10
0.0
 20
0.0
 30
0.0
  9
$UCSXDIR
 10
1.0
 20
0.0
 30
0.0
  9
$UCSYDIR
 10
0.0
 20
1.0
 30
0.0
  9
$UCSORTHOREF
  2

  9
$UCSORTHOVIEW
 70
     0
  9
$UCSORGTOP
 10
0.0
 20
0.0
 30
0.0
  9
$UCSORGBOTTOM
 10
0.0
 20
0.0
 30
0.0
  9
$UCSORGLEFT
 10
0.0
 20
0.0
 30
0.0
  9
$UCSORGRIGHT
 10
0.0
 20
0.0
 30
0.0
  9
$UCSORGFRONT
 10
0.0
 20
0.0
 30
0.0
  9
$UCSORGBACK
 10
0.0
 20
0.0
 30
0.0
  9
$PUCSBASE
  2

  9
$PUCSNAME
  2

  9
$PUCSORG
 10
0.0
 20
0.0
 30
0.0
  9
$PUCSXDIR
 10
1.0
 20
0.0
 30
0.0
  9
$PUCSYDIR
 10
0.0
 20
1.0
 30
0.0
  9
$PUCSORTHOREF
  2

  9
$PUCSORTHOVIEW
 70
     0
  9
$PUCSORGTOP
 10
0.0
 20
0.0
 30
0.0
  9
$PUCSORGBOTTOM
 10
0.0
 20
0.0
 30
0.0
  9
$PUCSORGLEFT
 10
0.0
 20
0.0
 30
0.0
  9
$PUCSORGRIGHT
 10
0.0
 20
0.0
 30
0.0
  9
$PUCSORGFRONT
 10
0.0
 20
0.0
 30
0.0
  9
$PUCSORGBACK
 10
0.0
 20
0.0
 30
0.0
  9
$USERI1
 70
     0
  9
$USERI2
 70
     0
  9
$USERI3
 70
     0
  9
$USERI4
 70
     0
  9
$USERI5
 70
     0
  9
$USERR1
 40
0.0
  9
$USERR2
 40
0.0
  9
$USERR3
 40
0.0
  9
$USERR4
 40
0.0
  9
$USERR5
 40
0.0
  9
$WORLDVIEW
 70
     1
  9
$SHADEDGE
 70
     3
  9
$SHADEDIF
 70
    70
  9
$TILEMODE
 70
     1
  9
$MAXACTVP
 70
    64
  9
$PINSBASE
 10
0.0
 20
0.0
 30
0.0
  9
$PLIMCHECK
 70
     0
  9
$PEXTMIN
 10
1.000000000000000E+20
 20
1.000000000000000E+20
 30
1.000000000000000E+20
  9
$PEXTMAX
 10
-1.000000000000000E+20
 20
-1.000000000000000E+20
 30
-1.000000000000000E+20
  9
$PLIMMIN
 10
0.0
 20
0.0
  9
$PLIMMAX
 10
12.0
 20
9.0
  9
$UNITMODE
 70
     0
  9
$VISRETAIN
 70
     1
  9
$PLINEGEN
 70
     0
  9
$PSLTSCALE
 70
     1
  9
$TREEDEPTH
 70
  3020
  9
$CMLSTYLE
  2
Standard
  9
$CMLJUST
 70
     0
  9
$CMLSCALE
 40
1.0
  9
$PROXYGRAPHICS
 70
     1
  9
$MEASUREMENT
 70
     1
  9
$CELWEIGHT
370
    -1
  9
$ENDCAPS
280
     0
  9
$JOINSTYLE
280
     0
  9
$LWDISPLAY
290
     1
  9
$INSUNITS
 70
     4
  9
$HYPERLINKBASE
  1

  9
$STYLESHEET
  1

  9
$XEDIT
290
     1
  9
$CEPSNTYPE
380
     0
  9
$PSTYLEMODE
290
     1
  9
$FINGERPRINTGUID
  2
{88C58F48-9869-4D21-8A80-FF8E9D7A6998}
  9
$VERSIONGUID
  2
{FAEB1C32-E019-11D5-929B-00C0DF256EC4}
  9
$EXTNAMES
290
     1
  9
$PSVPSCALE
 40
0.0
  9
$OLESTARTUP
290
     0
  9
$SORTENTS
280
   127
  9
$INDEXCTL
280
     0
  9
$HIDETEXT
280
     1
  9
$XCLIPFRAME
290
     0
  9
$HALOGAP
280
     0
  9
$OBSCOLOR
 70
   257
  9
$OBSLTYPE
280
     0
  9
$INTERSECTIONDISPLAY
280
     0
  9
$INTERSECTIONCOLOR
 70
   257
  9
$DIMASSOC
280
     2
  9
$PROJECTNAME
  1

  9
$CAMERADISPLAY
290
     0
  9
$LENSLENGTH
 40
50.0
  9
$CAMERAHEIGHT
 40
0.0
  9
$STEPSPERSEC
 40
2.0
  9
$STEPSIZE
 40
6.0
  9
$3DDWFPREC
 40
2.0
  9
$PSOLWIDTH
 40
0.25
  9
$PSOLHEIGHT
 40
4.0
  9
$LOFTANG1
 40
1.570796326794897
  9
$LOFTANG2
 40
1.570796326794897
  9
$LOFTMAG1
 40
0.0
  9
$LOFTMAG2
 40
0.0
  9
$LOFTPARAM
 70
     7
  9
$LOFTNORMALS
280
     1
  9
$LATITUDE
 40
37.795
  9
$LONGITUDE
 40
-122.394
  9
$NORTHDIRECTION
 40
0.0
  9
$TIMEZONE
 70
 -8000
  9
$LIGHTGLYPHDISPLAY
280
     1
  9
$TILEMODELIGHTSYNCH
280
     1
  9
$SOLIDHIST
280
     1
  9
$SHOWHIST
280
     1
  9
$DWFFRAME
280
     2
  9
$DGNFRAME
280
     2
  9
$REALWORLDSCALE
290
     1
  9
$INTERFERECOLOR
 62
   256
  9
$CSHADOW
280
     0
  9
$SHADOWPLANELOCATION
 40
0.0
  0
ENDSEC
  0
SECTION
  2
CLASSES
  0
CLASS
  1
ACDBDICTIONARYWDFLT
  2
AcDbDictionaryWithDefault
  3
ObjectDBX Classes
 90
        0
 91
        4
280
     0
281
     0
  0
CLASS
  1
VISUALSTYLE
  2
AcDbVisualStyle
  3
ObjectDBX Classes
 90
     4095
 91
        4
280
     0
281
     0
  0
ENDSEC
  0
SECTION
  2
TABLES
  0
TABLE
  2
VPORT
  5
8
330
0
100
AcDbSymbolTable
 70
     1
  0
VPORT
  5
29
330
8
100
AcDbSymbolTableRecord
100
AcDbViewportTableRecord
  2
*Active
 70
     0
 10
0.0
 20
0.0
 11
1.0
 21
1.0
 12
426.3749999999977
 22
182.5
 13
0.0
 23
0.0
 14
0.5
 24
0.5
 15
0.5
 25
0.5
 16
0.0
 26
0.0
 36
1.0
 17
0.0
 27
0.0
 37
0.0
 40
294.9999999999999
 41
1.6
 42
50.0
 43
0.0
 44
0.0
 50
0.0
 51
0.0
 71
     0
 72
   100
 73
     1
 74
     3
 75
     0
 76
     0
 77
     0
 78
     0
281
     0
 65
     1
110
0.0
120
0.0
130
0.0
111
1.0
121
0.0
131
0.0
112
0.0
122
1.0
132
0.0
 79
     0
146
0.0
 60
     3
 61
     5
292
     1
282
     1
141
0.0
142
0.0
 63
   250
  0
ENDTAB
  0
TABLE
  2
LTYPE
  5
5
330
0
100
AcDbSymbolTable
 70
     3
  0
LTYPE
  5
14
330
5
100
AcDbSymbolTableRecord
100
AcDbLinetypeTableRecord
  2
ByBlock
 70
     0
  3

 72
    65
 73
     0
 40
0.0
  0
LTYPE
  5
15
330
5
100
AcDbSymbolTableRecord
100
AcDbLinetypeTableRecord
  2
ByLayer
 70
     0
  3

 72
    65
 73
     0
 40
0.0
  0
LTYPE
  5
16
330
5
100
AcDbSymbolTableRecord
100
AcDbLinetypeTableRecord
  2
Continuous
 70
     0
  3
Solid line
 72
    65
 73
     0
 40
0.0
  0
LTYPE
  5
3D
330
5
100
AcDbSymbolTableRecord
100
AcDbLinetypeTableRecord
  2
________________
 70
     0
  3

 72
    65
 73
     0
 40
0.0
  0
LTYPE
  5
253
330
5
100
AcDbSymbolTableRecord
100
AcDbLinetypeTableRecord
  2
______....__....
 70
     0
  3

 72
    65
 73
     4
 40
7.2
 49
2.7
 74
     0
 49
-1.8
 74
     0
 49
0.8999999999999999
 74
     0
 49
-1.8
 74
     0
  0
ENDTAB
  0
TABLE
  2
LAYER
  5
2
330
0
100
AcDbSymbolTable
 70
     1
  0
LAYER
  5
10
330
2
100
AcDbSymbolTableRecord
100
AcDbLayerTableRecord
  2
0
 70
     0
 62
     7
  6
Continuous
370
    -3
390
F
347
0
  0
ENDTAB
  0
TABLE
  2
STYLE
  5
3
330
0
100
AcDbSymbolTable
 70
     1
  0
STYLE
  5
11
330
3
100
AcDbSymbolTableRecord
100
AcDbTextStyleTableRecord
  2
Standard
 70
     0
 40
0.0
 41
1.0
 50
0.0
 71
     0
 42
0.2
  3
txt
  4

  0
ENDTAB
  0
TABLE
  2
VIEW
  5
6
330
0
100
AcDbSymbolTable
 70
     0
  0
ENDTAB
  0
TABLE
  2
UCS
  5
7
330
0
100
AcDbSymbolTable
 70
     0
  0
ENDTAB
  0
TABLE
  2
APPID
  5
9
330
0
100
AcDbSymbolTable
 70
     1
  0
APPID
  5
12
330
9
100
AcDbSymbolTableRecord
100
AcDbRegAppTableRecord
  2
ACAD
 70
     0
  0
ENDTAB
  0
TABLE
  2
DIMSTYLE
  5
A
330
0
100
AcDbSymbolTable
 70
     1
100
AcDbDimStyleTable
  0
DIMSTYLE
105
27
330
A
100
AcDbSymbolTableRecord
100
AcDbDimStyleTableRecord
  2
Standard
 70
     0
340
11
  0
ENDTAB
  0
TABLE
  2
BLOCK_RECORD
  5
1
330
0
100
AcDbSymbolTable
 70
     4
  0
BLOCK_RECORD
  5
1F
330
1
100
AcDbSymbolTableRecord
100
AcDbBlockTableRecord
  2
*Model_Space
340
22
 70
     0
280
     1
281
     0
  0
BLOCK_RECORD
  5
1B
330
1
100
AcDbSymbolTableRecord
100
AcDbBlockTableRecord
  2
*Paper_Space
340
1E
 70
     0
280
     1
281
     0
  0
BLOCK_RECORD
  5
23
330
1
100
AcDbSymbolTableRecord
100
AcDbBlockTableRecord
  2
*Paper_Space0
340
26
 70
     0
280
     1
281
     0
  0
BLOCK_RECORD
  5
3B
330
1
100
AcDbSymbolTableRecord
100
AcDbBlockTableRecord
  2
@1481
340
0
102
{BLKREFS
331
FD
102
}
 70
     0
280
     1
281
     0
  0
BLOCK_RECORD
  5
FE
330
1
100
AcDbSymbolTableRecord
100
AcDbBlockTableRecord
  2
@1626
340
0
102
{BLKREFS
331
12D
102
}
 70
     0
280
     1
281
     0
  0
BLOCK_RECORD
  5
12E
330
1
100
AcDbSymbolTableRecord
100
AcDbBlockTableRecord
  2
@1711
340
0
102
{BLKREFS
331
250
102
}
 70
     0
280
     1
281
     0
  0
ENDTAB
  0
ENDSEC
  0
SECTION
  2
BLOCKS
  0
BLOCK
  5
20
330
1F
100
AcDbEntity
  8
0
100
AcDbBlockBegin
  2
*Model_Space
 70
     0
 10
0.0
 20
0.0
 30
0.0
  3
*Model_Space
  1

  0
ENDBLK
  5
21
330
1F
100
AcDbEntity
  8
0
100
AcDbBlockEnd
  0
BLOCK
  5
1C
330
1B
100
AcDbEntity
 67
     1
  8
0
100
AcDbBlockBegin
  2
*Paper_Space
 70
     0
 10
0.0
 20
0.0
 30
0.0
  3
*Paper_Space
  1

  0
ENDBLK
  5
1D
330
1B
100
AcDbEntity
 67
     1
  8
0
100
AcDbBlockEnd
  0
BLOCK
  5
24
330
23
100
AcDbEntity
  8
0
100
AcDbBlockBegin
  2
*Paper_Space0
 70
     0
 10
0.0
 20
0.0
 30
0.0
  3
*Paper_Space0
  1

  0
ENDBLK
  5
25
330
23
100
AcDbEntity
  8
0
100
AcDbBlockEnd
  0
BLOCK
  5
FF
330
3B
100
AcDbEntity
  8
0
100
AcDbBlockBegin
  2
@1481
 70
     0
 10
0.0
 20
0.0
 30
0.0
  3
@1481
  1

  0
LINE
  5
3C
330
3B
100
AcDbEntity
  8
0
  6
________________
 62
     7
370
     9
100
AcDbLine
 10
380.5749908449299
 20
232.4980168134652
 30
0.0
 11
380.4941885177923
 21
232.4957404585049
 31
0.0
  0
LINE
  5
3E
330
3B
100
AcDbEntity
  8
0
  6
________________
 62
     7
370
     9
100
AcDbLine
 10
339.4250091559005
 20
232.4980168111878
 30
0.0
 11
339.5058114804639
 21
232.4957404562708
 31
0.0
  0
LINE
  5
3F
330
3B
100
AcDbEntity
  8
0
  6
________________
 62
     7
370
     9
100
AcDbLine
 10
339.4250091550701
 20
247.5019831865347
 30
0.0
 11
339.5058114822077
 21
247.5042595414951
 31
0.0
  0
LINE
  5
40
330
3B
100
AcDbEntity
  8
0
  6
________________
 62
     7
370
     9
100
AcDbLine
 10
380.5749908440995
 20
247.5019831888122
 30
0.0
 11
380.4941885195361
 21
247.5042595437292
 31
0.0
  0
CIRCLE
  5
41
330
3B
100
AcDbEntity
  8
0
  6
________________
 62
     7
370
     9
100
AcDbCircle
 10
-360.0
 20
240.0
 30
0.0
 40
31.00000000000003
210
0.0
220
0.0
230
-1.0
  0
CIRCLE
  5
42
330
3B
100
AcDbEntity
  8
0
  6
________________
 62
     7
370
     9
100
AcDbCircle
 10
-360.0
 20
240.0
 30
0.0
 40
21.89999999999997
210
0.0
220
0.0
230
-1.0
  0
LINE
  5
43
330
3B
100
AcDbEntity
  8
0
  6
________________
 62
     7
370
     9
100
AcDbLine
 10
321.5
 20
284.0007615387166
 30
0.0
 11
321.5
 21
195.9992384612834
 31
0.0
  0
LINE
  5
44
330
3B
100
AcDbEntity
  8
0
  6
________________
 62
     7
370
     9
100
AcDbLine
 10
398.4999999999999
 20
195.9992384612834
 30
0.0
 11
398.4999999999999
 21
284.0007615387166
 31
0.0
  0
ELLIPSE
  5
45
330
3B
100
AcDbEntity
  8
0
  6
________________
 62
     7
370
     9
100
AcDbEllipse
 10
341.5007615677147
 20
196.0007615677147
 30
0.0
 11
-14.14321262261779
 21
-14.14321262261779
 31
0.0
210
0.0
220
0.0
230
-0.9999999999999998
 40
0.99992385047757
 41
-0.3477615672169033
 42
0.7853600871865092
  0
ELLIPSE
  5
46
330
3B
100
AcDbEntity
  8
0
  6
________________
 62
     7
370
     9
100
AcDbEllipse
 10
378.4992384322852
 20
283.9992384322853
 30
0.0
 11
14.14321262261781
 21
14.14321262261781
 31
0.0
210
0.0
220
0.0
230
-0.9999999999999998
 40
0.999923850477569
 41
-0.3477615672169033
 42
0.7853600871865092
  0
ELLIPSE
  5
47
330
3B
100
AcDbEntity
  8
0
  6
________________
 62
     7
370
     9
100
AcDbEllipse
 10
341.5007615677147
 20
283.9992384322853
 30
0.0
 11
-14.14321262261778
 21
14.14321262261778
 31
0.0
210
0.0
220
0.0
230
-0.9999999999999998
 40
0.9999238504775712
 41
-0.7853600871865087
 42
0.3477615672169019
  0
ELLIPSE
  5
48
330
3B
100
AcDbEntity
  8
0
  6
________________
 62
     7
370
     9
100
AcDbEllipse
 10
378.4992384322852
 20
196.0007615677147
 30
0.0
 11
14.14321262261779
 21
-14.14321262261779
 31
0.0
210
0.0
220
0.0
230
-0.9999999999999998
 40
0.99992385047757
 41
-0.7853600871865095
 42
0.3477615672169029
  0
LINE
  5
49
330
3B
100
AcDbEntity
  8
0
  6
________________
 62
     7
370
     9
100
AcDbLine
 10
384.1
 20
156.0
 30
0.0
 11
384.9
 21
156.0
 31
0.0
  0
LINE
  5
4A
330
3B
100
AcDbEntity
  8
0
  6
________________
 62
     7
370
     9
100
AcDbLine
 10
384.1
 20
156.0
 30
0.0
 11
384.1
 21
157.628801080791
 31
0.0
  0
ELLIPSE
  5
4B
330
3B
100
AcDbEntity
  8
0
  6
________________
 62
     7
370
     9
100
AcDbEllipse
 10
374.1
 20
157.6288010807909
 30
0.0
 11
10.0
 21
-3.209050957469869E-17
 31
0.0
210
0.0
220
0.0
230
1.0
 40
0.0524077792830412
 41
0.0
 42
0.7470441429375241
  0
LINE
  5
4C
330
3B
100
AcDbEntity
  8
0
  6
________________
 62
     7
370
     9
100
AcDbLine
 10
381.4370049626896
 20
157.984897800192
 30
0.0
 11
372.4767105887333
 21
158.4919639656608
 31
0.0
  0
ELLIPSE
  5
4D
330
3B
100
AcDbEntity
  8
0
  6
________________
 62
     7
370
     9
100
AcDbEllipse
 10
359.9999999999999
 20
149.4490275896198
 30
0.0
 11
173.0000000000006
 21
-5.551658156422895E-16
 31
0.0
210
0.0
220
0.0
230
1.0
 40
0.0524077792830412
 41
1.498613946809317
 42
1.642978706780476
  0
LINE
  5
4E
330
3B
100
AcDbEntity
  8
0
  6
________________
 62
     7
370
     9
100
AcDbLine
 10
347.5232894112667
 20
158.4919639656608
 30
0.0
 11
338.5629950373104
 21
157.984897800192
 31
0.0
  0
ELLIPSE
  5
4F
330
3B
100
AcDbEntity
  8
0
  6
________________
 62
     7
370
     9
100
AcDbEllipse
 10
345.9
 20
157.6288010807909
 30
0.0
 11
10.0
 21
-3.209050957469869E-17
 31
0.0
210
0.0
220
0.0
230
1.0
 40
0.0524077792830412
 41
2.39454851065227
 42
3.141592653589791
  0
LINE
  5
50
330
3B
100
AcDbEntity
  8
0
  6
________________
 62
     7
370
     9
100
AcDbLine
 10
335.9
 20
157.628801080791
 30
0.0
 11
335.9
 21
156.0
 31
0.0
  0
LINE
  5
51
330
3B
100
AcDbEntity
  8
0
  6
________________
 62
     7
370
     9
100
AcDbLine
 10
335.1
 20
156.0
 30
0.0
 11
335.9
 21
156.0
 31
0.0
  0
LINE
  5
52
330
3B
100
AcDbEntity
  8
0
  6
________________
 62
     7
370
     9
100
AcDbLine
 10
335.9
 20
322.3711989192092
 30
0.0
 11
335.9
 21
323.9999999999999
 31
0.0
  0
ELLIPSE
  5
53
330
3B
100
AcDbEntity
  8
0
  6
________________
 62
     7
370
     9
100
AcDbEllipse
 10
345.9
 20
322.3711989192091
 30
0.0
 11
-10.0
 21
3.209050957469869E-17
 31
0.0
210
0.0
220
0.0
230
1.0
 40
0.0524077792830412
 41
0.0
 42
0.747044142937522
  0
LINE
  5
54
330
3B
100
AcDbEntity
  8
0
  6
________________
 62
     7
370
     9
100
AcDbLine
 10
347.5232894112667
 20
321.5080360343392
 30
0.0
 11
338.5629950373104
 21
322.015102199808
 31
0.0
  0
ELLIPSE
  5
55
330
3B
100
AcDbEntity
  8
0
  6
________________
 62
     7
370
     9
100
AcDbEllipse
 10
359.9999999999999
 20
330.5509724103802
 30
0.0
 11
173.0000000000006
 21
5.551658156422892E-16
 31
0.0
210
0.0
220
0.0
230
-1.0
 40
0.0524077792830412
 41
1.522515096364027
 42
1.642978706780476
  0
ELLIPSE
  5
56
330
3B
100
AcDbEntity
  8
0
  6
________________
 62
     7
370
     9
100
AcDbEllipse
 10
367.8667833822474
 20
322.0184590295369
 30
0.0
 11
-10.0
 21
3.209050957469869E-17
 31
0.0
210
0.0
220
0.0
230
1.0
 40
0.0524077792830412
 41
1.619077557225766
 42
2.39454851065227
  0
LINE
  5
57
330
3B
100
AcDbEntity
  8
0
  6
________________
 62
     7
370
     9
100
AcDbLine
 10
384.1
 20
322.1658020123227
 30
0.0
 11
375.203788344937
 21
321.6623623101358
 31
0.0
  0
LINE
  5
58
330
3B
100
AcDbEntity
  8
0
  6
________________
 62
     7
370
     9
100
AcDbLine
 10
384.1
 20
323.9999999999999
 30
0.0
 11
384.1
 21
322.1658020123227
 31
0.0
  0
LINE
  5
59
330
3B
100
AcDbEntity
  8
0
  6
________________
 62
     7
370
     9
100
AcDbLine
 10
384.1
 20
323.9999999999999
 30
0.0
 11
384.9
 21
323.9999999999999
 31
0.0
  0
LINE
  5
5A
330
3B
100
AcDbEntity
  8
0
  6
________________
 62
     7
370
     9
100
AcDbLine
 10
335.1
 20
323.9999999999999
 30
0.0
 11
335.9
 21
323.9999999999999
 31
0.0
  0
LINE
  5
5B
330
3B
100
AcDbEntity
  8
0
  6
________________
 62
     7
370
     9
100
AcDbLine
 10
386.4
 20
302.6771453395614
 30
0.0
 11
386.4
 21
302.5580496781688
 31
0.0
  0
POLYLINE
  5
5C
330
3B
100
AcDbEntity
  8
0
  6
________________
 62
     7
370
     9
100
AcDb3dPolyline
 66
     1
 10
0.0
 20
0.0
 30
0.0
 70
     8
  0
VERTEX
  5
5D
330
5C
100
AcDbEntity
  8
0
  6
________________
 62
     7
370
     9
100
AcDbVertex
100
AcDb3dPolylineVertex
 10
386.4
 20
302.5580496781688
 30
0.0
 70
    32
  0
VERTEX
  5
5E
330
5C
100
AcDbEntity
  8
0
  6
________________
 62
     7
370
     9
100
AcDbVertex
100
AcDb3dPolylineVertex
 10
386.4008681096713
 20
302.5163010150807
 30
0.0
 70
    32
  0
VERTEX
  5
5F
330
5C
100
AcDbEntity
  8
0
  6
________________
 62
     7
370
     9
100
AcDbVertex
100
AcDb3dPolylineVertex
 10
386.4034587962605
 20
302.4747410226045
 30
0.0
 70
    32
  0
VERTEX
  5
60
330
5C
100
AcDbEntity
  8
0
  6
________________
 62
     7
370
     9
100
AcDbVertex
100
AcDb3dPolylineVertex
 10
386.4077919661216
 20
302.4331350974612
 30
0.0
 70
    32
  0
VERTEX
  5
61
330
5C
100
AcDbEntity
  8
0
  6
________________
 62
     7
370
     9
100
AcDbVertex
100
AcDb3dPolylineVertex
 10
386.4138282522868
 20
302.3918725368996
 30
0.0
 70
    32
  0
VERTEX
  5
62
330
5C
100
AcDbEntity
  8
0
  6
________________
 62
     7
370
     9
100
AcDbVertex
100
AcDb3dPolylineVertex
 10
386.4217379845393
 20
302.3500929444157
 30
0.0
 70
    32
  0
VERTEX
  5
63
330
5C
100
AcDbEntity
  8
0
  6
________________
 62
     7
370
     9
100
AcDbVertex
100
AcDb3dPolylineVertex
 10
386.4313678971973
 20
302.308821501484
 30
0.0
 70
    32
  0
VERTEX
  5
64
330
5C
100
AcDbEntity
  8
0
  6
________________
 62
     7
370
     9
100
AcDbVertex
100
AcDb3dPolylineVertex
 10
386.4427738973415
 20
302.2678299350968
 30
0.0
 70
    32
  0
VERTEX
  5
65
330
5C
100
AcDbEntity
  8
0
  6
________________
 62
     7
370
     9
100
AcDbVertex
100
AcDb3dPolylineVertex
 10
386.4558506129159
 20
302.2274937481187
 30
0.0
 70
    32
  0
VERTEX
  5
66
330
5C
100
AcDbEntity
  8
0
  6
________________
 62
     7
370
     9
100
AcDbVertex
100
AcDb3dPolylineVertex
 10
386.4699836802212
 20
302.1893357528182
 30
0.0
 70
    32
  0
VERTEX
  5
67
330
5C
100
AcDbEntity
  8
0
  6
________________
 62
     7
370
     9
100
AcDbVertex
100
AcDb3dPolylineVertex
 10
386.4855896402343
 20
302.1519005869172
 30
0.0
 70
    32
  0
VERTEX
  5
68
330
5C
100
AcDbEntity
  8
0
  6
________________
 62
     7
370
     9
100
AcDbVertex
100
AcDb3dPolylineVertex
 10
386.5027438079741
 20
302.1150088232091
 30
0.0
 70
    32
  0
VERTEX
  5
69
330
5C
100
AcDbEntity
  8
0
  6
________________
 62
     7
370
     9
100
AcDbVertex
100
AcDb3dPolylineVertex
 10
386.5213086427256
 20
302.0789523558135
 30
0.0
 70
    32
  0
VERTEX
  5
6A
330
5C
100
AcDbEntity
  8
0
  6
________________
 62
     7
370
     9
100
AcDbVertex
100
AcDb3dPolylineVertex
 10
386.5416418622901
 20
302.0431080836696
 30
0.0
 70
    32
  0
VERTEX
  5
6B
330
5C
100
AcDbEntity
  8
0
  6
________________
 62
     7
370
     9
100
AcDbVertex
100
AcDb3dPolylineVertex
 10
386.563351764069
 20
302.0082290530963
 30
0.0
 70
    32
  0
VERTEX
  5
6C
330
5C
100
AcDbEntity
  8
0
  6
________________
 62
     7
370
     9
100
AcDbVertex
100
AcDb3dPolylineVertex
 10
386.5865413038723
 20
301.9741529627022
 30
0.0
 70
    32
  0
VERTEX
  5
6D
330
5C
100
AcDbEntity
  8
0
  6
________________
 62
     7
370
     9
100
AcDbVertex
100
AcDb3dPolylineVertex
 10
386.611031090392
 20
301.9411435081439
 30
0.0
 70
    32
  0
VERTEX
  5
6E
330
5C
100
AcDbEntity
  8
0
  6
________________
 62
     7
370
     9
100
AcDbVertex
100
AcDb3dPolylineVertex
 10
386.6375469837647
 20
301.9083252387442
 30
0.0
 70
    32
  0
VERTEX
  5
6F
330
5C
100
AcDbEntity
  8
0
  6
________________
 62
     7
370
     9
100
AcDbVertex
100
AcDb3dPolylineVertex
 10
386.6653379887184
 20
301.8767232012542
 30
0.0
 70
    32
  0
VERTEX
  5
70
330
5C
100
AcDbEntity
  8
0
  6
________________
 62
     7
370
     9
100
AcDbVertex
100
AcDb3dPolylineVertex
 10
386.694538654066
 20
301.8461920159153
 30
0.0
 70
    32
  0
VERTEX
  5
71
330
5C
100
AcDbEntity
  8
0
  6
________________
 62
     7
370
     9
100
AcDbVertex
100
AcDb3dPolylineVertex
 10
386.7249242638459
 20
301.8169721607149
 30
0.0
 70
    32
  0
VERTEX
  5
72
330
5C
100
AcDbEntity
  8
0
  6
________________
 62
     7
370
     9
100
AcDbVertex
100
AcDb3dPolylineVertex
 10
386.7570577525164
 20
301.7885800518214
 30
0.0
 70
    32
  0
VERTEX
  5
73
330
5C
100
AcDbEntity
  8
0
  6
________________
 62
     7
370
     9
100
AcDbVertex
100
AcDb3dPolylineVertex
 10
386.7903099700636
 20
301.7616258256193
 30
0.0
 70
    32
  0
VERTEX
  5
74
330
5C
100
AcDbEntity
  8
0
  6
________________
 62
     7
370
     9
100
AcDbVertex
100
AcDb3dPolylineVertex
 10
386.8248447335653
 20
301.7359899086807
 30
0.0
 70
    32
  0
VERTEX
  5
75
330
5C
100
AcDbEntity
  8
0
  6
________________
 62
     7
370
     9
100
AcDbVertex
100
AcDb3dPolylineVertex
 10
386.8603970186566
 20
301.7118806921814
 30
0.0
 70
    32
  0
VERTEX
  5
76
330
5C
100
AcDbEntity
  8
0
  6
________________
 62
     7
370
     9
100
AcDbVertex
100
AcDb3dPolylineVertex
 10
386.9069288074186
 20
301.6835130668002
 30
0.0
 70
    32
  0
VERTEX
  5
77
330
5C
100
AcDbEntity
  8
0
  6
________________
 62
     7
370
     9
100
AcDbVertex
100
AcDb3dPolylineVertex
 10
386.9550111834295
 20
301.6576657262215
 30
0.0
 70
    32
  0
VERTEX
  5
78
330
5C
100
AcDbEntity
  8
0
  6
________________
 62
     7
370
     9
100
AcDbVertex
100
AcDb3dPolylineVertex
 10
386.9611744023043
 20
301.6545916762763
 30
0.0
 70
    32
  0
SEQEND
  5
79
330
5C
100
AcDbEntity
  8
0
  6
________________
 62
     7
370
     9
  0
LINE
  5
7A
330
3B
100
AcDbEntity
  8
0
  6
________________
 62
     7
370
     9
100
AcDbLine
 10
386.4
 20
302.6771453395614
 30
0.0
 11
386.4
 21
320.6165022047419
 31
0.0
  0
ELLIPSE
  5
7B
330
3B
100
AcDbEntity
  8
0
  6
________________
 62
     7
370
     9
100
AcDbEllipse
 10
384.9
 20
320.5316166846396
 30
0.0
 11
1.062791256513902
 21
1.120121184609869
 31
0.0
210
0.0
220
0.0
230
0.9999999999999999
 40
0.945009175053919
 41
-0.7833869335638355
 42
-0.7478185642724943
  0
LINE
  5
7C
330
3B
100
AcDbEntity
  8
0
  6
________________
 62
     7
370
     9
100
AcDbLine
 10
386.4
 20
177.3792735925437
 30
0.0
 11
386.4
 21
159.1308595997878
 31
0.0
  0
LINE
  5
7D
330
3B
100
AcDbEntity
  8
0
  6
________________
 62
     7
370
     9
100
AcDbLine
 10
333.6
 20
159.1308595997878
 30
0.0
 11
333.6
 21
177.3792735925437
 31
0.0
  0
LINE
  5
7E
330
3B
100
AcDbEntity
  8
0
  6
________________
 62
     7
370
     9
100
AcDbLine
 10
333.6
 20
302.6207264074563
 30
0.0
 11
333.6
 21
320.8691404002122
 31
0.0
  0
LINE
  5
7F
330
3B
100
AcDbEntity
  8
0
  6
________________
 62
     7
370
     9
100
AcDbLine
 10
386.4
 20
303.0212208075669
 30
0.0
 11
386.4494900139426
 21
302.7105013097672
 31
0.0
  0
POLYLINE
  5
80
330
3B
100
AcDbEntity
  8
0
  6
________________
 62
     7
370
     9
100
AcDb3dPolyline
 66
     1
 10
0.0
 20
0.0
 30
0.0
 70
     8
  0
VERTEX
  5
81
330
80
100
AcDbEntity
  8
0
  6
________________
 62
     7
370
     9
100
AcDbVertex
100
AcDb3dPolylineVertex
 10
386.4494900139426
 20
302.7105013097672
 30
0.0
 70
    32
  0
VERTEX
  5
82
330
80
100
AcDbEntity
  8
0
  6
________________
 62
     7
370
     9
100
AcDbVertex
100
AcDb3dPolylineVertex
 10
386.4563783523298
 20
302.6901676895748
 30
0.0
 70
    32
  0
VERTEX
  5
83
330
80
100
AcDbEntity
  8
0
  6
________________
 62
     7
370
     9
100
AcDbVertex
100
AcDb3dPolylineVertex
 10
386.4708974318223
 20
302.6513693179301
 30
0.0
 70
    32
  0
VERTEX
  5
84
330
80
100
AcDbEntity
  8
0
  6
________________
 62
     7
370
     9
100
AcDbVertex
100
AcDb3dPolylineVertex
 10
386.4870100876993
 20
302.6132052036545
 30
0.0
 70
    32
  0
VERTEX
  5
85
330
80
100
AcDbEntity
  8
0
  6
________________
 62
     7
370
     9
100
AcDbVertex
100
AcDb3dPolylineVertex
 10
386.5048182898647
 20
302.5754837259402
 30
0.0
 70
    32
  0
VERTEX
  5
86
330
80
100
AcDbEntity
  8
0
  6
________________
 62
     7
370
     9
100
AcDbVertex
100
AcDb3dPolylineVertex
 10
386.5241833155166
 20
302.538537309195
 30
0.0
 70
    32
  0
VERTEX
  5
87
330
80
100
AcDbEntity
  8
0
  6
________________
 62
     7
370
     9
100
AcDbVertex
100
AcDb3dPolylineVertex
 10
386.5455441202473
 20
302.5016550138381
 30
0.0
 70
    32
  0
VERTEX
  5
88
330
80
100
AcDbEntity
  8
0
  6
________________
 62
     7
370
     9
100
AcDbVertex
100
AcDb3dPolylineVertex
 10
386.5684562982599
 20
302.4657159018876
 30
0.0
 70
    32
  0
VERTEX
  5
89
330
80
100
AcDbEntity
  8
0
  6
________________
 62
     7
370
     9
100
AcDbVertex
100
AcDb3dPolylineVertex
 10
386.593064894626
 20
302.43053296214
 30
0.0
 70
    32
  0
VERTEX
  5
8A
330
80
100
AcDbEntity
  8
0
  6
________________
 62
     7
370
     9
100
AcDbVertex
100
AcDb3dPolylineVertex
 10
386.6191602550377
 20
302.3964381765185
 30
0.0
 70
    32
  0
VERTEX
  5
8B
330
80
100
AcDbEntity
  8
0
  6
________________
 62
     7
370
     9
100
AcDbVertex
100
AcDb3dPolylineVertex
 10
386.645702789512
 20
302.3646343991669
 30
0.0
 70
    32
  0
VERTEX
  5
8C
330
80
100
AcDbEntity
  8
0
  6
________________
 62
     7
370
     9
100
AcDbVertex
100
AcDb3dPolylineVertex
 10
386.6735391039654
 20
302.3339566227156
 30
0.0
 70
    32
  0
VERTEX
  5
8D
330
80
100
AcDbEntity
  8
0
  6
________________
 62
     7
370
     9
100
AcDbVertex
100
AcDb3dPolylineVertex
 10
386.7028288599774
 20
302.3042577818599
 30
0.0
 70
    32
  0
VERTEX
  5
8E
330
80
100
AcDbEntity
  8
0
  6
________________
 62
     7
370
     9
100
AcDbVertex
100
AcDb3dPolylineVertex
 10
386.7333311102801
 20
302.2758056525688
 30
0.0
 70
    32
  0
VERTEX
  5
8F
330
80
100
AcDbEntity
  8
0
  6
________________
 62
     7
370
     9
100
AcDbVertex
100
AcDb3dPolylineVertex
 10
386.765695434406
 20
302.2480746609279
 30
0.0
 70
    32
  0
VERTEX
  5
90
330
80
100
AcDbEntity
  8
0
  6
________________
 62
     7
370
     9
100
AcDbVertex
100
AcDb3dPolylineVertex
 10
386.7992114600321
 20
302.2217472345984
 30
0.0
 70
    32
  0
VERTEX
  5
91
330
80
100
AcDbEntity
  8
0
  6
________________
 62
     7
370
     9
100
AcDbVertex
100
AcDb3dPolylineVertex
 10
386.834077973061
 20
302.1966949143314
 30
0.0
 70
    32
  0
VERTEX
  5
92
330
80
100
AcDbEntity
  8
0
  6
________________
 62
     7
370
     9
100
AcDbVertex
100
AcDb3dPolylineVertex
 10
386.8699872271867
 20
302.1731615778197
 30
0.0
 70
    32
  0
VERTEX
  5
93
330
80
100
AcDbEntity
  8
0
  6
________________
 62
     7
370
     9
100
AcDbVertex
100
AcDb3dPolylineVertex
 10
386.8958251371015
 20
302.1575483645166
 30
0.0
 70
    32
  0
VERTEX
  5
94
330
80
100
AcDbEntity
  8
0
  6
________________
 62
     7
370
     9
100
AcDbVertex
100
AcDb3dPolylineVertex
 10
386.9221467842839
 20
302.1427090392584
 30
0.0
 70
    32
  0
VERTEX
  5
95
330
80
100
AcDbEntity
  8
0
  6
________________
 62
     7
370
     9
100
AcDbVertex
100
AcDb3dPolylineVertex
 10
386.9489790364909
 20
302.1286342273903
 30
0.0
 70
    32
  0
VERTEX
  5
96
330
80
100
AcDbEntity
  8
0
  6
________________
 62
     7
370
     9
100
AcDbVertex
100
AcDb3dPolylineVertex
 10
386.9762506385786
 20
302.115367008111
 30
0.0
 70
    32
  0
SEQEND
  5
97
330
80
100
AcDbEntity
  8
0
  6
________________
 62
     7
370
     9
  0
ELLIPSE
  5
98
330
3B
100
AcDbEntity
  8
0
  6
________________
 62
     7
370
     9
100
AcDbEllipse
 10
384.9
 20
322.4979414810031
 30
0.0
 11
0.0
 21
1.502058518996874
 31
0.0
210
0.0
220
0.0
230
-1.0
 40
0.9986295347545798
 41
0.0
 42
1.570796326794906
  0
LINE
  5
99
330
3B
100
AcDbEntity
  8
0
  6
________________
 62
     7
370
     9
100
AcDbLine
 10
386.4
 20
322.4979414810031
 30
0.0
 11
386.4
 21
320.6165022047419
 31
0.0
  0
LINE
  5
9A
330
3B
100
AcDbEntity
  8
0
  6
________________
 62
     7
370
     9
100
AcDbLine
 10
333.6
 20
320.8691404002122
 30
0.0
 11
333.6
 21
322.4979414810031
 31
0.0
  0
ELLIPSE
  5
9B
330
3B
100
AcDbEntity
  8
0
  6
________________
 62
     7
370
     9
100
AcDbEllipse
 10
335.1
 20
322.4979414810031
 30
0.0
 11
0.0
 21
-1.502058518996874
 31
0.0
210
0.0
220
0.0
230
-1.0
 40
0.9986295347545798
 41
1.570796326794897
 42
3.14159265358979
  0
LINE
  5
9C
330
3B
100
AcDbEntity
  8
0
  6
________________
 62
     7
370
     9
100
AcDbLine
 10
386.4
 20
159.1308595997878
 30
0.0
 11
386.4
 21
157.502058518997
 31
0.0
  0
ELLIPSE
  5
9D
330
3B
100
AcDbEntity
  8
0
  6
________________
 62
     7
370
     9
100
AcDbEllipse
 10
384.9
 20
157.5020585189969
 30
0.0
 11
0.0
 21
1.502058518996902
 31
0.0
210
0.0
220
0.0
230
-1.0
 40
0.9986295347545614
 41
1.570796326794851
 42
3.141592653589811
  0
ELLIPSE
  5
9E
330
3B
100
AcDbEntity
  8
0
  6
________________
 62
     7
370
     9
100
AcDbEllipse
 10
335.1
 20
157.5020585189969
 30
0.0
 11
0.0
 21
-1.502058518996902
 31
0.0
210
0.0
220
0.0
230
-1.0
 40
0.9986295347545614
 41
0.0
 42
1.570796326794943
  0
LINE
  5
9F
330
3B
100
AcDbEntity
  8
0
  6
________________
 62
     7
370
     9
100
AcDbLine
 10
333.6
 20
157.502058518997
 30
0.0
 11
333.6
 21
159.1308595997878
 31
0.0
  0
POLYLINE
  5
A0
330
3B
100
AcDbEntity
  8
0
  6
________________
 62
     7
370
     9
100
AcDb3dPolyline
 66
     1
 10
0.0
 20
0.0
 30
0.0
 70
     8
  0
VERTEX
  5
A1
330
A0
100
AcDbEntity
  8
0
  6
________________
 62
     7
370
     9
100
AcDbVertex
100
AcDb3dPolylineVertex
 10
333.0237493614213
 20
302.115367008111
 30
0.0
 70
    32
  0
VERTEX
  5
A2
330
A0
100
AcDbEntity
  8
0
  6
________________
 62
     7
370
     9
100
AcDbVertex
100
AcDb3dPolylineVertex
 10
333.0608952581122
 20
302.1336938727638
 30
0.0
 70
    32
  0
VERTEX
  5
A3
330
A0
100
AcDbEntity
  8
0
  6
________________
 62
     7
370
     9
100
AcDbVertex
100
AcDb3dPolylineVertex
 10
333.0972506650184
 20
302.1535427017976
 30
0.0
 70
    32
  0
VERTEX
  5
A4
330
A0
100
AcDbEntity
  8
0
  6
________________
 62
     7
370
     9
100
AcDbVertex
100
AcDb3dPolylineVertex
 10
333.1329960335536
 20
302.1750340978969
 30
0.0
 70
    32
  0
VERTEX
  5
A5
330
A0
100
AcDbEntity
  8
0
  6
________________
 62
     7
370
     9
100
AcDbVertex
100
AcDb3dPolylineVertex
 10
333.1678145332951
 20
302.1979967539372
 30
0.0
 70
    32
  0
VERTEX
  5
A6
330
A0
100
AcDbEntity
  8
0
  6
________________
 62
     7
370
     9
100
AcDbVertex
100
AcDb3dPolylineVertex
 10
333.2023695294871
 20
302.2229384785985
 30
0.0
 70
    32
  0
VERTEX
  5
A7
330
A0
100
AcDbEntity
  8
0
  6
________________
 62
     7
370
     9
100
AcDbVertex
100
AcDb3dPolylineVertex
 10
333.2358309867921
 20
302.2493291642297
 30
0.0
 70
    32
  0
VERTEX
  5
A8
330
A0
100
AcDbEntity
  8
0
  6
________________
 62
     7
370
     9
100
AcDbVertex
100
AcDb3dPolylineVertex
 10
333.2683704446363
 20
302.2773317777881
 30
0.0
 70
    32
  0
VERTEX
  5
A9
330
A0
100
AcDbEntity
  8
0
  6
________________
 62
     7
370
     9
100
AcDbVertex
100
AcDb3dPolylineVertex
 10
333.2996786659496
 20
302.3067045199966
 30
0.0
 70
    32
  0
VERTEX
  5
AA
330
A0
100
AcDbEntity
  8
0
  6
________________
 62
     7
370
     9
100
AcDbVertex
100
AcDb3dPolylineVertex
 10
333.3286641321626
 20
302.3362939400899
 30
0.0
 70
    32
  0
VERTEX
  5
AB
330
A0
100
AcDbEntity
  8
0
  6
________________
 62
     7
370
     9
100
AcDbVertex
100
AcDb3dPolylineVertex
 10
333.3563999840401
 20
302.3670577755727
 30
0.0
 70
    32
  0
VERTEX
  5
AC
330
A0
100
AcDbEntity
  8
0
  6
________________
 62
     7
370
     9
100
AcDbVertex
100
AcDb3dPolylineVertex
 10
333.383016562278
 20
302.3991695303487
 30
0.0
 70
    32
  0
VERTEX
  5
AD
330
A0
100
AcDbEntity
  8
0
  6
________________
 62
     7
370
     9
100
AcDbVertex
100
AcDb3dPolylineVertex
 10
333.4082716414067
 20
302.4323627228775
 30
0.0
 70
    32
  0
VERTEX
  5
AE
330
A0
100
AcDbEntity
  8
0
  6
________________
 62
     7
370
     9
100
AcDbVertex
100
AcDb3dPolylineVertex
 10
333.4326230335188
 20
302.4673359882817
 30
0.0
 70
    32
  0
VERTEX
  5
AF
330
A0
100
AcDbEntity
  8
0
  6
________________
 62
     7
370
     9
100
AcDbVertex
100
AcDb3dPolylineVertex
 10
333.4554630637934
 20
302.5033144906008
 30
0.0
 70
    32
  0
VERTEX
  5
B0
330
A0
100
AcDbEntity
  8
0
  6
________________
 62
     7
370
     9
100
AcDbVertex
100
AcDb3dPolylineVertex
 10
333.4768996426361
 20
302.5405087515342
 30
0.0
 70
    32
  0
VERTEX
  5
B1
330
A0
100
AcDbEntity
  8
0
  6
________________
 62
     7
370
     9
100
AcDbVertex
100
AcDb3dPolylineVertex
 10
333.4967210337376
 20
302.5785883055468
 30
0.0
 70
    32
  0
VERTEX
  5
B2
330
A0
100
AcDbEntity
  8
0
  6
________________
 62
     7
370
     9
100
AcDbVertex
100
AcDb3dPolylineVertex
 10
333.5142801097256
 20
302.6161059210514
 30
0.0
 70
    32
  0
VERTEX
  5
B3
330
A0
100
AcDbEntity
  8
0
  6
________________
 62
     7
370
     9
100
AcDbVertex
100
AcDb3dPolylineVertex
 10
333.5302712236816
 20
302.6543181823291
 30
0.0
 70
    32
  0
VERTEX
  5
B4
330
A0
100
AcDbEntity
  8
0
  6
________________
 62
     7
370
     9
100
AcDbVertex
100
AcDb3dPolylineVertex
 10
333.5447599404574
 20
302.6934319629934
 30
0.0
 70
    32
  0
VERTEX
  5
B5
330
A0
100
AcDbEntity
  8
0
  6
________________
 62
     7
370
     9
100
AcDbVertex
100
AcDb3dPolylineVertex
 10
333.5576058787605
 20
302.733115620002
 30
0.0
 70
    32
  0
VERTEX
  5
B6
330
A0
100
AcDbEntity
  8
0
  6
________________
 62
     7
370
     9
100
AcDbVertex
100
AcDb3dPolylineVertex
 10
333.5690098120848
 20
302.7741799758192
 30
0.0
 70
    32
  0
VERTEX
  5
B7
330
A0
100
AcDbEntity
  8
0
  6
________________
 62
     7
370
     9
100
AcDbVertex
100
AcDb3dPolylineVertex
 10
333.5786547535766
 20
302.8156926983099
 30
0.0
 70
    32
  0
VERTEX
  5
B8
330
A0
100
AcDbEntity
  8
0
  6
________________
 62
     7
370
     9
100
AcDbVertex
100
AcDb3dPolylineVertex
 10
333.5865728456583
 20
302.8578881767647
 30
0.0
 70
    32
  0
VERTEX
  5
B9
330
A0
100
AcDbEntity
  8
0
  6
________________
 62
     7
370
     9
100
AcDbVertex
100
AcDb3dPolylineVertex
 10
333.5926736496243
 20
302.9003844681665
 30
0.0
 70
    32
  0
VERTEX
  5
BA
330
A0
100
AcDbEntity
  8
0
  6
________________
 62
     7
370
     9
100
AcDbVertex
100
AcDb3dPolylineVertex
 10
333.5958704279471
 20
302.9304273981223
 30
0.0
 70
    32
  0
VERTEX
  5
BB
330
A0
100
AcDbEntity
  8
0
  6
________________
 62
     7
370
     9
100
AcDbVertex
100
AcDb3dPolylineVertex
 10
333.5981600001052
 20
302.9605807424994
 30
0.0
 70
    32
  0
VERTEX
  5
BC
330
A0
100
AcDbEntity
  8
0
  6
________________
 62
     7
370
     9
100
AcDbVertex
100
AcDb3dPolylineVertex
 10
333.5995394707268
 20
302.9908728659201
 30
0.0
 70
    32
  0
VERTEX
  5
BD
330
A0
100
AcDbEntity
  8
0
  6
________________
 62
     7
370
     9
100
AcDbVertex
100
AcDb3dPolylineVertex
 10
333.6
 20
303.0212208075669
 30
0.0
 70
    32
  0
SEQEND
  5
BE
330
A0
100
AcDbEntity
  8
0
  6
________________
 62
     7
370
     9
  0
POLYLINE
  5
BF
330
3B
100
AcDbEntity
  8
0
  6
________________
 62
     7
370
     9
100
AcDb3dPolyline
 66
     1
 10
0.0
 20
0.0
 30
0.0
 70
     8
  0
VERTEX
  5
C0
330
BF
100
AcDbEntity
  8
0
  6
________________
 62
     7
370
     9
100
AcDbVertex
100
AcDb3dPolylineVertex
 10
386.9762506385786
 20
177.884632991889
 30
0.0
 70
    32
  0
VERTEX
  5
C1
330
BF
100
AcDbEntity
  8
0
  6
________________
 62
     7
370
     9
100
AcDbVertex
100
AcDb3dPolylineVertex
 10
386.9391047418878
 20
177.8663061272361
 30
0.0
 70
    32
  0
VERTEX
  5
C2
330
BF
100
AcDbEntity
  8
0
  6
________________
 62
     7
370
     9
100
AcDbVertex
100
AcDb3dPolylineVertex
 10
386.9027493349816
 20
177.8464572982023
 30
0.0
 70
    32
  0
VERTEX
  5
C3
330
BF
100
AcDbEntity
  8
0
  6
________________
 62
     7
370
     9
100
AcDbVertex
100
AcDb3dPolylineVertex
 10
386.8670039664464
 20
177.8249659021031
 30
0.0
 70
    32
  0
VERTEX
  5
C4
330
BF
100
AcDbEntity
  8
0
  6
________________
 62
     7
370
     9
100
AcDbVertex
100
AcDb3dPolylineVertex
 10
386.8321854667049
 20
177.8020032460628
 30
0.0
 70
    32
  0
VERTEX
  5
C5
330
BF
100
AcDbEntity
  8
0
  6
________________
 62
     7
370
     9
100
AcDbVertex
100
AcDb3dPolylineVertex
 10
386.7976304705128
 20
177.7770615214015
 30
0.0
 70
    32
  0
VERTEX
  5
C6
330
BF
100
AcDbEntity
  8
0
  6
________________
 62
     7
370
     9
100
AcDbVertex
100
AcDb3dPolylineVertex
 10
386.7641690132078
 20
177.7506708357703
 30
0.0
 70
    32
  0
VERTEX
  5
C7
330
BF
100
AcDbEntity
  8
0
  6
________________
 62
     7
370
     9
100
AcDbVertex
100
AcDb3dPolylineVertex
 10
386.7316295553637
 20
177.7226682222119
 30
0.0
 70
    32
  0
VERTEX
  5
C8
330
BF
100
AcDbEntity
  8
0
  6
________________
 62
     7
370
     9
100
AcDbVertex
100
AcDb3dPolylineVertex
 10
386.7003213340503
 20
177.6932954800034
 30
0.0
 70
    32
  0
VERTEX
  5
C9
330
BF
100
AcDbEntity
  8
0
  6
________________
 62
     7
370
     9
100
AcDbVertex
100
AcDb3dPolylineVertex
 10
386.6713358678373
 20
177.6637060599101
 30
0.0
 70
    32
  0
VERTEX
  5
CA
330
BF
100
AcDbEntity
  8
0
  6
________________
 62
     7
370
     9
100
AcDbVertex
100
AcDb3dPolylineVertex
 10
386.6436000159599
 20
177.6329422244273
 30
0.0
 70
    32
  0
VERTEX
  5
CB
330
BF
100
AcDbEntity
  8
0
  6
________________
 62
     7
370
     9
100
AcDbVertex
100
AcDb3dPolylineVertex
 10
386.616983437722
 20
177.6008304696512
 30
0.0
 70
    32
  0
VERTEX
  5
CC
330
BF
100
AcDbEntity
  8
0
  6
________________
 62
     7
370
     9
100
AcDbVertex
100
AcDb3dPolylineVertex
 10
386.5917283585933
 20
177.5676372771225
 30
0.0
 70
    32
  0
VERTEX
  5
CD
330
BF
100
AcDbEntity
  8
0
  6
________________
 62
     7
370
     9
100
AcDbVertex
100
AcDb3dPolylineVertex
 10
386.5673769664812
 20
177.5326640117183
 30
0.0
 70
    32
  0
VERTEX
  5
CE
330
BF
100
AcDbEntity
  8
0
  6
________________
 62
     7
370
     9
100
AcDbVertex
100
AcDb3dPolylineVertex
 10
386.5445369362066
 20
177.4966855093992
 30
0.0
 70
    32
  0
VERTEX
  5
CF
330
BF
100
AcDbEntity
  8
0
  6
________________
 62
     7
370
     9
100
AcDbVertex
100
AcDb3dPolylineVertex
 10
386.5231003573639
 20
177.4594912484658
 30
0.0
 70
    32
  0
VERTEX
  5
D0
330
BF
100
AcDbEntity
  8
0
  6
________________
 62
     7
370
     9
100
AcDbVertex
100
AcDb3dPolylineVertex
 10
386.5032789662624
 20
177.4214116944532
 30
0.0
 70
    32
  0
VERTEX
  5
D1
330
BF
100
AcDbEntity
  8
0
  6
________________
 62
     7
370
     9
100
AcDbVertex
100
AcDb3dPolylineVertex
 10
386.4857198902744
 20
177.3838940789485
 30
0.0
 70
    32
  0
VERTEX
  5
D2
330
BF
100
AcDbEntity
  8
0
  6
________________
 62
     7
370
     9
100
AcDbVertex
100
AcDb3dPolylineVertex
 10
386.4697287763184
 20
177.3456818176709
 30
0.0
 70
    32
  0
VERTEX
  5
D3
330
BF
100
AcDbEntity
  8
0
  6
________________
 62
     7
370
     9
100
AcDbVertex
100
AcDb3dPolylineVertex
 10
386.4552400595426
 20
177.3065680370066
 30
0.0
 70
    32
  0
VERTEX
  5
D4
330
BF
100
AcDbEntity
  8
0
  6
________________
 62
     7
370
     9
100
AcDbVertex
100
AcDb3dPolylineVertex
 10
386.4423941212394
 20
177.2668843799979
 30
0.0
 70
    32
  0
VERTEX
  5
D5
330
BF
100
AcDbEntity
  8
0
  6
________________
 62
     7
370
     9
100
AcDbVertex
100
AcDb3dPolylineVertex
 10
386.4309901879151
 20
177.2258200241807
 30
0.0
 70
    32
  0
VERTEX
  5
D6
330
BF
100
AcDbEntity
  8
0
  6
________________
 62
     7
370
     9
100
AcDbVertex
100
AcDb3dPolylineVertex
 10
386.4213452464233
 20
177.1843073016901
 30
0.0
 70
    32
  0
VERTEX
  5
D7
330
BF
100
AcDbEntity
  8
0
  6
________________
 62
     7
370
     9
100
AcDbVertex
100
AcDb3dPolylineVertex
 10
386.4134271543417
 20
177.1421118232353
 30
0.0
 70
    32
  0
VERTEX
  5
D8
330
BF
100
AcDbEntity
  8
0
  6
________________
 62
     7
370
     9
100
AcDbVertex
100
AcDb3dPolylineVertex
 10
386.4073263503757
 20
177.0996155318335
 30
0.0
 70
    32
  0
VERTEX
  5
D9
330
BF
100
AcDbEntity
  8
0
  6
________________
 62
     7
370
     9
100
AcDbVertex
100
AcDb3dPolylineVertex
 10
386.4041295720529
 20
177.0695726018777
 30
0.0
 70
    32
  0
VERTEX
  5
DA
330
BF
100
AcDbEntity
  8
0
  6
________________
 62
     7
370
     9
100
AcDbVertex
100
AcDb3dPolylineVertex
 10
386.4018399998947
 20
177.0394192575006
 30
0.0
 70
    32
  0
VERTEX
  5
DB
330
BF
100
AcDbEntity
  8
0
  6
________________
 62
     7
370
     9
100
AcDbVertex
100
AcDb3dPolylineVertex
 10
386.4004605292731
 20
177.0091271340799
 30
0.0
 70
    32
  0
VERTEX
  5
DC
330
BF
100
AcDbEntity
  8
0
  6
________________
 62
     7
370
     9
100
AcDbVertex
100
AcDb3dPolylineVertex
 10
386.4
 20
176.9787791924331
 30
0.0
 70
    32
  0
SEQEND
  5
DD
330
BF
100
AcDbEntity
  8
0
  6
________________
 62
     7
370
     9
  0
POLYLINE
  5
DE
330
3B
100
AcDbEntity
  8
0
  6
________________
 62
     7
370
     9
100
AcDb3dPolyline
 66
     1
 10
0.0
 20
0.0
 30
0.0
 70
     8
  0
VERTEX
  5
DF
330
DE
100
AcDbEntity
  8
0
  6
________________
 62
     7
370
     9
100
AcDbVertex
100
AcDb3dPolylineVertex
 10
333.6
 20
176.978779192433
 30
0.0
 70
    32
  0
VERTEX
  5
E0
330
DE
100
AcDbEntity
  8
0
  6
________________
 62
     7
370
     9
100
AcDbVertex
100
AcDb3dPolylineVertex
 10
333.5991417142886
 20
177.020196343691
 30
0.0
 70
    32
  0
VERTEX
  5
E1
330
DE
100
AcDbEntity
  8
0
  6
________________
 62
     7
370
     9
100
AcDbVertex
100
AcDb3dPolylineVertex
 10
333.5965697985443
 20
177.061542471931
 30
0.0
 70
    32
  0
VERTEX
  5
E2
330
DE
100
AcDbEntity
  8
0
  6
________________
 62
     7
370
     9
100
AcDbVertex
100
AcDb3dPolylineVertex
 10
333.5922514718613
 20
177.1030321324403
 30
0.0
 70
    32
  0
VERTEX
  5
E3
330
DE
100
AcDbEntity
  8
0
  6
________________
 62
     7
370
     9
100
AcDbVertex
100
AcDb3dPolylineVertex
 10
333.5862076117555
 20
177.1443057514291
 30
0.0
 70
    32
  0
VERTEX
  5
E4
330
DE
100
AcDbEntity
  8
0
  6
________________
 62
     7
370
     9
100
AcDbVertex
100
AcDb3dPolylineVertex
 10
333.5782593638041
 20
177.1861794090898
 30
0.0
 70
    32
  0
VERTEX
  5
E5
330
DE
100
AcDbEntity
  8
0
  6
________________
 62
     7
370
     9
100
AcDbVertex
100
AcDb3dPolylineVertex
 10
333.56853510306
 20
177.2276765968863
 30
0.0
 70
    32
  0
VERTEX
  5
E6
330
DE
100
AcDbEntity
  8
0
  6
________________
 62
     7
370
     9
100
AcDbVertex
100
AcDb3dPolylineVertex
 10
333.5569598837186
 20
177.2690217683041
 30
0.0
 70
    32
  0
VERTEX
  5
E7
330
DE
100
AcDbEntity
  8
0
  6
________________
 62
     7
370
     9
100
AcDbVertex
100
AcDb3dPolylineVertex
 10
333.5436216476702
 20
177.3098323104251
 30
0.0
 70
    32
  0
VERTEX
  5
E8
330
DE
100
AcDbEntity
  8
0
  6
________________
 62
     7
370
     9
100
AcDbVertex
100
AcDb3dPolylineVertex
 10
333.5291025681777
 20
177.3486306820699
 30
0.0
 70
    32
  0
VERTEX
  5
E9
330
DE
100
AcDbEntity
  8
0
  6
________________
 62
     7
370
     9
100
AcDbVertex
100
AcDb3dPolylineVertex
 10
333.5129899123007
 20
177.3867947963454
 30
0.0
 70
    32
  0
VERTEX
  5
EA
330
DE
100
AcDbEntity
  8
0
  6
________________
 62
     7
370
     9
100
AcDbVertex
100
AcDb3dPolylineVertex
 10
333.4951817101352
 20
177.4245162740598
 30
0.0
 70
    32
  0
VERTEX
  5
EB
330
DE
100
AcDbEntity
  8
0
  6
________________
 62
     7
370
     9
100
AcDbVertex
100
AcDb3dPolylineVertex
 10
333.4758166844833
 20
177.461462690805
 30
0.0
 70
    32
  0
VERTEX
  5
EC
330
DE
100
AcDbEntity
  8
0
  6
________________
 62
     7
370
     9
100
AcDbVertex
100
AcDb3dPolylineVertex
 10
333.4544558797526
 20
177.4983449861618
 30
0.0
 70
    32
  0
VERTEX
  5
ED
330
DE
100
AcDbEntity
  8
0
  6
________________
 62
     7
370
     9
100
AcDbVertex
100
AcDb3dPolylineVertex
 10
333.4315437017401
 20
177.5342840981124
 30
0.0
 70
    32
  0
VERTEX
  5
EE
330
DE
100
AcDbEntity
  8
0
  6
________________
 62
     7
370
     9
100
AcDbVertex
100
AcDb3dPolylineVertex
 10
333.406935105374
 20
177.5694670378599
 30
0.0
 70
    32
  0
VERTEX
  5
EF
330
DE
100
AcDbEntity
  8
0
  6
________________
 62
     7
370
     9
100
AcDbVertex
100
AcDb3dPolylineVertex
 10
333.3808397449624
 20
177.6035618234815
 30
0.0
 70
    32
  0
VERTEX
  5
F0
330
DE
100
AcDbEntity
  8
0
  6
________________
 62
     7
370
     9
100
AcDbVertex
100
AcDb3dPolylineVertex
 10
333.354297210488
 20
177.6353656008331
 30
0.0
 70
    32
  0
VERTEX
  5
F1
330
DE
100
AcDbEntity
  8
0
  6
________________
 62
     7
370
     9
100
AcDbVertex
100
AcDb3dPolylineVertex
 10
333.3264608960345
 20
177.6660433772844
 30
0.0
 70
    32
  0
VERTEX
  5
F2
330
DE
100
AcDbEntity
  8
0
  6
________________
 62
     7
370
     9
100
AcDbVertex
100
AcDb3dPolylineVertex
 10
333.2971711400225
 20
177.6957422181401
 30
0.0
 70
    32
  0
VERTEX
  5
F3
330
DE
100
AcDbEntity
  8
0
  6
________________
 62
     7
370
     9
100
AcDbVertex
100
AcDb3dPolylineVertex
 10
333.2666688897198
 20
177.7241943474311
 30
0.0
 70
    32
  0
VERTEX
  5
F4
330
DE
100
AcDbEntity
  8
0
  6
________________
 62
     7
370
     9
100
AcDbVertex
100
AcDb3dPolylineVertex
 10
333.234304565594
 20
177.7519253390721
 30
0.0
 70
    32
  0
VERTEX
  5
F5
330
DE
100
AcDbEntity
  8
0
  6
________________
 62
     7
370
     9
100
AcDbVertex
100
AcDb3dPolylineVertex
 10
333.2007885399678
 20
177.7782527654016
 30
0.0
 70
    32
  0
VERTEX
  5
F6
330
DE
100
AcDbEntity
  8
0
  6
________________
 62
     7
370
     9
100
AcDbVertex
100
AcDb3dPolylineVertex
 10
333.165922026939
 20
177.8033050856686
 30
0.0
 70
    32
  0
VERTEX
  5
F7
330
DE
100
AcDbEntity
  8
0
  6
________________
 62
     7
370
     9
100
AcDbVertex
100
AcDb3dPolylineVertex
 10
333.1300127728133
 20
177.8268384221803
 30
0.0
 70
    32
  0
VERTEX
  5
F8
330
DE
100
AcDbEntity
  8
0
  6
________________
 62
     7
370
     9
100
AcDbVertex
100
AcDb3dPolylineVertex
 10
333.1041748628984
 20
177.8424516354834
 30
0.0
 70
    32
  0
VERTEX
  5
F9
330
DE
100
AcDbEntity
  8
0
  6
________________
 62
     7
370
     9
100
AcDbVertex
100
AcDb3dPolylineVertex
 10
333.077853215716
 20
177.8572909607416
 30
0.0
 70
    32
  0
VERTEX
  5
FA
330
DE
100
AcDbEntity
  8
0
  6
________________
 62
     7
370
     9
100
AcDbVertex
100
AcDb3dPolylineVertex
 10
333.0510209635091
 20
177.8713657726097
 30
0.0
 70
    32
  0
VERTEX
  5
FB
330
DE
100
AcDbEntity
  8
0
  6
________________
 62
     7
370
     9
100
AcDbVertex
100
AcDb3dPolylineVertex
 10
333.0237493614213
 20
177.884632991889
 30
0.0
 70
    32
  0
SEQEND
  5
FC
330
DE
100
AcDbEntity
  8
0
  6
________________
 62
     7
370
     9
  0
ENDBLK
  5
100
330
3B
100
AcDbEntity
  8
0
100
AcDbBlockEnd
  0
BLOCK
  5
12F
330
FE
100
AcDbEntity
  8
0
100
AcDbBlockBegin
  2
@1626
 70
     0
 10
0.0
 20
0.0
 30
0.0
  3
@1626
  1

  0
ARC
  5
101
330
FE
100
AcDbEntity
  8
0
  6
________________
 62
     7
370
     9
100
AcDbCircle
 10
-530.7499999999959
 20
271.7434965224253
 30
0.0
 40
55.00000000000063
210
0.0
220
0.0
230
-1.0
100
AcDbArc
 50
13.17804728526489
 51
20.00000000000018
  0
LINE
  5
102
330
FE
100
AcDbEntity
  8
0
  6
________________
 62
     7
370
     9
100
AcDbLine
 10
486.2108040316475
 20
303.5327705151606
 30
0.0
 11
493.4207594288355
 21
303.5956908426892
 31
0.0
  0
LINE
  5
103
330
FE
100
AcDbEntity
  8
0
  6
________________
 62
     7
370
     9
100
AcDbLine
 10
539.7499999999953
 20
302.115367008111
 30
0.0
 11
539.7499999999953
 21
284.0007615387166
 31
0.0
  0
LINE
  5
104
330
FE
100
AcDbEntity
  8
0
  6
________________
 62
     7
370
     9
100
AcDbLine
 10
493.4207594288355
 20
176.4043091573108
 30
0.0
 11
486.2108040316475
 21
176.4672294848393
 31
0.0
  0
LINE
  5
105
330
FE
100
AcDbEntity
  8
0
  6
________________
 62
     7
370
     9
100
AcDbLine
 10
539.7499999999953
 20
195.9992384612834
 30
0.0
 11
539.7499999999953
 21
177.884632991889
 31
0.0
  0
ARC
  5
106
330
FE
100
AcDbEntity
  8
0
  6
________________
 62
     7
370
     9
100
AcDbCircle
 10
-530.7499999999903
 20
208.2565034775724
 30
0.0
 40
54.9999999999947
210
0.0
220
0.0
230
-1.0
100
AcDbArc
 50
340.0000000000001
 51
346.8219527147356
  0
LINE
  5
107
330
FE
100
AcDbEntity
  8
0
  6
________________
 62
     7
370
     9
100
AcDbLine
 10
539.7499999999953
 20
195.9992384612834
 30
0.0
 11
539.7499999999953
 21
284.0007615387166
 31
0.0
  0
ARC
  5
108
330
FE
100
AcDbEntity
  8
0
  6
________________
 62
     7
370
     9
100
AcDbCircle
 10
-530.7499999999953
 20
208.2565034775742
 30
0.0
 40
55.0
210
0.0
220
0.0
230
-1.0
100
AcDbArc
 50
346.821952714735
 51
0.0
  0
ARC
  5
109
330
FE
100
AcDbEntity
  8
0
  6
________________
 62
     7
370
     9
100
AcDbCircle
 10
-530.7499999999953
 20
271.7434965224257
 30
0.0
 40
55.0
210
0.0
220
0.0
230
-1.0
100
AcDbArc
 50
0.0
 51
13.17804728526461
  0
LINE
  5
10A
330
FE
100
AcDbEntity
  8
0
  6
________________
 62
     7
370
     9
100
AcDbLine
 10
475.7499999999954
 20
208.2565034775742
 30
0.0
 11
475.7499999999954
 21
271.7434965224257
 31
0.0
  0
ARC
  5
10B
330
FE
100
AcDbEntity
  8
0
  6
________________
 62
     7
370
     9
100
AcDbCircle
 10
-486.2413469058918
 20
179.9670962155639
 30
0.0
 40
3.499999999999983
210
0.0
220
0.0
230
-1.0
100
AcDbArc
 50
270.5000000000003
 51
340.0000000000001
  0
LINE
  5
10C
330
FE
100
AcDbEntity
  8
0
  6
________________
 62
     7
370
     9
100
AcDbLine
 10
482.9524227331411
 20
178.770025713924
 30
0.0
 11
479.0669058567703
 21
189.4453955946624
 31
0.0
  0
LINE
  5
10D
330
FE
100
AcDbEntity
  8
0
  6
________________
 62
     7
370
     9
100
AcDbLine
 10
479.0669058567704
 20
290.5546044053376
 30
0.0
 11
482.9524227331411
 21
301.2299742860759
 31
0.0
  0
ARC
  5
10E
330
FE
100
AcDbEntity
  8
0
  6
________________
 62
     7
370
     9
100
AcDbCircle
 10
-486.2413469058918
 20
300.032903784436
 30
0.0
 40
3.500000000000054
210
0.0
220
0.0
230
-1.0
100
AcDbArc
 50
20.00000000000003
 51
89.49999999999929
  0
LINE
  5
10F
330
FE
100
AcDbEntity
  8
0
  6
________________
 62
     7
370
     9
100
AcDbLine
 10
470.2499999999954
 20
210.0
 30
0.0
 11
470.2499999999954
 21
240.0
 31
0.0
  0
LINE
  5
110
330
FE
100
AcDbEntity
  8
0
  6
________________
 62
     7
370
     9
100
AcDbLine
 10
470.2499999999954
 20
240.0
 30
0.0
 11
470.2499999999954
 21
269.9999999999999
 31
0.0
  0
LINE
  5
111
330
FE
100
AcDbEntity
  8
0
  6
________________
 62
     7
370
     9
100
AcDbLine
 10
539.7499999999953
 20
303.0212208075669
 30
0.0
 11
539.7499999999953
 21
302.1153670081109
 31
0.0
  0
LINE
  5
112
330
FE
100
AcDbEntity
  8
0
  6
________________
 62
     7
370
     9
100
AcDbLine
 10
539.7499999999953
 20
177.884632991889
 30
0.0
 11
539.7499999999953
 21
176.978779192433
 31
0.0
  0
LINE
  5
113
330
FE
100
AcDbEntity
  8
0
  6
________________
 62
     7
370
     9
100
AcDbLine
 10
508.5921200059404
 20
157.6329152976559
 30
0.0
 11
501.2538114148414
 21
158.017499754609
 31
0.0
  0
LINE
  5
114
330
FE
100
AcDbEntity
  8
0
  6
________________
 62
     7
370
     9
100
AcDbLine
 10
504.3593770339614
 20
322.1452560429067
 30
0.0
 11
539.7499999999953
 21
323.9999999999999
 31
0.0
  0
LINE
  5
115
330
FE
100
AcDbEntity
  8
0
  6
________________
 62
     7
370
     9
100
AcDbLine
 10
539.7499999999953
 20
324.0
 30
0.0
 11
539.7499999999953
 21
322.4979414810031
 31
0.0
  0
LINE
  5
116
330
FE
100
AcDbEntity
  8
0
  6
________________
 62
     7
370
     9
100
AcDbLine
 10
539.7499999999953
 20
176.9787791924331
 30
0.0
 11
539.7499999999953
 21
157.5020585189969
 31
0.0
  0
LINE
  5
117
330
FE
100
AcDbEntity
  8
0
  6
________________
 62
     7
370
     9
100
AcDbLine
 10
539.7499999999953
 20
156.0
 30
0.0
 11
508.5921200059404
 21
157.6329152976559
 31
0.0
  0
LINE
  5
118
330
FE
100
AcDbEntity
  8
0
  6
________________
 62
     7
370
     9
100
AcDbLine
 10
539.7499999999953
 20
157.5020585189969
 30
0.0
 11
539.7499999999953
 21
156.0
 31
0.0
  0
LINE
  5
119
330
FE
100
AcDbEntity
  8
0
  6
________________
 62
     7
370
     9
100
AcDbLine
 10
539.7499999999953
 20
303.0212208075669
 30
0.0
 11
539.7499999999953
 21
322.4979414810031
 31
0.0
  0
LINE
  5
11A
330
FE
100
AcDbEntity
  8
0
  6
________________
 62
     7
370
     9
100
AcDbLine
 10
494.5231333647909
 20
321.6297603557186
 30
0.0
 11
504.3593770339614
 21
322.1452560429067
 31
0.0
  0
LINE
  5
11B
330
FE
100
AcDbEntity
  8
0
  6
________________
 62
     7
370
     9
100
AcDbLine
 10
489.9744417597406
 20
160.0323085010901
 30
0.0
 11
489.9744653848783
 21
160.0572692428911
 31
0.0
  0
LINE
  5
11C
330
FE
100
AcDbEntity
  8
0
  6
________________
 62
     7
370
     9
100
AcDbLine
 10
501.2538114148414
 20
158.017499754609
 30
0.0
 11
491.3471457022247
 21
158.5366861047067
 31
0.0
  0
LINE
  5
11D
330
FE
100
AcDbEntity
  8
0
  6
________________
 62
     7
370
     9
100
AcDbLine
 10
489.9744653848783
 20
175.4402761026075
 30
0.0
 11
489.9744653848783
 21
175.4430471900208
 31
0.0
  0
LINE
  5
11E
330
FE
100
AcDbEntity
  8
0
  6
________________
 62
     7
370
     9
100
AcDbLine
 10
491.0740273277598
 20
321.4490003678061
 30
0.0
 11
494.5231333647909
 21
321.6297603557186
 31
0.0
  0
LINE
  5
11F
330
FE
100
AcDbEntity
  8
0
  6
________________
 62
     7
370
     9
100
AcDbLine
 10
491.3471457022245
 20
158.5366861047067
 30
0.0
 11
490.8714960656308
 21
158.5616138458774
 31
0.0
  0
LINE
  5
120
330
FE
100
AcDbEntity
  8
0
  6
________________
 62
     7
370
     9
100
AcDbLine
 10
490.8714960656309
 20
321.4383861541226
 30
0.0
 11
491.0740273277598
 21
321.4490003678061
 31
0.0
  0
ARC
  5
121
330
FE
100
AcDbEntity
  8
0
  6
________________
 62
     7
370
     9
100
AcDbCircle
 10
-475.2499999999954
 20
208.5
 30
0.0
 40
0.5000000000000004
210
0.0
220
0.0
230
-1.0
100
AcDbArc
 50
90.0
 51
180.0
  0
ARC
  5
122
330
FE
100
AcDbEntity
  8
0
  6
________________
 62
     7
370
     9
100
AcDbCircle
 10
-475.2499999999954
 20
271.4999999999999
 30
0.0
 40
0.5000000000000004
210
0.0
220
0.0
230
-1.0
100
AcDbArc
 50
180.0
 51
270.0
  0
ARC
  5
123
330
FE
100
AcDbEntity
  8
0
  6
________________
 62
     7
370
     9
100
AcDbCircle
 10
471.2499999999954
 20
210.0
 30
0.0
 40
1.000000000000001
100
AcDbArc
 50
180.0
 51
270.0
  0
ARC
  5
124
330
FE
100
AcDbEntity
  8
0
  6
________________
 62
     7
370
     9
100
AcDbCircle
 10
471.2499999999954
 20
269.9999999999999
 30
0.0
 40
1.000000000000001
100
AcDbArc
 50
90.0
 51
180.0
  0
LINE
  5
125
330
FE
100
AcDbEntity
  8
0
  6
________________
 62
     7
370
     9
100
AcDbLine
 10
471.2499999999954
 20
209.0
 30
0.0
 11
475.2499999999954
 21
209.0
 31
0.0
  0
LINE
  5
126
330
FE
100
AcDbEntity
  8
0
  6
________________
 62
     7
370
     9
100
AcDbLine
 10
475.2499999999954
 20
270.9999999999999
 30
0.0
 11
471.2499999999954
 21
270.9999999999999
 31
0.0
  0
ARC
  5
127
330
FE
100
AcDbEntity
  8
0
  6
________________
 62
     7
370
     9
100
AcDbCircle
 10
-488.4499999999954
 20
175.4476502392802
 30
0.0
 40
1.000000000000003
210
0.0
220
0.0
230
-1.0
100
AcDbArc
 50
90.5000000000001
 51
180.0
  0
ARC
  5
128
330
FE
100
AcDbEntity
  8
0
  6
________________
 62
     7
370
     9
100
AcDbCircle
 10
490.9499999999953
 20
160.0595581480092
 30
0.0
 40
1.500000000000001
100
AcDbArc
 50
180.0
 51
267.0000000000001
  0
LINE
  5
129
330
FE
100
AcDbEntity
  8
0
  6
________________
 62
     7
370
     9
100
AcDbLine
 10
489.4499999999954
 20
175.4476502392802
 30
0.0
 11
489.4499999999954
 21
160.0595581480092
 31
0.0
  0
ARC
  5
12A
330
FE
100
AcDbEntity
  8
0
  6
________________
 62
     7
370
     9
100
AcDbCircle
 10
-488.4499999999954
 20
304.5523497607198
 30
0.0
 40
1.000000000000001
210
0.0
220
0.0
230
-1.0
100
AcDbArc
 50
180.0
 51
269.4999999999999
  0
ARC
  5
12B
330
FE
100
AcDbEntity
  8
0
  6
________________
 62
     7
370
     9
100
AcDbCircle
 10
490.9499999999953
 20
319.9404418519907
 30
0.0
 40
1.500000000000041
100
AcDbArc
 50
92.99999999999989
 51
180.0
  0
LINE
  5
12C
330
FE
100
AcDbEntity
  8
0
  6
________________
 62
     7
370
     9
100
AcDbLine
 10
489.4499999999954
 20
319.9404418519907
 30
0.0
 11
489.4499999999954
 21
304.5523497607198
 31
0.0
  0
ENDBLK
  5
130
330
FE
100
AcDbEntity
  8
0
100
AcDbBlockEnd
  0
BLOCK
  5
258
330
12E
100
AcDbEntity
  8
0
100
AcDbBlockBegin
  2
@1711
 70
     0
 10
0.0
 20
0.0
 30
0.0
  3
@1711
  1

  0
ARC
  5
131
330
12E
100
AcDbEntity
  8
0
  6
________________
 62
     7
370
     9
100
AcDbCircle
 10
-360.0000000009267
 20
66.2500000000046
 30
0.0
 40
20.50000000000488
210
0.0
220
0.0
230
-1.0
100
AcDbArc
 50
1.36431415066576
 51
48.24357979472212
  0
POLYLINE
  5
132
330
12E
100
AcDbEntity
  8
0
  6
________________
 62
     7
370
     9
100
AcDb3dPolyline
 66
     1
 10
0.0
 20
0.0
 30
0.0
 70
     8
  0
VERTEX
  5
133
330
132
100
AcDbEntity
  8
0
  6
________________
 62
     7
370
     9
100
AcDbVertex
100
AcDb3dPolylineVertex
 10
339.5058114822623
 20
66.73809523809983
 30
0.0
 70
    32
  0
VERTEX
  5
134
330
132
100
AcDbEntity
  8
0
  6
________________
 62
     7
370
     9
100
AcDbVertex
100
AcDb3dPolylineVertex
 10
339.5046522028276
 20
66.71395377660433
 30
0.0
 70
    32
  0
VERTEX
  5
135
330
132
100
AcDbEntity
  8
0
  6
________________
 62
     7
370
     9
100
AcDbVertex
100
AcDb3dPolylineVertex
 10
339.5023276552002
 20
66.68989654130444
 30
0.0
 70
    32
  0
VERTEX
  5
136
330
132
100
AcDbEntity
  8
0
  6
________________
 62
     7
370
     9
100
AcDbVertex
100
AcDb3dPolylineVertex
 10
339.4988432709565
 20
66.66597974472987
 30
0.0
 70
    32
  0
VERTEX
  5
137
330
132
100
AcDbEntity
  8
0
  6
________________
 62
     7
370
     9
100
AcDbVertex
100
AcDb3dPolylineVertex
 10
339.4942071917655
 20
66.64225927125904
 30
0.0
 70
    32
  0
VERTEX
  5
138
330
132
100
AcDbEntity
  8
0
  6
________________
 62
     7
370
     9
100
AcDbVertex
100
AcDb3dPolylineVertex
 10
339.4884302503658
 20
66.61879054653846
 30
0.0
 70
    32
  0
VERTEX
  5
139
330
132
100
AcDbEntity
  8
0
  6
________________
 62
     7
370
     9
100
AcDbVertex
100
AcDb3dPolylineVertex
 10
339.4815259452532
 20
66.59562840797444
 30
0.0
 70
    32
  0
VERTEX
  5
13A
330
132
100
AcDbEntity
  8
0
  6
________________
 62
     7
370
     9
100
AcDbVertex
100
AcDb3dPolylineVertex
 10
339.47351040914
 20
66.5728269765991
 30
0.0
 70
    32
  0
VERTEX
  5
13B
330
132
100
AcDbEntity
  8
0
  6
________________
 62
     7
370
     9
100
AcDbVertex
100
AcDb3dPolylineVertex
 10
339.4644023712591
 20
66.55043953061018
 30
0.0
 70
    32
  0
VERTEX
  5
13C
330
132
100
AcDbEntity
  8
0
  6
________________
 62
     7
370
     9
100
AcDbVertex
100
AcDb3dPolylineVertex
 10
339.454223113601
 20
66.52851838088041
 30
0.0
 70
    32
  0
VERTEX
  5
13D
330
132
100
AcDbEntity
  8
0
  6
________________
 62
     7
370
     9
100
AcDbVertex
100
AcDb3dPolylineVertex
 10
339.4429964211856
 20
66.50711474872705
 30
0.0
 70
    32
  0
VERTEX
  5
13E
330
132
100
AcDbEntity
  8
0
  6
________________
 62
     7
370
     9
100
AcDbVertex
100
AcDb3dPolylineVertex
 10
339.4307485264862
 20
66.4862786462273
 30
0.0
 70
    32
  0
VERTEX
  5
13F
330
132
100
AcDbEntity
  8
0
  6
________________
 62
     7
370
     9
100
AcDbVertex
100
AcDb3dPolylineVertex
 10
339.4175080481341
 20
66.46605875935934
 30
0.0
 70
    32
  0
VERTEX
  5
140
330
132
100
AcDbEntity
  8
0
  6
________________
 62
     7
370
     9
100
AcDbVertex
100
AcDb3dPolylineVertex
 10
339.4033059240476
 20
66.44650233424176
 30
0.0
 70
    32
  0
VERTEX
  5
141
330
132
100
AcDbEntity
  8
0
  6
________________
 62
     7
370
     9
100
AcDbVertex
100
AcDb3dPolylineVertex
 10
339.3881753391425
 20
66.42765506673759
 30
0.0
 70
    32
  0
VERTEX
  5
142
330
132
100
AcDbEntity
  8
0
  6
________________
 62
     7
370
     9
100
AcDbVertex
100
AcDb3dPolylineVertex
 10
339.3721516477909
 20
66.40956099568054
 30
0.0
 70
    32
  0
VERTEX
  5
143
330
132
100
AcDbEntity
  8
0
  6
________________
 62
     7
370
     9
100
AcDbVertex
100
AcDb3dPolylineVertex
 10
339.3552722912125
 20
66.39226239997325
 30
0.0
 70
    32
  0
VERTEX
  5
144
330
132
100
AcDbEntity
  8
0
  6
________________
 62
     7
370
     9
100
AcDbVertex
100
AcDb3dPolylineVertex
 10
339.3375767099881
 20
66.37579969979757
 30
0.0
 70
    32
  0
VERTEX
  5
145
330
132
100
AcDbEntity
  8
0
  6
________________
 62
     7
370
     9
100
AcDbVertex
100
AcDb3dPolylineVertex
 10
339.3191062519023
 20
66.36021136216816
 30
0.0
 70
    32
  0
VERTEX
  5
146
330
132
100
AcDbEntity
  8
0
  6
________________
 62
     7
370
     9
100
AcDbVertex
100
AcDb3dPolylineVertex
 10
339.2999040753299
 20
66.3455338110499
 30
0.0
 70
    32
  0
VERTEX
  5
147
330
132
100
AcDbEntity
  8
0
  6
________________
 62
     7
370
     9
100
AcDbVertex
100
AcDb3dPolylineVertex
 10
339.280015048391
 20
66.331801342249
 30
0.0
 70
    32
  0
VERTEX
  5
148
330
132
100
AcDbEntity
  8
0
  6
________________
 62
     7
370
     9
100
AcDbVertex
100
AcDb3dPolylineVertex
 10
339.2594856441114
 20
66.31904604327676
 30
0.0
 70
    32
  0
VERTEX
  5
149
330
132
100
AcDbEntity
  8
0
  6
________________
 62
     7
370
     9
100
AcDbVertex
100
AcDb3dPolylineVertex
 10
339.2383638318332
 20
66.30729771837358
 30
0.0
 70
    32
  0
VERTEX
  5
14A
330
132
100
AcDbEntity
  8
0
  6
________________
 62
     7
370
     9
100
AcDbVertex
100
AcDb3dPolylineVertex
 10
339.2166989651287
 20
66.29658381886773
 30
0.0
 70
    32
  0
VERTEX
  5
14B
330
132
100
AcDbEntity
  8
0
  6
________________
 62
     7
370
     9
100
AcDbVertex
100
AcDb3dPolylineVertex
 10
339.19454166648
 20
66.28692937903213
 30
0.0
 70
    32
  0
VERTEX
  5
14C
330
132
100
AcDbEntity
  8
0
  6
________________
 62
     7
370
     9
100
AcDbVertex
100
AcDb3dPolylineVertex
 10
339.1719437089938
 20
66.27835695758894
 30
0.0
 70
    32
  0
VERTEX
  5
14D
330
132
100
AcDbEntity
  8
0
  6
________________
 62
     7
370
     9
100
AcDbVertex
100
AcDb3dPolylineVertex
 10
339.1489578954275
 20
66.27088658499841
 30
0.0
 70
    32
  0
VERTEX
  5
14E
330
132
100
AcDbEntity
  8
0
  6
________________
 62
     7
370
     9
100
AcDbVertex
100
AcDb3dPolylineVertex
 10
339.1256379348093
 20
66.2645357166554
 30
0.0
 70
    32
  0
VERTEX
  5
14F
330
132
100
AcDbEntity
  8
0
  6
________________
 62
     7
370
     9
100
AcDbVertex
100
AcDb3dPolylineVertex
 10
339.1020383169408
 20
66.25931919210284
 30
0.0
 70
    32
  0
VERTEX
  5
150
330
132
100
AcDbEntity
  8
0
  6
________________
 62
     7
370
     9
100
AcDbVertex
100
AcDb3dPolylineVertex
 10
339.0782141850754
 20
66.2552492003574
 30
0.0
 70
    32
  0
VERTEX
  5
151
330
132
100
AcDbEntity
  8
0
  6
________________
 62
     7
370
     9
100
AcDbVertex
100
AcDb3dPolylineVertex
 10
339.0542212070696
 20
66.25233525142838
 30
0.0
 70
    32
  0
VERTEX
  5
152
330
132
100
AcDbEntity
  8
0
  6
________________
 62
     7
370
     9
100
AcDbVertex
100
AcDb3dPolylineVertex
 10
339.0301154453086
 20
66.25058415409656
 30
0.0
 70
    32
  0
VERTEX
  5
153
330
132
100
AcDbEntity
  8
0
  6
________________
 62
     7
370
     9
100
AcDbVertex
100
AcDb3dPolylineVertex
 10
339.0059532257097
 20
66.2500000000046
 30
0.0
 70
    32
  0
SEQEND
  5
154
330
132
100
AcDbEntity
  8
0
  6
________________
 62
     7
370
     9
  0
POLYLINE
  5
155
330
12E
100
AcDbEntity
  8
0
  6
________________
 62
     7
370
     9
100
AcDb3dPolyline
 66
     1
 10
0.0
 20
0.0
 30
0.0
 70
     8
  0
VERTEX
  5
156
330
155
100
AcDbEntity
  8
0
  6
________________
 62
     7
370
     9
100
AcDbVertex
100
AcDb3dPolylineVertex
 10
380.4941885195907
 20
66.73809523809983
 30
0.0
 70
    32
  0
VERTEX
  5
157
330
155
100
AcDbEntity
  8
0
  6
________________
 62
     7
370
     9
100
AcDbVertex
100
AcDb3dPolylineVertex
 10
380.4953477990255
 20
66.71395377660433
 30
0.0
 70
    32
  0
VERTEX
  5
158
330
155
100
AcDbEntity
  8
0
  6
________________
 62
     7
370
     9
100
AcDbVertex
100
AcDb3dPolylineVertex
 10
380.4976723466528
 20
66.68989654130444
 30
0.0
 70
    32
  0
VERTEX
  5
159
330
155
100
AcDbEntity
  8
0
  6
________________
 62
     7
370
     9
100
AcDbVertex
100
AcDb3dPolylineVertex
 10
380.5011567308966
 20
66.66597974472987
 30
0.0
 70
    32
  0
VERTEX
  5
15A
330
155
100
AcDbEntity
  8
0
  6
________________
 62
     7
370
     9
100
AcDbVertex
100
AcDb3dPolylineVertex
 10
380.5057928100876
 20
66.64225927125904
 30
0.0
 70
    32
  0
VERTEX
  5
15B
330
155
100
AcDbEntity
  8
0
  6
________________
 62
     7
370
     9
100
AcDbVertex
100
AcDb3dPolylineVertex
 10
380.5115697514873
 20
66.61879054653846
 30
0.0
 70
    32
  0
VERTEX
  5
15C
330
155
100
AcDbEntity
  8
0
  6
________________
 62
     7
370
     9
100
AcDbVertex
100
AcDb3dPolylineVertex
 10
380.5184740566
 20
66.59562840797444
 30
0.0
 70
    32
  0
VERTEX
  5
15D
330
155
100
AcDbEntity
  8
0
  6
________________
 62
     7
370
     9
100
AcDbVertex
100
AcDb3dPolylineVertex
 10
380.5264895927132
 20
66.5728269765991
 30
0.0
 70
    32
  0
VERTEX
  5
15E
330
155
100
AcDbEntity
  8
0
  6
________________
 62
     7
370
     9
100
AcDbVertex
100
AcDb3dPolylineVertex
 10
380.5355976305941
 20
66.55043953061018
 30
0.0
 70
    32
  0
VERTEX
  5
15F
330
155
100
AcDbEntity
  8
0
  6
________________
 62
     7
370
     9
100
AcDbVertex
100
AcDb3dPolylineVertex
 10
380.5457768882522
 20
66.52851838088041
 30
0.0
 70
    32
  0
VERTEX
  5
160
330
155
100
AcDbEntity
  8
0
  6
________________
 62
     7
370
     9
100
AcDbVertex
100
AcDb3dPolylineVertex
 10
380.5570035806677
 20
66.50711474872705
 30
0.0
 70
    32
  0
VERTEX
  5
161
330
155
100
AcDbEntity
  8
0
  6
________________
 62
     7
370
     9
100
AcDbVertex
100
AcDb3dPolylineVertex
 10
380.5692514753671
 20
66.4862786462273
 30
0.0
 70
    32
  0
VERTEX
  5
162
330
155
100
AcDbEntity
  8
0
  6
________________
 62
     7
370
     9
100
AcDbVertex
100
AcDb3dPolylineVertex
 10
380.5824919537192
 20
66.46605875935934
 30
0.0
 70
    32
  0
VERTEX
  5
163
330
155
100
AcDbEntity
  8
0
  6
________________
 62
     7
370
     9
100
AcDbVertex
100
AcDb3dPolylineVertex
 10
380.5966940778056
 20
66.44650233424176
 30
0.0
 70
    32
  0
VERTEX
  5
164
330
155
100
AcDbEntity
  8
0
  6
________________
 62
     7
370
     9
100
AcDbVertex
100
AcDb3dPolylineVertex
 10
380.6118246627108
 20
66.42765506673759
 30
0.0
 70
    32
  0
VERTEX
  5
165
330
155
100
AcDbEntity
  8
0
  6
________________
 62
     7
370
     9
100
AcDbVertex
100
AcDb3dPolylineVertex
 10
380.6278483540624
 20
66.40956099568054
 30
0.0
 70
    32
  0
VERTEX
  5
166
330
155
100
AcDbEntity
  8
0
  6
________________
 62
     7
370
     9
100
AcDbVertex
100
AcDb3dPolylineVertex
 10
380.6447277106408
 20
66.39226239997325
 30
0.0
 70
    32
  0
VERTEX
  5
167
330
155
100
AcDbEntity
  8
0
  6
________________
 62
     7
370
     9
100
AcDbVertex
100
AcDb3dPolylineVertex
 10
380.6624232918653
 20
66.37579969979757
 30
0.0
 70
    32
  0
VERTEX
  5
168
330
155
100
AcDbEntity
  8
0
  6
________________
 62
     7
370
     9
100
AcDbVertex
100
AcDb3dPolylineVertex
 10
380.6808937499511
 20
66.36021136216816
 30
0.0
 70
    32
  0
VERTEX
  5
169
330
155
100
AcDbEntity
  8
0
  6
________________
 62
     7
370
     9
100
AcDbVertex
100
AcDb3dPolylineVertex
 10
380.7000959265235
 20
66.3455338110499
 30
0.0
 70
    32
  0
VERTEX
  5
16A
330
155
100
AcDbEntity
  8
0
  6
________________
 62
     7
370
     9
100
AcDbVertex
100
AcDb3dPolylineVertex
 10
380.7199849534624
 20
66.33180134224898
 30
0.0
 70
    32
  0
VERTEX
  5
16B
330
155
100
AcDbEntity
  8
0
  6
________________
 62
     7
370
     9
100
AcDbVertex
100
AcDb3dPolylineVertex
 10
380.740514357742
 20
66.31904604327676
 30
0.0
 70
    32
  0
VERTEX
  5
16C
330
155
100
AcDbEntity
  8
0
  6
________________
 62
     7
370
     9
100
AcDbVertex
100
AcDb3dPolylineVertex
 10
380.7616361700202
 20
66.30729771837358
 30
0.0
 70
    32
  0
VERTEX
  5
16D
330
155
100
AcDbEntity
  8
0
  6
________________
 62
     7
370
     9
100
AcDbVertex
100
AcDb3dPolylineVertex
 10
380.7833010367248
 20
66.29658381886772
 30
0.0
 70
    32
  0
VERTEX
  5
16E
330
155
100
AcDbEntity
  8
0
  6
________________
 62
     7
370
     9
100
AcDbVertex
100
AcDb3dPolylineVertex
 10
380.8054583353735
 20
66.28692937903213
 30
0.0
 70
    32
  0
VERTEX
  5
16F
330
155
100
AcDbEntity
  8
0
  6
________________
 62
     7
370
     9
100
AcDbVertex
100
AcDb3dPolylineVertex
 10
380.8280562928596
 20
66.27835695758894
 30
0.0
 70
    32
  0
VERTEX
  5
170
330
155
100
AcDbEntity
  8
0
  6
________________
 62
     7
370
     9
100
AcDbVertex
100
AcDb3dPolylineVertex
 10
380.851042106426
 20
66.27088658499841
 30
0.0
 70
    32
  0
VERTEX
  5
171
330
155
100
AcDbEntity
  8
0
  6
________________
 62
     7
370
     9
100
AcDbVertex
100
AcDb3dPolylineVertex
 10
380.8743620670442
 20
66.2645357166554
 30
0.0
 70
    32
  0
VERTEX
  5
172
330
155
100
AcDbEntity
  8
0
  6
________________
 62
     7
370
     9
100
AcDbVertex
100
AcDb3dPolylineVertex
 10
380.8979616849127
 20
66.25931919210284
 30
0.0
 70
    32
  0
VERTEX
  5
173
330
155
100
AcDbEntity
  8
0
  6
________________
 62
     7
370
     9
100
AcDbVertex
100
AcDb3dPolylineVertex
 10
380.921785816778
 20
66.2552492003574
 30
0.0
 70
    32
  0
VERTEX
  5
174
330
155
100
AcDbEntity
  8
0
  6
________________
 62
     7
370
     9
100
AcDbVertex
100
AcDb3dPolylineVertex
 10
380.9457787947838
 20
66.25233525142838
 30
0.0
 70
    32
  0
VERTEX
  5
175
330
155
100
AcDbEntity
  8
0
  6
________________
 62
     7
370
     9
100
AcDbVertex
100
AcDb3dPolylineVertex
 10
380.9698845565449
 20
66.25058415409656
 30
0.0
 70
    32
  0
VERTEX
  5
176
330
155
100
AcDbEntity
  8
0
  6
________________
 62
     7
370
     9
100
AcDbVertex
100
AcDb3dPolylineVertex
 10
380.9940467761437
 20
66.2500000000046
 30
0.0
 70
    32
  0
SEQEND
  5
177
330
155
100
AcDbEntity
  8
0
  6
________________
 62
     7
370
     9
  0
ARC
  5
178
330
12E
100
AcDbEntity
  8
0
  6
________________
 62
     7
370
     9
100
AcDbCircle
 10
360.0000000009267
 20
66.2500000000046
 30
0.0
 40
20.50000000000487
100
AcDbArc
 50
1.364314150665792
 51
48.24357979475257
  0
LINE
  5
179
330
12E
100
AcDbEntity
  8
0
  6
________________
 62
     7
370
     9
100
AcDbLine
 10
382.4070898820717
 20
76.89644509925122
 30
0.0
 11
382.4389119263608
 21
73.25000000000462
 31
0.0
  0
LINE
  5
17A
330
12E
100
AcDbEntity
  8
0
  6
________________
 62
     7
370
     9
100
AcDbLine
 10
381.9432563210908
 20
72.75436326775379
 30
0.0
 11
382.4388932180045
 21
73.25000000000462
 31
0.0
  0
LINE
  5
17B
330
12E
100
AcDbEntity
  8
0
  6
________________
 62
     7
370
     9
100
AcDbLine
 10
382.4388932180045
 20
73.25000000000462
 30
0.0
 11
383.9138271678236
 21
73.25000000000462
 31
0.0
  0
POLYLINE
  5
17C
330
12E
100
AcDbEntity
  8
0
  6
________________
 62
     7
370
     9
100
AcDb3dPolyline
 66
     1
 10
0.0
 20
0.0
 30
0.0
 70
     8
  0
VERTEX
  5
17D
330
17C
100
AcDbEntity
  8
0
  6
________________
 62
     7
370
     9
100
AcDbVertex
100
AcDb3dPolylineVertex
 10
365.6758459615342
 20
85.94859824016129
 30
0.0
 70
    32
  0
VERTEX
  5
17E
330
17C
100
AcDbEntity
  8
0
  6
________________
 62
     7
370
     9
100
AcDbVertex
100
AcDb3dPolylineVertex
 10
365.6678042635264
 20
85.92105296293862
 30
0.0
 70
    32
  0
VERTEX
  5
17F
330
17C
100
AcDbEntity
  8
0
  6
________________
 62
     7
370
     9
100
AcDbVertex
100
AcDb3dPolylineVertex
 10
365.658649859171
 20
85.89388504972666
 30
0.0
 70
    32
  0
VERTEX
  5
180
330
17C
100
AcDbEntity
  8
0
  6
________________
 62
     7
370
     9
100
AcDbVertex
100
AcDb3dPolylineVertex
 10
365.6484158415125
 20
85.86716585431883
 30
0.0
 70
    32
  0
VERTEX
  5
181
330
17C
100
AcDbEntity
  8
0
  6
________________
 62
     7
370
     9
100
AcDbVertex
100
AcDb3dPolylineVertex
 10
365.6371353035954
 20
85.84096673050853
 30
0.0
 70
    32
  0
VERTEX
  5
182
330
17C
100
AcDbEntity
  8
0
  6
________________
 62
     7
370
     9
100
AcDbVertex
100
AcDb3dPolylineVertex
 10
365.6244315970501
 20
85.81453861871744
 30
0.0
 70
    32
  0
VERTEX
  5
183
330
17C
100
AcDbEntity
  8
0
  6
________________
 62
     7
370
     9
100
AcDbVertex
100
AcDb3dPolylineVertex
 10
365.6106543292365
 20
85.78870406585803
 30
0.0
 70
    32
  0
VERTEX
  5
184
330
17C
100
AcDbEntity
  8
0
  6
________________
 62
     7
370
     9
100
AcDbVertex
100
AcDb3dPolylineVertex
 10
365.5958502664903
 20
85.763527898412
 30
0.0
 70
    32
  0
VERTEX
  5
185
330
17C
100
AcDbEntity
  8
0
  6
________________
 62
     7
370
     9
100
AcDbVertex
100
AcDb3dPolylineVertex
 10
365.5800661751479
 20
85.73907494286091
 30
0.0
 70
    32
  0
VERTEX
  5
186
330
17C
100
AcDbEntity
  8
0
  6
________________
 62
     7
370
     9
100
AcDbVertex
100
AcDb3dPolylineVertex
 10
365.5638372820471
 20
85.7160643518269
 30
0.0
 70
    32
  0
VERTEX
  5
187
330
17C
100
AcDbEntity
  8
0
  6
________________
 62
     7
370
     9
100
AcDbVertex
100
AcDb3dPolylineVertex
 10
365.5467262591185
 20
85.69376210620032
 30
0.0
 70
    32
  0
VERTEX
  5
188
330
17C
100
AcDbEntity
  8
0
  6
________________
 62
     7
370
     9
100
AcDbVertex
100
AcDb3dPolylineVertex
 10
365.5287813390263
 20
85.67221515784739
 30
0.0
 70
    32
  0
VERTEX
  5
189
330
17C
100
AcDbEntity
  8
0
  6
________________
 62
     7
370
     9
100
AcDbVertex
100
AcDb3dPolylineVertex
 10
365.5100507544348
 20
85.65147045863426
 30
0.0
 70
    32
  0
VERTEX
  5
18A
330
17C
100
AcDbEntity
  8
0
  6
________________
 62
     7
370
     9
100
AcDbVertex
100
AcDb3dPolylineVertex
 10
365.4900256553361
 20
85.63102319651203
 30
0.0
 70
    32
  0
VERTEX
  5
18B
330
17C
100
AcDbEntity
  8
0
  6
________________
 62
     7
370
     9
100
AcDbVertex
100
AcDb3dPolylineVertex
 10
365.4692152247375
 20
85.61144151992413
 30
0.0
 70
    32
  0
VERTEX
  5
18C
330
17C
100
AcDbEntity
  8
0
  6
________________
 62
     7
370
     9
100
AcDbVertex
100
AcDb3dPolylineVertex
 10
365.4476745473274
 20
85.59276451313153
 30
0.0
 70
    32
  0
VERTEX
  5
18D
330
17C
100
AcDbEntity
  8
0
  6
________________
 62
     7
370
     9
100
AcDbVertex
100
AcDb3dPolylineVertex
 10
365.4254587077943
 20
85.57503126039518
 30
0.0
 70
    32
  0
VERTEX
  5
18E
330
17C
100
AcDbEntity
  8
0
  6
________________
 62
     7
370
     9
100
AcDbVertex
100
AcDb3dPolylineVertex
 10
365.4020945229466
 20
85.55790550156448
 30
0.0
 70
    32
  0
VERTEX
  5
18F
330
17C
100
AcDbEntity
  8
0
  6
________________
 62
     7
370
     9
100
AcDbVertex
100
AcDb3dPolylineVertex
 10
365.3780700555456
 20
85.54177876638931
 30
0.0
 70
    32
  0
VERTEX
  5
190
330
17C
100
AcDbEntity
  8
0
  6
________________
 62
     7
370
     9
100
AcDbVertex
100
AcDb3dPolylineVertex
 10
365.3534454099505
 20
85.52668205870242
 30
0.0
 70
    32
  0
VERTEX
  5
191
330
17C
100
AcDbEntity
  8
0
  6
________________
 62
     7
370
     9
100
AcDbVertex
100
AcDb3dPolylineVertex
 10
365.3282806905205
 20
85.51264638233658
 30
0.0
 70
    32
  0
VERTEX
  5
192
330
17C
100
AcDbEntity
  8
0
  6
________________
 62
     7
370
     9
100
AcDbVertex
100
AcDb3dPolylineVertex
 10
365.3019180424552
 20
85.49935535040584
 30
0.0
 70
    32
  0
VERTEX
  5
193
330
17C
100
AcDbEntity
  8
0
  6
________________
 62
     7
370
     9
100
AcDbVertex
100
AcDb3dPolylineVertex
 10
365.2750318780791
 20
85.48719307842025
 30
0.0
 70
    32
  0
VERTEX
  5
194
330
17C
100
AcDbEntity
  8
0
  6
________________
 62
     7
370
     9
100
AcDbVertex
100
AcDb3dPolylineVertex
 10
365.2476881962201
 20
85.47618333366292
 30
0.0
 70
    32
  0
VERTEX
  5
195
330
17C
100
AcDbEntity
  8
0
  6
________________
 62
     7
370
     9
100
AcDbVertex
100
AcDb3dPolylineVertex
 10
365.2199529957058
 20
85.46634988341691
 30
0.0
 70
    32
  0
VERTEX
  5
196
330
17C
100
AcDbEntity
  8
0
  6
________________
 62
     7
370
     9
100
AcDbVertex
100
AcDb3dPolylineVertex
 10
365.191094281816
 20
85.45748610183581
 30
0.0
 70
    32
  0
VERTEX
  5
197
330
17C
100
AcDbEntity
  8
0
  6
________________
 62
     7
370
     9
100
AcDbVertex
100
AcDb3dPolylineVertex
 10
365.1618705013033
 20
85.449872093414
 30
0.0
 70
    32
  0
VERTEX
  5
198
330
17C
100
AcDbEntity
  8
0
  6
________________
 62
     7
370
     9
100
AcDbVertex
100
AcDb3dPolylineVertex
 10
365.1323545992492
 20
85.44352405471686
 30
0.0
 70
    32
  0
VERTEX
  5
199
330
17C
100
AcDbEntity
  8
0
  6
________________
 62
     7
370
     9
100
AcDbVertex
100
AcDb3dPolylineVertex
 10
365.1026195207351
 20
85.43845818230982
 30
0.0
 70
    32
  0
VERTEX
  5
19A
330
17C
100
AcDbEntity
  8
0
  6
________________
 62
     7
370
     9
100
AcDbVertex
100
AcDb3dPolylineVertex
 10
365.071849832932
 20
85.43459496699818
 30
0.0
 70
    32
  0
VERTEX
  5
19B
330
17C
100
AcDbEntity
  8
0
  6
________________
 62
     7
370
     9
100
AcDbVertex
100
AcDb3dPolylineVertex
 10
365.0409008182636
 20
85.43209557799179
 30
0.0
 70
    32
  0
VERTEX
  5
19C
330
17C
100
AcDbEntity
  8
0
  6
________________
 62
     7
370
     9
100
AcDbVertex
100
AcDb3dPolylineVertex
 10
365.0098541598032
 20
85.43096712323639
 30
0.0
 70
    32
  0
VERTEX
  5
19D
330
17C
100
AcDbEntity
  8
0
  6
________________
 62
     7
370
     9
100
AcDbVertex
100
AcDb3dPolylineVertex
 10
364.9787915406239
 20
85.43121671067775
 30
0.0
 70
    32
  0
VERTEX
  5
19E
330
17C
100
AcDbEntity
  8
0
  6
________________
 62
     7
370
     9
100
AcDbVertex
100
AcDb3dPolylineVertex
 10
364.9480499248083
 20
85.43282819834424
 30
0.0
 70
    32
  0
VERTEX
  5
19F
330
17C
100
AcDbEntity
  8
0
  6
________________
 62
     7
370
     9
100
AcDbVertex
100
AcDb3dPolylineVertex
 10
364.9173470130439
 20
85.43579652588653
 30
0.0
 70
    32
  0
VERTEX
  5
1A0
330
17C
100
AcDbEntity
  8
0
  6
________________
 62
     7
370
     9
100
AcDbVertex
100
AcDb3dPolylineVertex
 10
364.8867648699214
 20
85.44011725571538
 30
0.0
 70
    32
  0
VERTEX
  5
1A1
330
17C
100
AcDbEntity
  8
0
  6
________________
 62
     7
370
     9
100
AcDbVertex
100
AcDb3dPolylineVertex
 10
364.8563855600312
 20
85.4457859502416
 30
0.0
 70
    32
  0
VERTEX
  5
1A2
330
17C
100
AcDbEntity
  8
0
  6
________________
 62
     7
370
     9
100
AcDbVertex
100
AcDb3dPolylineVertex
 10
364.8253314958798
 20
85.45304087208092
 30
0.0
 70
    32
  0
VERTEX
  5
1A3
330
17C
100
AcDbEntity
  8
0
  6
________________
 62
     7
370
     9
100
AcDbVertex
100
AcDb3dPolylineVertex
 10
364.7945551748676
 20
85.4617280042636
 30
0.0
 70
    32
  0
VERTEX
  5
1A4
330
17C
100
AcDbEntity
  8
0
  6
________________
 62
     7
370
     9
100
AcDbVertex
100
AcDb3dPolylineVertex
 10
364.7641488907019
 20
85.4718277864046
 30
0.0
 70
    32
  0
VERTEX
  5
1A5
330
17C
100
AcDbEntity
  8
0
  6
________________
 62
     7
370
     9
100
AcDbVertex
100
AcDb3dPolylineVertex
 10
364.7342049370895
 20
85.48332065811879
 30
0.0
 70
    32
  0
VERTEX
  5
1A6
330
17C
100
AcDbEntity
  8
0
  6
________________
 62
     7
370
     9
100
AcDbVertex
100
AcDb3dPolylineVertex
 10
364.7062114731465
 20
85.4955336354164
 30
0.0
 70
    32
  0
VERTEX
  5
1A7
330
17C
100
AcDbEntity
  8
0
  6
________________
 62
     7
370
     9
100
AcDbVertex
100
AcDb3dPolylineVertex
 10
364.6786949990048
 20
85.50899795652944
 30
0.0
 70
    32
  0
VERTEX
  5
1A8
330
17C
100
AcDbEntity
  8
0
  6
________________
 62
     7
370
     9
100
AcDbVertex
100
AcDb3dPolylineVertex
 10
364.6517351989253
 20
85.52368216403167
 30
0.0
 70
    32
  0
VERTEX
  5
1A9
330
17C
100
AcDbEntity
  8
0
  6
________________
 62
     7
370
     9
100
AcDbVertex
100
AcDb3dPolylineVertex
 10
364.6254117571685
 20
85.53955480049687
 30
0.0
 70
    32
  0
VERTEX
  5
1AA
330
17C
100
AcDbEntity
  8
0
  6
________________
 62
     7
370
     9
100
AcDbVertex
100
AcDb3dPolylineVertex
 10
364.598954417782
 20
85.55717268464005
 30
0.0
 70
    32
  0
VERTEX
  5
1AB
330
17C
100
AcDbEntity
  8
0
  6
________________
 62
     7
370
     9
100
AcDbVertex
100
AcDb3dPolylineVertex
 10
364.573239267653
 20
85.57603783635913
 30
0.0
 70
    32
  0
VERTEX
  5
1AC
330
17C
100
AcDbEntity
  8
0
  6
________________
 62
     7
370
     9
100
AcDbVertex
100
AcDb3dPolylineVertex
 10
364.5483510362548
 20
85.59609773280266
 30
0.0
 70
    32
  0
VERTEX
  5
1AD
330
17C
100
AcDbEntity
  8
0
  6
________________
 62
     7
370
     9
100
AcDbVertex
100
AcDb3dPolylineVertex
 10
364.5243744530608
 20
85.61729985111916
 30
0.0
 70
    32
  0
VERTEX
  5
1AE
330
17C
100
AcDbEntity
  8
0
  6
________________
 62
     7
370
     9
100
AcDbVertex
100
AcDb3dPolylineVertex
 10
364.5029975406831
 20
85.63796054023037
 30
0.0
 70
    32
  0
VERTEX
  5
1AF
330
17C
100
AcDbEntity
  8
0
  6
________________
 62
     7
370
     9
100
AcDbVertex
100
AcDb3dPolylineVertex
 10
364.4824568590273
 20
85.6595756049384
 30
0.0
 70
    32
  0
VERTEX
  5
1B0
330
17C
100
AcDbEntity
  8
0
  6
________________
 62
     7
370
     9
100
AcDbVertex
100
AcDb3dPolylineVertex
 10
364.4628141372837
 20
85.68208856035714
 30
0.0
 70
    32
  0
VERTEX
  5
1B1
330
17C
100
AcDbEntity
  8
0
  6
________________
 62
     7
370
     9
100
AcDbVertex
100
AcDb3dPolylineVertex
 10
364.4441311046428
 20
85.70544292160051
 30
0.0
 70
    32
  0
VERTEX
  5
1B2
330
17C
100
AcDbEntity
  8
0
  6
________________
 62
     7
370
     9
100
AcDbVertex
100
AcDb3dPolylineVertex
 10
364.4258887480428
 20
85.73040615190291
 30
0.0
 70
    32
  0
VERTEX
  5
1B3
330
17C
100
AcDbEntity
  8
0
  6
________________
 62
     7
370
     9
100
AcDbVertex
100
AcDb3dPolylineVertex
 10
364.4087183765956
 20
85.75622516814452
 30
0.0
 70
    32
  0
VERTEX
  5
1B4
330
17C
100
AcDbEntity
  8
0
  6
________________
 62
     7
370
     9
100
AcDbVertex
100
AcDb3dPolylineVertex
 10
364.3926772619097
 20
85.78282289581207
 30
0.0
 70
    32
  0
VERTEX
  5
1B5
330
17C
100
AcDbEntity
  8
0
  6
________________
 62
     7
370
     9
100
AcDbVertex
100
AcDb3dPolylineVertex
 10
364.3778226755933
 20
85.81012226039228
 30
0.0
 70
    32
  0
VERTEX
  5
1B6
330
17C
100
AcDbEntity
  8
0
  6
________________
 62
     7
370
     9
100
AcDbVertex
100
AcDb3dPolylineVertex
 10
364.3651440631349
 20
85.83601519325804
 30
0.0
 70
    32
  0
VERTEX
  5
1B7
330
17C
100
AcDbEntity
  8
0
  6
________________
 62
     7
370
     9
100
AcDbVertex
100
AcDb3dPolylineVertex
 10
364.3535175637619
 20
85.86246657601988
 30
0.0
 70
    32
  0
VERTEX
  5
1B8
330
17C
100
AcDbEntity
  8
0
  6
________________
 62
     7
370
     9
100
AcDbVertex
100
AcDb3dPolylineVertex
 10
364.342977222901
 20
85.88940529853328
 30
0.0
 70
    32
  0
VERTEX
  5
1B9
330
17C
100
AcDbEntity
  8
0
  6
________________
 62
     7
370
     9
100
AcDbVertex
100
AcDb3dPolylineVertex
 10
364.3335570859792
 20
85.91676025065372
 30
0.0
 70
    32
  0
VERTEX
  5
1BA
330
17C
100
AcDbEntity
  8
0
  6
________________
 62
     7
370
     9
100
AcDbVertex
100
AcDb3dPolylineVertex
 10
364.3250361402367
 20
85.94537029171623
 30
0.0
 70
    32
  0
VERTEX
  5
1BB
330
17C
100
AcDbEntity
  8
0
  6
________________
 62
     7
370
     9
100
AcDbVertex
100
AcDb3dPolylineVertex
 10
364.3177300871487
 20
85.97436986095224
 30
0.0
 70
    32
  0
VERTEX
  5
1BC
330
17C
100
AcDbEntity
  8
0
  6
________________
 62
     7
370
     9
100
AcDbVertex
100
AcDb3dPolylineVertex
 10
364.3116611200522
 20
86.00367369165104
 30
0.0
 70
    32
  0
VERTEX
  5
1BD
330
17C
100
AcDbEntity
  8
0
  6
________________
 62
     7
370
     9
100
AcDbVertex
100
AcDb3dPolylineVertex
 10
364.3068514322842
 20
86.03319651710197
 30
0.0
 70
    32
  0
VERTEX
  5
1BE
330
17C
100
AcDbEntity
  8
0
  6
________________
 62
     7
370
     9
100
AcDbVertex
100
AcDb3dPolylineVertex
 10
364.3034825135132
 20
86.06118157467188
 30
0.0
 70
    32
  0
VERTEX
  5
1BF
330
17C
100
AcDbEntity
  8
0
  6
________________
 62
     7
370
     9
100
AcDbVertex
100
AcDb3dPolylineVertex
 10
364.3012405991076
 20
86.08931063296897
 30
0.0
 70
    32
  0
VERTEX
  5
1C0
330
17C
100
AcDbEntity
  8
0
  6
________________
 62
     7
370
     9
100
AcDbVertex
100
AcDb3dPolylineVertex
 10
364.3001304103178
 20
86.11750962584999
 30
0.0
 70
    32
  0
VERTEX
  5
1C1
330
17C
100
AcDbEntity
  8
0
  6
________________
 62
     7
370
     9
100
AcDbVertex
100
AcDb3dPolylineVertex
 10
364.3001566683945
 20
86.1457044871716
 30
0.0
 70
    32
  0
VERTEX
  5
1C2
330
17C
100
AcDbEntity
  8
0
  6
________________
 62
     7
370
     9
100
AcDbVertex
100
AcDb3dPolylineVertex
 10
364.3013747040396
 20
86.17470092885354
 30
0.0
 70
    32
  0
VERTEX
  5
1C3
330
17C
100
AcDbEntity
  8
0
  6
________________
 62
     7
370
     9
100
AcDbVertex
100
AcDb3dPolylineVertex
 10
364.303794876631
 20
86.20363958925999
 30
0.0
 70
    32
  0
VERTEX
  5
1C4
330
17C
100
AcDbEntity
  8
0
  6
________________
 62
     7
370
     9
100
AcDbVertex
100
AcDb3dPolylineVertex
 10
364.3074071758322
 20
86.23244046470495
 30
0.0
 70
    32
  0
VERTEX
  5
1C5
330
17C
100
AcDbEntity
  8
0
  6
________________
 62
     7
370
     9
100
AcDbVertex
100
AcDb3dPolylineVertex
 10
364.3122015913068
 20
86.26102355150236
 30
0.0
 70
    32
  0
VERTEX
  5
1C6
330
17C
100
AcDbEntity
  8
0
  6
________________
 62
     7
370
     9
100
AcDbVertex
100
AcDb3dPolylineVertex
 10
364.3183241763509
 20
86.29001188404354
 30
0.0
 70
    32
  0
SEQEND
  5
1C7
330
17C
100
AcDbEntity
  8
0
  6
________________
 62
     7
370
     9
  0
ARC
  5
1C8
330
12E
100
AcDbEntity
  8
0
  6
________________
 62
     7
370
     9
100
AcDbCircle
 10
360.0000000005185
 20
66.2499999999974
 30
0.0
 40
20.50000000000706
100
AcDbArc
 50
77.83955574104401
 51
102.160444258956
  0
POLYLINE
  5
1C9
330
12E
100
AcDbEntity
  8
0
  6
________________
 62
     7
370
     9
100
AcDb3dPolyline
 66
     1
 10
0.0
 20
0.0
 30
0.0
 70
     8
  0
VERTEX
  5
1CA
330
1C9
100
AcDbEntity
  8
0
  6
________________
 62
     7
370
     9
100
AcDbVertex
100
AcDb3dPolylineVertex
 10
354.3241540395525
 20
85.94859824016129
 30
0.0
 70
    32
  0
VERTEX
  5
1CB
330
1C9
100
AcDbEntity
  8
0
  6
________________
 62
     7
370
     9
100
AcDbVertex
100
AcDb3dPolylineVertex
 10
354.333898679856
 20
85.91571707843542
 30
0.0
 70
    32
  0
VERTEX
  5
1CC
330
1C9
100
AcDbEntity
  8
0
  6
________________
 62
     7
370
     9
100
AcDbVertex
100
AcDb3dPolylineVertex
 10
354.3452297652077
 20
85.88338200840636
 30
0.0
 70
    32
  0
VERTEX
  5
1CD
330
1C9
100
AcDbEntity
  8
0
  6
________________
 62
     7
370
     9
100
AcDbVertex
100
AcDb3dPolylineVertex
 10
354.3580889051923
 20
85.8517130162743
 30
0.0
 70
    32
  0
VERTEX
  5
1CE
330
1C9
100
AcDbEntity
  8
0
  6
________________
 62
     7
370
     9
100
AcDbVertex
100
AcDb3dPolylineVertex
 10
354.3724177093945
 20
85.82083008823952
 30
0.0
 70
    32
  0
VERTEX
  5
1CF
330
1C9
100
AcDbEntity
  8
0
  6
________________
 62
     7
370
     9
100
AcDbVertex
100
AcDb3dPolylineVertex
 10
354.3850029634688
 20
85.7965662192717
 30
0.0
 70
    32
  0
VERTEX
  5
1D0
330
1C9
100
AcDbEntity
  8
0
  6
________________
 62
     7
370
     9
100
AcDbVertex
100
AcDb3dPolylineVertex
 10
354.3985041952543
 20
85.77284783019608
 30
0.0
 70
    32
  0
VERTEX
  5
1D1
330
1C9
100
AcDbEntity
  8
0
  6
________________
 62
     7
370
     9
100
AcDbVertex
100
AcDb3dPolylineVertex
 10
354.4128823075467
 20
85.74972593088229
 30
0.0
 70
    32
  0
VERTEX
  5
1D2
330
1C9
100
AcDbEntity
  8
0
  6
________________
 62
     7
370
     9
100
AcDbVertex
100
AcDb3dPolylineVertex
 10
354.4280982031413
 20
85.72725153119997
 30
0.0
 70
    32
  0
VERTEX
  5
1D3
330
1C9
100
AcDbEntity
  8
0
  6
________________
 62
     7
370
     9
100
AcDbVertex
100
AcDb3dPolylineVertex
 10
354.4445635965021
 20
85.70488148264666
 30
0.0
 70
    32
  0
VERTEX
  5
1D4
330
1C9
100
AcDbEntity
  8
0
  6
________________
 62
     7
370
     9
100
AcDbVertex
100
AcDb3dPolylineVertex
 10
354.4618732629559
 20
85.68321800553905
 30
0.0
 70
    32
  0
VERTEX
  5
1D5
330
1C9
100
AcDbEntity
  8
0
  6
________________
 62
     7
370
     9
100
AcDbVertex
100
AcDb3dPolylineVertex
 10
354.4799802989442
 20
85.66230500594965
 30
0.0
 70
    32
  0
VERTEX
  5
1D6
330
1C9
100
AcDbEntity
  8
0
  6
________________
 62
     7
370
     9
100
AcDbVertex
100
AcDb3dPolylineVertex
 10
354.4988378009085
 20
85.642186389951
 30
0.0
 70
    32
  0
VERTEX
  5
1D7
330
1C9
100
AcDbEntity
  8
0
  6
________________
 62
     7
370
     9
100
AcDbVertex
100
AcDb3dPolylineVertex
 10
354.5190685602453
 20
85.62226742148727
 30
0.0
 70
    32
  0
VERTEX
  5
1D8
330
1C9
100
AcDbEntity
  8
0
  6
________________
 62
     7
370
     9
100
AcDbVertex
100
AcDb3dPolylineVertex
 10
354.540057265555
 20
85.60321355089646
 30
0.0
 70
    32
  0
VERTEX
  5
1D9
330
1C9
100
AcDbEntity
  8
0
  6
________________
 62
     7
370
     9
100
AcDbVertex
100
AcDb3dPolylineVertex
 10
354.5617497748035
 20
85.58506190873796
 30
0.0
 70
    32
  0
VERTEX
  5
1DA
330
1C9
100
AcDbEntity
  8
0
  6
________________
 62
     7
370
     9
100
AcDbVertex
100
AcDb3dPolylineVertex
 10
354.5840919459568
 20
85.56784962557126
 30
0.0
 70
    32
  0
VERTEX
  5
1DB
330
1C9
100
AcDbEntity
  8
0
  6
________________
 62
     7
370
     9
100
AcDbVertex
100
AcDb3dPolylineVertex
 10
354.6076645052174
 20
85.5511796612598
 30
0.0
 70
    32
  0
VERTEX
  5
1DC
330
1C9
100
AcDbEntity
  8
0
  6
________________
 62
     7
370
     9
100
AcDbVertex
100
AcDb3dPolylineVertex
 10
354.6318774030522
 20
85.53551214813324
 30
0.0
 70
    32
  0
VERTEX
  5
1DD
330
1C9
100
AcDbEntity
  8
0
  6
________________
 62
     7
370
     9
100
AcDbVertex
100
AcDb3dPolylineVertex
 10
354.6566708900114
 20
85.5208768825732
 30
0.0
 70
    32
  0
VERTEX
  5
1DE
330
1C9
100
AcDbEntity
  8
0
  6
________________
 62
     7
370
     9
100
AcDbVertex
100
AcDb3dPolylineVertex
 10
354.6819852166449
 20
85.50730366096128
 30
0.0
 70
    32
  0
VERTEX
  5
1DF
330
1C9
100
AcDbEntity
  8
0
  6
________________
 62
     7
370
     9
100
AcDbVertex
100
AcDb3dPolylineVertex
 10
354.708718040207
 20
85.4943798059933
 30
0.0
 70
    32
  0
VERTEX
  5
1E0
330
1C9
100
AcDbEntity
  8
0
  6
________________
 62
     7
370
     9
100
AcDbVertex
100
AcDb3dPolylineVertex
 10
354.7359633927649
 20
85.48260550980797
 30
0.0
 70
    32
  0
VERTEX
  5
1E1
330
1C9
100
AcDbEntity
  8
0
  6
________________
 62
     7
370
     9
100
AcDbVertex
100
AcDb3dPolylineVertex
 10
354.7636539058688
 20
85.47200405882731
 30
0.0
 70
    32
  0
VERTEX
  5
1E2
330
1C9
100
AcDbEntity
  8
0
  6
________________
 62
     7
370
     9
100
AcDbVertex
100
AcDb3dPolylineVertex
 10
354.7917222110688
 20
85.46259873947332
 30
0.0
 70
    32
  0
VERTEX
  5
1E3
330
1C9
100
AcDbEntity
  8
0
  6
________________
 62
     7
370
     9
100
AcDbVertex
100
AcDb3dPolylineVertex
 10
354.8209193230831
 20
85.45419226121567
 30
0.0
 70
    32
  0
VERTEX
  5
1E4
330
1C9
100
AcDbEntity
  8
0
  6
________________
 62
     7
370
     9
100
AcDbVertex
100
AcDb3dPolylineVertex
 10
354.8504664222777
 20
85.44705742949238
 30
0.0
 70
    32
  0
VERTEX
  5
1E5
330
1C9
100
AcDbEntity
  8
0
  6
________________
 62
     7
370
     9
100
AcDbVertex
100
AcDb3dPolylineVertex
 10
354.8802888913901
 20
85.44120976367374
 30
0.0
 70
    32
  0
VERTEX
  5
1E6
330
1C9
100
AcDbEntity
  8
0
  6
________________
 62
     7
370
     9
100
AcDbVertex
100
AcDb3dPolylineVertex
 10
354.9103121131582
 20
85.43666478313006
 30
0.0
 70
    32
  0
VERTEX
  5
1E7
330
1C9
100
AcDbEntity
  8
0
  6
________________
 62
     7
370
     9
100
AcDbVertex
100
AcDb3dPolylineVertex
 10
354.9407572238824
 20
85.43340909878519
 30
0.0
 70
    32
  0
VERTEX
  5
1E8
330
1C9
100
AcDbEntity
  8
0
  6
________________
 62
     7
370
     9
100
AcDbVertex
100
AcDb3dPolylineVertex
 10
354.9713553812108
 20
85.43148576977103
 30
0.0
 70
    32
  0
VERTEX
  5
1E9
330
1C9
100
AcDbEntity
  8
0
  6
________________
 62
     7
370
     9
100
AcDbVertex
100
AcDb3dPolylineVertex
 10
355.0020277271655
 20
85.43090058486196
 30
0.0
 70
    32
  0
VERTEX
  5
1EA
330
1C9
100
AcDbEntity
  8
0
  6
________________
 62
     7
370
     9
100
AcDbVertex
100
AcDb3dPolylineVertex
 10
355.0326954037687
 20
85.43165933283237
 30
0.0
 70
    32
  0
VERTEX
  5
1EB
330
1C9
100
AcDbEntity
  8
0
  6
________________
 62
     7
370
     9
100
AcDbVertex
100
AcDb3dPolylineVertex
 10
355.0642260372309
 20
85.43385075474255
 30
0.0
 70
    32
  0
VERTEX
  5
1EC
330
1C9
100
AcDbEntity
  8
0
  6
________________
 62
     7
370
     9
100
AcDbVertex
100
AcDb3dPolylineVertex
 10
355.0956937398657
 20
85.43747204651427
 30
0.0
 70
    32
  0
VERTEX
  5
1ED
330
1C9
100
AcDbEntity
  8
0
  6
________________
 62
     7
370
     9
100
AcDbVertex
100
AcDb3dPolylineVertex
 10
355.1270094863153
 20
85.4425169975061
 30
0.0
 70
    32
  0
VERTEX
  5
1EE
330
1C9
100
AcDbEntity
  8
0
  6
________________
 62
     7
370
     9
100
AcDbVertex
100
AcDb3dPolylineVertex
 10
355.1580842512212
 20
85.44897939707651
 30
0.0
 70
    32
  0
VERTEX
  5
1EF
330
1C9
100
AcDbEntity
  8
0
  6
________________
 62
     7
370
     9
100
AcDbVertex
100
AcDb3dPolylineVertex
 10
355.1878762427479
 20
85.4565817372345
 30
0.0
 70
    32
  0
VERTEX
  5
1F0
330
1C9
100
AcDbEntity
  8
0
  6
________________
 62
     7
370
     9
100
AcDbVertex
100
AcDb3dPolylineVertex
 10
355.2173847653802
 20
85.46551023241757
 30
0.0
 70
    32
  0
VERTEX
  5
1F1
330
1C9
100
AcDbEntity
  8
0
  6
________________
 62
     7
370
     9
100
AcDbVertex
100
AcDb3dPolylineVertex
 10
355.2465271430546
 20
85.47574596592273
 30
0.0
 70
    32
  0
VERTEX
  5
1F2
330
1C9
100
AcDbEntity
  8
0
  6
________________
 62
     7
370
     9
100
AcDbVertex
100
AcDb3dPolylineVertex
 10
355.2752206997077
 20
85.48727002104688
 30
0.0
 70
    32
  0
VERTEX
  5
1F3
330
1C9
100
AcDbEntity
  8
0
  6
________________
 62
     7
370
     9
100
AcDbVertex
100
AcDb3dPolylineVertex
 10
355.3043060497764
 20
85.50050400392361
 30
0.0
 70
    32
  0
VERTEX
  5
1F4
330
1C9
100
AcDbEntity
  8
0
  6
________________
 62
     7
370
     9
100
AcDbVertex
100
AcDb3dPolylineVertex
 10
355.3328484952034
 20
85.51510012695259
 30
0.0
 70
    32
  0
VERTEX
  5
1F5
330
1C9
100
AcDbEntity
  8
0
  6
________________
 62
     7
370
     9
100
AcDbVertex
100
AcDb3dPolylineVertex
 10
355.3607570945968
 20
85.5310205608509
 30
0.0
 70
    32
  0
VERTEX
  5
1F6
330
1C9
100
AcDbEntity
  8
0
  6
________________
 62
     7
370
     9
100
AcDbVertex
100
AcDb3dPolylineVertex
 10
355.3879409065647
 20
85.54822747633558
 30
0.0
 70
    32
  0
VERTEX
  5
1F7
330
1C9
100
AcDbEntity
  8
0
  6
________________
 62
     7
370
     9
100
AcDbVertex
100
AcDb3dPolylineVertex
 10
355.4126565700313
 20
85.56546568654785
 30
0.0
 70
    32
  0
VERTEX
  5
1F8
330
1C9
100
AcDbEntity
  8
0
  6
________________
 62
     7
370
     9
100
AcDbVertex
100
AcDb3dPolylineVertex
 10
355.4366814747056
 20
85.58380992996636
 30
0.0
 70
    32
  0
VERTEX
  5
1F9
330
1C9
100
AcDbEntity
  8
0
  6
________________
 62
     7
370
     9
100
AcDbVertex
100
AcDb3dPolylineVertex
 10
355.4599441035807
 20
85.60321401853216
 30
0.0
 70
    32
  0
VERTEX
  5
1FA
330
1C9
100
AcDbEntity
  8
0
  6
________________
 62
     7
370
     9
100
AcDbVertex
100
AcDb3dPolylineVertex
 10
355.4823729396491
 20
85.6236317641863
 30
0.0
 70
    32
  0
VERTEX
  5
1FB
330
1C9
100
AcDbEntity
  8
0
  6
________________
 62
     7
370
     9
100
AcDbVertex
100
AcDb3dPolylineVertex
 10
355.5046115961168
 20
85.64575375569302
 30
0.0
 70
    32
  0
VERTEX
  5
1FC
330
1C9
100
AcDbEntity
  8
0
  6
________________
 62
     7
370
     9
100
AcDbVertex
100
AcDb3dPolylineVertex
 10
355.5259035312163
 20
85.66892456301225
 30
0.0
 70
    32
  0
VERTEX
  5
1FD
330
1C9
100
AcDbEntity
  8
0
  6
________________
 62
     7
370
     9
100
AcDbVertex
100
AcDb3dPolylineVertex
 10
355.5461773403313
 20
85.69307625401926
 30
0.0
 70
    32
  0
VERTEX
  5
1FE
330
1C9
100
AcDbEntity
  8
0
  6
________________
 62
     7
370
     9
100
AcDbVertex
100
AcDb3dPolylineVertex
 10
355.5653616188459
 20
85.71814089658922
 30
0.0
 70
    32
  0
VERTEX
  5
1FF
330
1C9
100
AcDbEntity
  8
0
  6
________________
 62
     7
370
     9
100
AcDbVertex
100
AcDb3dPolylineVertex
 10
355.5820910233771
 20
85.74209423807308
 30
0.0
 70
    32
  0
VERTEX
  5
200
330
1C9
100
AcDbEntity
  8
0
  6
________________
 62
     7
370
     9
100
AcDbVertex
100
AcDb3dPolylineVertex
 10
355.5978465798324
 20
85.76678982613508
 30
0.0
 70
    32
  0
VERTEX
  5
201
330
1C9
100
AcDbEntity
  8
0
  6
________________
 62
     7
370
     9
100
AcDbVertex
100
AcDb3dPolylineVertex
 10
355.6125811944013
 20
85.79216159782092
 30
0.0
 70
    32
  0
VERTEX
  5
202
330
1C9
100
AcDbEntity
  8
0
  6
________________
 62
     7
370
     9
100
AcDbVertex
100
AcDb3dPolylineVertex
 10
355.6262477732731
 20
85.81814349017618
 30
0.0
 70
    32
  0
VERTEX
  5
203
330
1C9
100
AcDbEntity
  8
0
  6
________________
 62
     7
370
     9
100
AcDbVertex
100
AcDb3dPolylineVertex
 10
355.6392011528088
 20
85.84555794877069
 30
0.0
 70
    32
  0
VERTEX
  5
204
330
1C9
100
AcDbEntity
  8
0
  6
________________
 62
     7
370
     9
100
AcDbVertex
100
AcDb3dPolylineVertex
 10
355.6509817106324
 20
85.87357279147703
 30
0.0
 70
    32
  0
VERTEX
  5
205
330
1C9
100
AcDbEntity
  8
0
  6
________________
 62
     7
370
     9
100
AcDbVertex
100
AcDb3dPolylineVertex
 10
355.6615514172479
 20
85.90210444664467
 30
0.0
 70
    32
  0
VERTEX
  5
206
330
1C9
100
AcDbEntity
  8
0
  6
________________
 62
     7
370
     9
100
AcDbVertex
100
AcDb3dPolylineVertex
 10
355.6708722431595
 20
85.93106934262306
 30
0.0
 70
    32
  0
VERTEX
  5
207
330
1C9
100
AcDbEntity
  8
0
  6
________________
 62
     7
370
     9
100
AcDbVertex
100
AcDb3dPolylineVertex
 10
355.6784311984921
 20
85.95847836080758
 30
0.0
 70
    32
  0
VERTEX
  5
208
330
1C9
100
AcDbEntity
  8
0
  6
________________
 62
     7
370
     9
100
AcDbVertex
100
AcDb3dPolylineVertex
 10
355.6848808600335
 20
85.98621638740975
 30
0.0
 70
    32
  0
VERTEX
  5
209
330
1C9
100
AcDbEntity
  8
0
  6
________________
 62
     7
370
     9
100
AcDbVertex
100
AcDb3dPolylineVertex
 10
355.6902035168258
 20
86.01420936928847
 30
0.0
 70
    32
  0
VERTEX
  5
20A
330
1C9
100
AcDbEntity
  8
0
  6
________________
 62
     7
370
     9
100
AcDbVertex
100
AcDb3dPolylineVertex
 10
355.694381457911
 20
86.04238325330262
 30
0.0
 70
    32
  0
VERTEX
  5
20B
330
1C9
100
AcDbEntity
  8
0
  6
________________
 62
     7
370
     9
100
AcDbVertex
100
AcDb3dPolylineVertex
 10
355.6974785924801
 20
86.07156877726801
 30
0.0
 70
    32
  0
VERTEX
  5
20C
330
1C9
100
AcDbEntity
  8
0
  6
________________
 62
     7
370
     9
100
AcDbVertex
100
AcDb3dPolylineVertex
 10
355.6993516453462
 20
86.10089178683924
 30
0.0
 70
    32
  0
VERTEX
  5
20D
330
1C9
100
AcDbEntity
  8
0
  6
________________
 62
     7
370
     9
100
AcDbVertex
100
AcDb3dPolylineVertex
 10
355.6999968834781
 20
86.13026860446901
 30
0.0
 70
    32
  0
VERTEX
  5
20E
330
1C9
100
AcDbEntity
  8
0
  6
________________
 62
     7
370
     9
100
AcDbVertex
100
AcDb3dPolylineVertex
 10
355.6994105738448
 20
86.15961555261006
 30
0.0
 70
    32
  0
VERTEX
  5
20F
330
1C9
100
AcDbEntity
  8
0
  6
________________
 62
     7
370
     9
100
AcDbVertex
100
AcDb3dPolylineVertex
 10
355.6972794633955
 20
86.19249981504
 30
0.0
 70
    32
  0
VERTEX
  5
210
330
1C9
100
AcDbEntity
  8
0
  6
________________
 62
     7
370
     9
100
AcDbVertex
100
AcDb3dPolylineVertex
 10
355.6936007772739
 20
86.22527149297868
 30
0.0
 70
    32
  0
VERTEX
  5
211
330
1C9
100
AcDbEntity
  8
0
  6
________________
 62
     7
370
     9
100
AcDbVertex
100
AcDb3dPolylineVertex
 10
355.6883933021481
 20
86.25781428359139
 30
0.0
 70
    32
  0
VERTEX
  5
212
330
1C9
100
AcDbEntity
  8
0
  6
________________
 62
     7
370
     9
100
AcDbVertex
100
AcDb3dPolylineVertex
 10
355.681675824686
 20
86.29001188404354
 30
0.0
 70
    32
  0
SEQEND
  5
213
330
1C9
100
AcDbEntity
  8
0
  6
________________
 62
     7
370
     9
  0
ARC
  5
214
330
12E
100
AcDbEntity
  8
0
  6
________________
 62
     7
370
     9
100
AcDbCircle
 10
359.9999999998622
 20
66.24999999760598
 30
0.0
 40
20.50000000249346
100
AcDbArc
 50
48.24357979699756
 51
73.92648311638095
  0
ARC
  5
215
330
12E
100
AcDbEntity
  8
0
  6
________________
 62
     7
370
     9
100
AcDbCircle
 10
-359.9999999998508
 20
66.25000000242392
 30
0.0
 40
20.49999999748353
210
0.0
220
0.0
230
-1.0
100
AcDbArc
 50
48.24357979246238
 51
73.9264831163421
  0
LINE
  5
216
330
12E
100
AcDbEntity
  8
0
  6
________________
 62
     7
370
     9
100
AcDbLine
 10
360.5000000000002
 20
42.2500000000046
 30
0.0
 11
369.5000000000002
 21
42.2500000000046
 31
0.0
  0
LINE
  5
217
330
12E
100
AcDbEntity
  8
0
  6
________________
 62
     7
370
     9
100
AcDbLine
 10
350.5000000000001
 20
42.2500000000046
 30
0.0
 11
359.5000000000002
 21
42.2500000000046
 31
0.0
  0
LINE
  5
218
330
12E
100
AcDbEntity
  8
0
  6
________________
 62
     7
370
     9
100
AcDbLine
 10
369.5000000000002
 20
40.2500000000046
 30
0.0
 11
350.5000000000001
 21
40.2500000000046
 31
0.0
  0
LINE
  5
219
330
12E
100
AcDbEntity
  8
0
  6
________________
 62
     7
370
     9
100
AcDbLine
 10
370.5000000000002
 20
42.2500000000046
 30
0.0
 11
370.5000000000002
 21
40.2500000000046
 31
0.0
  0
LINE
  5
21A
330
12E
100
AcDbEntity
  8
0
  6
________________
 62
     7
370
     9
100
AcDbLine
 10
369.5000000000002
 20
42.2500000000046
 30
0.0
 11
370.5000000000002
 21
42.2500000000046
 31
0.0
  0
LINE
  5
21B
330
12E
100
AcDbEntity
  8
0
  6
________________
 62
     7
370
     9
100
AcDbLine
 10
370.5000000000002
 20
40.2500000000046
 30
0.0
 11
369.5000000000002
 21
40.2500000000046
 31
0.0
  0
LINE
  5
21C
330
12E
100
AcDbEntity
  8
0
  6
________________
 62
     7
370
     9
100
AcDbLine
 10
349.5000000000001
 20
40.2500000000046
 30
0.0
 11
349.5000000000001
 21
42.2500000000046
 31
0.0
  0
LINE
  5
21D
330
12E
100
AcDbEntity
  8
0
  6
________________
 62
     7
370
     9
100
AcDbLine
 10
349.5000000000001
 20
42.2500000000046
 30
0.0
 11
350.5000000000001
 21
42.2500000000046
 31
0.0
  0
LINE
  5
21E
330
12E
100
AcDbEntity
  8
0
  6
________________
 62
     7
370
     9
100
AcDbLine
 10
350.5000000000001
 20
40.2500000000046
 30
0.0
 11
349.5000000000001
 21
40.2500000000046
 31
0.0
  0
LINE
  5
21F
330
12E
100
AcDbEntity
  8
0
  6
________________
 62
     7
370
     9
100
AcDbLine
 10
336.4768985625598
 20
66.2500000000046
 30
0.0
 11
339.5000000000001
 21
66.2500000000046
 31
0.0
  0
ARC
  5
220
330
12E
100
AcDbEntity
  8
0
  6
________________
 62
     7
370
     9
100
AcDbCircle
 10
360.0000000000002
 20
66.2500000000046
 30
0.0
 40
20.5
100
AcDbArc
 50
180.0
 51
0.0
  0
LINE
  5
221
330
12E
100
AcDbEntity
  8
0
  6
________________
 62
     7
370
     9
100
AcDbLine
 10
380.5000000000002
 20
66.2500000000046
 30
0.0
 11
383.5231014374404
 21
66.2500000000046
 31
0.0
  0
LINE
  5
222
330
12E
100
AcDbEntity
  8
0
  6
________________
 62
     7
370
     9
100
AcDbLine
 10
336.2500000000002
 20
40.2500000000046
 30
0.0
 11
349.5000000000001
 21
40.2500000000046
 31
0.0
  0
LINE
  5
223
330
12E
100
AcDbEntity
  8
0
  6
________________
 62
     7
370
     9
100
AcDbLine
 10
370.5000000000002
 20
40.2500000000046
 30
0.0
 11
383.7500000000001
 21
40.2500000000046
 31
0.0
  0
LINE
  5
224
330
12E
100
AcDbEntity
  8
0
  6
________________
 62
     7
370
     9
100
AcDbLine
 10
360.5000000000002
 20
42.2500000000046
 30
0.0
 11
359.5000000000002
 21
42.2500000000046
 31
0.0
  0
LINE
  5
225
330
12E
100
AcDbEntity
  8
0
  6
________________
 62
     7
370
     9
100
AcDbLine
 10
383.7500000000001
 20
40.2500000000046
 30
0.0
 11
384.1000000000001
 21
40.2500000000046
 31
0.0
  0
LINE
  5
226
330
12E
100
AcDbEntity
  8
0
  6
________________
 62
     7
370
     9
100
AcDbLine
 10
335.9000000000001
 20
40.2500000000046
 30
0.0
 11
336.2500000000002
 21
40.2500000000046
 31
0.0
  0
LINE
  5
227
330
12E
100
AcDbEntity
  8
0
  6
________________
 62
     7
370
     9
100
AcDbLine
 10
335.9000000000001
 20
66.2500000000046
 30
0.0
 11
336.4768985625598
 21
66.2500000000046
 31
0.0
  0
LINE
  5
228
330
12E
100
AcDbEntity
  8
0
  6
________________
 62
     7
370
     9
100
AcDbLine
 10
383.5231014374404
 20
66.2500000000046
 30
0.0
 11
384.1000000000001
 21
66.2500000000046
 31
0.0
  0
LINE
  5
229
330
12E
100
AcDbEntity
  8
0
  6
________________
 62
     7
370
     9
100
AcDbLine
 10
386.4000000000001
 20
71.32937605969511
 30
0.0
 11
386.4000000000001
 21
40.2500000000046
 31
0.0
  0
LINE
  5
22A
330
12E
100
AcDbEntity
  8
0
  6
________________
 62
     7
370
     9
100
AcDbLine
 10
386.4000000000001
 20
40.2500000000046
 30
0.0
 11
384.9000000000001
 21
40.2500000000046
 31
0.0
  0
LINE
  5
22B
330
12E
100
AcDbEntity
  8
0
  6
________________
 62
     7
370
     9
100
AcDbLine
 10
384.1000000000001
 20
40.2500000000046
 30
0.0
 11
384.1000000000001
 21
71.32937605969511
 31
0.0
  0
ARC
  5
22C
330
12E
100
AcDbEntity
  8
0
  6
________________
 62
     7
370
     9
100
AcDbCircle
 10
374.1000000000001
 20
71.32937605969511
 30
0.0
 40
10.0
100
AcDbArc
 50
0.0
 51
42.8024765002879
  0
LINE
  5
22D
330
12E
100
AcDbEntity
  8
0
  6
________________
 62
     7
370
     9
100
AcDbLine
 10
381.4370049626898
 20
78.12410623663871
 30
0.0
 11
372.4767105887335
 21
87.79950504967144
 31
0.0
  0
ARC
  5
22E
330
12E
100
AcDbEntity
  8
0
  6
________________
 62
     7
370
     9
100
AcDbCircle
 10
360.0000000000001
 20
-84.74999999999596
 30
0.0
 40
173.0000000000007
100
AcDbArc
 50
85.86425427161672
 51
94.1357457283833
  0
LINE
  5
22F
330
12E
100
AcDbEntity
  8
0
  6
________________
 62
     7
370
     9
100
AcDbLine
 10
347.5232894112669
 20
87.79950504967144
 30
0.0
 11
338.5629950373105
 21
78.1241062366387
 31
0.0
  0
ARC
  5
230
330
12E
100
AcDbEntity
  8
0
  6
________________
 62
     7
370
     9
100
AcDbCircle
 10
345.9000000000001
 20
71.32937605969511
 30
0.0
 40
10.0
100
AcDbArc
 50
137.1975234997122
 51
180.0
  0
LINE
  5
231
330
12E
100
AcDbEntity
  8
0
  6
________________
 62
     7
370
     9
100
AcDbLine
 10
335.1000000000002
 20
40.2500000000046
 30
0.0
 11
335.9000000000001
 21
40.2500000000046
 31
0.0
  0
LINE
  5
232
330
12E
100
AcDbEntity
  8
0
  6
________________
 62
     7
370
     9
100
AcDbLine
 10
335.9000000000001
 20
71.32937605969511
 30
0.0
 11
335.9000000000001
 21
40.2500000000046
 31
0.0
  0
LINE
  5
233
330
12E
100
AcDbEntity
  8
0
  6
________________
 62
     7
370
     9
100
AcDbLine
 10
384.1000000000001
 20
40.2500000000046
 30
0.0
 11
384.9000000000001
 21
40.2500000000046
 31
0.0
  0
LINE
  5
234
330
12E
100
AcDbEntity
  8
0
  6
________________
 62
     7
370
     9
100
AcDbLine
 10
333.6000000000002
 20
40.2500000000046
 30
0.0
 11
333.6000000000002
 21
71.32937605969511
 31
0.0
  0
LINE
  5
235
330
12E
100
AcDbEntity
  8
0
  6
________________
 62
     7
370
     9
100
AcDbLine
 10
335.1000000000002
 20
40.2500000000046
 30
0.0
 11
333.6000000000002
 21
40.2500000000046
 31
0.0
  0
ARC
  5
236
330
12E
100
AcDbEntity
  8
0
  6
________________
 62
     7
370
     9
100
AcDbCircle
 10
-374.1000000000001
 20
71.32937605969511
 30
0.0
 40
12.3
210
0.0
220
0.0
230
-1.0
100
AcDbArc
 50
137.1975234997119
 51
180.0
  0
ARC
  5
237
330
12E
100
AcDbEntity
  8
0
  6
________________
 62
     7
370
     9
100
AcDbCircle
 10
-345.9000000000001
 20
71.32937605969511
 30
0.0
 40
12.3
210
0.0
220
0.0
230
-1.0
100
AcDbArc
 50
0.0
 51
42.80247650028777
  0
LINE
  5
238
330
12E
100
AcDbEntity
  8
0
  6
________________
 62
     7
370
     9
100
AcDbLine
 10
336.8754838958919
 20
79.6868941773357
 30
0.0
 11
346.4500000000001
 21
90.02553461512173
 31
0.0
  0
LINE
  5
239
330
12E
100
AcDbEntity
  8
0
  6
________________
 62
     7
370
     9
100
AcDbLine
 10
346.4500000000001
 20
90.02553461512173
 30
0.0
 11
346.4503047337838
 21
90.02555824025936
 31
0.0
  0
LINE
  5
23A
330
12E
100
AcDbEntity
  8
0
  6
________________
 62
     7
370
     9
100
AcDbLine
 10
373.5496952662166
 20
90.02555824025934
 30
0.0
 11
373.5500000000001
 21
90.02553461512171
 31
0.0
  0
LINE
  5
23B
330
12E
100
AcDbEntity
  8
0
  6
________________
 62
     7
370
     9
100
AcDbLine
 10
373.5500000000001
 20
90.02553461512171
 30
0.0
 11
383.1245161041084
 21
79.68689417733572
 31
0.0
  0
ARC
  5
23C
330
12E
100
AcDbEntity
  8
0
  6
________________
 62
     7
370
     9
100
AcDbCircle
 10
-360.0000000000001
 20
-84.74999999999596
 30
0.0
 40
175.3000000000006
210
0.0
220
0.0
230
-1.0
100
AcDbArc
 50
85.5669397161404
 51
94.43306028385958
  0
LINE
  5
23D
330
12E
100
AcDbEntity
  8
0
  6
________________
 62
     7
370
     9
100
AcDbLine
 10
321.5000000000002
 20
40.2500000000046
 30
0.0
 11
322.0164068034865
 21
99.42435852909136
 31
0.0
  0
LINE
  5
23E
330
12E
100
AcDbEntity
  8
0
  6
________________
 62
     7
370
     9
100
AcDbLine
 10
333.0237493614215
 20
40.2500000000046
 30
0.0
 11
321.5000000000002
 21
40.2500000000046
 31
0.0
  0
LINE
  5
23F
330
12E
100
AcDbEntity
  8
0
  6
________________
 62
     7
370
     9
100
AcDbLine
 10
397.9835931965138
 20
99.42435852909112
 30
0.0
 11
398.5000000000001
 21
40.2500000000046
 31
0.0
  0
LINE
  5
240
330
12E
100
AcDbEntity
  8
0
  6
________________
 62
     7
370
     9
100
AcDbLine
 10
398.5000000000001
 20
40.2500000000046
 30
0.0
 11
386.9762506385788
 21
40.2500000000046
 31
0.0
  0
LINE
  5
241
330
12E
100
AcDbEntity
  8
0
  6
________________
 62
     7
370
     9
100
AcDbLine
 10
386.9762506385788
 20
40.2500000000046
 30
0.0
 11
386.4000000000001
 21
40.2500000000046
 31
0.0
  0
LINE
  5
242
330
12E
100
AcDbEntity
  8
0
  6
________________
 62
     7
370
     9
100
AcDbLine
 10
333.6000000000002
 20
40.2500000000046
 30
0.0
 11
333.0237493614215
 21
40.2500000000046
 31
0.0
  0
ELLIPSE
  5
243
330
12E
100
AcDbEntity
  8
0
  6
________________
 62
     7
370
     9
100
AcDbEllipse
 10
325.5162735342111
 20
99.39381565484703
 30
0.0
 11
-3.49986673072461
 21
0.03054287424432433
 31
3.370377402677673E-34
210
-9.629283054381666E-35
220
8.403348013542532E-37
230
-1.0
 40
0.9736643963986761
 41
0.0
 42
0.1562301333680265
  0
LINE
  5
244
330
12E
100
AcDbEntity
  8
0
  6
________________
 62
     7
370
     9
100
AcDbLine
 10
325.5281087756912
 20
104.2500000000046
 30
0.0
 11
325.5280583458857
 21
104.2438285906186
 31
0.0
  0
LINE
  5
245
330
12E
100
AcDbEntity
  8
0
  6
________________
 62
     7
370
     9
100
AcDbLine
 10
325.5281087756912
 20
104.2500000000046
 30
0.0
 11
394.4718912243092
 21
104.2500000000046
 31
0.0
  0
LINE
  5
246
330
12E
100
AcDbEntity
  8
0
  6
________________
 62
     7
370
     9
100
AcDbLine
 10
397.9717579550338
 20
100.7805428742489
 30
0.0
 11
397.9835931965139
 21
99.42435852909135
 31
0.0
  0
ARC
  5
247
330
12E
100
AcDbEntity
  8
0
  6
________________
 62
     7
370
     9
100
AcDbCircle
 10
394.4718912243092
 20
100.7500000000046
 30
0.0
 40
3.50000000000001
100
AcDbArc
 50
0.5000000000000262
 51
90.00000000000001
  0
LINE
  5
248
330
12E
100
AcDbEntity
  8
0
  6
________________
 62
     7
370
     9
100
AcDbLine
 10
330.0000000000002
 20
109.7500000000046
 30
0.0
 11
390.0000000000001
 21
109.7500000000046
 31
0.0
  0
ARC
  5
249
330
12E
100
AcDbEntity
  8
0
  6
________________
 62
     7
370
     9
100
AcDbCircle
 10
325.5583048489729
 20
100.675624346928
 30
0.0
 40
3.56833160774709
100
AcDbArc
 50
90.48566621698072
 51
191.6640009756725
  0
ARC
  5
24A
330
12E
100
AcDbEntity
  8
0
  6
________________
 62
     7
370
     9
100
AcDbCircle
 10
-328.5000000000001
 20
104.7500000000046
 30
0.0
 40
0.500000000000056
210
0.0
220
0.0
230
-1.0
100
AcDbArc
 50
180.0
 51
270.0
  0
ARC
  5
24B
330
12E
100
AcDbEntity
  8
0
  6
________________
 62
     7
370
     9
100
AcDbCircle
 10
-391.5000000000002
 20
104.7500000000046
 30
0.0
 40
0.5000000000000004
210
0.0
220
0.0
230
-1.0
100
AcDbArc
 50
270.0
 51
0.0
  0
LINE
  5
24C
330
12E
100
AcDbEntity
  8
0
  6
________________
 62
     7
370
     9
100
AcDbLine
 10
329.0000000000002
 20
108.7500000000046
 30
0.0
 11
329.0000000000002
 21
104.7500000000046
 31
0.0
  0
LINE
  5
24D
330
12E
100
AcDbEntity
  8
0
  6
________________
 62
     7
370
     9
100
AcDbLine
 10
391.0000000000001
 20
104.7500000000046
 30
0.0
 11
391.0000000000001
 21
108.7500000000046
 31
0.0
  0
ARC
  5
24E
330
12E
100
AcDbEntity
  8
0
  6
________________
 62
     7
370
     9
100
AcDbCircle
 10
330.0000000000002
 20
108.7500000000046
 30
0.0
 40
1.000000000000001
100
AcDbArc
 50
90.0
 51
180.0
  0
ARC
  5
24F
330
12E
100
AcDbEntity
  8
0
  6
________________
 62
     7
370
     9
100
AcDbCircle
 10
390.0000000000001
 20
108.7500000000046
 30
0.0
 40
1.000000000000001
100
AcDbArc
 50
0.0
 51
90.0
  0
ENDBLK
  5
259
330
12E
100
AcDbEntity
  8
0
100
AcDbBlockEnd
  0
ENDSEC
  0
SECTION
  2
ENTITIES
  0
INSERT
  5
FD
330
1F
100
AcDbEntity
  8
0
  6
________________
 62
     7
370
     9
100
AcDbBlockReference
  2
@1481
 10
0.0
 20
0.0
 30
0.0
  0
INSERT
  5
12D
330
1F
100
AcDbEntity
  8
0
  6
________________
 62
     7
370
     9
100
AcDbBlockReference
  2
@1626
 10
0.0
 20
0.0
 30
0.0
  0
INSERT
  5
250
330
1F
100
AcDbEntity
  8
0
  6
________________
 62
     7
370
     9
100
AcDbBlockReference
  2
@1711
 10
0.0
 20
0.0
 30
0.0
  0
MTEXT
  5
251
330
1F
100
AcDbEntity
  8
0
 62
     1
420
 16711680
100
AcDbMText
 10
464.9999999999999
 20
107.2159090909091
 30
0.0
 40
5.0
 41
0.0
 46
0.0
 71
     1
 72
     1
  1
{\FＭＳ ゴシック;RMTB-25M-20}
 73
     1
 44
1.0
  0
LINE
  5
252
330
1F
100
AcDbEntity
  8
0
  6
______....__....
 62
     1
420
 16711680
370
     9
100
AcDbLine
 10
310.0
 20
240.0
 30
0.0
 11
404.9999999999999
 21
240.0
 31
0.0
  0
LINE
  5
254
330
1F
100
AcDbEntity
  8
0
  6
______....__....
 62
     1
420
 16711680
370
     9
100
AcDbLine
 10
360.0
 20
145.0
 30
0.0
 11
360.0
 21
329.9999999999999
 31
0.0
  0
LINE
  5
255
330
1F
100
AcDbEntity
  8
0
  6
______....__....
 62
     1
420
 16711680
370
     9
100
AcDbLine
 10
467.2499999999954
 20
240.0
 30
0.0
 11
542.7499999999953
 21
240.0
 31
0.0
  0
LINE
  5
256
330
1F
100
AcDbEntity
  8
0
  6
______....__....
 62
     1
420
 16711680
370
     9
100
AcDbLine
 10
337.5000000000001
 20
66.2500000000046
 30
0.0
 11
382.5000000000002
 21
66.2500000000046
 31
0.0
  0
LINE
  5
257
330
1F
100
AcDbEntity
  8
0
  6
______....__....
 62
     1
420
 16711680
370
     9
100
AcDbLine
 10
360.0000000000002
 20
35.00000000000001
 30
0.0
 11
360.0000000000002
 21
115.0
 31
0.0
  0
ENDSEC
  0
SECTION
  2
OBJECTS
  0
DICTIONARY
  5
C
330
0
100
AcDbDictionary
281
     1
  3
ACAD_GROUP
350
D
  3
ACAD_LAYOUT
350
1A
  3
ACAD_MLEADERSTYLE
350
25B
  3
ACAD_MLINESTYLE
350
17
  3
ACAD_PLOTSETTINGS
350
19
  3
ACAD_PLOTSTYLENAME
350
E
  3
ACAD_TABLESTYLE
350
25A
  3
ACAD_VISUALSTYLE
350
2A
  0
DICTIONARY
  5
D
102
{ACAD_REACTORS
330
C
102
}
330
C
100
AcDbDictionary
281
     1
  0
DICTIONARY
  5
1A
102
{ACAD_REACTORS
330
C
102
}
330
C
100
AcDbDictionary
281
     1
  3
Layout1
350
1E
  3
Layout2
350
26
  3
Model
350
22
  0
DICTIONARY
  5
25B
102
{ACAD_REACTORS
330
C
102
}
330
C
100
AcDbDictionary
281
     1
  0
DICTIONARY
  5
17
102
{ACAD_REACTORS
330
C
102
}
330
C
100
AcDbDictionary
281
     1
  3
Standard
350
18
  0
DICTIONARY
  5
19
102
{ACAD_REACTORS
330
C
102
}
330
C
100
AcDbDictionary
281
     1
  0
ACDBDICTIONARYWDFLT
  5
E
102
{ACAD_REACTORS
330
C
102
}
330
C
100
AcDbDictionary
281
     1
  3
Normal
350
F
100
AcDbDictionaryWithDefault
340
F
  0
DICTIONARY
  5
25A
102
{ACAD_REACTORS
330
C
102
}
330
C
100
AcDbDictionary
281
     1
  0
DICTIONARY
  5
2A
102
{ACAD_REACTORS
330
C
102
}
330
C
100
AcDbDictionary
281
     1
  3
2dWireframe
350
2F
  3
3D Hidden
350
31
  3
3dWireframe
350
30
  3
Basic
350
32
  3
Brighten
350
36
  3
ColorChange
350
3A
  3
Conceptual
350
34
  3
Dim
350
35
  3
Facepattern
350
39
  3
Flat
350
2B
  3
FlatWithEdges
350
2C
  3
Gouraud
350
2D
  3
GouraudWithEdges
350
2E
  3
Linepattern
350
38
  3
Realistic
350
33
  3
Thicken
350
37
  0
LAYOUT
  5
1E
102
{ACAD_REACTORS
330
1A
102
}
330
1A
100
AcDbPlotSettings
  1

  2
none_device
  4

  6

 40
0.0
 41
0.0
 42
0.0
 43
0.0
 44
0.0
 45
0.0
 46
0.0
 47
0.0
 48
0.0
 49
0.0
140
0.0
141
0.0
142
1.0
143
1.0
 70
   688
 72
     0
 73
     0
 74
     5
  7

 75
    16
 76
     0
 77
     2
 78
   300
147
1.0
148
0.0
149
0.0
100
AcDbLayout
  1
Layout1
 70
     1
 71
     1
 10
0.0
 20
0.0
 11
12.0
 21
9.0
 12
0.0
 22
0.0
 32
0.0
 14
1.000000000000000E+20
 24
1.000000000000000E+20
 34
1.000000000000000E+20
 15
-1.000000000000000E+20
 25
-1.000000000000000E+20
 35
-1.000000000000000E+20
146
0.0
 13
0.0
 23
0.0
 33
0.0
 16
1.0
 26
0.0
 36
0.0
 17
0.0
 27
1.0
 37
0.0
 76
     0
330
1B
  0
LAYOUT
  5
26
102
{ACAD_REACTORS
330
1A
102
}
330
1A
100
AcDbPlotSettings
  1

  2
none_device
  4

  6

 40
0.0
 41
0.0
 42
0.0
 43
0.0
 44
0.0
 45
0.0
 46
0.0
 47
0.0
 48
0.0
 49
0.0
140
0.0
141
0.0
142
1.0
143
1.0
 70
   688
 72
     0
 73
     0
 74
     5
  7

 75
    16
 76
     0
 77
     2
 78
   300
147
1.0
148
0.0
149
0.0
100
AcDbLayout
  1
Layout2
 70
     1
 71
     2
 10
0.0
 20
0.0
 11
0.0
 21
0.0
 12
0.0
 22
0.0
 32
0.0
 14
0.0
 24
0.0
 34
0.0
 15
0.0
 25
0.0
 35
0.0
146
0.0
 13
0.0
 23
0.0
 33
0.0
 16
1.0
 26
0.0
 36
0.0
 17
0.0
 27
1.0
 37
0.0
 76
     0
330
23
  0
LAYOUT
  5
22
102
{ACAD_REACTORS
330
1A
102
}
330
1A
100
AcDbPlotSettings
  1

  2
none_device
  4

  6

 40
0.0
 41
0.0
 42
0.0
 43
0.0
 44
0.0
 45
0.0
 46
0.0
 47
0.0
 48
0.0
 49
0.0
140
0.0
141
0.0
142
1.0
143
1.0
 70
  1712
 72
     0
 73
     0
 74
     0
  7

 75
     0
 76
     0
 77
     2
 78
   300
147
1.0
148
0.0
149
0.0
100
AcDbLayout
  1
Model
 70
     1
 71
     0
 10
0.0
 20
0.0
 11
12.0
 21
9.0
 12
0.0
 22
0.0
 32
0.0
 14
310.0
 24
35.00000000000001
 34
0.0
 15
542.7499999999953
 25
329.9999999999999
 35
0.0
146
0.0
 13
0.0
 23
0.0
 33
0.0
 16
1.0
 26
0.0
 36
0.0
 17
0.0
 27
1.0
 37
0.0
 76
     0
330
1F
331
29
  0
MLINESTYLE
  5
18
102
{ACAD_REACTORS
330
17
102
}
330
17
100
AcDbMlineStyle
  2
Standard
 70
     0
  3

 62
   256
 51
90.0
 52
90.0
 71
     2
 49
0.5
 62
   256
  6
BYLAYER
 49
-0.5
 62
   256
  6
BYLAYER
  0
ACDBPLACEHOLDER
  5
F
102
{ACAD_REACTORS
330
E
102
}
330
E
  0
VISUALSTYLE
  5
2F
102
{ACAD_REACTORS
330
2A
102
}
330
2A
100
AcDbVisualStyle
  2
2dWireframe
 70
     4
 71
     0
 72
     2
 73
     0
 90
        0
 40
-0.6
 41
-30.0
 62
     5
 63
     7
421
 16777215
 74
     1
 91
        4
 64
     7
 65
   257
 75
     1
175
     1
 42
1.0
 92
        0
 66
   257
 43
1.0
 76
     1
 77
     6
 78
     2
 67
     7
 79
     5
170
     0
171
     0
290
     0
174
     0
 93
        1
 44
0.0
173
     0
291
     0
 45
0.0
  0
VISUALSTYLE
  5
31
102
{ACAD_REACTORS
330
2A
102
}
330
2A
100
AcDbVisualStyle
  2
3D Hidden
 70
     6
 71
     1
 72
     2
 73
     2
 90
        0
 40
-0.6
 41
-30.0
 62
     5
 63
     7
421
 16777215
 74
     2
 91
        2
 64
     7
 65
   257
 75
     2
175
     1
 42
40.0
 92
        0
 66
   257
 43
1.0
 76
     1
 77
     6
 78
     2
 67
     7
 79
     3
170
     0
171
     0
290
     0
174
     0
 93
        1
 44
0.0
173
     0
291
     0
 45
0.0
  0
VISUALSTYLE
  5
30
102
{ACAD_REACTORS
330
2A
102
}
330
2A
100
AcDbVisualStyle
  2
3dWireframe
 70
     5
 71
     0
 72
     2
 73
     0
 90
        0
 40
-0.6
 41
-30.0
 62
     5
 63
     7
421
 16777215
 74
     1
 91
        4
 64
     7
 65
   257
 75
     1
175
     1
 42
1.0
 92
        0
 66
   257
 43
1.0
 76
     1
 77
     6
 78
     2
 67
     7
 79
     5
170
     0
171
     0
290
     0
174
     0
 93
        1
 44
0.0
173
     0
291
     0
 45
0.0
  0
VISUALSTYLE
  5
32
102
{ACAD_REACTORS
330
2A
102
}
330
2A
100
AcDbVisualStyle
  2
Basic
 70
     7
 71
     1
 72
     0
 73
     1
 90
        0
 40
-0.6
 41
-30.0
 62
     5
 63
     7
421
 16777215
 74
     0
 91
        4
 64
     7
 65
   257
 75
     1
175
     1
 42
1.0
 92
        8
 66
     7
 43
1.0
 76
     1
 77
     6
 78
     2
 67
     7
 79
     5
170
     0
171
     0
290
     0
174
     0
 93
        1
 44
0.0
173
     0
291
     1
 45
0.0
  0
VISUALSTYLE
  5
36
102
{ACAD_REACTORS
330
2A
102
}
330
2A
100
AcDbVisualStyle
  2
Brighten
 70
    12
 71
     2
 72
     2
 73
     0
 90
        0
 40
-0.6
 41
-30.0
 62
     5
 63
     7
421
 16777215
 74
     1
 91
        4
 64
     7
 65
   257
 75
     1
175
     1
 42
1.0
 92
        8
 66
     7
 43
1.0
 76
     1
 77
     6
 78
     2
 67
     7
 79
     5
170
     0
171
     0
290
     0
174
     0
 93
        1
 44
50.0
173
     0
291
     1
 45
0.0
  0
VISUALSTYLE
  5
3A
102
{ACAD_REACTORS
330
2A
102
}
330
2A
100
AcDbVisualStyle
  2
ColorChange
 70
    16
 71
     2
 72
     2
 73
     3
 90
        0
 40
-0.6
 41
-30.0
 62
     5
 63
     8
421
  8421504
 74
     1
 91
        4
 64
     7
 65
   257
 75
     1
175
     1
 42
1.0
 92
        8
 66
     8
424
  8421504
 43
1.0
 76
     1
 77
     6
 78
     2
 67
     7
 79
     5
170
     0
171
     0
290
     0
174
     0
 93
        1
 44
0.0
173
     0
291
     1
 45
0.0
  0
VISUALSTYLE
  5
34
102
{ACAD_REACTORS
330
2A
102
}
330
2A
100
AcDbVisualStyle
  2
Conceptual
 70
     9
 71
     3
 72
     2
 73
     0
 90
        0
 40
-0.6
 41
-30.0
 62
     5
 63
     7
421
 16777215
 74
     2
 91
        2
 64
     7
 65
   257
 75
     1
175
     1
 42
40.0
 92
        8
 66
     7
 43
1.0
 76
     1
 77
     6
 78
     2
 67
     7
 79
     3
170
     0
171
     0
290
     0
174
     0
 93
        1
 44
0.0
173
     0
291
     0
 45
0.0
  0
VISUALSTYLE
  5
35
102
{ACAD_REACTORS
330
2A
102
}
330
2A
100
AcDbVisualStyle
  2
Dim
 70
    11
 71
     2
 72
     2
 73
     0
 90
        0
 40
-0.6
 41
-30.0
 62
     5
 63
     7
421
 16777215
 74
     1
 91
        4
 64
     7
 65
   257
 75
     1
175
     1
 42
1.0
 92
        8
 66
     7
 43
1.0
 76
     1
 77
     6
 78
     2
 67
     7
 79
     5
170
     0
171
     0
290
     0
174
     0
 93
        1
 44
-50.0
173
     0
291
     1
 45
0.0
  0
VISUALSTYLE
  5
39
102
{ACAD_REACTORS
330
2A
102
}
330
2A
100
AcDbVisualStyle
  2
Facepattern
 70
    15
 71
     2
 72
     2
 73
     0
 90
        0
 40
-0.6
 41
-30.0
 62
     5
 63
     7
421
 16777215
 74
     1
 91
        4
 64
     7
 65
   257
 75
     1
175
     1
 42
1.0
 92
        8
 66
     7
 43
1.0
 76
     1
 77
     6
 78
     2
 67
     7
 79
     5
170
     0
171
     0
290
     0
174
     0
 93
        1
 44
0.0
173
     0
291
     1
 45
0.0
  0
VISUALSTYLE
  5
2B
102
{ACAD_REACTORS
330
2A
102
}
330
2A
100
AcDbVisualStyle
  2
Flat
 70
     0
 71
     2
 72
     1
 73
     1
 90
        2
 40
-0.6
 41
30.0
 62
     5
 63
     7
421
 16777215
 74
     0
 91
        4
 64
     7
 65
   257
 75
     1
175
     1
 42
1.0
 92
        8
 66
     7
 43
1.0
 76
     1
 77
     6
 78
     2
 67
     7
 79
     5
170
     0
171
     0
290
     0
174
     0
 93
       13
 44
0.0
173
     0
291
     1
 45
0.0
  0
VISUALSTYLE
  5
2C
102
{ACAD_REACTORS
330
2A
102
}
330
2A
100
AcDbVisualStyle
  2
FlatWithEdges
 70
     1
 71
     2
 72
     1
 73
     1
 90
        2
 40
-0.6
 41
30.0
 62
     5
 63
     7
421
 16777215
 74
     1
 91
        4
 64
     7
 65
   257
 75
     1
175
     1
 42
1.0
 92
        0
 66
   257
 43
1.0
 76
     1
 77
     6
 78
     2
 67
     7
 79
     5
170
     0
171
     0
290
     0
174
     0
 93
       13
 44
0.0
173
     0
291
     1
 45
0.0
  0
VISUALSTYLE
  5
2D
102
{ACAD_REACTORS
330
2A
102
}
330
2A
100
AcDbVisualStyle
  2
Gouraud
 70
     2
 71
     2
 72
     2
 73
     1
 90
        2
 40
-0.6
 41
30.0
 62
     5
 63
     7
421
 16777215
 74
     0
 91
        4
 64
     7
 65
   257
 75
     1
175
     1
 42
1.0
 92
        0
 66
     7
 43
1.0
 76
     1
 77
     6
 78
     2
 67
     7
 79
     5
170
     0
171
     0
290
     0
174
     0
 93
       13
 44
0.0
173
     0
291
     1
 45
0.0
  0
VISUALSTYLE
  5
2E
102
{ACAD_REACTORS
330
2A
102
}
330
2A
100
AcDbVisualStyle
  2
GouraudWithEdges
 70
     3
 71
     2
 72
     2
 73
     1
 90
        2
 40
-0.6
 41
30.0
 62
     5
 63
     7
421
 16777215
 74
     1
 91
        4
 64
     7
 65
   257
 75
     1
175
     1
 42
1.0
 92
        0
 66
   257
 43
1.0
 76
     1
 77
     6
 78
     2
 67
     7
 79
     5
170
     0
171
     0
290
     0
174
     0
 93
       13
 44
0.0
173
     0
291
     1
 45
0.0
  0
VISUALSTYLE
  5
38
102
{ACAD_REACTORS
330
2A
102
}
330
2A
100
AcDbVisualStyle
  2
Linepattern
 70
    14
 71
     2
 72
     2
 73
     0
 90
        0
 40
-0.6
 41
-30.0
 62
     5
 63
     7
421
 16777215
 74
     1
 91
        4
 64
     7
 65
   257
 75
     7
175
     7
 42
1.0
 92
        8
 66
     7
 43
1.0
 76
     1
 77
     6
 78
     2
 67
     7
 79
     5
170
     0
171
     0
290
     0
174
     0
 93
        1
 44
0.0
173
     0
291
     1
 45
0.0
  0
VISUALSTYLE
  5
33
102
{ACAD_REACTORS
330
2A
102
}
330
2A
100
AcDbVisualStyle
  2
Realistic
 70
     8
 71
     2
 72
     2
 73
     0
 90
        0
 40
-0.6
 41
-30.0
 62
     5
 63
     7
421
 16777215
 74
     1
 91
        0
 64
     7
 65
   257
 75
     1
175
     1
 42
1.0
 92
        8
 66
     8
424
  7895160
 43
1.0
 76
     1
 77
     6
 78
     2
 67
     7
 79
     5
170
     0
171
     0
290
     0
174
     0
 93
       13
 44
0.0
173
     0
291
     0
 45
0.0
  0
VISUALSTYLE
  5
37
102
{ACAD_REACTORS
330
2A
102
}
330
2A
100
AcDbVisualStyle
  2
Thicken
 70
    13
 71
     2
 72
     2
 73
     0
 90
        0
 40
-0.6
 41
-30.0
 62
     5
 63
     7
421
 16777215
 74
     1
 91
        4
 64
     7
 65
   257
 75
     1
175
     1
 42
1.0
 92
       12
 66
     7
 43
1.0
 76
     1
 77
     6
 78
     2
 67
     7
 79
     5
170
     0
171
     0
290
     0
174
     0
 93
        1
 44
0.0
173
     0
291
     1
 45
0.0
  0
ENDSEC
  0
EOF
