  0
SECTION
  2
HEADER
  9
$ACADVER
  1
AC1006
  9
$DWGCODEPAGE
  3
ansi_932
  9
$INSBASE
 10
0.0
 20
0.0
 30
0.0
  9
$EXTMIN
 10
104.4917418295415
 20
380.6850747236302
  9
$EXTMAX
 10
435.9285979464944
 20
692.2596384655949
  9
$LIMMIN
 10
0.0
 20
0.0
  9
$LIMMAX
 10
12.0
 20
9.0
  9
$ORTHOMODE
 70
     0
  9
$REGENMODE
 70
     1
  9
$FILLMODE
 70
     1
  9
$QTEXTMODE
 70
     0
  9
$MIRRTEXT
 70
     1
  9
$DRAGMODE
 70
     2
  9
$LTSCALE
 40
1.0
  9
$OSMODE
 70
    37
  9
$ATTMODE
 70
     1
  9
$TEXTSIZE
 40
0.2
  9
$TRACEWID
 40
0.05
  9
$TEXTSTYLE
  7
STANDARD
  9
$CLAYER
  8
0
  9
$CELTYPE
  6
BYLAYER
  9
$CECOLOR
 62
   256
  9
$DIMSCALE
 40
1.0
  9
$DIMASZ
 40
3.0
  9
$DIMEXO
 40
0.0625
  9
$DIMDLI
 40
0.38
  9
$DIMRND
 40
0.0
  9
$DIMDLE
 40
0.0
  9
$DIMEXE
 40
1.5
  9
$DIMTP
 40
0.0
  9
$DIMTM
 40
0.0
  9
$DIMTXT
 40
3.0
  9
$DIMCEN
 40
0.09
  9
$DIMTSZ
 40
0.0
  9
$DIMTOL
 70
     0
  9
$DIMLIM
 70
     0
  9
$DIMTIH
 70
     1
  9
$DIMTOH
 70
     1
  9
$DIMSE1
 70
     0
  9
$DIMSE2
 70
     0
  9
$DIMTAD
 70
     1
  9
$DIMZIN
 70
     0
  9
$DIMBLK
  1

  9
$DIMASO
 70
     1
  9
$DIMSHO
 70
     1
  9
$DIMPOST
  1

  9
$DIMAPOST
  1

  9
$DIMALT
 70
     0
  9
$DIMALTD
 70
     2
  9
$DIMALTF
 40
25.4
  9
$DIMLFAC
 40
1.0
  9
$DIMTOFL
 70
     0
  9
$DIMTVP
 40
0.0
  9
$DIMTIX
 70
     0
  9
$DIMSOXD
 70
     0
  9
$DIMSAH
 70
     0
  9
$DIMBLK1
  1

  9
$DIMBLK2
  1

  9
$LUNITS
 70
     2
  9
$LUPREC
 70
     4
  9
$SKETCHINC
 40
0.1
  9
$FILLETRAD
 40
0.5
  9
$AUNITS
 70
     0
  9
$AUPREC
 70
     0
  9
$MENU
  1
.
  9
$ELEVATION
 40
0.0
  9
$THICKNESS
 40
0.0
  9
$LIMCHECK
 70
     0
  9
$CHAMFERA
 40
0.0
  9
$CHAMFERB
 40
0.0
  9
$SKPOLY
 70
     0
  9
$TDCREATE
 40
2459110.49066669
  9
$TDUPDATE
 40
2459110.49066691
  9
$TDINDWG
 40
0.0000000116
  9
$TDUSRTIMER
 40
0.0000000116
  9
$USRTIMER
 70
     1
  9
$ANGBASE
 50
0.0
  9
$ANGDIR
 70
     0
  9
$PDMODE
 70
     0
  9
$PDSIZE
 40
0.0
  9
$PLINEWID
 40
0.0
  9
$COORDS
 70
     1
  9
$SPLFRAME
 70
     0
  9
$SPLINETYPE
 70
     6
  9
$SPLINESEGS
 70
     8
  9
$ATTDIA
 70
     0
  9
$ATTREQ
 70
     1
  9
$HANDLING
 70
     1
  9
$HANDSEED
  5
8A4
  9
$SURFTAB1
 70
     6
  9
$SURFTAB2
 70
     6
  9
$SURFTYPE
 70
     6
  9
$SURFU
 70
     6
  9
$SURFV
 70
     6
  9
$UCSNAME
  2

  9
$UCSORG
 10
0.0
 20
0.0
 30
0.0
  9
$UCSXDIR
 10
1.0
 20
0.0
 30
0.0
  9
$UCSYDIR
 10
0.0
 20
1.0
 30
0.0
  9
$USERI1
 70
     0
  9
$USERI2
 70
     0
  9
$USERI3
 70
     0
  9
$USERI4
 70
     0
  9
$USERI5
 70
     0
  9
$USERR1
 40
0.0
  9
$USERR2
 40
0.0
  9
$USERR3
 40
0.0
  9
$USERR4
 40
0.0
  9
$USERR5
 40
0.0
  9
$WORLDVIEW
 70
     1
  0
ENDSEC
  0
SECTION
  2
TABLES
  0
TABLE
  2
VPORT
 70
     1
  0
VPORT
  2
*ACTIVE
 70
     0
 10
0.0
 20
0.0
 11
1.0
 21
1.0
 12
270.210169888018
 22
536.4723565946126
 13
0.0
 23
0.0
 14
0.5
 24
0.5
 15
0.5
 25
0.5
 16
0.0
 26
0.0
 36
1.0
 17
0.0
 27
0.0
 37
0.0
 40
311.5745637419647
 41
1.6
 42
50.0
 43
0.0
 44
0.0
 50
0.0
 51
0.0
 71
     0
 72
   100
 73
     1
 74
     3
 75
     0
 76
     0
 77
     0
 78
     0
  0
ENDTAB
  0
TABLE
  2
LTYPE
 70
     2
  0
LTYPE
  2
CONTINUOUS
 70
     0
  3
Solid line
 72
    65
 73
     0
 40
0.0
  0
LTYPE
  2
CENTER
 70
     0
  3

 72
    65
 73
     0
 40
0.0
  0
ENDTAB
  0
TABLE
  2
LAYER
 70
     1
  0
LAYER
  2
0
 70
     0
 62
     7
  6
CONTINUOUS
  0
ENDTAB
  0
TABLE
  2
STYLE
 70
     2
  0
STYLE
  2
STANDARD
 70
     0
 40
0.0
 41
1.0
 50
0.0
 71
     0
 42
0.2
  3
txt
  4

  0
STYLE
  2
ＭＳ_ゴシック
 70
     0
 40
0.0
 41
1.0
 50
0.0
 71
     0
 42
0.2
  3
ＭＳ ゴシック.shx
  4

  0
ENDTAB
  0
TABLE
  2
VIEW
 70
     0
  0
ENDTAB
  0
TABLE
  2
UCS
 70
     0
  0
ENDTAB
  0
ENDSEC
  0
SECTION
  2
BLOCKS
  0
BLOCK
  8
0
  2
D_FRAME_VIEW_1713
 70
     0
 10
0.0
 20
0.0
 30
0.0
  0
CIRCLE
  5
70
  8
0
  6
CONTINUOUS
 62
     7
 10
142.4917418295416
 20
584.2596384655949
 30
0.0
 40
15.0933774853611
  0
ARC
  5
71
  8
0
  6
CONTINUOUS
 62
     7
 10
142.4917418295416
 20
584.2596384655949
 30
0.0
 40
28.0
 50
90.0
 51
180.0
  0
ARC
  5
72
  8
0
  6
CONTINUOUS
 62
     7
 10
142.4917418295416
 20
584.2596384655949
 30
0.0
 40
28.00000000000002
 50
180.0
 51
270.0
  0
ARC
  5
73
  8
0
  6
CONTINUOUS
 62
     7
 10
142.4917418295416
 20
584.2596384655949
 30
0.0
 40
28.00000000000002
 50
270.0
 51
90.0
  0
CIRCLE
  5
74
  8
0
  6
CONTINUOUS
 62
     7
 10
142.4917418295416
 20
584.2596384655949
 30
0.0
 40
17.49999999999999
  0
LINE
  5
75
  8
0
  6
CONTINUOUS
 62
     7
 10
161.529220338199
 20
505.4297126081514
 30
0.0
 11
123.4542632379321
 21
505.4297126080345
 31
0.0
  0
LINE
  5
76
  8
0
  6
CONTINUOUS
 62
     7
 10
123.454263237932
 20
663.0895643231553
 30
0.0
 11
161.5292203381991
 21
663.0895643230385
 31
0.0
  0
LINE
  5
77
  8
0
  6
CONTINUOUS
 62
     7
 10
114.4923338969947
 20
584.4417247825788
 30
0.0
 11
114.497226062123
 21
583.7054842020952
 31
0.0
  0
LINE
  5
78
  8
0
  6
CONTINUOUS
 62
     7
 10
160.7759411121422
 20
684.3197591922491
 30
0.0
 11
160.7762310698837
 21
684.295595450227
 31
0.0
  0
LINE
  5
79
  8
0
  6
CONTINUOUS
 62
     7
 10
160.7762310698837
 20
684.295595450227
 30
0.0
 11
160.7762310698837
 21
663.5825841821861
 31
0.0
  0
POLYLINE
  5
7A
  8
0
  6
CONTINUOUS
 62
     7
 66
     1
 10
0.0
 20
0.0
 30
0.0
  0
VERTEX
  5
279
  8
0
  6
CONTINUOUS
 62
     7
 10
160.7762310698837
 20
663.5825841821861
 30
0.0
  0
VERTEX
  5
27A
  8
0
  6
CONTINUOUS
 62
     7
 10
160.7766042542273
 20
663.5668263161549
 30
0.0
  0
VERTEX
  5
27B
  8
0
  6
CONTINUOUS
 62
     7
 10
160.7777177225146
 20
663.5510861933199
 30
0.0
  0
VERTEX
  5
27C
  8
0
  6
CONTINUOUS
 62
     7
 10
160.779562347631
 20
663.5354149665189
 30
0.0
  0
VERTEX
  5
27D
  8
0
  6
CONTINUOUS
 62
     7
 10
160.7821290024616
 20
663.5198637885893
 30
0.0
  0
VERTEX
  5
27E
  8
0
  6
CONTINUOUS
 62
     7
 10
160.7855429881785
 20
663.5038957181863
 30
0.0
  0
VERTEX
  5
27F
  8
0
  6
CONTINUOUS
 62
     7
 10
160.7897053022753
 20
663.4880890341683
 30
0.0
  0
VERTEX
  5
280
  8
0
  6
CONTINUOUS
 62
     7
 10
160.7945875236433
 20
663.4724896289616
 30
0.0
  0
VERTEX
  5
281
  8
0
  6
CONTINUOUS
 62
     7
 10
160.8001612311741
 20
663.4571433949924
 30
0.0
  0
VERTEX
  5
282
  8
0
  6
CONTINUOUS
 62
     7
 10
160.8084040331044
 20
663.4376170962779
 30
0.0
  0
VERTEX
  5
283
  8
0
  6
CONTINUOUS
 62
     7
 10
160.8177398834041
 20
663.418534169941
 30
0.0
  0
VERTEX
  5
284
  8
0
  6
CONTINUOUS
 62
     7
 10
160.8280888846759
 20
663.399944441996
 30
0.0
  0
VERTEX
  5
285
  8
0
  6
CONTINUOUS
 62
     7
 10
160.839371139522
 20
663.3818977384573
 30
0.0
  0
VERTEX
  5
286
  8
0
  6
CONTINUOUS
 62
     7
 10
160.8515067505451
 20
663.3644438853388
 30
0.0
  0
VERTEX
  5
287
  8
0
  6
CONTINUOUS
 62
     7
 10
160.8644158203475
 20
663.3476327086549
 30
0.0
  0
VERTEX
  5
288
  8
0
  6
CONTINUOUS
 62
     7
 10
160.878981360905
 20
663.3303987810417
 30
0.0
  0
VERTEX
  5
289
  8
0
  6
CONTINUOUS
 62
     7
 10
160.8943309912258
 20
663.3138333433423
 30
0.0
  0
VERTEX
  5
28A
  8
0
  6
CONTINUOUS
 62
     7
 10
160.910386559743
 20
663.2979501633873
 30
0.0
  0
VERTEX
  5
28B
  8
0
  6
CONTINUOUS
 62
     7
 10
160.9270699148901
 20
663.2827630090076
 30
0.0
  0
VERTEX
  5
28C
  8
0
  6
CONTINUOUS
 62
     7
 10
160.9508786404879
 20
663.2630434449034
 30
0.0
  0
VERTEX
  5
28D
  8
0
  6
CONTINUOUS
 62
     7
 10
160.9756756981395
 20
663.2445537315895
 30
0.0
  0
VERTEX
  5
28E
  8
0
  6
CONTINUOUS
 62
     7
 10
161.0013145904902
 20
663.2272875053766
 30
0.0
  0
VERTEX
  5
28F
  8
0
  6
CONTINUOUS
 62
     7
 10
161.0296044852906
 20
663.2101054583587
 30
0.0
  0
VERTEX
  5
290
  8
0
  6
CONTINUOUS
 62
     7
 10
161.0586755860569
 20
663.1942222854912
 30
0.0
  0
VERTEX
  5
291
  8
0
  6
CONTINUOUS
 62
     7
 10
161.0884089988269
 20
663.1796111132262
 30
0.0
  0
VERTEX
  5
292
  8
0
  6
CONTINUOUS
 62
     7
 10
161.1186858296382
 20
663.1662450680162
 30
0.0
  0
VERTEX
  5
293
  8
0
  6
CONTINUOUS
 62
     7
 10
161.1609459535391
 20
663.1498634574309
 30
0.0
  0
VERTEX
  5
294
  8
0
  6
CONTINUOUS
 62
     7
 10
161.2039991674681
 20
663.1356150961919
 30
0.0
  0
VERTEX
  5
295
  8
0
  6
CONTINUOUS
 62
     7
 10
161.2476522790791
 20
663.1234296847756
 30
0.0
  0
VERTEX
  5
296
  8
0
  6
CONTINUOUS
 62
     7
 10
161.3030454729257
 20
663.1109343119665
 30
0.0
  0
VERTEX
  5
297
  8
0
  6
CONTINUOUS
 62
     7
 10
161.359123882202
 20
663.1013900768206
 30
0.0
  0
VERTEX
  5
298
  8
0
  6
CONTINUOUS
 62
     7
 10
161.415662500467
 20
663.0947069919057
 30
0.0
  0
VERTEX
  5
299
  8
0
  6
CONTINUOUS
 62
     7
 10
161.4724363212797
 20
663.090795069789
 30
0.0
  0
VERTEX
  5
29A
  8
0
  6
CONTINUOUS
 62
     7
 10
161.529220338199
 20
663.0895643230384
 30
0.0
  0
SEQEND
  5
84B
  8
0
  6
CONTINUOUS
 62
     7
  0
POLYLINE
  5
7B
  8
0
  6
CONTINUOUS
 62
     7
 66
     1
 10
0.0
 20
0.0
 30
0.0
  0
VERTEX
  5
29B
  8
0
  6
CONTINUOUS
 62
     7
 10
123.4542632379319
 20
663.0895643231553
 30
0.0
  0
VERTEX
  5
29C
  8
0
  6
CONTINUOUS
 62
     7
 10
123.5020307213196
 20
663.0904256679497
 30
0.0
  0
VERTEX
  5
29D
  8
0
  6
CONTINUOUS
 62
     7
 10
123.5497277279561
 20
663.0931703679528
 30
0.0
  0
VERTEX
  5
29E
  8
0
  6
CONTINUOUS
 62
     7
 10
123.5975865400834
 20
663.0978799206754
 30
0.0
  0
VERTEX
  5
29F
  8
0
  6
CONTINUOUS
 62
     7
 10
123.6452062732542
 20
663.10459799572
 30
0.0
  0
VERTEX
  5
2A0
  8
0
  6
CONTINUOUS
 62
     7
 10
123.6935862932506
 20
663.1136184807629
 30
0.0
  0
VERTEX
  5
2A1
  8
0
  6
CONTINUOUS
 62
     7
 10
123.7414940974005
 20
663.1248893792166
 30
0.0
  0
VERTEX
  5
2A2
  8
0
  6
CONTINUOUS
 62
     7
 10
123.7734040523996
 20
663.1337867212142
 30
0.0
  0
VERTEX
  5
2A3
  8
0
  6
CONTINUOUS
 62
     7
 10
123.8050005054006
 20
663.1437783264046
 30
0.0
  0
VERTEX
  5
2A4
  8
0
  6
CONTINUOUS
 62
     7
 10
123.8362110923034
 20
663.154891260491
 30
0.0
  0
VERTEX
  5
2A5
  8
0
  6
CONTINUOUS
 62
     7
 10
123.8688541260473
 20
663.1679527194973
 30
0.0
  0
VERTEX
  5
2A6
  8
0
  6
CONTINUOUS
 62
     7
 10
123.9009401083548
 20
663.1823717220554
 30
0.0
  0
VERTEX
  5
2A7
  8
0
  6
CONTINUOUS
 62
     7
 10
123.9323476919744
 20
663.1981825636839
 30
0.0
  0
VERTEX
  5
2A8
  8
0
  6
CONTINUOUS
 62
     7
 10
123.9635821178504
 20
663.2157952442678
 30
0.0
  0
VERTEX
  5
2A9
  8
0
  6
CONTINUOUS
 62
     7
 10
123.9939084688368
 20
663.2349779827057
 30
0.0
  0
VERTEX
  5
2AA
  8
0
  6
CONTINUOUS
 62
     7
 10
124.0231368923741
 20
663.2557562587142
 30
0.0
  0
VERTEX
  5
2AB
  8
0
  6
CONTINUOUS
 62
     7
 10
124.0392647841255
 20
663.2683493735332
 30
0.0
  0
VERTEX
  5
2AC
  8
0
  6
CONTINUOUS
 62
     7
 10
124.0549522561302
 20
663.28148989537
 30
0.0
  0
VERTEX
  5
2AD
  8
0
  6
CONTINUOUS
 62
     7
 10
124.0702370092615
 20
663.2952559552233
 30
0.0
  0
VERTEX
  5
2AE
  8
0
  6
CONTINUOUS
 62
     7
 10
124.0849959101578
 20
663.3095871886694
 30
0.0
  0
VERTEX
  5
2AF
  8
0
  6
CONTINUOUS
 62
     7
 10
124.0994372323023
 20
663.3247649794702
 30
0.0
  0
VERTEX
  5
2B0
  8
0
  6
CONTINUOUS
 62
     7
 10
124.1132348833764
 20
663.3405330313459
 30
0.0
  0
VERTEX
  5
2B1
  8
0
  6
CONTINUOUS
 62
     7
 10
124.1264302207177
 20
663.3570155305432
 30
0.0
  0
VERTEX
  5
2B2
  8
0
  6
CONTINUOUS
 62
     7
 10
124.1388570788581
 20
663.3740876037077
 30
0.0
  0
VERTEX
  5
2B3
  8
0
  6
CONTINUOUS
 62
     7
 10
124.1475567011832
 20
663.3871492996687
 30
0.0
  0
VERTEX
  5
2B4
  8
0
  6
CONTINUOUS
 62
     7
 10
124.1557711864015
 20
663.4005230236027
 30
0.0
  0
VERTEX
  5
2B5
  8
0
  6
CONTINUOUS
 62
     7
 10
124.1635160831224
 20
663.4142794546027
 30
0.0
  0
VERTEX
  5
2B6
  8
0
  6
CONTINUOUS
 62
     7
 10
124.1707154474167
 20
663.4283305682525
 30
0.0
  0
VERTEX
  5
2B7
  8
0
  6
CONTINUOUS
 62
     7
 10
124.1774661970805
 20
663.4429484117067
 30
0.0
  0
VERTEX
  5
2B8
  8
0
  6
CONTINUOUS
 62
     7
 10
124.18359244354
 20
663.4578401316708
 30
0.0
  0
VERTEX
  5
2B9
  8
0
  6
CONTINUOUS
 62
     7
 10
124.1891048613659
 20
663.4731014728156
 30
0.0
  0
VERTEX
  5
2BA
  8
0
  6
CONTINUOUS
 62
     7
 10
124.1939285282307
 20
663.4885954237116
 30
0.0
  0
VERTEX
  5
2BB
  8
0
  6
CONTINUOUS
 62
     7
 10
124.1979175723904
 20
663.5037926295997
 30
0.0
  0
VERTEX
  5
2BC
  8
0
  6
CONTINUOUS
 62
     7
 10
124.2012202788763
 20
663.5191626508167
 30
0.0
  0
VERTEX
  5
2BD
  8
0
  6
CONTINUOUS
 62
     7
 10
124.2038163828722
 20
663.5346599319321
 30
0.0
  0
VERTEX
  5
2BE
  8
0
  6
CONTINUOUS
 62
     7
 10
124.2057206226158
 20
663.5505709102754
 30
0.0
  0
VERTEX
  5
2BF
  8
0
  6
CONTINUOUS
 62
     7
 10
124.2068684066106
 20
663.5665637941742
 30
0.0
  0
VERTEX
  5
2C0
  8
0
  6
CONTINUOUS
 62
     7
 10
124.2072525891994
 20
663.5825841821932
 30
0.0
  0
SEQEND
  5
84C
  8
0
  6
CONTINUOUS
 62
     7
  0
LINE
  5
7C
  8
0
  6
CONTINUOUS
 62
     7
 10
124.2072525891994
 20
684.295595450227
 30
0.0
 11
124.2072525891994
 21
663.5825841821932
 31
0.0
  0
LINE
  5
7D
  8
0
  6
CONTINUOUS
 62
     7
 10
124.2072525891994
 20
684.295595450227
 30
0.0
 11
124.2075425469408
 21
684.3197591922491
 31
0.0
  0
LINE
  5
7E
  8
0
  6
CONTINUOUS
 62
     7
 10
124.2072525891994
 20
484.2236814809628
 30
0.0
 11
124.2075425469408
 21
484.1995177389408
 31
0.0
  0
LINE
  5
7F
  8
0
  6
CONTINUOUS
 62
     7
 10
124.2072525891994
 20
484.2236814809628
 30
0.0
 11
124.2072525891994
 21
504.9366927489967
 31
0.0
  0
POLYLINE
  5
80
  8
0
  6
CONTINUOUS
 62
     7
 66
     1
 10
0.0
 20
0.0
 30
0.0
  0
VERTEX
  5
2C1
  8
0
  6
CONTINUOUS
 62
     7
 10
123.4542632379319
 20
505.4297126080346
 30
0.0
  0
VERTEX
  5
2C2
  8
0
  6
CONTINUOUS
 62
     7
 10
123.5021692238105
 20
505.4288469926796
 30
0.0
  0
VERTEX
  5
2C3
  8
0
  6
CONTINUOUS
 62
     7
 10
123.5500435147459
 20
505.4260840850613
 30
0.0
  0
VERTEX
  5
2C4
  8
0
  6
CONTINUOUS
 62
     7
 10
123.5977634261049
 20
505.4213770207885
 30
0.0
  0
VERTEX
  5
2C5
  8
0
  6
CONTINUOUS
 62
     7
 10
123.6452062732542
 20
505.4146789354697
 30
0.0
  0
VERTEX
  5
2C6
  8
0
  6
CONTINUOUS
 62
     7
 10
123.6937945084735
 20
505.4056161666458
 30
0.0
  0
VERTEX
  5
2C7
  8
0
  6
CONTINUOUS
 62
     7
 10
123.7419646956716
 20
505.3942684354011
 30
0.0
  0
VERTEX
  5
2C8
  8
0
  6
CONTINUOUS
 62
     7
 10
123.7895068764232
 20
505.3805526379979
 30
0.0
  0
VERTEX
  5
2C9
  8
0
  6
CONTINUOUS
 62
     7
 10
123.8362110923034
 20
505.3643856706988
 30
0.0
  0
VERTEX
  5
2CA
  8
0
  6
CONTINUOUS
 62
     7
 10
123.8691263431603
 20
505.3512082431923
 30
0.0
  0
VERTEX
  5
2CB
  8
0
  6
CONTINUOUS
 62
     7
 10
123.9015415902895
 20
505.3366190764605
 30
0.0
  0
VERTEX
  5
2CC
  8
0
  6
CONTINUOUS
 62
     7
 10
123.9333035512332
 20
505.3205869532631
 30
0.0
  0
VERTEX
  5
2CD
  8
0
  6
CONTINUOUS
 62
     7
 10
123.9642589435337
 20
505.30308065636
 30
0.0
  0
VERTEX
  5
2CE
  8
0
  6
CONTINUOUS
 62
     7
 10
123.9942544847332
 20
505.2840689685108
 30
0.0
  0
VERTEX
  5
2CF
  8
0
  6
CONTINUOUS
 62
     7
 10
124.0231368923741
 20
505.2635206724756
 30
0.0
  0
VERTEX
  5
2D0
  8
0
  6
CONTINUOUS
 62
     7
 10
124.0445948858633
 20
505.2465663587029
 30
0.0
  0
VERTEX
  5
2D1
  8
0
  6
CONTINUOUS
 62
     7
 10
124.0652542566624
 20
505.2286206362236
 30
0.0
  0
VERTEX
  5
2D2
  8
0
  6
CONTINUOUS
 62
     7
 10
124.0849959101578
 20
505.2096897425204
 30
0.0
  0
VERTEX
  5
2D3
  8
0
  6
CONTINUOUS
 62
     7
 10
124.0994839783222
 20
505.1944588304364
 30
0.0
  0
VERTEX
  5
2D4
  8
0
  6
CONTINUOUS
 62
     7
 10
124.113336845056
 20
505.1786182575252
 30
0.0
  0
VERTEX
  5
2D5
  8
0
  6
CONTINUOUS
 62
     7
 10
124.1264845365158
 20
505.162188323352
 30
0.0
  0
VERTEX
  5
2D6
  8
0
  6
CONTINUOUS
 62
     7
 10
124.1388570788581
 20
505.1451893274821
 30
0.0
  0
VERTEX
  5
2D7
  8
0
  6
CONTINUOUS
 62
     7
 10
124.1503788406445
 20
505.1276552943801
 30
0.0
  0
VERTEX
  5
2D8
  8
0
  6
CONTINUOUS
 62
     7
 10
124.1610243678685
 20
505.1095583068933
 30
0.0
  0
VERTEX
  5
2D9
  8
0
  6
CONTINUOUS
 62
     7
 10
124.1707154474167
 20
505.0909463629374
 30
0.0
  0
VERTEX
  5
2DA
  8
0
  6
CONTINUOUS
 62
     7
 10
124.1774862256692
 20
505.0762782343851
 30
0.0
  0
VERTEX
  5
2DB
  8
0
  6
CONTINUOUS
 62
     7
 10
124.1836337642197
 20
505.0613200998109
 30
0.0
  0
VERTEX
  5
2DC
  8
0
  6
CONTINUOUS
 62
     7
 10
124.1891254145723
 20
505.0461088829352
 30
0.0
  0
VERTEX
  5
2DD
  8
0
  6
CONTINUOUS
 62
     7
 10
124.1939285282307
 20
505.0306815074783
 30
0.0
  0
VERTEX
  5
2DE
  8
0
  6
CONTINUOUS
 62
     7
 10
124.1979414088079
 20
505.0153566538418
 30
0.0
  0
VERTEX
  5
2DF
  8
0
  6
CONTINUOUS
 62
     7
 10
124.2012560831732
 20
504.999829058884
 30
0.0
  0
VERTEX
  5
2E0
  8
0
  6
CONTINUOUS
 62
     7
 10
124.2038585448609
 20
504.9841487967626
 30
0.0
  0
VERTEX
  5
2E1
  8
0
  6
CONTINUOUS
 62
     7
 10
124.205734787405
 20
504.9683659416355
 30
0.0
  0
VERTEX
  5
2E2
  8
0
  6
CONTINUOUS
 62
     7
 10
124.2068708043398
 20
504.952530567661
 30
0.0
  0
VERTEX
  5
2E3
  8
0
  6
CONTINUOUS
 62
     7
 10
124.2072525891994
 20
504.9366927489967
 30
0.0
  0
SEQEND
  5
84D
  8
0
  6
CONTINUOUS
 62
     7
  0
POLYLINE
  5
81
  8
0
  6
CONTINUOUS
 62
     7
 66
     1
 10
0.0
 20
0.0
 30
0.0
  0
VERTEX
  5
2E4
  8
0
  6
CONTINUOUS
 62
     7
 10
160.7762310698837
 20
504.9366927490038
 30
0.0
  0
VERTEX
  5
2E5
  8
0
  6
CONTINUOUS
 62
     7
 10
160.7766042542273
 20
504.9524506150349
 30
0.0
  0
VERTEX
  5
2E6
  8
0
  6
CONTINUOUS
 62
     7
 10
160.7777177225146
 20
504.9681907378699
 30
0.0
  0
VERTEX
  5
2E7
  8
0
  6
CONTINUOUS
 62
     7
 10
160.779562347631
 20
504.983861964671
 30
0.0
  0
VERTEX
  5
2E8
  8
0
  6
CONTINUOUS
 62
     7
 10
160.7821290024616
 20
504.9994131426005
 30
0.0
  0
VERTEX
  5
2E9
  8
0
  6
CONTINUOUS
 62
     7
 10
160.7855429881785
 20
505.0153812130036
 30
0.0
  0
VERTEX
  5
2EA
  8
0
  6
CONTINUOUS
 62
     7
 10
160.7897053022753
 20
505.0311878970215
 30
0.0
  0
VERTEX
  5
2EB
  8
0
  6
CONTINUOUS
 62
     7
 10
160.7945875236433
 20
505.0467873022282
 30
0.0
  0
VERTEX
  5
2EC
  8
0
  6
CONTINUOUS
 62
     7
 10
160.8001612311741
 20
505.0621335361975
 30
0.0
  0
VERTEX
  5
2ED
  8
0
  6
CONTINUOUS
 62
     7
 10
160.8084040331044
 20
505.0816598349119
 30
0.0
  0
VERTEX
  5
2EE
  8
0
  6
CONTINUOUS
 62
     7
 10
160.8177398834041
 20
505.1007427612488
 30
0.0
  0
VERTEX
  5
2EF
  8
0
  6
CONTINUOUS
 62
     7
 10
160.8280888846759
 20
505.1193324891938
 30
0.0
  0
VERTEX
  5
2F0
  8
0
  6
CONTINUOUS
 62
     7
 10
160.839371139522
 20
505.1373791927326
 30
0.0
  0
VERTEX
  5
2F1
  8
0
  6
CONTINUOUS
 62
     7
 10
160.8515067505451
 20
505.154833045851
 30
0.0
  0
VERTEX
  5
2F2
  8
0
  6
CONTINUOUS
 62
     7
 10
160.8644158203475
 20
505.1716442225349
 30
0.0
  0
VERTEX
  5
2F3
  8
0
  6
CONTINUOUS
 62
     7
 10
160.878981360905
 20
505.1888781501481
 30
0.0
  0
VERTEX
  5
2F4
  8
0
  6
CONTINUOUS
 62
     7
 10
160.8943309912258
 20
505.2054435878476
 30
0.0
  0
VERTEX
  5
2F5
  8
0
  6
CONTINUOUS
 62
     7
 10
160.910386559743
 20
505.2213267678025
 30
0.0
  0
VERTEX
  5
2F6
  8
0
  6
CONTINUOUS
 62
     7
 10
160.9270699148901
 20
505.2365139221823
 30
0.0
  0
VERTEX
  5
2F7
  8
0
  6
CONTINUOUS
 62
     7
 10
160.9508786404879
 20
505.2562334862864
 30
0.0
  0
VERTEX
  5
2F8
  8
0
  6
CONTINUOUS
 62
     7
 10
160.9756756981395
 20
505.2747231996003
 30
0.0
  0
VERTEX
  5
2F9
  8
0
  6
CONTINUOUS
 62
     7
 10
161.0013145904902
 20
505.2919894258132
 30
0.0
  0
VERTEX
  5
2FA
  8
0
  6
CONTINUOUS
 62
     7
 10
161.0296044852906
 20
505.3091714728311
 30
0.0
  0
VERTEX
  5
2FB
  8
0
  6
CONTINUOUS
 62
     7
 10
161.0586755860569
 20
505.3250546456986
 30
0.0
  0
VERTEX
  5
2FC
  8
0
  6
CONTINUOUS
 62
     7
 10
161.0884089988268
 20
505.3396658179636
 30
0.0
  0
VERTEX
  5
2FD
  8
0
  6
CONTINUOUS
 62
     7
 10
161.1186858296382
 20
505.3530318631736
 30
0.0
  0
VERTEX
  5
2FE
  8
0
  6
CONTINUOUS
 62
     7
 10
161.1609459535391
 20
505.369413473759
 30
0.0
  0
VERTEX
  5
2FF
  8
0
  6
CONTINUOUS
 62
     7
 10
161.2039991674681
 20
505.383661834998
 30
0.0
  0
VERTEX
  5
300
  8
0
  6
CONTINUOUS
 62
     7
 10
161.2476522790791
 20
505.3958472464142
 30
0.0
  0
VERTEX
  5
301
  8
0
  6
CONTINUOUS
 62
     7
 10
161.3030454729257
 20
505.4083426192233
 30
0.0
  0
VERTEX
  5
302
  8
0
  6
CONTINUOUS
 62
     7
 10
161.359123882202
 20
505.4178868543692
 30
0.0
  0
VERTEX
  5
303
  8
0
  6
CONTINUOUS
 62
     7
 10
161.415662500467
 20
505.4245699392841
 30
0.0
  0
VERTEX
  5
304
  8
0
  6
CONTINUOUS
 62
     7
 10
161.4724363212797
 20
505.4284818614008
 30
0.0
  0
VERTEX
  5
305
  8
0
  6
CONTINUOUS
 62
     7
 10
161.529220338199
 20
505.4297126081512
 30
0.0
  0
SEQEND
  5
84E
  8
0
  6
CONTINUOUS
 62
     7
  0
LINE
  5
82
  8
0
  6
CONTINUOUS
 62
     7
 10
160.7762310698837
 20
484.2236814809628
 30
0.0
 11
160.7762310698837
 21
504.9366927490038
 31
0.0
  0
LINE
  5
83
  8
0
  6
CONTINUOUS
 62
     7
 10
160.7759411121422
 20
484.1995177389408
 30
0.0
 11
160.7762310698837
 21
484.2236814809628
 31
0.0
  0
POLYLINE
  5
84
  8
0
  6
CONTINUOUS
 62
     7
 66
     1
 10
0.0
 20
0.0
 30
0.0
  0
VERTEX
  5
306
  8
0
  6
CONTINUOUS
 62
     7
 10
160.0874805618876
 20
482.7038607790569
 30
0.0
  0
VERTEX
  5
307
  8
0
  6
CONTINUOUS
 62
     7
 10
160.2052246619931
 20
482.7389022465168
 30
0.0
  0
VERTEX
  5
308
  8
0
  6
CONTINUOUS
 62
     7
 10
160.2972981510647
 20
482.79817838866
 30
0.0
  0
VERTEX
  5
309
  8
0
  6
CONTINUOUS
 62
     7
 10
160.3771651539653
 20
482.8746549233603
 30
0.0
  0
VERTEX
  5
30A
  8
0
  6
CONTINUOUS
 62
     7
 10
160.4543825006241
 20
482.9743342296553
 30
0.0
  0
SEQEND
  5
84F
  8
0
  6
CONTINUOUS
 62
     7
  0
ARC
  5
85
  8
0
  6
CONTINUOUS
 62
     7
 10
158.378956665309
 20
484.1738348145131
 30
0.0
 40
2.397122035059417
 50
329.9740649833842
 51
0.6138825258707925
  0
ARC
  5
86
  8
0
  6
CONTINUOUS
 62
     7
 10
126.6296935909863
 20
484.1873654807233
 30
0.0
 40
2.422181528612247
 50
179.7125417644358
 51
211.0023184730196
  0
POLYLINE
  5
87
  8
0
  6
CONTINUOUS
 62
     7
 66
     1
 10
0.0
 20
0.0
 30
0.0
  0
VERTEX
  5
30B
  8
0
  6
CONTINUOUS
 62
     7
 10
124.5535292707031
 20
482.9397657561588
 30
0.0
  0
VERTEX
  5
30C
  8
0
  6
CONTINUOUS
 62
     7
 10
124.6304309882781
 20
482.8489196045776
 30
0.0
  0
VERTEX
  5
30D
  8
0
  6
CONTINUOUS
 62
     7
 10
124.7123522817127
 20
482.7783381927303
 30
0.0
  0
VERTEX
  5
30E
  8
0
  6
CONTINUOUS
 62
     7
 10
124.815555465886
 20
482.7229934889384
 30
0.0
  0
VERTEX
  5
30F
  8
0
  6
CONTINUOUS
 62
     7
 10
124.8960030971956
 20
482.7038607790569
 30
0.0
  0
SEQEND
  5
850
  8
0
  6
CONTINUOUS
 62
     7
  0
POLYLINE
  5
88
  8
0
  6
CONTINUOUS
 62
     7
 66
     1
 10
0.0
 20
0.0
 30
0.0
  0
VERTEX
  5
310
  8
0
  6
CONTINUOUS
 62
     7
 10
160.0874805618876
 20
685.8154161521329
 30
0.0
  0
VERTEX
  5
311
  8
0
  6
CONTINUOUS
 62
     7
 10
160.2053271615624
 20
685.7803233144698
 30
0.0
  0
VERTEX
  5
312
  8
0
  6
CONTINUOUS
 62
     7
 10
160.2972779569874
 20
685.721115238012
 30
0.0
  0
VERTEX
  5
313
  8
0
  6
CONTINUOUS
 62
     7
 10
160.3773115678652
 20
685.6444578505194
 30
0.0
  0
VERTEX
  5
314
  8
0
  6
CONTINUOUS
 62
     7
 10
160.4543825006241
 20
685.5449427015345
 30
0.0
  0
SEQEND
  5
851
  8
0
  6
CONTINUOUS
 62
     7
  0
ARC
  5
89
  8
0
  6
CONTINUOUS
 62
     7
 10
158.3783586996879
 20
684.3452851761094
 30
0.0
 40
2.397718290450867
 50
359.3900205972309
 51
30.02203189351696
  0
ARC
  5
8A
  8
0
  6
CONTINUOUS
 62
     7
 10
126.6885169370489
 20
684.3296007265393
 30
0.0
 40
2.480993909740397
 50
151.6071758098363
 51
180.2272798233644
  0
POLYLINE
  5
8B
  8
0
  6
CONTINUOUS
 62
     7
 66
     1
 10
0.0
 20
0.0
 30
0.0
  0
VERTEX
  5
315
  8
0
  6
CONTINUOUS
 62
     7
 10
124.5059664145909
 20
685.5093481559019
 30
0.0
  0
VERTEX
  5
316
  8
0
  6
CONTINUOUS
 62
     7
 10
124.5785610136553
 20
685.6119487031998
 30
0.0
  0
VERTEX
  5
317
  8
0
  6
CONTINUOUS
 62
     7
 10
124.6573044479049
 20
685.6962953780019
 30
0.0
  0
VERTEX
  5
318
  8
0
  6
CONTINUOUS
 62
     7
 10
124.7405099329868
 20
685.7595953881935
 30
0.0
  0
VERTEX
  5
319
  8
0
  6
CONTINUOUS
 62
     7
 10
124.8536738749415
 20
685.8079109372015
 30
0.0
  0
VERTEX
  5
31A
  8
0
  6
CONTINUOUS
 62
     7
 10
124.8960030971956
 20
685.8154161521329
 30
0.0
  0
SEQEND
  5
852
  8
0
  6
CONTINUOUS
 62
     7
  0
ARC
  5
8C
  8
0
  6
CONTINUOUS
 62
     7
 10
164.8823399070581
 20
519.8996117739342
 30
0.0
 40
14.48014706255457
 50
269.8088978204212
 51
359.9488731155357
  0
ARC
  5
8D
  8
0
  6
CONTINUOUS
 62
     7
 10
164.8814160098154
 20
648.6187373457773
 30
0.0
 40
14.48107181701565
 50
0.0547945981149383
 51
90.18743446592862
  0
ARC
  5
8E
  8
0
  6
CONTINUOUS
 62
     7
 10
120.1016585156383
 20
648.6191482127656
 30
0.0
 40
14.48066229645993
 50
89.81094140149963
 51
179.946829534457
  0
ARC
  5
8F
  8
0
  6
CONTINUOUS
 62
     7
 10
120.1032766130525
 20
519.9017536711616
 30
0.0
 40
14.48228199212646
 50
180.0595932695551
 51
270.182635794488
  0
LINE
  5
90
  8
0
  6
CONTINUOUS
 62
     7
 10
161.5292203381989
 20
505.4297126081514
 30
0.0
 11
161.8632053946884
 21
505.4241364190084
 31
0.0
  0
LINE
  5
91
  8
0
  6
CONTINUOUS
 62
     7
 10
161.5292203381989
 20
663.0895643230384
 30
0.0
 11
161.8632053946883
 21
663.0951405121814
 31
0.0
  0
LINE
  5
92
  8
0
  6
CONTINUOUS
 62
     7
 10
123.1202780010159
 20
505.4241364186306
 30
0.0
 11
123.4542632379319
 21
505.4297126080346
 31
0.0
  0
LINE
  5
93
  8
0
  6
CONTINUOUS
 62
     7
 10
123.1202780010159
 20
663.0951405125593
 30
0.0
 11
123.4542632379319
 21
663.0895643231553
 31
0.0
  0
POLYLINE
  5
94
  8
0
  6
CONTINUOUS
 62
     7
 66
     1
 10
0.0
 20
0.0
 30
0.0
  0
VERTEX
  5
31B
  8
0
  6
CONTINUOUS
 62
     7
 10
180.4917418295416
 20
649.7618468858273
 30
0.0
  0
VERTEX
  5
31C
  8
0
  6
CONTINUOUS
 62
     7
 10
180.1193385429891
 20
653.0271055963201
 30
0.0
  0
VERTEX
  5
31D
  8
0
  6
CONTINUOUS
 62
     7
 10
179.0212546261673
 20
656.1244398110556
 30
0.0
  0
SEQEND
  5
853
  8
0
  6
CONTINUOUS
 62
     7
  0
POLYLINE
  5
95
  8
0
  6
CONTINUOUS
 62
     7
 66
     1
 10
0.0
 20
0.0
 30
0.0
  0
VERTEX
  5
31E
  8
0
  6
CONTINUOUS
 62
     7
 10
179.0212546261672
 20
512.3948371201342
 30
0.0
  0
VERTEX
  5
31F
  8
0
  6
CONTINUOUS
 62
     7
 10
180.1193385429891
 20
515.4921713348696
 30
0.0
  0
VERTEX
  5
320
  8
0
  6
CONTINUOUS
 62
     7
 10
180.4917418295416
 20
518.7574300453625
 30
0.0
  0
SEQEND
  5
854
  8
0
  6
CONTINUOUS
 62
     7
  0
POLYLINE
  5
96
  8
0
  6
CONTINUOUS
 62
     7
 66
     1
 10
0.0
 20
0.0
 30
0.0
  0
VERTEX
  5
321
  8
0
  6
CONTINUOUS
 62
     7
 10
105.9622290329156
 20
656.1244398110549
 30
0.0
  0
VERTEX
  5
322
  8
0
  6
CONTINUOUS
 62
     7
 10
104.864145116094
 20
653.0271055963199
 30
0.0
  0
VERTEX
  5
323
  8
0
  6
CONTINUOUS
 62
     7
 10
104.4917418295416
 20
649.7618468858273
 30
0.0
  0
SEQEND
  5
855
  8
0
  6
CONTINUOUS
 62
     7
  0
POLYLINE
  5
97
  8
0
  6
CONTINUOUS
 62
     7
 66
     1
 10
0.0
 20
0.0
 30
0.0
  0
VERTEX
  5
324
  8
0
  6
CONTINUOUS
 62
     7
 10
104.4917418295416
 20
518.7574300453625
 30
0.0
  0
VERTEX
  5
325
  8
0
  6
CONTINUOUS
 62
     7
 10
104.864145116094
 20
515.4921713348698
 30
0.0
  0
VERTEX
  5
326
  8
0
  6
CONTINUOUS
 62
     7
 10
105.9622290329156
 20
512.3948371201348
 30
0.0
  0
SEQEND
  5
856
  8
0
  6
CONTINUOUS
 62
     7
  0
LINE
  5
98
  8
0
  6
CONTINUOUS
 62
     7
 10
164.8340434608428
 20
505.419545254526
 30
0.0
 11
161.8632053946884
 21
505.4241364190084
 31
0.0
  0
LINE
  5
99
  8
0
  6
CONTINUOUS
 62
     7
 10
161.8632053946884
 20
663.0951405121814
 30
0.0
 11
164.834043460843
 21
663.0997316766639
 31
0.0
  0
LINE
  5
9A
  8
0
  6
CONTINUOUS
 62
     7
 10
120.1494401982405
 20
663.0997316766639
 30
0.0
 11
123.1202780010159
 21
663.0951405125593
 31
0.0
  0
LINE
  5
9B
  8
0
  6
CONTINUOUS
 62
     7
 10
123.1202780010161
 20
505.4241364186306
 30
0.0
 11
120.1494401982404
 21
505.419545254526
 31
0.0
  0
LINE
  5
9C
  8
0
  6
CONTINUOUS
 62
     7
 10
109.4728521755851
 20
689.2596384655949
 30
0.0
 11
108.1721175802275
 21
689.2596384655949
 31
0.0
  0
LINE
  5
9D
  8
0
  6
CONTINUOUS
 62
     7
 10
109.8503866328151
 20
686.9924169399981
 30
0.0
 11
109.4728521755851
 21
689.2596384655949
 31
0.0
  0
POLYLINE
  5
9E
  8
0
  6
CONTINUOUS
 62
     7
 66
     1
 10
0.0
 20
0.0
 30
0.0
  0
VERTEX
  5
327
  8
0
  6
CONTINUOUS
 62
     7
 10
109.850386632815
 20
686.9924169399981
 30
0.0
  0
VERTEX
  5
328
  8
0
  6
CONTINUOUS
 62
     7
 10
110.0815280998853
 20
686.8749450965054
 30
0.0
  0
VERTEX
  5
329
  8
0
  6
CONTINUOUS
 62
     7
 10
110.727647275713
 20
686.7618090685955
 30
0.0
  0
VERTEX
  5
32A
  8
0
  6
CONTINUOUS
 62
     7
 10
111.7659606877364
 20
686.6569982620687
 30
0.0
  0
VERTEX
  5
32B
  8
0
  6
CONTINUOUS
 62
     7
 10
113.1598552991996
 20
686.5642085185343
 30
0.0
  0
SEQEND
  5
857
  8
0
  6
CONTINUOUS
 62
     7
  0
LINE
  5
9F
  8
0
  6
CONTINUOUS
 62
     7
 10
125.4917418295416
 20
685.8855385513505
 30
0.0
 11
113.1598552991996
 21
686.5642085185343
 31
0.0
  0
LINE
  5
A0
  8
0
  6
CONTINUOUS
 62
     7
 10
125.4917418295415
 20
685.8855385513505
 30
0.0
 11
159.4917418295417
 21
685.8855385513505
 31
0.0
  0
LINE
  5
A1
  8
0
  6
CONTINUOUS
 62
     7
 10
159.4917418295416
 20
685.8855385513505
 30
0.0
 11
171.8236283598836
 21
686.5642085185343
 31
0.0
  0
POLYLINE
  5
A2
  8
0
  6
CONTINUOUS
 62
     7
 66
     1
 10
0.0
 20
0.0
 30
0.0
  0
VERTEX
  5
32C
  8
0
  6
CONTINUOUS
 62
     7
 10
171.8236283598836
 20
686.5642085185343
 30
0.0
  0
VERTEX
  5
32D
  8
0
  6
CONTINUOUS
 62
     7
 10
173.2175229713468
 20
686.6569982620687
 30
0.0
  0
VERTEX
  5
32E
  8
0
  6
CONTINUOUS
 62
     7
 10
174.2558363833702
 20
686.7618090685955
 30
0.0
  0
VERTEX
  5
32F
  8
0
  6
CONTINUOUS
 62
     7
 10
174.9019555591978
 20
686.8749450965054
 30
0.0
  0
VERTEX
  5
330
  8
0
  6
CONTINUOUS
 62
     7
 10
175.1330970262681
 20
686.9924169399981
 30
0.0
  0
SEQEND
  5
858
  8
0
  6
CONTINUOUS
 62
     7
  0
LINE
  5
A3
  8
0
  6
CONTINUOUS
 62
     7
 10
175.1330970262681
 20
686.9924169399981
 30
0.0
 11
175.510631483498
 21
689.2596384655949
 31
0.0
  0
LINE
  5
A4
  8
0
  6
CONTINUOUS
 62
     7
 10
175.510631483498
 20
689.2596384655949
 30
0.0
 11
176.8113660788557
 21
689.2596384655949
 31
0.0
  0
LINE
  5
A5
  8
0
  6
CONTINUOUS
 62
     7
 10
175.1330970262681
 20
481.5268599911918
 30
0.0
 11
175.510631483498
 21
479.2596384655949
 31
0.0
  0
POLYLINE
  5
A6
  8
0
  6
CONTINUOUS
 62
     7
 66
     1
 10
0.0
 20
0.0
 30
0.0
  0
VERTEX
  5
331
  8
0
  6
CONTINUOUS
 62
     7
 10
175.1330970262681
 20
481.5268599911918
 30
0.0
  0
VERTEX
  5
332
  8
0
  6
CONTINUOUS
 62
     7
 10
174.9019555591978
 20
481.6443318346845
 30
0.0
  0
VERTEX
  5
333
  8
0
  6
CONTINUOUS
 62
     7
 10
174.2558363833702
 20
481.7574678625944
 30
0.0
  0
VERTEX
  5
334
  8
0
  6
CONTINUOUS
 62
     7
 10
173.2175229713468
 20
481.8622786691212
 30
0.0
  0
VERTEX
  5
335
  8
0
  6
CONTINUOUS
 62
     7
 10
171.8236283598836
 20
481.9550684126556
 30
0.0
  0
SEQEND
  5
859
  8
0
  6
CONTINUOUS
 62
     7
  0
LINE
  5
A7
  8
0
  6
CONTINUOUS
 62
     7
 10
159.4917418295416
 20
482.6337383798394
 30
0.0
 11
171.8236283598836
 21
481.9550684126556
 31
0.0
  0
LINE
  5
A8
  8
0
  6
CONTINUOUS
 62
     7
 10
159.4917418295416
 20
482.6337383798394
 30
0.0
 11
125.4917418295415
 21
482.6337383798394
 31
0.0
  0
LINE
  5
A9
  8
0
  6
CONTINUOUS
 62
     7
 10
125.4917418295416
 20
482.6337383798394
 30
0.0
 11
113.1598552991996
 21
481.9550684126556
 31
0.0
  0
POLYLINE
  5
AA
  8
0
  6
CONTINUOUS
 62
     7
 66
     1
 10
0.0
 20
0.0
 30
0.0
  0
VERTEX
  5
336
  8
0
  6
CONTINUOUS
 62
     7
 10
113.1598552991996
 20
481.9550684126556
 30
0.0
  0
VERTEX
  5
337
  8
0
  6
CONTINUOUS
 62
     7
 10
111.7659606877364
 20
481.8622786691212
 30
0.0
  0
VERTEX
  5
338
  8
0
  6
CONTINUOUS
 62
     7
 10
110.727647275713
 20
481.7574678625944
 30
0.0
  0
VERTEX
  5
339
  8
0
  6
CONTINUOUS
 62
     7
 10
110.0815280998854
 20
481.6443318346845
 30
0.0
  0
VERTEX
  5
33A
  8
0
  6
CONTINUOUS
 62
     7
 10
109.850386632815
 20
481.5268599911918
 30
0.0
  0
SEQEND
  5
85A
  8
0
  6
CONTINUOUS
 62
     7
  0
LINE
  5
AB
  8
0
  6
CONTINUOUS
 62
     7
 10
109.8503866328151
 20
481.5268599911918
 30
0.0
 11
109.4728521755851
 21
479.2596384655949
 31
0.0
  0
LINE
  5
AC
  8
0
  6
CONTINUOUS
 62
     7
 10
109.4728521755851
 20
479.2596384655949
 30
0.0
 11
108.1721175802275
 21
479.2596384655949
 31
0.0
  0
LINE
  5
AD
  8
0
  6
CONTINUOUS
 62
     7
 10
175.510631483498
 20
479.2596384655949
 30
0.0
 11
176.8113660788557
 21
479.2596384655949
 31
0.0
  0
LINE
  5
AE
  8
0
  6
CONTINUOUS
 62
     7
 10
105.621002454431
 20
519.886690670252
 30
0.0
 11
105.621002454431
 21
648.6325862609377
 31
0.0
  0
LINE
  5
AF
  8
0
  6
CONTINUOUS
 62
     7
 10
179.3624812046521
 20
648.6325862609377
 30
0.0
 11
179.3624812046521
 21
519.886690670252
 31
0.0
  0
LINE
  5
B0
  8
0
  6
CONTINUOUS
 62
     7
 10
180.4917418295416
 20
518.7574300453625
 30
0.0
 11
180.4917418295416
 21
649.7618468858273
 31
0.0
  0
LINE
  5
B1
  8
0
  6
CONTINUOUS
 62
     7
 10
104.4917418295416
 20
649.7618468858273
 30
0.0
 11
104.4917418295416
 21
518.7574300453625
 31
0.0
  0
LINE
  5
B2
  8
0
  6
CONTINUOUS
 62
     7
 10
178.3107381029781
 20
480.7610109770724
 30
0.0
 11
178.3107381029781
 21
509.3203465397973
 31
0.0
  0
LINE
  5
B3
  8
0
  6
CONTINUOUS
 62
     7
 10
178.3107381029781
 20
687.7582659541175
 30
0.0
 11
178.3107381029781
 21
659.1989303913925
 31
0.0
  0
LINE
  5
B4
  8
0
  6
CONTINUOUS
 62
     7
 10
106.6727455561051
 20
687.7582659541175
 30
0.0
 11
106.6727455561051
 21
659.1989303913929
 31
0.0
  0
LINE
  5
B5
  8
0
  6
CONTINUOUS
 62
     7
 10
106.6727455561051
 20
480.7610109770724
 30
0.0
 11
106.6727455561051
 21
509.320346539797
 31
0.0
  0
POLYLINE
  5
B6
  8
0
  6
CONTINUOUS
 62
     7
 66
     1
 10
0.0
 20
0.0
 30
0.0
  0
VERTEX
  5
33B
  8
0
  6
CONTINUOUS
 62
     7
 10
178.310738102978
 20
687.7582659541175
 30
0.0
  0
VERTEX
  5
33C
  8
0
  6
CONTINUOUS
 62
     7
 10
178.2819316305756
 20
688.0512057261799
 30
0.0
  0
VERTEX
  5
33D
  8
0
  6
CONTINUOUS
 62
     7
 10
178.1966185883756
 20
688.3328681637769
 30
0.0
  0
VERTEX
  5
33E
  8
0
  6
CONTINUOUS
 62
     7
 10
178.0580756086702
 20
688.5924354105208
 30
0.0
  0
VERTEX
  5
33F
  8
0
  6
CONTINUOUS
 62
     7
 10
177.8716237348712
 20
688.8199382237178
 30
0.0
  0
VERTEX
  5
340
  8
0
  6
CONTINUOUS
 62
     7
 10
177.6444240553052
 20
689.0066388647407
 30
0.0
  0
VERTEX
  5
341
  8
0
  6
CONTINUOUS
 62
     7
 10
177.3852026660956
 20
689.145366690818
 30
0.0
  0
VERTEX
  5
342
  8
0
  6
CONTINUOUS
 62
     7
 10
177.1039155265281
 20
689.2307935591128
 30
0.0
  0
VERTEX
  5
343
  8
0
  6
CONTINUOUS
 62
     7
 10
176.8113660788557
 20
689.2596384655949
 30
0.0
  0
SEQEND
  5
85B
  8
0
  6
CONTINUOUS
 62
     7
  0
POLYLINE
  5
B7
  8
0
  6
CONTINUOUS
 62
     7
 66
     1
 10
0.0
 20
0.0
 30
0.0
  0
VERTEX
  5
344
  8
0
  6
CONTINUOUS
 62
     7
 10
176.8113660788557
 20
479.2596384655949
 30
0.0
  0
VERTEX
  5
345
  8
0
  6
CONTINUOUS
 62
     7
 10
177.1039155265281
 20
479.2884833720771
 30
0.0
  0
VERTEX
  5
346
  8
0
  6
CONTINUOUS
 62
     7
 10
177.3852026660956
 20
479.3739102403718
 30
0.0
  0
VERTEX
  5
347
  8
0
  6
CONTINUOUS
 62
     7
 10
177.6444240553052
 20
479.5126380664493
 30
0.0
  0
VERTEX
  5
348
  8
0
  6
CONTINUOUS
 62
     7
 10
177.8716237348712
 20
479.6993387074721
 30
0.0
  0
VERTEX
  5
349
  8
0
  6
CONTINUOUS
 62
     7
 10
178.0580756086702
 20
479.9268415206691
 30
0.0
  0
VERTEX
  5
34A
  8
0
  6
CONTINUOUS
 62
     7
 10
178.1966185883756
 20
480.1864087674131
 30
0.0
  0
VERTEX
  5
34B
  8
0
  6
CONTINUOUS
 62
     7
 10
178.2819316305756
 20
480.4680712050099
 30
0.0
  0
VERTEX
  5
34C
  8
0
  6
CONTINUOUS
 62
     7
 10
178.310738102978
 20
480.7610109770724
 30
0.0
  0
SEQEND
  5
85C
  8
0
  6
CONTINUOUS
 62
     7
  0
POLYLINE
  5
B8
  8
0
  6
CONTINUOUS
 62
     7
 66
     1
 10
0.0
 20
0.0
 30
0.0
  0
VERTEX
  5
34D
  8
0
  6
CONTINUOUS
 62
     7
 10
106.6727455561052
 20
480.7610109770724
 30
0.0
  0
VERTEX
  5
34E
  8
0
  6
CONTINUOUS
 62
     7
 10
106.7015520285076
 20
480.4680712050099
 30
0.0
  0
VERTEX
  5
34F
  8
0
  6
CONTINUOUS
 62
     7
 10
106.7868650707076
 20
480.1864087674131
 30
0.0
  0
VERTEX
  5
350
  8
0
  6
CONTINUOUS
 62
     7
 10
106.925408050413
 20
479.9268415206691
 30
0.0
  0
VERTEX
  5
351
  8
0
  6
CONTINUOUS
 62
     7
 10
107.111859924212
 20
479.699338707472
 30
0.0
  0
VERTEX
  5
352
  8
0
  6
CONTINUOUS
 62
     7
 10
107.339059603778
 20
479.5126380664493
 30
0.0
  0
VERTEX
  5
353
  8
0
  6
CONTINUOUS
 62
     7
 10
107.5982809929876
 20
479.3739102403717
 30
0.0
  0
VERTEX
  5
354
  8
0
  6
CONTINUOUS
 62
     7
 10
107.8795681325551
 20
479.288483372077
 30
0.0
  0
VERTEX
  5
355
  8
0
  6
CONTINUOUS
 62
     7
 10
108.1721175802275
 20
479.2596384655949
 30
0.0
  0
SEQEND
  5
85D
  8
0
  6
CONTINUOUS
 62
     7
  0
POLYLINE
  5
B9
  8
0
  6
CONTINUOUS
 62
     7
 66
     1
 10
0.0
 20
0.0
 30
0.0
  0
VERTEX
  5
356
  8
0
  6
CONTINUOUS
 62
     7
 10
108.1721175802275
 20
689.2596384655949
 30
0.0
  0
VERTEX
  5
357
  8
0
  6
CONTINUOUS
 62
     7
 10
107.8795681325551
 20
689.2307935591128
 30
0.0
  0
VERTEX
  5
358
  8
0
  6
CONTINUOUS
 62
     7
 10
107.5982809929876
 20
689.145366690818
 30
0.0
  0
VERTEX
  5
359
  8
0
  6
CONTINUOUS
 62
     7
 10
107.339059603778
 20
689.0066388647407
 30
0.0
  0
VERTEX
  5
35A
  8
0
  6
CONTINUOUS
 62
     7
 10
107.111859924212
 20
688.8199382237178
 30
0.0
  0
VERTEX
  5
35B
  8
0
  6
CONTINUOUS
 62
     7
 10
106.925408050413
 20
688.5924354105208
 30
0.0
  0
VERTEX
  5
35C
  8
0
  6
CONTINUOUS
 62
     7
 10
106.7868650707076
 20
688.3328681637769
 30
0.0
  0
VERTEX
  5
35D
  8
0
  6
CONTINUOUS
 62
     7
 10
106.7015520285076
 20
688.0512057261799
 30
0.0
  0
VERTEX
  5
35E
  8
0
  6
CONTINUOUS
 62
     7
 10
106.6727455561052
 20
687.7582659541175
 30
0.0
  0
SEQEND
  5
85E
  8
0
  6
CONTINUOUS
 62
     7
  0
ARC
  5
BA
  8
0
  6
CONTINUOUS
 62
     7
 10
185.2281959261099
 20
659.1782131372186
 30
0.0
 40
6.917488846353729
 50
179.8284040598951
 51
206.1968754521783
  0
ARC
  5
BB
  8
0
  6
CONTINUOUS
 62
     7
 10
185.2281959261099
 20
509.3410637939713
 30
0.0
 40
6.917488846353729
 50
153.8031245478218
 51
180.1715959401049
  0
ARC
  5
BC
  8
0
  6
CONTINUOUS
 62
     7
 10
99.75528773295558
 20
509.3410637939672
 30
0.0
 40
6.917488846371412
 50
359.8284040599264
 51
26.19687545214714
  0
ARC
  5
BD
  8
0
  6
CONTINUOUS
 62
     7
 10
99.75528773295558
 20
659.1782131372225
 30
0.0
 40
6.917488846371412
 50
333.8031245478528
 51
0.1715959400740417
  0
ENDBLK
  8
0
  0
BLOCK
  8
0
  2
D_FRAME_VIEW_3050
 70
     0
 10
0.0
 20
0.0
 30
0.0
  0
LINE
  5
C7
  8
0
  6
CONTINUOUS
 62
     7
 10
158.4786134501947
 20
385.1894379991103
 30
0.0
 11
158.4917418295416
 21
383.6850747313612
 31
0.0
  0
LINE
  5
C8
  8
0
  6
CONTINUOUS
 62
     7
 10
158.4917418295416
 20
383.6850747313612
 30
0.0
 11
157.4917799064774
 21
383.6850747313612
 31
0.0
  0
LINE
  5
C9
  8
0
  6
CONTINUOUS
 62
     7
 10
130.4917799064774
 20
383.6850747313612
 30
0.0
 11
127.4917037526058
 21
383.6850747313612
 31
0.0
  0
LINE
  5
CA
  8
0
  6
CONTINUOUS
 62
     7
 10
131.4786134501947
 20
385.1894379991103
 30
0.0
 11
131.4917418295416
 21
383.6850747313612
 31
0.0
  0
LINE
  5
CB
  8
0
  6
CONTINUOUS
 62
     7
 10
131.4917418295416
 20
383.6850747313612
 30
0.0
 11
130.4917799064775
 21
383.6850747313612
 31
0.0
  0
LINE
  5
CC
  8
0
  6
CONTINUOUS
 62
     7
 10
154.4917037526058
 20
383.6850747313612
 30
0.0
 11
157.4917799064774
 21
383.6850747313612
 31
0.0
  0
LINE
  5
CD
  8
0
  6
CONTINUOUS
 62
     7
 10
153.4917418295416
 20
383.6850747313612
 30
0.0
 11
153.5048702088885
 21
385.1894379991103
 31
0.0
  0
LINE
  5
CE
  8
0
  6
CONTINUOUS
 62
     7
 10
154.4917037526058
 20
383.6850747313612
 30
0.0
 11
153.4917418295416
 21
383.6850747313612
 31
0.0
  0
LINE
  5
CF
  8
0
  6
CONTINUOUS
 62
     7
 10
126.4917418295416
 20
383.6850747313612
 30
0.0
 11
126.5048702088885
 21
385.1894379991103
 31
0.0
  0
LINE
  5
D0
  8
0
  6
CONTINUOUS
 62
     7
 10
127.4917037526058
 20
383.6850747313612
 30
0.0
 11
126.4917418295416
 21
383.6850747313612
 31
0.0
  0
LINE
  5
D1
  8
0
  6
CONTINUOUS
 62
     7
 10
157.4786515271305
 20
385.6850747313612
 30
0.0
 11
157.9786324886626
 21
385.6850747313612
 31
0.0
  0
ARC
  5
D2
  8
0
  6
CONTINUOUS
 62
     7
 10
157.9786324886626
 20
385.1850747313612
 30
0.0
 40
0.5000000000000013
 50
0.4999999999999869
 51
90.00000000000021
  0
ARC
  5
D3
  8
0
  6
CONTINUOUS
 62
     7
 10
127.0048511704206
 20
385.1850747313612
 30
0.0
 40
0.5000000000000013
 50
89.99999999999977
 51
179.5
  0
LINE
  5
D4
  8
0
  6
CONTINUOUS
 62
     7
 10
127.0048511704206
 20
385.6850747313612
 30
0.0
 11
127.5048321319527
 21
385.6850747313612
 31
0.0
  0
LINE
  5
D5
  8
0
  6
CONTINUOUS
 62
     7
 10
127.5048321319527
 20
385.6850747313612
 30
0.0
 11
130.4786515271305
 21
385.6850747313612
 31
0.0
  0
LINE
  5
D6
  8
0
  6
CONTINUOUS
 62
     7
 10
154.5048321319527
 20
385.6850747313612
 30
0.0
 11
157.4786515271305
 21
385.6850747313612
 31
0.0
  0
LINE
  5
D7
  8
0
  6
CONTINUOUS
 62
     7
 10
130.4786515271305
 20
385.6850747313612
 30
0.0
 11
130.9786324886626
 21
385.6850747313612
 31
0.0
  0
ARC
  5
D8
  8
0
  6
CONTINUOUS
 62
     7
 10
130.9786324886626
 20
385.1850747313612
 30
0.0
 40
0.5000000000000013
 50
0.500000000000035
 51
89.99999999999982
  0
ARC
  5
D9
  8
0
  6
CONTINUOUS
 62
     7
 10
154.0048511704206
 20
385.1850747313612
 30
0.0
 40
0.5000000000000013
 50
89.99999999999977
 51
179.5
  0
LINE
  5
DA
  8
0
  6
CONTINUOUS
 62
     7
 10
154.0048511704206
 20
385.6850747313612
 30
0.0
 11
154.5048321319527
 21
385.6850747313612
 31
0.0
  0
LINE
  5
DB
  8
0
  6
CONTINUOUS
 62
     7
 10
152.4921604801267
 20
383.6850747313612
 30
0.0
 11
153.4917418295416
 21
383.6850747313612
 31
0.0
  0
LINE
  5
DC
  8
0
  6
CONTINUOUS
 62
     7
 10
131.4917418295416
 20
383.6850747313612
 30
0.0
 11
132.4913231789565
 21
383.6850747313612
 31
0.0
  0
LINE
  5
DD
  8
0
  6
CONTINUOUS
 62
     7
 10
158.4917418295416
 20
383.6850747313612
 30
0.0
 11
159.4913231789565
 21
383.6850747313612
 31
0.0
  0
LINE
  5
DE
  8
0
  6
CONTINUOUS
 62
     7
 10
125.4921604801267
 20
383.6850747313612
 30
0.0
 11
126.4917418295416
 21
383.6850747313612
 31
0.0
  0
LINE
  5
DF
  8
0
  6
CONTINUOUS
 62
     7
 10
154.0048511704206
 20
385.6850747313612
 30
0.0
 11
152.5054791462983
 21
385.6850747313612
 31
0.0
  0
LINE
  5
E0
  8
0
  6
CONTINUOUS
 62
     7
 10
132.478004512785
 20
385.6850747313612
 30
0.0
 11
130.9786324886626
 21
385.6850747313612
 31
0.0
  0
LINE
  5
E1
  8
0
  6
CONTINUOUS
 62
     7
 10
159.478004512785
 20
385.6850747313612
 30
0.0
 11
157.9786324886626
 21
385.6850747313612
 31
0.0
  0
LINE
  5
E2
  8
0
  6
CONTINUOUS
 62
     7
 10
127.0048511704206
 20
385.6850747313612
 30
0.0
 11
125.5054791462983
 21
385.6850747313612
 31
0.0
  0
LINE
  5
E3
  8
0
  6
CONTINUOUS
 62
     7
 10
174.4098318773125
 20
388.3994972959727
 30
0.0
 11
172.9917418295417
 21
387.5807626251571
 31
0.0
  0
LINE
  5
E4
  8
0
  6
CONTINUOUS
 62
     7
 10
172.9917418295417
 20
387.5807626251571
 30
0.0
 11
172.9917418295417
 21
383.6850747313612
 31
0.0
  0
LINE
  5
E5
  8
0
  6
CONTINUOUS
 62
     7
 10
159.4913231789565
 20
383.6850747313612
 30
0.0
 11
172.9917418295417
 21
383.6850747313612
 31
0.0
  0
LINE
  5
E6
  8
0
  6
CONTINUOUS
 62
     7
 10
110.5736517817707
 20
388.3994972959727
 30
0.0
 11
111.9917418295415
 21
387.5807626251571
 31
0.0
  0
LINE
  5
E7
  8
0
  6
CONTINUOUS
 62
     7
 10
111.9917418295415
 20
387.5807626251571
 30
0.0
 11
111.9917418295415
 21
383.6850747313612
 31
0.0
  0
LINE
  5
E8
  8
0
  6
CONTINUOUS
 62
     7
 10
125.4921604801267
 20
383.6850747313612
 30
0.0
 11
111.9917418295415
 21
383.6850747313612
 31
0.0
  0
LINE
  5
E9
  8
0
  6
CONTINUOUS
 62
     7
 10
152.4921604801267
 20
383.6850747313612
 30
0.0
 11
132.4913231789565
 21
383.6850747313612
 31
0.0
  0
LINE
  5
EA
  8
0
  6
CONTINUOUS
 62
     7
 10
142.4917418295416
 20
385.3850747313613
 30
0.0
 11
142.7917418295415
 21
385.6850747313612
 31
0.0
  0
LINE
  5
EB
  8
0
  6
CONTINUOUS
 62
     7
 10
142.7917418295415
 20
385.6850747313612
 30
0.0
 11
152.5054791462983
 21
385.6850747313612
 31
0.0
  0
LINE
  5
EC
  8
0
  6
CONTINUOUS
 62
     7
 10
142.1917418295417
 20
385.6850747313612
 30
0.0
 11
142.4917418295416
 21
385.3850747313613
 31
0.0
  0
LINE
  5
ED
  8
0
  6
CONTINUOUS
 62
     7
 10
132.478004512785
 20
385.6850747313612
 30
0.0
 11
142.1917418295417
 21
385.6850747313612
 31
0.0
  0
LINE
  5
EE
  8
0
  6
CONTINUOUS
 62
     7
 10
113.0910412486966
 20
395.3144842539124
 30
0.0
 11
115.6712337538528
 21
385.6850747313612
 31
0.0
  0
LINE
  5
EF
  8
0
  6
CONTINUOUS
 62
     7
 10
169.3122499052304
 20
385.6850747313612
 30
0.0
 11
171.892442381158
 21
395.3144841448296
 31
0.0
  0
LINE
  5
F0
  8
0
  6
CONTINUOUS
 62
     7
 10
115.6708438866123
 20
385.6850747313612
 30
0.0
 11
125.5054791462983
 21
385.6850747313612
 31
0.0
  0
LINE
  5
F1
  8
0
  6
CONTINUOUS
 62
     7
 10
159.478004512785
 20
385.6850747313612
 30
0.0
 11
169.3126397724709
 21
385.6850747313612
 31
0.0
  0
LINE
  5
F2
  8
0
  6
CONTINUOUS
 62
     7
 10
174.7994314824437
 20
394.7025271377985
 30
0.0
 11
174.9044665049005
 21
388.6850747313612
 31
0.0
  0
LINE
  5
F3
  8
0
  6
CONTINUOUS
 62
     7
 10
174.9044665049005
 20
388.6850747313612
 30
0.0
 11
174.4098318773125
 21
388.3994972959727
 31
0.0
  0
LINE
  5
F4
  8
0
  6
CONTINUOUS
 62
     7
 10
110.0790171541827
 20
388.6850747313612
 30
0.0
 11
110.1840521766395
 21
394.7025271377985
 31
0.0
  0
LINE
  5
F5
  8
0
  6
CONTINUOUS
 62
     7
 10
110.5736517817707
 20
388.3994972959727
 30
0.0
 11
110.0790171541827
 21
388.6850747313612
 31
0.0
  0
ARC
  5
F6
  8
0
  6
CONTINUOUS
 62
     7
 10
111.1838998717959
 20
394.6850747313612
 30
0.0
 40
1.000000000000001
 50
90.0
 51
179.0000000000021
  0
ARC
  5
F7
  8
0
  6
CONTINUOUS
 62
     7
 10
173.7995837872873
 20
394.6850747313612
 30
0.0
 40
1.000000000000001
 50
0.9999999999978398
 51
90.0
  0
LINE
  5
F8
  8
0
  6
CONTINUOUS
 62
     7
 10
111.1838998717959
 20
395.6850747313612
 30
0.0
 11
112.6080783355521
 21
395.6850747313612
 31
0.0
  0
ARC
  5
F9
  8
0
  6
CONTINUOUS
 62
     7
 10
112.6080783355521
 20
395.1850747313612
 30
0.0
 40
0.5000000000000004
 50
15.00000000000006
 51
90.0
  0
ARC
  5
FA
  8
0
  6
CONTINUOUS
 62
     7
 10
172.3754045134868
 20
395.1850747313612
 30
0.0
 40
0.4999999999999952
 50
89.9999999999988
 51
164.9999889162182
  0
LINE
  5
FB
  8
0
  6
CONTINUOUS
 62
     7
 10
172.3754045134868
 20
395.6850747313612
 30
0.0
 11
173.7995837872873
 21
395.6850747313612
 31
0.0
  0
LINE
  5
FC
  8
0
  6
CONTINUOUS
 62
     7
 10
111.6539120657103
 20
387.5807626251573
 30
0.0
 11
111.9917418295261
 21
387.5807626251571
 31
0.0
  0
LINE
  5
FD
  8
0
  6
CONTINUOUS
 62
     7
 10
110.0790171541675
 20
388.68507473137
 30
0.0
 11
109.9996647658214
 21
388.6850747313679
 31
0.0
  0
LINE
  5
FE
  8
0
  6
CONTINUOUS
 62
     7
 10
173.3295715933729
 20
387.5807626251573
 30
0.0
 11
172.9917418295571
 21
387.5807626251571
 31
0.0
  0
LINE
  5
FF
  8
0
  6
CONTINUOUS
 62
     7
 10
174.9838188932517
 20
388.6850747313612
 30
0.0
 11
174.9044665049245
 21
388.6850747313663
 31
0.0
  0
LINE
  5
100
  8
0
  6
CONTINUOUS
 62
     7
 10
173.7995837873027
 20
395.6850747313615
 30
0.0
 11
173.8073240250725
 21
395.6850747313615
 31
0.0
  0
LINE
  5
101
  8
0
  6
CONTINUOUS
 62
     7
 10
173.8073240250725
 20
395.6850747313615
 30
0.0
 11
174.0282452148838
 21
395.6850747313612
 31
0.0
  0
LINE
  5
102
  8
0
  6
CONTINUOUS
 62
     7
 10
110.9552384441871
 20
395.6850747313612
 30
0.0
 11
111.1720948540041
 21
395.6850747313615
 31
0.0
  0
LINE
  5
103
  8
0
  6
CONTINUOUS
 62
     7
 10
111.1720948540041
 20
395.6850747313615
 30
0.0
 11
111.1838998717805
 21
395.6850747313615
 31
0.0
  0
LINE
  5
104
  8
0
  6
CONTINUOUS
 62
     7
 10
111.6539120657102
 20
383.6850747313612
 30
0.0
 11
111.9916922429448
 21
383.6850747313612
 31
0.0
  0
LINE
  5
105
  8
0
  6
CONTINUOUS
 62
     7
 10
173.329571593373
 20
383.6850747313612
 30
0.0
 11
172.9917914161384
 21
383.6850747313612
 31
0.0
  0
LINE
  5
106
  8
0
  6
CONTINUOUS
 62
     7
 10
111.6539121575241
 20
387.5807626251571
 30
0.0
 11
109.5068493287884
 21
387.5807626251571
 31
0.0
  0
LINE
  5
107
  8
0
  6
CONTINUOUS
 62
     7
 10
109.9996647658315
 20
388.6850747313662
 30
0.0
 11
109.516486514539
 21
388.6850747313664
 31
0.0
  0
LINE
  5
108
  8
0
  6
CONTINUOUS
 62
     7
 10
173.3295715015591
 20
387.5807626251571
 30
0.0
 11
175.4766343302948
 21
387.5807626251571
 31
0.0
  0
LINE
  5
109
  8
0
  6
CONTINUOUS
 62
     7
 10
175.4669971445442
 20
388.6850747313613
 30
0.0
 11
174.9838188932517
 21
388.6850747313613
 31
0.0
  0
LINE
  5
10A
  8
0
  6
CONTINUOUS
 62
     7
 10
174.0282452148838
 20
395.6850747313612
 30
0.0
 11
175.4059090700089
 21
395.6850747313612
 31
0.0
  0
LINE
  5
10B
  8
0
  6
CONTINUOUS
 62
     7
 10
109.5775745890743
 20
395.6850747313612
 30
0.0
 11
110.9552384441994
 21
395.6850747313612
 31
0.0
  0
LINE
  5
10C
  8
0
  6
CONTINUOUS
 62
     7
 10
109.4917418295416
 20
385.8496146796369
 30
0.0
 11
109.4917418295416
 21
383.6850747313612
 31
0.0
  0
LINE
  5
10D
  8
0
  6
CONTINUOUS
 62
     7
 10
111.6539121116224
 20
383.6850747313612
 30
0.0
 11
109.9874709485338
 21
383.6850747313612
 31
0.0
  0
LINE
  5
10E
  8
0
  6
CONTINUOUS
 62
     7
 10
109.9191596192274
 20
383.6850747313612
 30
0.0
 11
109.4917418295416
 21
383.6850747313612
 31
0.0
  0
LINE
  5
10F
  8
0
  6
CONTINUOUS
 62
     7
 10
175.4917418295416
 20
385.849614679637
 30
0.0
 11
175.4917418295416
 21
383.6850747313612
 31
0.0
  0
LINE
  5
110
  8
0
  6
CONTINUOUS
 62
     7
 10
173.3295715474608
 20
383.6850747313612
 30
0.0
 11
174.9962644799022
 21
383.6850747313612
 31
0.0
  0
LINE
  5
111
  8
0
  6
CONTINUOUS
 62
     7
 10
175.0591552295732
 20
383.6850747313612
 30
0.0
 11
175.4917418295416
 21
383.6850747313612
 31
0.0
  0
LINE
  5
112
  8
0
  6
CONTINUOUS
 62
     7
 10
109.4728521755852
 20
383.6850747313612
 30
0.0
 11
109.4917418295416
 21
383.6850747313612
 31
0.0
  0
LINE
  5
113
  8
0
  6
CONTINUOUS
 62
     7
 10
175.510631483498
 20
383.6850747313612
 30
0.0
 11
175.4917418295416
 21
383.6850747313612
 31
0.0
  0
ARC
  5
114
  8
0
  6
CONTINUOUS
 62
     7
 10
142.4917418295416
 20
418.6850747313612
 30
0.0
 40
17.5
 50
239.441568214065
 51
300.5584317859349
  0
POLYLINE
  5
115
  8
0
  6
CONTINUOUS
 62
     7
 66
     1
 10
0.0
 20
0.0
 30
0.0
  0
VERTEX
  5
35F
  8
0
  6
CONTINUOUS
 62
     7
 10
151.6432704808447
 20
403.6850747313612
 30
0.0
  0
VERTEX
  5
360
  8
0
  6
CONTINUOUS
 62
     7
 10
151.5548812951788
 20
403.6771984466491
 30
0.0
  0
VERTEX
  5
361
  8
0
  6
CONTINUOUS
 62
     7
 10
151.4692768230801
 20
403.653817735956
 30
0.0
  0
VERTEX
  5
362
  8
0
  6
CONTINUOUS
 62
     7
 10
151.389154045328
 20
403.6156692118188
 30
0.0
  0
SEQEND
  5
85F
  8
0
  6
CONTINUOUS
 62
     7
  0
POLYLINE
  5
116
  8
0
  6
CONTINUOUS
 62
     7
 66
     1
 10
0.0
 20
0.0
 30
0.0
  0
VERTEX
  5
363
  8
0
  6
CONTINUOUS
 62
     7
 10
133.5943296137551
 20
403.6156692118188
 30
0.0
  0
VERTEX
  5
364
  8
0
  6
CONTINUOUS
 62
     7
 10
133.514206836003
 20
403.653817735956
 30
0.0
  0
VERTEX
  5
365
  8
0
  6
CONTINUOUS
 62
     7
 10
133.4286023639043
 20
403.6771984466491
 30
0.0
  0
VERTEX
  5
366
  8
0
  6
CONTINUOUS
 62
     7
 10
133.3402131782385
 20
403.6850747313612
 30
0.0
  0
SEQEND
  5
860
  8
0
  6
CONTINUOUS
 62
     7
  0
LINE
  5
117
  8
0
  6
CONTINUOUS
 62
     7
 10
151.6432704808447
 20
403.6850747313612
 30
0.0
 11
152.5957674986723
 21
403.6850747313612
 31
0.0
  0
LINE
  5
118
  8
0
  6
CONTINUOUS
 62
     7
 10
132.3877161604109
 20
403.6850747313612
 30
0.0
 11
133.3402131782385
 21
403.6850747313612
 31
0.0
  0
LINE
  5
119
  8
0
  6
CONTINUOUS
 62
     7
 10
131.7141855996605
 20
404.8523497029457
 30
0.0
 11
132.3881121187232
 21
403.6850747313612
 31
0.0
  0
LINE
  5
11A
  8
0
  6
CONTINUOUS
 62
     7
 10
152.59537154036
 20
403.6850747313612
 30
0.0
 11
153.2692980594227
 21
404.8523497029458
 31
0.0
  0
ARC
  5
11B
  8
0
  6
CONTINUOUS
 62
     7
 10
142.4917418295416
 20
418.6850747313612
 30
0.0
 40
17.5
 50
308.5220573374552
 51
351.4784178410809
  0
POLYLINE
  5
11C
  8
0
  6
CONTINUOUS
 62
     7
 66
     1
 10
0.0
 20
0.0
 30
0.0
  0
VERTEX
  5
367
  8
0
  6
CONTINUOUS
 62
     7
 10
153.3910196182046
 20
404.9936269012171
 30
0.0
  0
VERTEX
  5
368
  8
0
  6
CONTINUOUS
 62
     7
 10
153.3237057267143
 20
404.9288713089184
 30
0.0
  0
VERTEX
  5
369
  8
0
  6
CONTINUOUS
 62
     7
 10
153.2696297871933
 20
404.8527056361302
 30
0.0
  0
SEQEND
  5
861
  8
0
  6
CONTINUOUS
 62
     7
  0
ARC
  5
11D
  8
0
  6
CONTINUOUS
 62
     7
 10
142.4917418295416
 20
418.6850747313612
 30
0.0
 40
17.5
 50
188.5215821589189
 51
231.4779426625448
  0
POLYLINE
  5
11E
  8
0
  6
CONTINUOUS
 62
     7
 66
     1
 10
0.0
 20
0.0
 30
0.0
  0
VERTEX
  5
36A
  8
0
  6
CONTINUOUS
 62
     7
 10
131.7138538718899
 20
404.8527056361302
 30
0.0
  0
VERTEX
  5
36B
  8
0
  6
CONTINUOUS
 62
     7
 10
131.6597779323689
 20
404.9288713089184
 30
0.0
  0
VERTEX
  5
36C
  8
0
  6
CONTINUOUS
 62
     7
 10
131.5924640408786
 20
404.9936269012171
 30
0.0
  0
SEQEND
  5
862
  8
0
  6
CONTINUOUS
 62
     7
  0
POLYLINE
  5
11F
  8
0
  6
CONTINUOUS
 62
     7
 66
     1
 10
0.0
 20
0.0
 30
0.0
  0
VERTEX
  5
36D
  8
0
  6
CONTINUOUS
 62
     7
 10
125.1846684853547
 20
416.0925571473184
 30
0.0
  0
VERTEX
  5
36E
  8
0
  6
CONTINUOUS
 62
     7
 10
125.1622542479532
 20
416.1831632009622
 30
0.0
  0
VERTEX
  5
36F
  8
0
  6
CONTINUOUS
 62
     7
 10
125.1233566648486
 20
416.268000282035
 30
0.0
  0
SEQEND
  5
863
  8
0
  6
CONTINUOUS
 62
     7
  0
POLYLINE
  5
120
  8
0
  6
CONTINUOUS
 62
     7
 66
     1
 10
0.0
 20
0.0
 30
0.0
  0
VERTEX
  5
370
  8
0
  6
CONTINUOUS
 62
     7
 10
159.8601269942345
 20
416.268000282035
 30
0.0
  0
VERTEX
  5
371
  8
0
  6
CONTINUOUS
 62
     7
 10
159.82122941113
 20
416.1831632009621
 30
0.0
  0
VERTEX
  5
372
  8
0
  6
CONTINUOUS
 62
     7
 10
159.7988151737285
 20
416.0925571473184
 30
0.0
  0
SEQEND
  5
864
  8
0
  6
CONTINUOUS
 62
     7
  0
LINE
  5
121
  8
0
  6
CONTINUOUS
 62
     7
 10
159.8601269942346
 20
416.268000282035
 30
0.0
 11
161.111288010907
 21
418.4350747313612
 31
0.0
  0
LINE
  5
122
  8
0
  6
CONTINUOUS
 62
     7
 10
123.8721956481762
 20
418.4350747313612
 30
0.0
 11
125.1233566648486
 21
416.268000282035
 31
0.0
  0
LINE
  5
123
  8
0
  6
CONTINUOUS
 62
     7
 10
109.7782925482617
 20
418.6850747313612
 30
0.0
 11
123.4389849671278
 21
418.6850747313612
 31
0.0
  0
LINE
  5
124
  8
0
  6
CONTINUOUS
 62
     7
 10
161.5444986919554
 20
418.6850747313612
 30
0.0
 11
175.2051911108215
 21
418.6850747313612
 31
0.0
  0
ARC
  5
125
  8
0
  6
CONTINUOUS
 62
     7
 10
151.6432444384032
 20
403.1850747313612
 30
0.0
 40
0.4999999999999877
 50
90.0
 51
120.5584317859348
  0
ARC
  5
126
  8
0
  6
CONTINUOUS
 62
     7
 10
133.34023922068
 20
403.1850747313612
 30
0.0
 40
0.5000000000000004
 50
81.96676679303938
 51
90.0
  0
ARC
  5
127
  8
0
  6
CONTINUOUS
 62
     7
 10
133.34023922068
 20
403.1850747313612
 30
0.0
 40
0.5000000000000142
 50
59.44156821406528
 51
81.96676679303938
  0
ARC
  5
128
  8
0
  6
CONTINUOUS
 62
     7
 10
153.7023107613149
 20
404.6023497029458
 30
0.0
 40
0.5000000000000159
 50
128.5215821589193
 51
150.0
  0
LINE
  5
129
  8
0
  6
CONTINUOUS
 62
     7
 10
153.3909060687657
 20
404.9935365092907
 30
0.0
 11
153.3910196182046
 21
404.9936269012171
 31
0.0
  0
ARC
  5
12A
  8
0
  6
CONTINUOUS
 62
     7
 10
131.2811728977683
 20
404.6023497029458
 30
0.0
 40
0.4999999999999932
 50
30.00000000000011
 51
51.4784178410813
  0
ARC
  5
12B
  8
0
  6
CONTINUOUS
 62
     7
 10
124.6904597345362
 20
416.0177997597767
 30
0.0
 40
0.499999999999988
 50
8.521582158919102
 51
30.00000000000011
  0
ARC
  5
12C
  8
0
  6
CONTINUOUS
 62
     7
 10
160.293023924547
 20
416.0177997597766
 30
0.0
 40
0.5000000000000139
 50
149.9999999999999
 51
171.478417841081
  0
ARC
  5
12D
  8
0
  6
CONTINUOUS
 62
     7
 10
161.5443007127993
 20
418.1850747313612
 30
0.0
 40
0.499999999999988
 50
89.99999999999962
 51
149.9999999999999
  0
ARC
  5
12E
  8
0
  6
CONTINUOUS
 62
     7
 10
123.4391829462839
 20
418.1850747313612
 30
0.0
 40
0.4999999999999449
 50
30.00000000000011
 51
90.0
  0
LINE
  5
12F
  8
0
  6
CONTINUOUS
 62
     7
 10
109.9917418293967
 20
383.685074731356
 30
0.0
 11
109.9241842747515
 21
383.6850747313613
 31
0.0
  0
LINE
  5
130
  8
0
  6
CONTINUOUS
 62
     7
 10
109.9241831114488
 20
383.6850747307877
 30
0.0
 11
109.9917418294946
 21
383.6850747306462
 31
0.0
  0
LINE
  5
131
  8
0
  6
CONTINUOUS
 62
     7
 10
174.9917418296864
 20
383.6850747313612
 30
0.0
 11
175.0592993844662
 21
383.6850747236302
 31
0.0
  0
LINE
  5
132
  8
0
  6
CONTINUOUS
 62
     7
 10
174.9917418295568
 20
383.6850747305576
 30
0.0
 11
175.0592977012168
 21
383.6850747306379
 31
0.0
  0
LINE
  5
133
  8
0
  6
CONTINUOUS
 62
     7
 10
177.9329904108478
 20
426.9706728620301
 30
0.0
 11
178.3107381029781
 21
383.6850747313612
 31
0.0
  0
LINE
  5
134
  8
0
  6
CONTINUOUS
 62
     7
 10
178.3107381029781
 20
383.6850747313612
 30
0.0
 11
176.8113660788557
 21
383.6850747313612
 31
0.0
  0
LINE
  5
135
  8
0
  6
CONTINUOUS
 62
     7
 10
106.6727455561051
 20
383.6850747313612
 30
0.0
 11
107.0504932482354
 21
426.9706728620301
 31
0.0
  0
LINE
  5
136
  8
0
  6
CONTINUOUS
 62
     7
 10
108.1721175802275
 20
383.6850747313612
 30
0.0
 11
106.6727455561051
 21
383.6850747313612
 31
0.0
  0
LINE
  5
137
  8
0
  6
CONTINUOUS
 62
     7
 10
175.1330970262681
 20
426.9462385626346
 30
0.0
 11
175.510631483498
 21
383.6850747313612
 31
0.0
  0
ARC
  5
138
  8
0
  6
CONTINUOUS
 62
     7
 10
163.1335539494981
 20
426.8415201366541
 30
0.0
 40
12.0
 50
0.4999999999999432
 51
43.5999164104
  0
LINE
  5
139
  8
0
  6
CONTINUOUS
 62
     7
 10
159.4917418295416
 20
448.0667363931122
 30
0.0
 11
171.8236283598836
 21
435.116941983422
 31
0.0
  0
ARC
  5
13A
  8
0
  6
CONTINUOUS
 62
     7
 10
142.4917418295416
 20
214.6850747313612
 30
0.0
 40
234.0
 50
85.83381578248017
 51
94.16618421751981
  0
LINE
  5
13B
  8
0
  6
CONTINUOUS
 62
     7
 10
125.4917418295416
 20
448.0667363931122
 30
0.0
 11
113.1598552991996
 21
435.116941983422
 31
0.0
  0
ARC
  5
13C
  8
0
  6
CONTINUOUS
 62
     7
 10
121.8499297095851
 20
426.8415201366541
 30
0.0
 40
12.0
 50
136.4000835896
 51
179.5000000000001
  0
LINE
  5
13D
  8
0
  6
CONTINUOUS
 62
     7
 10
109.8503866328151
 20
426.9462385626346
 30
0.0
 11
109.4728521755852
 21
383.6850747313612
 31
0.0
  0
LINE
  5
13E
  8
0
  6
CONTINUOUS
 62
     7
 10
109.4728521755852
 20
383.6850747313612
 30
0.0
 11
108.1721175802275
 21
383.6850747313612
 31
0.0
  0
LINE
  5
13F
  8
0
  6
CONTINUOUS
 62
     7
 10
175.510631483498
 20
383.6850747313612
 30
0.0
 11
176.8113660788557
 21
383.6850747313612
 31
0.0
  0
ARC
  5
140
  8
0
  6
CONTINUOUS
 62
     7
 10
163.1335539494981
 20
426.8415201366541
 30
0.0
 40
14.8
 50
0.5000000000000568
 51
43.59991641040006
  0
ARC
  5
141
  8
0
  6
CONTINUOUS
 62
     7
 10
121.8499297095851
 20
426.8415201366541
 30
0.0
 40
14.8
 50
136.4000835895999
 51
179.5
  0
LINE
  5
142
  8
0
  6
CONTINUOUS
 62
     7
 10
160.7759411121422
 20
450.7781243041814
 30
0.0
 11
160.7762310698838
 21
450.7781018482582
 31
0.0
  0
LINE
  5
143
  8
0
  6
CONTINUOUS
 62
     7
 10
160.7762310698838
 20
450.7781018482582
 30
0.0
 11
173.8513123889735
 21
437.0478737476679
 31
0.0
  0
LINE
  5
144
  8
0
  6
CONTINUOUS
 62
     7
 10
111.1321712701097
 20
437.0478737476679
 30
0.0
 11
124.2072525891994
 21
450.7781018482582
 31
0.0
  0
LINE
  5
145
  8
0
  6
CONTINUOUS
 62
     7
 10
124.2072525891994
 20
450.7781018482582
 30
0.0
 11
124.2075425469409
 21
450.7781243041814
 31
0.0
  0
ARC
  5
146
  8
0
  6
CONTINUOUS
 62
     7
 10
142.4917418295416
 20
214.6850747313612
 30
0.0
 40
236.8
 50
85.57157424968796
 51
94.42842575031216
  0
LINE
  5
147
  8
0
  6
CONTINUOUS
 62
     7
 10
160.7762310698839
 20
450.7781018482581
 30
0.0
 11
160.7821290024617
 21
450.7776450021443
 31
0.0
  0
ARC
  5
148
  8
0
  6
CONTINUOUS
 62
     7
 10
142.4917418295492
 20
214.685074731425
 30
0.0
 40
236.9999999999358
 50
81.15350039595381
 51
84.57914845854066
  0
ARC
  5
149
  8
0
  6
CONTINUOUS
 62
     7
 10
178.8625573570739
 20
448.3716463991877
 30
0.0
 40
0.5000000000000203
 50
1.000000000002633
 51
81.15350039595496
  0
LINE
  5
14A
  8
0
  6
CONTINUOUS
 62
     7
 10
179.3624812046521
 20
448.3803726024063
 30
0.0
 11
180.4917418295416
 21
383.6850747313612
 31
0.0
  0
LINE
  5
14B
  8
0
  6
CONTINUOUS
 62
     7
 10
180.4917418295416
 20
383.6850747313612
 30
0.0
 11
179.0212546261673
 21
383.6850747313612
 31
0.0
  0
ARC
  5
14C
  8
0
  6
CONTINUOUS
 62
     7
 10
106.1209263020093
 20
448.3716463991877
 30
0.0
 40
0.5000000000000064
 50
98.84649960404535
 51
179.0000000000005
  0
ARC
  5
14D
  8
0
  6
CONTINUOUS
 62
     7
 10
142.4917418295429
 20
214.6850747313536
 30
0.0
 40
237.0000000000076
 50
95.42085154145968
 51
98.84649960404552
  0
LINE
  5
14E
  8
0
  6
CONTINUOUS
 62
     7
 10
104.4917418295416
 20
383.6850747313612
 30
0.0
 11
105.6210024544311
 21
448.3803726024063
 31
0.0
  0
LINE
  5
14F
  8
0
  6
CONTINUOUS
 62
     7
 10
105.9622290329156
 20
383.6850747313612
 30
0.0
 11
104.4917418295416
 21
383.6850747313612
 31
0.0
  0
ARC
  5
150
  8
0
  6
CONTINUOUS
 62
     7
 10
142.4917418295417
 20
214.6850747313649
 30
0.0
 40
236.9999999999963
 50
85.41417200016514
 51
94.58582802792671
  0
ARC
  5
151
  8
0
  6
CONTINUOUS
 62
     7
 10
142.4917418295416
 20
214.6850747313612
 30
0.0
 40
237.0
 50
84.57914845854032
 51
85.30170005271287
  0
ARC
  5
152
  8
0
  6
CONTINUOUS
 62
     7
 10
142.4917418295416
 20
214.6850747313612
 30
0.0
 40
237.0
 50
94.69830001130988
 51
95.42085154145968
  0
LINE
  5
153
  8
0
  6
CONTINUOUS
 62
     7
 10
123.0793235320338
 20
450.8887114854184
 30
0.0
 11
123.5430298929493
 21
450.9263630700935
 31
0.0
  0
LINE
  5
154
  8
0
  6
CONTINUOUS
 62
     7
 10
161.4404536503062
 20
450.9263630793839
 30
0.0
 11
161.9041598631136
 21
450.88871150711
 31
0.0
  0
LINE
  5
155
  8
0
  6
CONTINUOUS
 62
     7
 10
106.6727455561051
 20
383.6850747313612
 30
0.0
 11
106.628338273856
 21
383.6850747313612
 31
0.0
  0
LINE
  5
156
  8
0
  6
CONTINUOUS
 62
     7
 10
106.628338273856
 20
383.6850747313612
 30
0.0
 11
105.9622290401194
 21
383.6850747313612
 31
0.0
  0
LINE
  5
157
  8
0
  6
CONTINUOUS
 62
     7
 10
179.0212546189637
 20
383.6850747313612
 30
0.0
 11
178.3551453852272
 21
383.6850747313612
 31
0.0
  0
LINE
  5
158
  8
0
  6
CONTINUOUS
 62
     7
 10
178.3551453852272
 20
383.6850747313612
 30
0.0
 11
178.3107381029781
 21
383.6850747313612
 31
0.0
  0
LINE
  5
159
  8
0
  6
CONTINUOUS
 62
     7
 10
114.9917418295416
 20
452.1850747313612
 30
0.0
 11
169.9917418295416
 21
452.1850747313612
 31
0.0
  0
ARC
  5
15A
  8
0
  6
CONTINUOUS
 62
     7
 10
169.9917418295416
 20
451.6850747313612
 30
0.0
 40
0.5000000000000004
 50
0.0000000000000035
 51
90.0
  0
ARC
  5
15B
  8
0
  6
CONTINUOUS
 62
     7
 10
114.9917418295416
 20
451.6850747313612
 30
0.0
 40
0.5000000000000004
 50
90.00000000000001
 51
180.0
  0
LINE
  5
15C
  8
0
  6
CONTINUOUS
 62
     7
 10
114.4917418295416
 20
451.6850747313612
 30
0.0
 11
114.4917418295416
 21
450.0262176973178
 31
0.0
  0
LINE
  5
15D
  8
0
  6
CONTINUOUS
 62
     7
 10
170.4917418295416
 20
450.0252540463264
 30
0.0
 11
170.4917418295416
 21
451.6850747313612
 31
0.0
  0
ENDBLK
  8
0
  0
BLOCK
  8
0
  2
D_FRAME_VIEW_2707
 70
     0
 10
0.0
 20
0.0
 30
0.0
  0
LINE
  5
162
  8
0
  6
CONTINUOUS
 62
     7
 10
367.4285979464943
 20
504.2596384655949
 30
0.0
 11
367.4285979464789
 21
512.9725719261968
 31
0.0
  0
ARC
  5
163
  8
0
  6
CONTINUOUS
 62
     7
 10
364.9208808690097
 20
512.9704732771085
 30
0.0
 40
2.507717956578684
 50
0.0479755345099875
 51
30.08489133415571
  0
ARC
  5
164
  8
0
  6
CONTINUOUS
 62
     7
 10
380.9285979464944
 20
522.259638465595
 30
0.0
 40
16.0
 50
180.0
 51
210.1327797533537
  0
LINE
  5
165
  8
0
  6
CONTINUOUS
 62
     7
 10
364.9285979464944
 20
522.259638465595
 30
0.0
 11
364.9285979464944
 21
554.2596384655949
 31
0.0
  0
LINE
  5
166
  8
0
  6
CONTINUOUS
 62
     7
 10
362.9285979464944
 20
554.2596384655949
 30
0.0
 11
364.9285979464944
 21
554.2596384655949
 31
0.0
  0
LINE
  5
167
  8
0
  6
CONTINUOUS
 62
     7
 10
362.9285979464944
 20
614.2596384655949
 30
0.0
 11
362.9285979464944
 21
554.2596384655949
 31
0.0
  0
LINE
  5
168
  8
0
  6
CONTINUOUS
 62
     7
 10
362.9285979464944
 20
614.2596384655949
 30
0.0
 11
364.9285979464944
 21
614.2596384655949
 31
0.0
  0
LINE
  5
169
  8
0
  6
CONTINUOUS
 62
     7
 10
364.9285979464944
 20
646.2596384655949
 30
0.0
 11
364.9285979464944
 21
614.2596384655949
 31
0.0
  0
ARC
  5
16A
  8
0
  6
CONTINUOUS
 62
     7
 10
380.9285979464944
 20
646.2596384655949
 30
0.0
 40
16.0
 50
149.8672202466463
 51
180.0
  0
ARC
  5
16B
  8
0
  6
CONTINUOUS
 62
     7
 10
364.9208808690097
 20
655.5488036540814
 30
0.0
 40
2.507717956578684
 50
329.9151086658443
 51
359.95202446549
  0
LINE
  5
16C
  8
0
  6
CONTINUOUS
 62
     7
 10
367.4285979464943
 20
664.2596384655949
 30
0.0
 11
367.4285979464789
 21
655.546705004993
 31
0.0
  0
LINE
  5
16D
  8
0
  6
CONTINUOUS
 62
     7
 10
380.9290165970796
 20
664.2596384655949
 30
0.0
 11
367.4285979464943
 21
664.2596384655949
 31
0.0
  0
POLYLINE
  5
16E
  8
0
  6
CONTINUOUS
 62
     7
 66
     1
 10
0.0
 20
0.0
 30
0.0
  0
VERTEX
  5
373
  8
0
  6
CONTINUOUS
 62
     7
 10
380.9290165970795
 20
664.2596384655948
 30
0.0
  0
VERTEX
  5
374
  8
0
  6
CONTINUOUS
 62
     7
 10
381.1240495621944
 20
664.2788684032495
 30
0.0
  0
VERTEX
  5
375
  8
0
  6
CONTINUOUS
 62
     7
 10
381.3115743219061
 20
664.3358196487794
 30
0.0
  0
VERTEX
  5
376
  8
0
  6
CONTINUOUS
 62
     7
 10
381.4843885813792
 20
664.4283048661644
 30
0.0
  0
VERTEX
  5
377
  8
0
  6
CONTINUOUS
 62
     7
 10
381.6358550344232
 20
664.5527719601796
 30
0.0
  0
VERTEX
  5
378
  8
0
  6
CONTINUOUS
 62
     7
 10
381.7601562836225
 20
664.704440502311
 30
0.0
  0
VERTEX
  5
379
  8
0
  6
CONTINUOUS
 62
     7
 10
381.8525182700928
 20
664.8774853334736
 30
0.0
  0
VERTEX
  5
37A
  8
0
  6
CONTINUOUS
 62
     7
 10
381.9093936315595
 20
665.0652602918715
 30
0.0
  0
VERTEX
  5
37B
  8
0
  6
CONTINUOUS
 62
     7
 10
381.9285979464944
 20
665.2605534732464
 30
0.0
  0
SEQEND
  5
865
  8
0
  6
CONTINUOUS
 62
     7
  0
LINE
  5
16F
  8
0
  6
CONTINUOUS
 62
     7
 10
381.9285979464944
 20
665.2605534732465
 30
0.0
 11
381.9285979464944
 21
678.2596765425307
 31
0.0
  0
POLYLINE
  5
170
  8
0
  6
CONTINUOUS
 62
     7
 66
     1
 10
0.0
 20
0.0
 30
0.0
  0
VERTEX
  5
37C
  8
0
  6
CONTINUOUS
 62
     7
 10
382.9285598695586
 20
679.2596384655949
 30
0.0
  0
VERTEX
  5
37D
  8
0
  6
CONTINUOUS
 62
     7
 10
382.7334729190565
 20
679.240424871434
 30
0.0
  0
VERTEX
  5
37E
  8
0
  6
CONTINUOUS
 62
     7
 10
382.5458852524147
 20
679.1835223852393
 30
0.0
  0
VERTEX
  5
37F
  8
0
  6
CONTINUOUS
 62
     7
 10
382.3730050617498
 20
679.0911175263045
 30
0.0
  0
VERTEX
  5
380
  8
0
  6
CONTINUOUS
 62
     7
 10
382.2214753937492
 20
678.9667610183401
 30
0.0
  0
VERTEX
  5
381
  8
0
  6
CONTINUOUS
 62
     7
 10
382.0971188857848
 20
678.8152313503394
 30
0.0
  0
VERTEX
  5
382
  8
0
  6
CONTINUOUS
 62
     7
 10
382.00471402685
 20
678.6423511596747
 30
0.0
  0
VERTEX
  5
383
  8
0
  6
CONTINUOUS
 62
     7
 10
381.9478115406553
 20
678.4547634930329
 30
0.0
  0
VERTEX
  5
384
  8
0
  6
CONTINUOUS
 62
     7
 10
381.9285979464943
 20
678.2596765425308
 30
0.0
  0
SEQEND
  5
866
  8
0
  6
CONTINUOUS
 62
     7
  0
LINE
  5
171
  8
0
  6
CONTINUOUS
 62
     7
 10
385.9286360234302
 20
679.2596384655949
 30
0.0
 11
382.9285598695586
 21
679.2596384655949
 31
0.0
  0
POLYLINE
  5
172
  8
0
  6
CONTINUOUS
 62
     7
 66
     1
 10
0.0
 20
0.0
 30
0.0
  0
VERTEX
  5
385
  8
0
  6
CONTINUOUS
 62
     7
 10
386.9285979464944
 20
678.2596765425308
 30
0.0
  0
VERTEX
  5
386
  8
0
  6
CONTINUOUS
 62
     7
 10
386.9093843523335
 20
678.4547634930328
 30
0.0
  0
VERTEX
  5
387
  8
0
  6
CONTINUOUS
 62
     7
 10
386.8524818661386
 20
678.6423511596746
 30
0.0
  0
VERTEX
  5
388
  8
0
  6
CONTINUOUS
 62
     7
 10
386.7600770072039
 20
678.8152313503394
 30
0.0
  0
VERTEX
  5
389
  8
0
  6
CONTINUOUS
 62
     7
 10
386.6357204992395
 20
678.9667610183401
 30
0.0
  0
VERTEX
  5
38A
  8
0
  6
CONTINUOUS
 62
     7
 10
386.4841908312389
 20
679.0911175263045
 30
0.0
  0
VERTEX
  5
38B
  8
0
  6
CONTINUOUS
 62
     7
 10
386.3113106405741
 20
679.1835223852391
 30
0.0
  0
VERTEX
  5
38C
  8
0
  6
CONTINUOUS
 62
     7
 10
386.1237229739324
 20
679.2404248714339
 30
0.0
  0
VERTEX
  5
38D
  8
0
  6
CONTINUOUS
 62
     7
 10
385.9286360234303
 20
679.2596384655949
 30
0.0
  0
SEQEND
  5
867
  8
0
  6
CONTINUOUS
 62
     7
  0
LINE
  5
173
  8
0
  6
CONTINUOUS
 62
     7
 10
386.9285979464944
 20
665.2605534732465
 30
0.0
 11
386.9285979464944
 21
678.2596765425307
 31
0.0
  0
POLYLINE
  5
174
  8
0
  6
CONTINUOUS
 62
     7
 66
     1
 10
0.0
 20
0.0
 30
0.0
  0
VERTEX
  5
38E
  8
0
  6
CONTINUOUS
 62
     7
 10
386.9285979464944
 20
665.2605534732464
 30
0.0
  0
VERTEX
  5
38F
  8
0
  6
CONTINUOUS
 62
     7
 10
386.9478022614294
 20
665.0652602918715
 30
0.0
  0
VERTEX
  5
390
  8
0
  6
CONTINUOUS
 62
     7
 10
387.0046776228959
 20
664.8774853334736
 30
0.0
  0
VERTEX
  5
391
  8
0
  6
CONTINUOUS
 62
     7
 10
387.0970396093662
 20
664.704440502311
 30
0.0
  0
VERTEX
  5
392
  8
0
  6
CONTINUOUS
 62
     7
 10
387.2213408585656
 20
664.5527719601796
 30
0.0
  0
VERTEX
  5
393
  8
0
  6
CONTINUOUS
 62
     7
 10
387.3728073116096
 20
664.4283048661645
 30
0.0
  0
VERTEX
  5
394
  8
0
  6
CONTINUOUS
 62
     7
 10
387.5456215710827
 20
664.3358196487795
 30
0.0
  0
VERTEX
  5
395
  8
0
  6
CONTINUOUS
 62
     7
 10
387.7331463307944
 20
664.2788684032496
 30
0.0
  0
VERTEX
  5
396
  8
0
  6
CONTINUOUS
 62
     7
 10
387.9281792959093
 20
664.2596384655949
 30
0.0
  0
SEQEND
  5
868
  8
0
  6
CONTINUOUS
 62
     7
  0
LINE
  5
175
  8
0
  6
CONTINUOUS
 62
     7
 10
387.9281792959093
 20
664.2596384655949
 30
0.0
 11
407.9290165970795
 21
664.2596384655949
 31
0.0
  0
POLYLINE
  5
176
  8
0
  6
CONTINUOUS
 62
     7
 66
     1
 10
0.0
 20
0.0
 30
0.0
  0
VERTEX
  5
397
  8
0
  6
CONTINUOUS
 62
     7
 10
407.9290165970796
 20
664.2596384655948
 30
0.0
  0
VERTEX
  5
398
  8
0
  6
CONTINUOUS
 62
     7
 10
408.1240495621945
 20
664.2788684032495
 30
0.0
  0
VERTEX
  5
399
  8
0
  6
CONTINUOUS
 62
     7
 10
408.3115743219062
 20
664.3358196487794
 30
0.0
  0
VERTEX
  5
39A
  8
0
  6
CONTINUOUS
 62
     7
 10
408.4843885813793
 20
664.4283048661644
 30
0.0
  0
VERTEX
  5
39B
  8
0
  6
CONTINUOUS
 62
     7
 10
408.6358550344233
 20
664.5527719601796
 30
0.0
  0
VERTEX
  5
39C
  8
0
  6
CONTINUOUS
 62
     7
 10
408.7601562836226
 20
664.704440502311
 30
0.0
  0
VERTEX
  5
39D
  8
0
  6
CONTINUOUS
 62
     7
 10
408.8525182700929
 20
664.8774853334735
 30
0.0
  0
VERTEX
  5
39E
  8
0
  6
CONTINUOUS
 62
     7
 10
408.9093936315595
 20
665.0652602918715
 30
0.0
  0
VERTEX
  5
39F
  8
0
  6
CONTINUOUS
 62
     7
 10
408.9285979464944
 20
665.2605534732464
 30
0.0
  0
SEQEND
  5
869
  8
0
  6
CONTINUOUS
 62
     7
  0
LINE
  5
177
  8
0
  6
CONTINUOUS
 62
     7
 10
408.9285979464944
 20
665.2605534732465
 30
0.0
 11
408.9285979464944
 21
678.2596765425307
 31
0.0
  0
POLYLINE
  5
178
  8
0
  6
CONTINUOUS
 62
     7
 66
     1
 10
0.0
 20
0.0
 30
0.0
  0
VERTEX
  5
3A0
  8
0
  6
CONTINUOUS
 62
     7
 10
409.9285598695586
 20
679.2596384655949
 30
0.0
  0
VERTEX
  5
3A1
  8
0
  6
CONTINUOUS
 62
     7
 10
409.7334729190565
 20
679.2404248714339
 30
0.0
  0
VERTEX
  5
3A2
  8
0
  6
CONTINUOUS
 62
     7
 10
409.5458852524147
 20
679.1835223852391
 30
0.0
  0
VERTEX
  5
3A3
  8
0
  6
CONTINUOUS
 62
     7
 10
409.3730050617499
 20
679.0911175263045
 30
0.0
  0
VERTEX
  5
3A4
  8
0
  6
CONTINUOUS
 62
     7
 10
409.2214753937493
 20
678.9667610183401
 30
0.0
  0
VERTEX
  5
3A5
  8
0
  6
CONTINUOUS
 62
     7
 10
409.0971188857849
 20
678.8152313503394
 30
0.0
  0
VERTEX
  5
3A6
  8
0
  6
CONTINUOUS
 62
     7
 10
409.0047140268502
 20
678.6423511596746
 30
0.0
  0
VERTEX
  5
3A7
  8
0
  6
CONTINUOUS
 62
     7
 10
408.9478115406554
 20
678.4547634930328
 30
0.0
  0
VERTEX
  5
3A8
  8
0
  6
CONTINUOUS
 62
     7
 10
408.9285979464944
 20
678.2596765425308
 30
0.0
  0
SEQEND
  5
86A
  8
0
  6
CONTINUOUS
 62
     7
  0
LINE
  5
179
  8
0
  6
CONTINUOUS
 62
     7
 10
409.9285598695586
 20
679.2596384655949
 30
0.0
 11
412.9286360234303
 21
679.2596384655949
 31
0.0
  0
POLYLINE
  5
17A
  8
0
  6
CONTINUOUS
 62
     7
 66
     1
 10
0.0
 20
0.0
 30
0.0
  0
VERTEX
  5
3A9
  8
0
  6
CONTINUOUS
 62
     7
 10
413.9285979464945
 20
678.2596765425308
 30
0.0
  0
VERTEX
  5
3AA
  8
0
  6
CONTINUOUS
 62
     7
 10
413.9093843523336
 20
678.4547634930329
 30
0.0
  0
VERTEX
  5
3AB
  8
0
  6
CONTINUOUS
 62
     7
 10
413.8524818661388
 20
678.6423511596747
 30
0.0
  0
VERTEX
  5
3AC
  8
0
  6
CONTINUOUS
 62
     7
 10
413.760077007204
 20
678.8152313503394
 30
0.0
  0
VERTEX
  5
3AD
  8
0
  6
CONTINUOUS
 62
     7
 10
413.6357204992397
 20
678.9667610183401
 30
0.0
  0
VERTEX
  5
3AE
  8
0
  6
CONTINUOUS
 62
     7
 10
413.484190831239
 20
679.0911175263045
 30
0.0
  0
VERTEX
  5
3AF
  8
0
  6
CONTINUOUS
 62
     7
 10
413.3113106405742
 20
679.1835223852393
 30
0.0
  0
VERTEX
  5
3B0
  8
0
  6
CONTINUOUS
 62
     7
 10
413.1237229739324
 20
679.240424871434
 30
0.0
  0
VERTEX
  5
3B1
  8
0
  6
CONTINUOUS
 62
     7
 10
412.9286360234303
 20
679.2596384655949
 30
0.0
  0
SEQEND
  5
86B
  8
0
  6
CONTINUOUS
 62
     7
  0
LINE
  5
17B
  8
0
  6
CONTINUOUS
 62
     7
 10
413.9285979464944
 20
665.2605534732465
 30
0.0
 11
413.9285979464944
 21
678.2596765425307
 31
0.0
  0
POLYLINE
  5
17C
  8
0
  6
CONTINUOUS
 62
     7
 66
     1
 10
0.0
 20
0.0
 30
0.0
  0
VERTEX
  5
3B2
  8
0
  6
CONTINUOUS
 62
     7
 10
413.9285979464944
 20
665.2605534732464
 30
0.0
  0
VERTEX
  5
3B3
  8
0
  6
CONTINUOUS
 62
     7
 10
413.9478022614294
 20
665.0652602918715
 30
0.0
  0
VERTEX
  5
3B4
  8
0
  6
CONTINUOUS
 62
     7
 10
414.004677622896
 20
664.8774853334735
 30
0.0
  0
VERTEX
  5
3B5
  8
0
  6
CONTINUOUS
 62
     7
 10
414.0970396093663
 20
664.704440502311
 30
0.0
  0
VERTEX
  5
3B6
  8
0
  6
CONTINUOUS
 62
     7
 10
414.2213408585656
 20
664.5527719601796
 30
0.0
  0
VERTEX
  5
3B7
  8
0
  6
CONTINUOUS
 62
     7
 10
414.3728073116097
 20
664.4283048661644
 30
0.0
  0
VERTEX
  5
3B8
  8
0
  6
CONTINUOUS
 62
     7
 10
414.5456215710827
 20
664.3358196487794
 30
0.0
  0
VERTEX
  5
3B9
  8
0
  6
CONTINUOUS
 62
     7
 10
414.7331463307944
 20
664.2788684032495
 30
0.0
  0
VERTEX
  5
3BA
  8
0
  6
CONTINUOUS
 62
     7
 10
414.9281792959093
 20
664.2596384655948
 30
0.0
  0
SEQEND
  5
86C
  8
0
  6
CONTINUOUS
 62
     7
  0
LINE
  5
17D
  8
0
  6
CONTINUOUS
 62
     7
 10
414.9281792959093
 20
664.2596384655949
 30
0.0
 11
428.4285979464945
 21
664.2596384655949
 31
0.0
  0
LINE
  5
17E
  8
0
  6
CONTINUOUS
 62
     7
 10
428.4285979464945
 20
664.2596384655949
 30
0.0
 11
428.42859794651
 21
655.546705004993
 31
0.0
  0
ARC
  5
17F
  8
0
  6
CONTINUOUS
 62
     7
 10
430.9363150239791
 20
655.5488036540814
 30
0.0
 40
2.507717956578684
 50
180.04797553451
 51
210.0848913341557
  0
ARC
  5
180
  8
0
  6
CONTINUOUS
 62
     7
 10
414.9285979464944
 20
646.2596384655949
 30
0.0
 40
16.0
 50
0.0
 51
30.13277975335371
  0
LINE
  5
181
  8
0
  6
CONTINUOUS
 62
     7
 10
430.9285979464944
 20
646.2596384655949
 30
0.0
 11
430.9285979464944
 21
614.2596384655949
 31
0.0
  0
LINE
  5
182
  8
0
  6
CONTINUOUS
 62
     7
 10
432.9285979464944
 20
614.2596384655949
 30
0.0
 11
430.9285979464944
 21
614.2596384655949
 31
0.0
  0
LINE
  5
183
  8
0
  6
CONTINUOUS
 62
     7
 10
432.9285979464944
 20
614.2596384655949
 30
0.0
 11
432.9285979464944
 21
554.2596384655949
 31
0.0
  0
LINE
  5
184
  8
0
  6
CONTINUOUS
 62
     7
 10
432.9285979464944
 20
554.2596384655949
 30
0.0
 11
430.9285979464944
 21
554.2596384655949
 31
0.0
  0
LINE
  5
185
  8
0
  6
CONTINUOUS
 62
     7
 10
430.9285979464944
 20
522.259638465595
 30
0.0
 11
430.9285979464944
 21
554.2596384655949
 31
0.0
  0
ARC
  5
186
  8
0
  6
CONTINUOUS
 62
     7
 10
414.9285979464944
 20
522.259638465595
 30
0.0
 40
16.0
 50
329.8672202466463
 51
0.0
  0
ARC
  5
187
  8
0
  6
CONTINUOUS
 62
     7
 10
430.9363150239791
 20
512.9704732771085
 30
0.0
 40
2.507717956578684
 50
149.9151086658443
 51
179.95202446549
  0
LINE
  5
188
  8
0
  6
CONTINUOUS
 62
     7
 10
428.4285979464945
 20
504.2596384655949
 30
0.0
 11
428.42859794651
 21
512.9725719261968
 31
0.0
  0
LINE
  5
189
  8
0
  6
CONTINUOUS
 62
     7
 10
414.9281792959093
 20
504.2596384655949
 30
0.0
 11
428.4285979464945
 21
504.2596384655949
 31
0.0
  0
POLYLINE
  5
18A
  8
0
  6
CONTINUOUS
 62
     7
 66
     1
 10
0.0
 20
0.0
 30
0.0
  0
VERTEX
  5
3BB
  8
0
  6
CONTINUOUS
 62
     7
 10
414.9281792959093
 20
504.2596384655949
 30
0.0
  0
VERTEX
  5
3BC
  8
0
  6
CONTINUOUS
 62
     7
 10
414.7331463307944
 20
504.2404085279402
 30
0.0
  0
VERTEX
  5
3BD
  8
0
  6
CONTINUOUS
 62
     7
 10
414.5456215710827
 20
504.1834572824104
 30
0.0
  0
VERTEX
  5
3BE
  8
0
  6
CONTINUOUS
 62
     7
 10
414.3728073116097
 20
504.0909720650254
 30
0.0
  0
VERTEX
  5
3BF
  8
0
  6
CONTINUOUS
 62
     7
 10
414.2213408585656
 20
503.9665049710102
 30
0.0
  0
VERTEX
  5
3C0
  8
0
  6
CONTINUOUS
 62
     7
 10
414.0970396093663
 20
503.8148364288788
 30
0.0
  0
VERTEX
  5
3C1
  8
0
  6
CONTINUOUS
 62
     7
 10
414.004677622896
 20
503.6417915977162
 30
0.0
  0
VERTEX
  5
3C2
  8
0
  6
CONTINUOUS
 62
     7
 10
413.9478022614294
 20
503.4540166393182
 30
0.0
  0
VERTEX
  5
3C3
  8
0
  6
CONTINUOUS
 62
     7
 10
413.9285979464944
 20
503.2587234579433
 30
0.0
  0
SEQEND
  5
86D
  8
0
  6
CONTINUOUS
 62
     7
  0
LINE
  5
18B
  8
0
  6
CONTINUOUS
 62
     7
 10
413.9285979464944
 20
503.2587234579433
 30
0.0
 11
413.9285979464944
 21
490.2596003886591
 31
0.0
  0
POLYLINE
  5
18C
  8
0
  6
CONTINUOUS
 62
     7
 66
     1
 10
0.0
 20
0.0
 30
0.0
  0
VERTEX
  5
3C4
  8
0
  6
CONTINUOUS
 62
     7
 10
412.9286360234303
 20
489.2596384655949
 30
0.0
  0
VERTEX
  5
3C5
  8
0
  6
CONTINUOUS
 62
     7
 10
413.1237229739324
 20
489.2788520597559
 30
0.0
  0
VERTEX
  5
3C6
  8
0
  6
CONTINUOUS
 62
     7
 10
413.3113106405742
 20
489.3357545459506
 30
0.0
  0
VERTEX
  5
3C7
  8
0
  6
CONTINUOUS
 62
     7
 10
413.4841908312391
 20
489.4281594048854
 30
0.0
  0
VERTEX
  5
3C8
  8
0
  6
CONTINUOUS
 62
     7
 10
413.6357204992397
 20
489.5525159128497
 30
0.0
  0
VERTEX
  5
3C9
  8
0
  6
CONTINUOUS
 62
     7
 10
413.760077007204
 20
489.7040455808503
 30
0.0
  0
VERTEX
  5
3CA
  8
0
  6
CONTINUOUS
 62
     7
 10
413.8524818661388
 20
489.8769257715152
 30
0.0
  0
VERTEX
  5
3CB
  8
0
  6
CONTINUOUS
 62
     7
 10
413.9093843523335
 20
490.064513438157
 30
0.0
  0
VERTEX
  5
3CC
  8
0
  6
CONTINUOUS
 62
     7
 10
413.9285979464944
 20
490.2596003886591
 30
0.0
  0
SEQEND
  5
86E
  8
0
  6
CONTINUOUS
 62
     7
  0
LINE
  5
18D
  8
0
  6
CONTINUOUS
 62
     7
 10
409.9285598695586
 20
489.2596384655949
 30
0.0
 11
412.9286360234303
 21
489.2596384655949
 31
0.0
  0
POLYLINE
  5
18E
  8
0
  6
CONTINUOUS
 62
     7
 66
     1
 10
0.0
 20
0.0
 30
0.0
  0
VERTEX
  5
3CD
  8
0
  6
CONTINUOUS
 62
     7
 10
408.9285979464944
 20
490.2596003886591
 30
0.0
  0
VERTEX
  5
3CE
  8
0
  6
CONTINUOUS
 62
     7
 10
408.9478115406553
 20
490.064513438157
 30
0.0
  0
VERTEX
  5
3CF
  8
0
  6
CONTINUOUS
 62
     7
 10
409.0047140268501
 20
489.8769257715152
 30
0.0
  0
VERTEX
  5
3D0
  8
0
  6
CONTINUOUS
 62
     7
 10
409.0971188857849
 20
489.7040455808503
 30
0.0
  0
VERTEX
  5
3D1
  8
0
  6
CONTINUOUS
 62
     7
 10
409.2214753937492
 20
489.5525159128497
 30
0.0
  0
VERTEX
  5
3D2
  8
0
  6
CONTINUOUS
 62
     7
 10
409.3730050617499
 20
489.4281594048853
 30
0.0
  0
VERTEX
  5
3D3
  8
0
  6
CONTINUOUS
 62
     7
 10
409.5458852524147
 20
489.3357545459506
 30
0.0
  0
VERTEX
  5
3D4
  8
0
  6
CONTINUOUS
 62
     7
 10
409.7334729190565
 20
489.2788520597558
 30
0.0
  0
VERTEX
  5
3D5
  8
0
  6
CONTINUOUS
 62
     7
 10
409.9285598695586
 20
489.2596384655949
 30
0.0
  0
SEQEND
  5
86F
  8
0
  6
CONTINUOUS
 62
     7
  0
LINE
  5
18F
  8
0
  6
CONTINUOUS
 62
     7
 10
408.9285979464944
 20
503.2587234579433
 30
0.0
 11
408.9285979464944
 21
490.2596003886591
 31
0.0
  0
POLYLINE
  5
190
  8
0
  6
CONTINUOUS
 62
     7
 66
     1
 10
0.0
 20
0.0
 30
0.0
  0
VERTEX
  5
3D6
  8
0
  6
CONTINUOUS
 62
     7
 10
408.9285979464944
 20
503.2587234579433
 30
0.0
  0
VERTEX
  5
3D7
  8
0
  6
CONTINUOUS
 62
     7
 10
408.9093936315595
 20
503.4540166393182
 30
0.0
  0
VERTEX
  5
3D8
  8
0
  6
CONTINUOUS
 62
     7
 10
408.8525182700929
 20
503.6417915977161
 30
0.0
  0
VERTEX
  5
3D9
  8
0
  6
CONTINUOUS
 62
     7
 10
408.7601562836226
 20
503.8148364288787
 30
0.0
  0
VERTEX
  5
3DA
  8
0
  6
CONTINUOUS
 62
     7
 10
408.6358550344232
 20
503.9665049710101
 30
0.0
  0
VERTEX
  5
3DB
  8
0
  6
CONTINUOUS
 62
     7
 10
408.4843885813792
 20
504.0909720650253
 30
0.0
  0
VERTEX
  5
3DC
  8
0
  6
CONTINUOUS
 62
     7
 10
408.3115743219062
 20
504.1834572824103
 30
0.0
  0
VERTEX
  5
3DD
  8
0
  6
CONTINUOUS
 62
     7
 10
408.1240495621944
 20
504.2404085279401
 30
0.0
  0
VERTEX
  5
3DE
  8
0
  6
CONTINUOUS
 62
     7
 10
407.9290165970796
 20
504.2596384655948
 30
0.0
  0
SEQEND
  5
870
  8
0
  6
CONTINUOUS
 62
     7
  0
LINE
  5
191
  8
0
  6
CONTINUOUS
 62
     7
 10
387.9281792959093
 20
504.2596384655949
 30
0.0
 11
407.9290165970795
 21
504.2596384655949
 31
0.0
  0
POLYLINE
  5
192
  8
0
  6
CONTINUOUS
 62
     7
 66
     1
 10
0.0
 20
0.0
 30
0.0
  0
VERTEX
  5
3DF
  8
0
  6
CONTINUOUS
 62
     7
 10
387.9281792959093
 20
504.2596384655949
 30
0.0
  0
VERTEX
  5
3E0
  8
0
  6
CONTINUOUS
 62
     7
 10
387.7331463307943
 20
504.2404085279402
 30
0.0
  0
VERTEX
  5
3E1
  8
0
  6
CONTINUOUS
 62
     7
 10
387.5456215710827
 20
504.1834572824104
 30
0.0
  0
VERTEX
  5
3E2
  8
0
  6
CONTINUOUS
 62
     7
 10
387.3728073116096
 20
504.0909720650254
 30
0.0
  0
VERTEX
  5
3E3
  8
0
  6
CONTINUOUS
 62
     7
 10
387.2213408585656
 20
503.9665049710102
 30
0.0
  0
VERTEX
  5
3E4
  8
0
  6
CONTINUOUS
 62
     7
 10
387.0970396093663
 20
503.8148364288788
 30
0.0
  0
VERTEX
  5
3E5
  8
0
  6
CONTINUOUS
 62
     7
 10
387.0046776228959
 20
503.6417915977162
 30
0.0
  0
VERTEX
  5
3E6
  8
0
  6
CONTINUOUS
 62
     7
 10
386.9478022614293
 20
503.4540166393182
 30
0.0
  0
VERTEX
  5
3E7
  8
0
  6
CONTINUOUS
 62
     7
 10
386.9285979464944
 20
503.2587234579433
 30
0.0
  0
SEQEND
  5
871
  8
0
  6
CONTINUOUS
 62
     7
  0
LINE
  5
193
  8
0
  6
CONTINUOUS
 62
     7
 10
386.9285979464944
 20
503.2587234579433
 30
0.0
 11
386.9285979464944
 21
490.2596003886591
 31
0.0
  0
POLYLINE
  5
194
  8
0
  6
CONTINUOUS
 62
     7
 66
     1
 10
0.0
 20
0.0
 30
0.0
  0
VERTEX
  5
3E8
  8
0
  6
CONTINUOUS
 62
     7
 10
385.9286360234302
 20
489.2596384655949
 30
0.0
  0
VERTEX
  5
3E9
  8
0
  6
CONTINUOUS
 62
     7
 10
386.1237229739323
 20
489.2788520597558
 30
0.0
  0
VERTEX
  5
3EA
  8
0
  6
CONTINUOUS
 62
     7
 10
386.3113106405741
 20
489.3357545459506
 30
0.0
  0
VERTEX
  5
3EB
  8
0
  6
CONTINUOUS
 62
     7
 10
386.4841908312389
 20
489.4281594048853
 30
0.0
  0
VERTEX
  5
3EC
  8
0
  6
CONTINUOUS
 62
     7
 10
386.6357204992396
 20
489.5525159128497
 30
0.0
  0
VERTEX
  5
3ED
  8
0
  6
CONTINUOUS
 62
     7
 10
386.760077007204
 20
489.7040455808504
 30
0.0
  0
VERTEX
  5
3EE
  8
0
  6
CONTINUOUS
 62
     7
 10
386.8524818661388
 20
489.8769257715152
 30
0.0
  0
VERTEX
  5
3EF
  8
0
  6
CONTINUOUS
 62
     7
 10
386.9093843523335
 20
490.064513438157
 30
0.0
  0
VERTEX
  5
3F0
  8
0
  6
CONTINUOUS
 62
     7
 10
386.9285979464944
 20
490.2596003886591
 30
0.0
  0
SEQEND
  5
872
  8
0
  6
CONTINUOUS
 62
     7
  0
LINE
  5
195
  8
0
  6
CONTINUOUS
 62
     7
 10
385.9286360234302
 20
489.2596384655949
 30
0.0
 11
382.9285598695586
 21
489.2596384655949
 31
0.0
  0
POLYLINE
  5
196
  8
0
  6
CONTINUOUS
 62
     7
 66
     1
 10
0.0
 20
0.0
 30
0.0
  0
VERTEX
  5
3F1
  8
0
  6
CONTINUOUS
 62
     7
 10
381.9285979464944
 20
490.2596003886591
 30
0.0
  0
VERTEX
  5
3F2
  8
0
  6
CONTINUOUS
 62
     7
 10
381.9478115406553
 20
490.064513438157
 30
0.0
  0
VERTEX
  5
3F3
  8
0
  6
CONTINUOUS
 62
     7
 10
382.0047140268501
 20
489.8769257715152
 30
0.0
  0
VERTEX
  5
3F4
  8
0
  6
CONTINUOUS
 62
     7
 10
382.0971188857848
 20
489.7040455808503
 30
0.0
  0
VERTEX
  5
3F5
  8
0
  6
CONTINUOUS
 62
     7
 10
382.2214753937492
 20
489.5525159128497
 30
0.0
  0
VERTEX
  5
3F6
  8
0
  6
CONTINUOUS
 62
     7
 10
382.3730050617498
 20
489.4281594048853
 30
0.0
  0
VERTEX
  5
3F7
  8
0
  6
CONTINUOUS
 62
     7
 10
382.5458852524146
 20
489.3357545459506
 30
0.0
  0
VERTEX
  5
3F8
  8
0
  6
CONTINUOUS
 62
     7
 10
382.7334729190564
 20
489.2788520597559
 30
0.0
  0
VERTEX
  5
3F9
  8
0
  6
CONTINUOUS
 62
     7
 10
382.9285598695585
 20
489.2596384655949
 30
0.0
  0
SEQEND
  5
873
  8
0
  6
CONTINUOUS
 62
     7
  0
LINE
  5
197
  8
0
  6
CONTINUOUS
 62
     7
 10
381.9285979464944
 20
503.2587234579433
 30
0.0
 11
381.9285979464944
 21
490.2596003886591
 31
0.0
  0
POLYLINE
  5
198
  8
0
  6
CONTINUOUS
 62
     7
 66
     1
 10
0.0
 20
0.0
 30
0.0
  0
VERTEX
  5
3FA
  8
0
  6
CONTINUOUS
 62
     7
 10
381.9285979464944
 20
503.2587234579433
 30
0.0
  0
VERTEX
  5
3FB
  8
0
  6
CONTINUOUS
 62
     7
 10
381.9093936315595
 20
503.4540166393182
 30
0.0
  0
VERTEX
  5
3FC
  8
0
  6
CONTINUOUS
 62
     7
 10
381.8525182700928
 20
503.6417915977162
 30
0.0
  0
VERTEX
  5
3FD
  8
0
  6
CONTINUOUS
 62
     7
 10
381.7601562836225
 20
503.8148364288788
 30
0.0
  0
VERTEX
  5
3FE
  8
0
  6
CONTINUOUS
 62
     7
 10
381.6358550344232
 20
503.9665049710102
 30
0.0
  0
VERTEX
  5
3FF
  8
0
  6
CONTINUOUS
 62
     7
 10
381.4843885813792
 20
504.0909720650254
 30
0.0
  0
VERTEX
  5
400
  8
0
  6
CONTINUOUS
 62
     7
 10
381.3115743219061
 20
504.1834572824104
 30
0.0
  0
VERTEX
  5
401
  8
0
  6
CONTINUOUS
 62
     7
 10
381.1240495621944
 20
504.2404085279402
 30
0.0
  0
VERTEX
  5
402
  8
0
  6
CONTINUOUS
 62
     7
 10
380.9290165970795
 20
504.2596384655949
 30
0.0
  0
SEQEND
  5
874
  8
0
  6
CONTINUOUS
 62
     7
  0
LINE
  5
199
  8
0
  6
CONTINUOUS
 62
     7
 10
380.9290165970796
 20
504.2596384655949
 30
0.0
 11
367.4285979464943
 21
504.2596384655949
 31
0.0
  0
CIRCLE
  5
19A
  8
0
  6
CONTINUOUS
 62
     7
 10
375.4285979464944
 20
644.259638465595
 30
0.0
 40
2.249999999999974
  0
CIRCLE
  5
19B
  8
0
  6
CONTINUOUS
 62
     7
 10
375.4285979464944
 20
524.2596384655949
 30
0.0
 40
2.249999999999974
  0
CIRCLE
  5
19C
  8
0
  6
CONTINUOUS
 62
     7
 10
420.4285979464944
 20
644.259638465595
 30
0.0
 40
2.25000000000003
  0
CIRCLE
  5
19D
  8
0
  6
CONTINUOUS
 62
     7
 10
420.4285979464944
 20
524.2596384655949
 30
0.0
 40
2.25000000000003
  0
LINE
  5
19E
  8
0
  6
CONTINUOUS
 62
     7
 10
365.2289483009954
 20
556.7285225864838
 30
0.0
 11
430.6282475919934
 21
556.7285225864838
 31
0.0
  0
LINE
  5
19F
  8
0
  6
CONTINUOUS
 62
     7
 10
430.6282475919934
 20
611.7907543447061
 30
0.0
 11
430.6282475919934
 21
556.7285225864838
 31
0.0
  0
LINE
  5
1A0
  8
0
  6
CONTINUOUS
 62
     7
 10
365.2289483009954
 20
611.7907543447061
 30
0.0
 11
430.6282475919934
 21
611.7907543447061
 31
0.0
  0
LINE
  5
1A1
  8
0
  6
CONTINUOUS
 62
     7
 10
365.2289483009954
 20
611.7907543447061
 30
0.0
 11
365.2289483009954
 21
556.7285225864838
 31
0.0
  0
POLYLINE
  5
1A2
  8
0
  6
CONTINUOUS
 62
     7
 66
     1
 10
0.0
 20
0.0
 30
0.0
  0
VERTEX
  5
403
  8
0
  6
CONTINUOUS
 62
     7
 10
417.5945583857916
 20
610.0770199621506
 30
0.0
  0
VERTEX
  5
404
  8
0
  6
CONTINUOUS
 62
     7
 10
416.7827436333359
 20
610.2733701630101
 30
0.0
  0
VERTEX
  5
405
  8
0
  6
CONTINUOUS
 62
     7
 10
415.2641656904874
 20
610.4578415525209
 30
0.0
  0
VERTEX
  5
406
  8
0
  6
CONTINUOUS
 62
     7
 10
413.0957497030242
 20
610.6235190686084
 30
0.0
  0
VERTEX
  5
407
  8
0
  6
CONTINUOUS
 62
     7
 10
410.3587805314144
 20
610.7641921530332
 30
0.0
  0
VERTEX
  5
408
  8
0
  6
CONTINUOUS
 62
     7
 10
407.1558557208272
 20
610.8745875592845
 30
0.0
  0
VERTEX
  5
409
  8
0
  6
CONTINUOUS
 62
     7
 10
403.607039547593
 20
610.9505670245729
 30
0.0
  0
VERTEX
  5
40A
  8
0
  6
CONTINUOUS
 62
     7
 10
399.8453623108501
 20
610.9892823960208
 30
0.0
  0
VERTEX
  5
40B
  8
0
  6
CONTINUOUS
 62
     7
 10
396.011833582139
 20
610.9892823960208
 30
0.0
  0
VERTEX
  5
40C
  8
0
  6
CONTINUOUS
 62
     7
 10
392.250156345396
 20
610.9505670245729
 30
0.0
  0
VERTEX
  5
40D
  8
0
  6
CONTINUOUS
 62
     7
 10
388.7013401721618
 20
610.8745875592845
 30
0.0
  0
VERTEX
  5
40E
  8
0
  6
CONTINUOUS
 62
     7
 10
385.4984153615746
 20
610.7641921530332
 30
0.0
  0
VERTEX
  5
40F
  8
0
  6
CONTINUOUS
 62
     7
 10
382.7614461899648
 20
610.6235190686084
 30
0.0
  0
VERTEX
  5
410
  8
0
  6
CONTINUOUS
 62
     7
 10
380.5930302025016
 20
610.4578415525209
 30
0.0
  0
VERTEX
  5
411
  8
0
  6
CONTINUOUS
 62
     7
 10
379.074452259653
 20
610.2733701630101
 30
0.0
  0
VERTEX
  5
412
  8
0
  6
CONTINUOUS
 62
     7
 10
378.2626375071973
 20
610.0770199621506
 30
0.0
  0
SEQEND
  5
875
  8
0
  6
CONTINUOUS
 62
     7
  0
LINE
  5
1A3
  8
0
  6
CONTINUOUS
 62
     7
 10
365.4157174957273
 20
602.8176473741983
 30
0.0
 11
365.4157174957273
 21
600.7016295569916
 31
0.0
  0
LINE
  5
1A4
  8
0
  6
CONTINUOUS
 62
     7
 10
365.4157174957273
 20
600.7016295569916
 30
0.0
 11
365.7997289241482
 21
600.5096384655949
 31
0.0
  0
LINE
  5
1A5
  8
0
  6
CONTINUOUS
 62
     7
 10
365.7997289241482
 20
568.0096384655949
 30
0.0
 11
365.4157174957273
 21
567.8176473741981
 31
0.0
  0
LINE
  5
1A6
  8
0
  6
CONTINUOUS
 62
     7
 10
365.4157174957273
 20
567.8176473741981
 30
0.0
 11
365.4157174957273
 21
565.7016295569915
 31
0.0
  0
LINE
  5
1A7
  8
0
  6
CONTINUOUS
 62
     7
 10
365.4157174957273
 20
565.7016295569915
 30
0.0
 11
365.7997289241482
 21
565.5096384655949
 31
0.0
  0
LINE
  5
1A8
  8
0
  6
CONTINUOUS
 62
     7
 10
365.7997289241482
 20
603.009638465595
 30
0.0
 11
365.4157174957273
 21
602.8176473741983
 31
0.0
  0
POLYLINE
  5
1A9
  8
0
  6
CONTINUOUS
 62
     7
 66
     1
 10
0.0
 20
0.0
 30
0.0
  0
VERTEX
  5
413
  8
0
  6
CONTINUOUS
 62
     7
 10
378.2626375071973
 20
558.4422569690391
 30
0.0
  0
VERTEX
  5
414
  8
0
  6
CONTINUOUS
 62
     7
 10
379.0744522596529
 20
558.2459067681797
 30
0.0
  0
VERTEX
  5
415
  8
0
  6
CONTINUOUS
 62
     7
 10
380.5930302025014
 20
558.0614353786689
 30
0.0
  0
VERTEX
  5
416
  8
0
  6
CONTINUOUS
 62
     7
 10
382.7614461899646
 20
557.8957578625814
 30
0.0
  0
VERTEX
  5
417
  8
0
  6
CONTINUOUS
 62
     7
 10
385.4984153615744
 20
557.7550847781566
 30
0.0
  0
VERTEX
  5
418
  8
0
  6
CONTINUOUS
 62
     7
 10
388.7013401721616
 20
557.6446893719053
 30
0.0
  0
VERTEX
  5
419
  8
0
  6
CONTINUOUS
 62
     7
 10
392.2501563453957
 20
557.5687099066168
 30
0.0
  0
VERTEX
  5
41A
  8
0
  6
CONTINUOUS
 62
     7
 10
396.0118335821388
 20
557.529994535169
 30
0.0
  0
VERTEX
  5
41B
  8
0
  6
CONTINUOUS
 62
     7
 10
399.8453623108499
 20
557.529994535169
 30
0.0
  0
VERTEX
  5
41C
  8
0
  6
CONTINUOUS
 62
     7
 10
403.6070395475929
 20
557.5687099066168
 30
0.0
  0
VERTEX
  5
41D
  8
0
  6
CONTINUOUS
 62
     7
 10
407.155855720827
 20
557.6446893719053
 30
0.0
  0
VERTEX
  5
41E
  8
0
  6
CONTINUOUS
 62
     7
 10
410.3587805314143
 20
557.7550847781566
 30
0.0
  0
VERTEX
  5
41F
  8
0
  6
CONTINUOUS
 62
     7
 10
413.0957497030241
 20
557.8957578625814
 30
0.0
  0
VERTEX
  5
420
  8
0
  6
CONTINUOUS
 62
     7
 10
415.2641656904873
 20
558.0614353786689
 30
0.0
  0
VERTEX
  5
421
  8
0
  6
CONTINUOUS
 62
     7
 10
416.7827436333359
 20
558.2459067681797
 30
0.0
  0
VERTEX
  5
422
  8
0
  6
CONTINUOUS
 62
     7
 10
417.5945583857916
 20
558.4422569690391
 30
0.0
  0
SEQEND
  5
876
  8
0
  6
CONTINUOUS
 62
     7
  0
LINE
  5
1AA
  8
0
  6
CONTINUOUS
 62
     7
 10
430.0574669688407
 20
565.5096384655949
 30
0.0
 11
430.4414783972616
 21
565.7016295569915
 31
0.0
  0
LINE
  5
1AB
  8
0
  6
CONTINUOUS
 62
     7
 10
430.4414783972616
 20
565.7016295569915
 30
0.0
 11
430.4414783972616
 21
567.8176473741981
 31
0.0
  0
LINE
  5
1AC
  8
0
  6
CONTINUOUS
 62
     7
 10
430.4414783972616
 20
567.8176473741981
 30
0.0
 11
430.0574669688407
 21
568.0096384655949
 31
0.0
  0
LINE
  5
1AD
  8
0
  6
CONTINUOUS
 62
     7
 10
430.0574669688407
 20
600.5096384655949
 30
0.0
 11
430.4414783972616
 21
600.7016295569916
 31
0.0
  0
LINE
  5
1AE
  8
0
  6
CONTINUOUS
 62
     7
 10
430.4414783972616
 20
600.7016295569916
 30
0.0
 11
430.4414783972616
 21
602.8176473741983
 31
0.0
  0
LINE
  5
1AF
  8
0
  6
CONTINUOUS
 62
     7
 10
430.4414783972616
 20
602.8176473741983
 30
0.0
 11
430.0574669688407
 21
603.009638465595
 31
0.0
  0
LINE
  5
1B0
  8
0
  6
CONTINUOUS
 62
     7
 10
365.7997289241482
 20
568.0096384655949
 30
0.0
 11
371.588098415805
 21
568.0096384655949
 31
0.0
  0
LINE
  5
1B1
  8
0
  6
CONTINUOUS
 62
     7
 10
365.4157174957273
 20
567.8176473741981
 30
0.0
 11
371.719695201192
 21
567.8176473741981
 31
0.0
  0
LINE
  5
1B2
  8
0
  6
CONTINUOUS
 62
     7
 10
365.7997289241482
 20
603.009638465595
 30
0.0
 11
371.588098415805
 21
603.009638465595
 31
0.0
  0
LINE
  5
1B3
  8
0
  6
CONTINUOUS
 62
     7
 10
371.719695201192
 20
602.8176473741983
 30
0.0
 11
365.4157174957273
 21
602.8176473741983
 31
0.0
  0
ARC
  5
1B4
  8
0
  6
CONTINUOUS
 62
     7
 10
397.9285979464944
 20
584.2596384655949
 30
0.0
 40
17.39346506564833
 50
117.0082299875658
 51
242.9917700124342
  0
LINE
  5
1B5
  8
0
  6
CONTINUOUS
 62
     7
 10
371.719695201192
 20
565.7016295569915
 30
0.0
 11
365.4157174957273
 21
565.7016295569915
 31
0.0
  0
LINE
  5
1B6
  8
0
  6
CONTINUOUS
 62
     7
 10
371.588098415805
 20
565.5096384655949
 30
0.0
 11
365.7997289241482
 21
565.5096384655949
 31
0.0
  0
CIRCLE
  5
1B7
  8
0
  6
CONTINUOUS
 62
     7
 10
397.9285979464944
 20
584.2596384655949
 30
0.0
 40
15.0933774853611
  0
LINE
  5
1B8
  8
0
  6
CONTINUOUS
 62
     7
 10
430.4414783972616
 20
565.7016295569915
 30
0.0
 11
424.1375006917968
 21
565.7016295569915
 31
0.0
  0
POLYLINE
  5
1B9
  8
0
  6
CONTINUOUS
 62
     7
 66
     1
 10
0.0
 20
0.0
 30
0.0
  0
VERTEX
  5
423
  8
0
  6
CONTINUOUS
 62
     7
 10
423.6686128597417
 20
565.3752146141533
 30
0.0
  0
VERTEX
  5
424
  8
0
  6
CONTINUOUS
 62
     7
 10
423.6737555885035
 20
565.3885212977218
 30
0.0
  0
VERTEX
  5
425
  8
0
  6
CONTINUOUS
 62
     7
 10
423.6792757743748
 20
565.4016758799714
 30
0.0
  0
VERTEX
  5
426
  8
0
  6
CONTINUOUS
 62
     7
 10
423.6903569907941
 20
565.4253517443975
 30
0.0
  0
VERTEX
  5
427
  8
0
  6
CONTINUOUS
 62
     7
 10
423.7026596484346
 20
565.4484165339991
 30
0.0
  0
VERTEX
  5
428
  8
0
  6
CONTINUOUS
 62
     7
 10
423.714210392972
 20
565.4677431447583
 30
0.0
  0
VERTEX
  5
429
  8
0
  6
CONTINUOUS
 62
     7
 10
423.7266190909972
 20
565.4865304221652
 30
0.0
  0
VERTEX
  5
42A
  8
0
  6
CONTINUOUS
 62
     7
 10
423.7391924598985
 20
565.5038600868912
 30
0.0
  0
VERTEX
  5
42B
  8
0
  6
CONTINUOUS
 62
     7
 10
423.7524959025242
 20
565.5206358222541
 30
0.0
  0
VERTEX
  5
42C
  8
0
  6
CONTINUOUS
 62
     7
 10
423.7617532911982
 20
565.5314901453995
 30
0.0
  0
VERTEX
  5
42D
  8
0
  6
CONTINUOUS
 62
     7
 10
423.7713165260919
 20
565.5420759903883
 30
0.0
  0
VERTEX
  5
42E
  8
0
  6
CONTINUOUS
 62
     7
 10
423.7896099437817
 20
565.5607492829525
 30
0.0
  0
VERTEX
  5
42F
  8
0
  6
CONTINUOUS
 62
     7
 10
423.8088537124167
 20
565.5784416075928
 30
0.0
  0
VERTEX
  5
430
  8
0
  6
CONTINUOUS
 62
     7
 10
423.8261506242232
 20
565.5928553541057
 30
0.0
  0
VERTEX
  5
431
  8
0
  6
CONTINUOUS
 62
     7
 10
423.8440786179358
 20
565.6064761575823
 30
0.0
  0
VERTEX
  5
432
  8
0
  6
CONTINUOUS
 62
     7
 10
423.8616795368604
 20
565.618666997639
 30
0.0
  0
VERTEX
  5
433
  8
0
  6
CONTINUOUS
 62
     7
 10
423.8797860263109
 20
565.6300934567689
 30
0.0
  0
VERTEX
  5
434
  8
0
  6
CONTINUOUS
 62
     7
 10
423.8921142104337
 20
565.6372714350911
 30
0.0
  0
VERTEX
  5
435
  8
0
  6
CONTINUOUS
 62
     7
 10
423.9046421234628
 20
565.6440948427291
 30
0.0
  0
VERTEX
  5
436
  8
0
  6
CONTINUOUS
 62
     7
 10
423.9209993175277
 20
565.652324144164
 30
0.0
  0
VERTEX
  5
437
  8
0
  6
CONTINUOUS
 62
     7
 10
423.9376523235374
 20
565.6599518410497
 30
0.0
  0
VERTEX
  5
438
  8
0
  6
CONTINUOUS
 62
     7
 10
423.954567656631
 20
565.66696259767
 30
0.0
  0
VERTEX
  5
439
  8
0
  6
CONTINUOUS
 62
     7
 10
423.9719812808693
 20
565.6734370932782
 30
0.0
  0
VERTEX
  5
43A
  8
0
  6
CONTINUOUS
 62
     7
 10
423.9896294085852
 20
565.6792625224077
 30
0.0
  0
VERTEX
  5
43B
  8
0
  6
CONTINUOUS
 62
     7
 10
424.0074755100663
 20
565.6844268295484
 30
0.0
  0
VERTEX
  5
43C
  8
0
  6
CONTINUOUS
 62
     7
 10
424.0217519255779
 20
565.6880470738122
 30
0.0
  0
VERTEX
  5
43D
  8
0
  6
CONTINUOUS
 62
     7
 10
424.0361287584835
 20
565.6912453365311
 30
0.0
  0
VERTEX
  5
43E
  8
0
  6
CONTINUOUS
 62
     7
 10
424.0611576237245
 20
565.6957664453676
 30
0.0
  0
VERTEX
  5
43F
  8
0
  6
CONTINUOUS
 62
     7
 10
424.0863839095267
 20
565.6990097511764
 30
0.0
  0
VERTEX
  5
440
  8
0
  6
CONTINUOUS
 62
     7
 10
424.1119087773185
 20
565.7009737487385
 30
0.0
  0
VERTEX
  5
441
  8
0
  6
CONTINUOUS
 62
     7
 10
424.1375006917968
 20
565.7016295569915
 30
0.0
  0
SEQEND
  5
877
  8
0
  6
CONTINUOUS
 62
     7
  0
ARC
  5
1BA
  8
0
  6
CONTINUOUS
 62
     7
 10
419.9285979464944
 20
566.759638465595
 30
0.0
 40
3.988024692971766
 50
200.3128052726501
 51
339.6871947273499
  0
POLYLINE
  5
1BB
  8
0
  6
CONTINUOUS
 62
     7
 66
     1
 10
0.0
 20
0.0
 30
0.0
  0
VERTEX
  5
442
  8
0
  6
CONTINUOUS
 62
     7
 10
415.7196952011921
 20
565.7016295569915
 30
0.0
  0
VERTEX
  5
443
  8
0
  6
CONTINUOUS
 62
     7
 10
415.7404629179534
 20
565.7011963933257
 30
0.0
  0
VERTEX
  5
444
  8
0
  6
CONTINUOUS
 62
     7
 10
415.7612126506058
 20
565.6998998753004
 30
0.0
  0
VERTEX
  5
445
  8
0
  6
CONTINUOUS
 62
     7
 10
415.7818908164485
 20
565.6977444623744
 30
0.0
  0
VERTEX
  5
446
  8
0
  6
CONTINUOUS
 62
     7
 10
415.8024438327809
 20
565.694734614006
 30
0.0
  0
VERTEX
  5
447
  8
0
  6
CONTINUOUS
 62
     7
 10
415.8234436981294
 20
565.6907453320584
 30
0.0
  0
VERTEX
  5
448
  8
0
  6
CONTINUOUS
 62
     7
 10
415.8442729214217
 20
565.685857634046
 30
0.0
  0
VERTEX
  5
449
  8
0
  6
CONTINUOUS
 62
     7
 10
415.8648747582907
 20
565.680086114491
 30
0.0
  0
VERTEX
  5
44A
  8
0
  6
CONTINUOUS
 62
     7
 10
415.8851924643698
 20
565.6734453679162
 30
0.0
  0
VERTEX
  5
44B
  8
0
  6
CONTINUOUS
 62
     7
 10
415.9046461223338
 20
565.6661624323191
 30
0.0
  0
VERTEX
  5
44C
  8
0
  6
CONTINUOUS
 62
     7
 10
415.9237970242232
 20
565.6580707299516
 30
0.0
  0
VERTEX
  5
44D
  8
0
  6
CONTINUOUS
 62
     7
 10
415.9425960815721
 20
565.6491922094586
 30
0.0
  0
VERTEX
  5
44E
  8
0
  6
CONTINUOUS
 62
     7
 10
415.9609942059146
 20
565.6395488194851
 30
0.0
  0
VERTEX
  5
44F
  8
0
  6
CONTINUOUS
 62
     7
 10
415.979489809354
 20
565.6288332539291
 30
0.0
  0
VERTEX
  5
450
  8
0
  6
CONTINUOUS
 62
     7
 10
415.9975269928477
 20
565.617326379147
 30
0.0
  0
VERTEX
  5
451
  8
0
  6
CONTINUOUS
 62
     7
 10
416.0150570417591
 20
565.605060754827
 30
0.0
  0
VERTEX
  5
452
  8
0
  6
CONTINUOUS
 62
     7
 10
416.0320312414517
 20
565.5920689406572
 30
0.0
  0
VERTEX
  5
453
  8
0
  6
CONTINUOUS
 62
     7
 10
416.0479771748531
 20
565.5787574407912
 30
0.0
  0
VERTEX
  5
454
  8
0
  6
CONTINUOUS
 62
     7
 10
416.0633697262931
 20
565.5647830049063
 30
0.0
  0
VERTEX
  5
455
  8
0
  6
CONTINUOUS
 62
     7
 10
416.0781698447267
 20
565.5501825940167
 30
0.0
  0
VERTEX
  5
456
  8
0
  6
CONTINUOUS
 62
     7
 10
416.0923384791089
 20
565.5349931691367
 30
0.0
  0
VERTEX
  5
457
  8
0
  6
CONTINUOUS
 62
     7
 10
416.1062442007996
 20
565.5187598047038
 30
0.0
  0
VERTEX
  5
458
  8
0
  6
CONTINUOUS
 62
     7
 10
416.1194554523016
 20
565.5019315125273
 30
0.0
  0
VERTEX
  5
459
  8
0
  6
CONTINUOUS
 62
     7
 10
416.131937049306
 20
565.4845551396837
 30
0.0
  0
VERTEX
  5
45A
  8
0
  6
CONTINUOUS
 62
     7
 10
416.1436538075044
 20
565.4666775332497
 30
0.0
  0
VERTEX
  5
45B
  8
0
  6
CONTINUOUS
 62
     7
 10
416.1566117737733
 20
565.4447149074504
 30
0.0
  0
VERTEX
  5
45C
  8
0
  6
CONTINUOUS
 62
     7
 10
416.168448530897
 20
565.4220906926829
 30
0.0
  0
VERTEX
  5
45D
  8
0
  6
CONTINUOUS
 62
     7
 10
416.17912023276
 20
565.3988941684247
 30
0.0
  0
VERTEX
  5
45E
  8
0
  6
CONTINUOUS
 62
     7
 10
416.1885830332472
 20
565.3752146141533
 30
0.0
  0
SEQEND
  5
878
  8
0
  6
CONTINUOUS
 62
     7
  0
LINE
  5
1BC
  8
0
  6
CONTINUOUS
 62
     7
 10
415.7196952011921
 20
565.7016295569915
 30
0.0
 11
380.1375006917968
 21
565.7016295569915
 31
0.0
  0
POLYLINE
  5
1BD
  8
0
  6
CONTINUOUS
 62
     7
 66
     1
 10
0.0
 20
0.0
 30
0.0
  0
VERTEX
  5
45F
  8
0
  6
CONTINUOUS
 62
     7
 10
379.6686128597417
 20
565.3752146141533
 30
0.0
  0
VERTEX
  5
460
  8
0
  6
CONTINUOUS
 62
     7
 10
379.6762284998974
 20
565.3945404444135
 30
0.0
  0
VERTEX
  5
461
  8
0
  6
CONTINUOUS
 62
     7
 10
379.6846475604921
 20
565.4135496996018
 30
0.0
  0
VERTEX
  5
462
  8
0
  6
CONTINUOUS
 62
     7
 10
379.6938472584146
 20
565.4321936773324
 30
0.0
  0
VERTEX
  5
463
  8
0
  6
CONTINUOUS
 62
     7
 10
379.7038048105537
 20
565.4504236752189
 30
0.0
  0
VERTEX
  5
464
  8
0
  6
CONTINUOUS
 62
     7
 10
379.7148360081584
 20
565.4687327274744
 30
0.0
  0
VERTEX
  5
465
  8
0
  6
CONTINUOUS
 62
     7
 10
379.7266505129863
 20
565.4865698687944
 30
0.0
  0
VERTEX
  5
466
  8
0
  6
CONTINUOUS
 62
     7
 10
379.7392149395905
 20
565.5038869500854
 30
0.0
  0
VERTEX
  5
467
  8
0
  6
CONTINUOUS
 62
     7
 10
379.7524959025241
 20
565.5206358222541
 30
0.0
  0
VERTEX
  5
468
  8
0
  6
CONTINUOUS
 62
     7
 10
379.7660791674228
 20
565.5363514474012
 30
0.0
  0
VERTEX
  5
469
  8
0
  6
CONTINUOUS
 62
     7
 10
379.780315802662
 20
565.5515023849111
 30
0.0
  0
VERTEX
  5
46A
  8
0
  6
CONTINUOUS
 62
     7
 10
379.7951681837249
 20
565.5660502184302
 30
0.0
  0
VERTEX
  5
46B
  8
0
  6
CONTINUOUS
 62
     7
 10
379.8105986860947
 20
565.5799565316046
 30
0.0
  0
VERTEX
  5
46C
  8
0
  6
CONTINUOUS
 62
     7
 10
379.8270685263257
 20
565.593582061118
 30
0.0
  0
VERTEX
  5
46D
  8
0
  6
CONTINUOUS
 62
     7
 10
379.8441213270391
 20
565.6065029799491
 30
0.0
  0
VERTEX
  5
46E
  8
0
  6
CONTINUOUS
 62
     7
 10
379.8617096423345
 20
565.6186849058992
 30
0.0
  0
VERTEX
  5
46F
  8
0
  6
CONTINUOUS
 62
     7
 10
379.8797860263109
 20
565.6300934567689
 30
0.0
  0
VERTEX
  5
470
  8
0
  6
CONTINUOUS
 62
     7
 10
379.8978052574042
 20
565.6404267104434
 30
0.0
  0
VERTEX
  5
471
  8
0
  6
CONTINUOUS
 62
     7
 10
379.9162540935131
 20
565.6500108611272
 30
0.0
  0
VERTEX
  5
472
  8
0
  6
CONTINUOUS
 62
     7
 10
379.935084315793
 20
565.6588221171469
 30
0.0
  0
VERTEX
  5
473
  8
0
  6
CONTINUOUS
 62
     7
 10
379.9542477053998
 20
565.6668366868291
 30
0.0
  0
VERTEX
  5
474
  8
0
  6
CONTINUOUS
 62
     7
 10
379.9742988444984
 20
565.6742422953364
 30
0.0
  0
VERTEX
  5
475
  8
0
  6
CONTINUOUS
 62
     7
 10
379.9946668315698
 20
565.6807900954586
 30
0.0
  0
VERTEX
  5
476
  8
0
  6
CONTINUOUS
 62
     7
 10
380.0152955188271
 20
565.6864633536918
 30
0.0
  0
VERTEX
  5
477
  8
0
  6
CONTINUOUS
 62
     7
 10
380.0361287584834
 20
565.6912453365311
 30
0.0
  0
VERTEX
  5
478
  8
0
  6
CONTINUOUS
 62
     7
 10
380.0612238552569
 20
565.6957732433248
 30
0.0
  0
VERTEX
  5
479
  8
0
  6
CONTINUOUS
 62
     7
 10
380.0865501752538
 20
565.6990199999584
 30
0.0
  0
VERTEX
  5
47A
  8
0
  6
CONTINUOUS
 62
     7
 10
380.1120087701939
 20
565.7009754799935
 30
0.0
  0
VERTEX
  5
47B
  8
0
  6
CONTINUOUS
 62
     7
 10
380.1375006917968
 20
565.7016295569915
 30
0.0
  0
SEQEND
  5
879
  8
0
  6
CONTINUOUS
 62
     7
  0
ARC
  5
1BE
  8
0
  6
CONTINUOUS
 62
     7
 10
375.9285979464944
 20
566.759638465595
 30
0.0
 40
3.988024692971766
 50
200.3128052726501
 51
339.6871947273499
  0
POLYLINE
  5
1BF
  8
0
  6
CONTINUOUS
 62
     7
 66
     1
 10
0.0
 20
0.0
 30
0.0
  0
VERTEX
  5
47C
  8
0
  6
CONTINUOUS
 62
     7
 10
371.719695201192
 20
565.7016295569915
 30
0.0
  0
VERTEX
  5
47D
  8
0
  6
CONTINUOUS
 62
     7
 10
371.7404389760624
 20
565.701198323957
 30
0.0
  0
VERTEX
  5
47E
  8
0
  6
CONTINUOUS
 62
     7
 10
371.7611559633292
 20
565.6999068435471
 30
0.0
  0
VERTEX
  5
47F
  8
0
  6
CONTINUOUS
 62
     7
 10
371.7817926909177
 20
565.697758443803
 30
0.0
  0
VERTEX
  5
480
  8
0
  6
CONTINUOUS
 62
     7
 10
371.8026490660653
 20
565.6946999288864
 30
0.0
  0
VERTEX
  5
481
  8
0
  6
CONTINUOUS
 62
     7
 10
371.8233580608858
 20
565.6907654113286
 30
0.0
  0
VERTEX
  5
482
  8
0
  6
CONTINUOUS
 62
     7
 10
371.8441788070797
 20
565.6858850743961
 30
0.0
  0
VERTEX
  5
483
  8
0
  6
CONTINUOUS
 62
     7
 10
371.8647719286188
 20
565.6801192697446
 30
0.0
  0
VERTEX
  5
484
  8
0
  6
CONTINUOUS
 62
     7
 10
371.8851924643695
 20
565.6734453679163
 30
0.0
  0
VERTEX
  5
485
  8
0
  6
CONTINUOUS
 62
     7
 10
371.9046241675672
 20
565.6661721797586
 30
0.0
  0
VERTEX
  5
486
  8
0
  6
CONTINUOUS
 62
     7
 10
371.9237458354485
 20
565.6580960711882
 30
0.0
  0
VERTEX
  5
487
  8
0
  6
CONTINUOUS
 62
     7
 10
371.9425081091272
 20
565.6492378864633
 30
0.0
  0
VERTEX
  5
488
  8
0
  6
CONTINUOUS
 62
     7
 10
371.9611764008355
 20
565.6394481489514
 30
0.0
  0
VERTEX
  5
489
  8
0
  6
CONTINUOUS
 62
     7
 10
371.9794156425133
 20
565.6288805504495
 30
0.0
  0
VERTEX
  5
48A
  8
0
  6
CONTINUOUS
 62
     7
 10
371.9974472634533
 20
565.6173834282295
 30
0.0
  0
VERTEX
  5
48B
  8
0
  6
CONTINUOUS
 62
     7
 10
372.0149709797839
 20
565.6051260819065
 30
0.0
  0
VERTEX
  5
48C
  8
0
  6
CONTINUOUS
 62
     7
 10
372.0320312414513
 20
565.5920689406574
 30
0.0
  0
VERTEX
  5
48D
  8
0
  6
CONTINUOUS
 62
     7
 10
372.0479596852853
 20
565.5787739050359
 30
0.0
  0
VERTEX
  5
48E
  8
0
  6
CONTINUOUS
 62
     7
 10
372.0633298137888
 20
565.5648238591622
 30
0.0
  0
VERTEX
  5
48F
  8
0
  6
CONTINUOUS
 62
     7
 10
372.0781019549644
 20
565.5502548117212
 30
0.0
  0
VERTEX
  5
490
  8
0
  6
CONTINUOUS
 62
     7
 10
372.0924770705402
 20
565.5348378764518
 30
0.0
  0
VERTEX
  5
491
  8
0
  6
CONTINUOUS
 62
     7
 10
372.1061898754935
 20
565.5188289782096
 30
0.0
  0
VERTEX
  5
492
  8
0
  6
CONTINUOUS
 62
     7
 10
372.1194163324213
 20
565.5019877512675
 30
0.0
  0
VERTEX
  5
493
  8
0
  6
CONTINUOUS
 62
     7
 10
372.1319157639579
 20
565.4845879891468
 30
0.0
  0
VERTEX
  5
494
  8
0
  6
CONTINUOUS
 62
     7
 10
372.1436538075041
 20
565.46667753325
 30
0.0
  0
VERTEX
  5
495
  8
0
  6
CONTINUOUS
 62
     7
 10
372.1565424872708
 20
565.444847240828
 30
0.0
  0
VERTEX
  5
496
  8
0
  6
CONTINUOUS
 62
     7
 10
372.1683807626287
 20
565.422242991686
 30
0.0
  0
VERTEX
  5
497
  8
0
  6
CONTINUOUS
 62
     7
 10
372.1790511805372
 20
565.3990645742969
 30
0.0
  0
VERTEX
  5
498
  8
0
  6
CONTINUOUS
 62
     7
 10
372.1885830332471
 20
565.3752146141533
 30
0.0
  0
SEQEND
  5
87A
  8
0
  6
CONTINUOUS
 62
     7
  0
POLYLINE
  5
1C0
  8
0
  6
CONTINUOUS
 62
     7
 66
     1
 10
0.0
 20
0.0
 30
0.0
  0
VERTEX
  5
499
  8
0
  6
CONTINUOUS
 62
     7
 10
372.1885830332471
 20
568.1440623170365
 30
0.0
  0
VERTEX
  5
49A
  8
0
  6
CONTINUOUS
 62
     7
 10
372.1809775149732
 20
568.1247582695446
 30
0.0
  0
VERTEX
  5
49B
  8
0
  6
CONTINUOUS
 62
     7
 10
372.1725745461167
 20
568.1057779745669
 30
0.0
  0
VERTEX
  5
49C
  8
0
  6
CONTINUOUS
 62
     7
 10
372.1633958103293
 20
568.0871704235094
 30
0.0
  0
VERTEX
  5
49D
  8
0
  6
CONTINUOUS
 62
     7
 10
372.1532873085744
 20
568.0686728266373
 30
0.0
  0
VERTEX
  5
49E
  8
0
  6
CONTINUOUS
 62
     7
 10
372.142408443961
 20
568.0506175448729
 30
0.0
  0
VERTEX
  5
49F
  8
0
  6
CONTINUOUS
 62
     7
 10
372.1306037852221
 20
568.0327857981081
 30
0.0
  0
VERTEX
  5
4A0
  8
0
  6
CONTINUOUS
 62
     7
 10
372.1180477436048
 20
568.015474906251
 30
0.0
  0
VERTEX
  5
4A1
  8
0
  6
CONTINUOUS
 62
     7
 10
372.1046999904647
 20
567.9986411089357
 30
0.0
  0
VERTEX
  5
4A2
  8
0
  6
CONTINUOUS
 62
     7
 10
372.0911334883186
 20
567.9829426894407
 30
0.0
  0
VERTEX
  5
4A3
  8
0
  6
CONTINUOUS
 62
     7
 10
372.0769216255668
 20
567.9678137546034
 30
0.0
  0
VERTEX
  5
4A4
  8
0
  6
CONTINUOUS
 62
     7
 10
372.0621010848951
 20
567.9532933577631
 30
0.0
  0
VERTEX
  5
4A5
  8
0
  6
CONTINUOUS
 62
     7
 10
372.04643954882
 20
567.9391844824142
 30
0.0
  0
VERTEX
  5
4A6
  8
0
  6
CONTINUOUS
 62
     7
 10
372.0301974685444
 20
567.9257480058155
 30
0.0
  0
VERTEX
  5
4A7
  8
0
  6
CONTINUOUS
 62
     7
 10
372.0131557449085
 20
567.9128289180549
 30
0.0
  0
VERTEX
  5
4A8
  8
0
  6
CONTINUOUS
 62
     7
 10
371.9955773911383
 20
567.9006500572038
 30
0.0
  0
VERTEX
  5
4A9
  8
0
  6
CONTINUOUS
 62
     7
 10
371.9774098666779
 20
567.8891834744209
 30
0.0
  0
VERTEX
  5
4AA
  8
0
  6
CONTINUOUS
 62
     7
 10
371.9594121473605
 20
567.8788609071773
 30
0.0
  0
VERTEX
  5
4AB
  8
0
  6
CONTINUOUS
 62
     7
 10
371.9409939684977
 20
567.8692893181018
 30
0.0
  0
VERTEX
  5
4AC
  8
0
  6
CONTINUOUS
 62
     7
 10
371.9222028713887
 20
567.8604934118003
 30
0.0
  0
VERTEX
  5
4AD
  8
0
  6
CONTINUOUS
 62
     7
 10
371.9027544409846
 20
567.8523641808587
 30
0.0
  0
VERTEX
  5
4AE
  8
0
  6
CONTINUOUS
 62
     7
 10
371.8829807789627
 20
567.8450615694888
 30
0.0
  0
VERTEX
  5
4AF
  8
0
  6
CONTINUOUS
 62
     7
 10
371.8625953830294
 20
567.8385039997876
 30
0.0
  0
VERTEX
  5
4B0
  8
0
  6
CONTINUOUS
 62
     7
 10
371.8419385698687
 20
567.8328221356041
 30
0.0
  0
VERTEX
  5
4B1
  8
0
  6
CONTINUOUS
 62
     7
 10
371.8210671345054
 20
567.8280315946586
 30
0.0
  0
VERTEX
  5
4B2
  8
0
  6
CONTINUOUS
 62
     7
 10
371.7961201939588
 20
567.8235227266308
 30
0.0
  0
VERTEX
  5
4B3
  8
0
  6
CONTINUOUS
 62
     7
 10
371.7708120709048
 20
567.8202676152077
 30
0.0
  0
VERTEX
  5
4B4
  8
0
  6
CONTINUOUS
 62
     7
 10
371.7453709025114
 20
567.8183070535661
 30
0.0
  0
VERTEX
  5
4B5
  8
0
  6
CONTINUOUS
 62
     7
 10
371.719695201192
 20
567.8176473741981
 30
0.0
  0
SEQEND
  5
87B
  8
0
  6
CONTINUOUS
 62
     7
  0
ARC
  5
1C1
  8
0
  6
CONTINUOUS
 62
     7
 10
375.9285979464944
 20
566.759638465595
 30
0.0
 40
3.988024692971779
 50
20.31280527264948
 51
159.6871947273505
  0
POLYLINE
  5
1C2
  8
0
  6
CONTINUOUS
 62
     7
 66
     1
 10
0.0
 20
0.0
 30
0.0
  0
VERTEX
  5
4B6
  8
0
  6
CONTINUOUS
 62
     7
 10
380.1375006917968
 20
567.8176473741981
 30
0.0
  0
VERTEX
  5
4B7
  8
0
  6
CONTINUOUS
 62
     7
 10
380.1167329750354
 20
567.818080537864
 30
0.0
  0
VERTEX
  5
4B8
  8
0
  6
CONTINUOUS
 62
     7
 10
380.095983242383
 20
567.8193770558894
 30
0.0
  0
VERTEX
  5
4B9
  8
0
  6
CONTINUOUS
 62
     7
 10
380.0753050765403
 20
567.8215324688153
 30
0.0
  0
VERTEX
  5
4BA
  8
0
  6
CONTINUOUS
 62
     7
 10
380.0547520602079
 20
567.8245423171837
 30
0.0
  0
VERTEX
  5
4BB
  8
0
  6
CONTINUOUS
 62
     7
 10
380.0337521948594
 20
567.8285315991313
 30
0.0
  0
VERTEX
  5
4BC
  8
0
  6
CONTINUOUS
 62
     7
 10
380.0129229715672
 20
567.8334192971438
 30
0.0
  0
VERTEX
  5
4BD
  8
0
  6
CONTINUOUS
 62
     7
 10
379.9923211346982
 20
567.8391908166988
 30
0.0
  0
VERTEX
  5
4BE
  8
0
  6
CONTINUOUS
 62
     7
 10
379.9720034286191
 20
567.8458315632736
 30
0.0
  0
VERTEX
  5
4BF
  8
0
  6
CONTINUOUS
 62
     7
 10
379.9525497706551
 20
567.8531144988708
 30
0.0
  0
VERTEX
  5
4C0
  8
0
  6
CONTINUOUS
 62
     7
 10
379.9333988687657
 20
567.8612062012381
 30
0.0
  0
VERTEX
  5
4C1
  8
0
  6
CONTINUOUS
 62
     7
 10
379.9145998114167
 20
567.8700847217311
 30
0.0
  0
VERTEX
  5
4C2
  8
0
  6
CONTINUOUS
 62
     7
 10
379.8962016870742
 20
567.8797281117046
 30
0.0
  0
VERTEX
  5
4C3
  8
0
  6
CONTINUOUS
 62
     7
 10
379.8777060836348
 20
567.8904436772607
 30
0.0
  0
VERTEX
  5
4C4
  8
0
  6
CONTINUOUS
 62
     7
 10
379.8596689001412
 20
567.9019505520428
 30
0.0
  0
VERTEX
  5
4C5
  8
0
  6
CONTINUOUS
 62
     7
 10
379.8421388512298
 20
567.9142161763626
 30
0.0
  0
VERTEX
  5
4C6
  8
0
  6
CONTINUOUS
 62
     7
 10
379.8251646515371
 20
567.9272079905326
 30
0.0
  0
VERTEX
  5
4C7
  8
0
  6
CONTINUOUS
 62
     7
 10
379.8092187181357
 20
567.9405194903987
 30
0.0
  0
VERTEX
  5
4C8
  8
0
  6
CONTINUOUS
 62
     7
 10
379.7938261666957
 20
567.9544939262835
 30
0.0
  0
VERTEX
  5
4C9
  8
0
  6
CONTINUOUS
 62
     7
 10
379.7790260482622
 20
567.969094337173
 30
0.0
  0
VERTEX
  5
4CA
  8
0
  6
CONTINUOUS
 62
     7
 10
379.76485741388
 20
567.9842837620531
 30
0.0
  0
VERTEX
  5
4CB
  8
0
  6
CONTINUOUS
 62
     7
 10
379.7509516921892
 20
568.0005171264859
 30
0.0
  0
VERTEX
  5
4CC
  8
0
  6
CONTINUOUS
 62
     7
 10
379.7377404406873
 20
568.0173454186624
 30
0.0
  0
VERTEX
  5
4CD
  8
0
  6
CONTINUOUS
 62
     7
 10
379.7252588436829
 20
568.0347217915061
 30
0.0
  0
VERTEX
  5
4CE
  8
0
  6
CONTINUOUS
 62
     7
 10
379.7135420854844
 20
568.0525993979401
 30
0.0
  0
VERTEX
  5
4CF
  8
0
  6
CONTINUOUS
 62
     7
 10
379.7005841192155
 20
568.0745620237394
 30
0.0
  0
VERTEX
  5
4D0
  8
0
  6
CONTINUOUS
 62
     7
 10
379.6887473620919
 20
568.0971862385069
 30
0.0
  0
VERTEX
  5
4D1
  8
0
  6
CONTINUOUS
 62
     7
 10
379.6780756602289
 20
568.1203827627651
 30
0.0
  0
VERTEX
  5
4D2
  8
0
  6
CONTINUOUS
 62
     7
 10
379.6686128597418
 20
568.1440623170365
 30
0.0
  0
SEQEND
  5
87C
  8
0
  6
CONTINUOUS
 62
     7
  0
LINE
  5
1C3
  8
0
  6
CONTINUOUS
 62
     7
 10
380.1375006917968
 20
567.8176473741981
 30
0.0
 11
389.8028534423329
 21
567.8176473741981
 31
0.0
  0
POLYLINE
  5
1C4
  8
0
  6
CONTINUOUS
 62
     7
 66
     1
 10
0.0
 20
0.0
 30
0.0
  0
VERTEX
  5
4D3
  8
0
  6
CONTINUOUS
 62
     7
 10
390.0299040363986
 20
568.7630820253871
 30
0.0
  0
VERTEX
  5
4D4
  8
0
  6
CONTINUOUS
 62
     7
 10
390.0482273472235
 20
568.7532560415971
 30
0.0
  0
VERTEX
  5
4D5
  8
0
  6
CONTINUOUS
 62
     7
 10
390.066142321339
 20
568.7426685474594
 30
0.0
  0
VERTEX
  5
4D6
  8
0
  6
CONTINUOUS
 62
     7
 10
390.0836032048961
 20
568.7313478260182
 30
0.0
  0
VERTEX
  5
4D7
  8
0
  6
CONTINUOUS
 62
     7
 10
390.1005642440455
 20
568.7193221603173
 30
0.0
  0
VERTEX
  5
4D8
  8
0
  6
CONTINUOUS
 62
     7
 10
390.1174785353747
 20
568.7062202123218
 30
0.0
  0
VERTEX
  5
4D9
  8
0
  6
CONTINUOUS
 62
     7
 10
390.1338323889424
 20
568.692394706129
 30
0.0
  0
VERTEX
  5
4DA
  8
0
  6
CONTINUOUS
 62
     7
 10
390.1495817960409
 20
568.6778843960872
 30
0.0
  0
VERTEX
  5
4DB
  8
0
  6
CONTINUOUS
 62
     7
 10
390.1646827479626
 20
568.662728036544
 30
0.0
  0
VERTEX
  5
4DC
  8
0
  6
CONTINUOUS
 62
     7
 10
390.1787214327225
 20
568.6473913801673
 30
0.0
  0
VERTEX
  5
4DD
  8
0
  6
CONTINUOUS
 62
     7
 10
390.1921224112232
 20
568.6314709536388
 30
0.0
  0
VERTEX
  5
4DE
  8
0
  6
CONTINUOUS
 62
     7
 10
390.2048518095811
 20
568.615008621073
 30
0.0
  0
VERTEX
  5
4DF
  8
0
  6
CONTINUOUS
 62
     7
 10
390.2168757539125
 20
568.5980462465853
 30
0.0
  0
VERTEX
  5
4E0
  8
0
  6
CONTINUOUS
 62
     7
 10
390.2284992219869
 20
568.5800827599443
 30
0.0
  0
VERTEX
  5
4E1
  8
0
  6
CONTINUOUS
 62
     7
 10
390.2393537506263
 20
568.5616216879715
 30
0.0
  0
VERTEX
  5
4E2
  8
0
  6
CONTINUOUS
 62
     7
 10
390.2494105911587
 20
568.5427142382357
 30
0.0
  0
VERTEX
  5
4E3
  8
0
  6
CONTINUOUS
 62
     7
 10
390.2586409949121
 20
568.5234116183059
 30
0.0
  0
VERTEX
  5
4E4
  8
0
  6
CONTINUOUS
 62
     7
 10
390.2668048206963
 20
568.5043000682743
 30
0.0
  0
VERTEX
  5
4E5
  8
0
  6
CONTINUOUS
 62
     7
 10
390.2741737824093
 20
568.4848489510921
 30
0.0
  0
VERTEX
  5
4E6
  8
0
  6
CONTINUOUS
 62
     7
 10
390.280729785975
 20
568.4651089876525
 30
0.0
  0
VERTEX
  5
4E7
  8
0
  6
CONTINUOUS
 62
     7
 10
390.2864547373178
 20
568.4451308988491
 30
0.0
  0
VERTEX
  5
4E8
  8
0
  6
CONTINUOUS
 62
     7
 10
390.2914704483773
 20
568.4243408992968
 30
0.0
  0
VERTEX
  5
4E9
  8
0
  6
CONTINUOUS
 62
     7
 10
390.2955960335343
 20
568.4033361221865
 30
0.0
  0
VERTEX
  5
4EA
  8
0
  6
CONTINUOUS
 62
     7
 10
390.298821349665
 20
568.3821744055623
 30
0.0
  0
VERTEX
  5
4EB
  8
0
  6
CONTINUOUS
 62
     7
 10
390.301136253646
 20
568.3609135874676
 30
0.0
  0
VERTEX
  5
4EC
  8
0
  6
CONTINUOUS
 62
     7
 10
390.3025081784766
 20
568.3401904901755
 30
0.0
  0
VERTEX
  5
4ED
  8
0
  6
CONTINUOUS
 62
     7
 10
390.3030183069193
 20
568.3194103154068
 30
0.0
  0
VERTEX
  5
4EE
  8
0
  6
CONTINUOUS
 62
     7
 10
390.3026663998114
 20
568.298626861731
 30
0.0
  0
VERTEX
  5
4EF
  8
0
  6
CONTINUOUS
 62
     7
 10
390.3014522179905
 20
568.2778939277179
 30
0.0
  0
VERTEX
  5
4F0
  8
0
  6
CONTINUOUS
 62
     7
 10
390.2993007904154
 20
568.2566304243364
 30
0.0
  0
VERTEX
  5
4F1
  8
0
  6
CONTINUOUS
 62
     7
 10
390.2962392310473
 20
568.2354589802222
 30
0.0
  0
VERTEX
  5
4F2
  8
0
  6
CONTINUOUS
 62
     7
 10
390.292277157459
 20
568.2144374406496
 30
0.0
  0
VERTEX
  5
4F3
  8
0
  6
CONTINUOUS
 62
     7
 10
390.287424187223
 20
568.1936236508936
 30
0.0
  0
VERTEX
  5
4F4
  8
0
  6
CONTINUOUS
 62
     7
 10
390.2818588239012
 20
568.1736236688064
 30
0.0
  0
VERTEX
  5
4F5
  8
0
  6
CONTINUOUS
 62
     7
 10
390.2754619439779
 20
568.1538550478756
 30
0.0
  0
VERTEX
  5
4F6
  8
0
  6
CONTINUOUS
 62
     7
 10
390.2682511633872
 20
568.1343685619028
 30
0.0
  0
VERTEX
  5
4F7
  8
0
  6
CONTINUOUS
 62
     7
 10
390.2602440980631
 20
568.1152149846894
 30
0.0
  0
VERTEX
  5
4F8
  8
0
  6
CONTINUOUS
 62
     7
 10
390.2511780010588
 20
568.0958714574922
 30
0.0
  0
VERTEX
  5
4F9
  8
0
  6
CONTINUOUS
 62
     7
 10
390.2412843691597
 20
568.0769157585057
 30
0.0
  0
VERTEX
  5
4FA
  8
0
  6
CONTINUOUS
 62
     7
 10
390.2305914289607
 20
568.0583991809402
 30
0.0
  0
VERTEX
  5
4FB
  8
0
  6
CONTINUOUS
 62
     7
 10
390.219127407057
 20
568.0403730180059
 30
0.0
  0
VERTEX
  5
4FC
  8
0
  6
CONTINUOUS
 62
     7
 10
390.2072556804706
 20
568.0233422269503
 30
0.0
  0
VERTEX
  5
4FD
  8
0
  6
CONTINUOUS
 62
     7
 10
390.1946760794135
 20
568.0068048506887
 30
0.0
  0
VERTEX
  5
4FE
  8
0
  6
CONTINUOUS
 62
     7
 10
390.1814220432817
 20
567.9908029169546
 30
0.0
  0
VERTEX
  5
4FF
  8
0
  6
CONTINUOUS
 62
     7
 10
390.1675270114707
 20
567.9753784534818
 30
0.0
  0
VERTEX
  5
500
  8
0
  6
CONTINUOUS
 62
     7
 10
390.1525703949394
 20
567.9601253208973
 30
0.0
  0
VERTEX
  5
501
  8
0
  6
CONTINUOUS
 62
     7
 10
390.1369615509363
 20
567.9455117023505
 30
0.0
  0
VERTEX
  5
502
  8
0
  6
CONTINUOUS
 62
     7
 10
390.1207440651878
 20
567.9315765931412
 30
0.0
  0
VERTEX
  5
503
  8
0
  6
CONTINUOUS
 62
     7
 10
390.1039615234202
 20
567.9183589885697
 30
0.0
  0
VERTEX
  5
504
  8
0
  6
CONTINUOUS
 62
     7
 10
390.0871162893431
 20
567.9062098965376
 30
0.0
  0
VERTEX
  5
505
  8
0
  6
CONTINUOUS
 62
     7
 10
390.0697661720587
 20
567.8947608105611
 30
0.0
  0
VERTEX
  5
506
  8
0
  6
CONTINUOUS
 62
     7
 10
390.0519566428314
 20
567.8840403140965
 30
0.0
  0
VERTEX
  5
507
  8
0
  6
CONTINUOUS
 62
     7
 10
390.0337331729257
 20
567.8740769906004
 30
0.0
  0
VERTEX
  5
508
  8
0
  6
CONTINUOUS
 62
     7
 10
390.0145645262339
 20
567.8646267026463
 30
0.0
  0
VERTEX
  5
509
  8
0
  6
CONTINUOUS
 62
     7
 10
389.9949918786104
 20
567.8559958212929
 30
0.0
  0
VERTEX
  5
50A
  8
0
  6
CONTINUOUS
 62
     7
 10
389.9750692564551
 20
567.8482067241915
 30
0.0
  0
VERTEX
  5
50B
  8
0
  6
CONTINUOUS
 62
     7
 10
389.954850686168
 20
567.8412817889931
 30
0.0
  0
VERTEX
  5
50C
  8
0
  6
CONTINUOUS
 62
     7
 10
389.9301894028491
 20
567.8341247311499
 30
0.0
  0
VERTEX
  5
50D
  8
0
  6
CONTINUOUS
 62
     7
 10
389.9051257525471
 20
567.828234206743
 30
0.0
  0
VERTEX
  5
50E
  8
0
  6
CONTINUOUS
 62
     7
 10
389.8797600333033
 20
567.8236257123085
 30
0.0
  0
VERTEX
  5
50F
  8
0
  6
CONTINUOUS
 62
     7
 10
389.8541925431589
 20
567.8203147443824
 30
0.0
  0
VERTEX
  5
510
  8
0
  6
CONTINUOUS
 62
     7
 10
389.828523580155
 20
567.8183167995002
 30
0.0
  0
VERTEX
  5
511
  8
0
  6
CONTINUOUS
 62
     7
 10
389.8028534423329
 20
567.8176473741981
 30
0.0
  0
SEQEND
  5
87D
  8
0
  6
CONTINUOUS
 62
     7
  0
POLYLINE
  5
1C5
  8
0
  6
CONTINUOUS
 62
     7
 66
     1
 10
0.0
 20
0.0
 30
0.0
  0
VERTEX
  5
512
  8
0
  6
CONTINUOUS
 62
     7
 10
389.8028534423329
 20
600.7016295569916
 30
0.0
  0
VERTEX
  5
513
  8
0
  6
CONTINUOUS
 62
     7
 10
389.8236405971854
 20
600.7011961362325
 30
0.0
  0
VERTEX
  5
514
  8
0
  6
CONTINUOUS
 62
     7
 10
389.8444097639181
 20
600.6998988212001
 30
0.0
  0
VERTEX
  5
515
  8
0
  6
CONTINUOUS
 62
     7
 10
389.8651073346833
 20
600.6977420327618
 30
0.0
  0
VERTEX
  5
516
  8
0
  6
CONTINUOUS
 62
     7
 10
389.8856797016329
 20
600.694730191785
 30
0.0
  0
VERTEX
  5
517
  8
0
  6
CONTINUOUS
 62
     7
 10
389.9066991787019
 20
600.69073821741
 30
0.0
  0
VERTEX
  5
518
  8
0
  6
CONTINUOUS
 62
     7
 10
389.9275479197674
 20
600.6858470900169
 30
0.0
  0
VERTEX
  5
519
  8
0
  6
CONTINUOUS
 62
     7
 10
389.9481691165906
 20
600.680071352293
 30
0.0
  0
VERTEX
  5
51A
  8
0
  6
CONTINUOUS
 62
     7
 10
389.9685059609329
 20
600.6734255469255
 30
0.0
  0
VERTEX
  5
51B
  8
0
  6
CONTINUOUS
 62
     7
 10
389.9879782637004
 20
600.6661367125463
 30
0.0
  0
VERTEX
  5
51C
  8
0
  6
CONTINUOUS
 62
     7
 10
390.0071475084437
 20
600.6580381790606
 30
0.0
  0
VERTEX
  5
51D
  8
0
  6
CONTINUOUS
 62
     7
 10
390.0259645042574
 20
600.6491518621838
 30
0.0
  0
VERTEX
  5
51E
  8
0
  6
CONTINUOUS
 62
     7
 10
390.0443800602366
 20
600.6394996776319
 30
0.0
  0
VERTEX
  5
51F
  8
0
  6
CONTINUOUS
 62
     7
 10
390.0628934388858
 20
600.6287736973111
 30
0.0
  0
VERTEX
  5
520
  8
0
  6
CONTINUOUS
 62
     7
 10
390.080947700355
 20
600.6172552081076
 30
0.0
  0
VERTEX
  5
521
  8
0
  6
CONTINUOUS
 62
     7
 10
390.098493976969
 20
600.6049767776556
 30
0.0
  0
VERTEX
  5
522
  8
0
  6
CONTINUOUS
 62
     7
 10
390.1154834010526
 20
600.5919709735894
 30
0.0
  0
VERTEX
  5
523
  8
0
  6
CONTINUOUS
 62
     7
 10
390.1314357989802
 20
600.5786510483978
 30
0.0
  0
VERTEX
  5
524
  8
0
  6
CONTINUOUS
 62
     7
 10
390.1468342234037
 20
600.564667626344
 30
0.0
  0
VERTEX
  5
525
  8
0
  6
CONTINUOUS
 62
     7
 10
390.1616395202706
 20
600.5500576799124
 30
0.0
  0
VERTEX
  5
526
  8
0
  6
CONTINUOUS
 62
     7
 10
390.1758125355283
 20
600.5348581815872
 30
0.0
  0
VERTEX
  5
527
  8
0
  6
CONTINUOUS
 62
     7
 10
390.1897223630045
 20
600.5186132393441
 30
0.0
  0
VERTEX
  5
528
  8
0
  6
CONTINUOUS
 62
     7
 10
390.202936675024
 20
600.501772720283
 30
0.0
  0
VERTEX
  5
529
  8
0
  6
CONTINUOUS
 62
     7
 10
390.2154201693343
 20
600.4843835485233
 30
0.0
  0
VERTEX
  5
52A
  8
0
  6
CONTINUOUS
 62
     7
 10
390.2271375436832
 20
600.4664926481844
 30
0.0
  0
VERTEX
  5
52B
  8
0
  6
CONTINUOUS
 62
     7
 10
390.2377705902593
 20
600.4486526008141
 30
0.0
  0
VERTEX
  5
52C
  8
0
  6
CONTINUOUS
 62
     7
 10
390.2476617467512
 20
600.4303703430676
 30
0.0
  0
VERTEX
  5
52D
  8
0
  6
CONTINUOUS
 62
     7
 10
390.2567863691496
 20
600.4116936977051
 30
0.0
  0
VERTEX
  5
52E
  8
0
  6
CONTINUOUS
 62
     7
 10
390.2651198134452
 20
600.3926704874871
 30
0.0
  0
VERTEX
  5
52F
  8
0
  6
CONTINUOUS
 62
     7
 10
390.2728591681251
 20
600.3727489504232
 30
0.0
  0
VERTEX
  5
530
  8
0
  6
CONTINUOUS
 62
     7
 10
390.2797458429387
 20
600.3524961250657
 30
0.0
  0
VERTEX
  5
531
  8
0
  6
CONTINUOUS
 62
     7
 10
390.2857621379635
 20
600.3319679156803
 30
0.0
  0
VERTEX
  5
532
  8
0
  6
CONTINUOUS
 62
     7
 10
390.2908903532774
 20
600.3112202265321
 30
0.0
  0
VERTEX
  5
533
  8
0
  6
CONTINUOUS
 62
     7
 10
390.2950143029225
 20
600.2908740817677
 30
0.0
  0
VERTEX
  5
534
  8
0
  6
CONTINUOUS
 62
     7
 10
390.2982923546724
 20
600.2703564591445
 30
0.0
  0
VERTEX
  5
535
  8
0
  6
CONTINUOUS
 62
     7
 10
390.3007171459633
 20
600.2497205948638
 30
0.0
  0
VERTEX
  5
536
  8
0
  6
CONTINUOUS
 62
     7
 10
390.3022813142325
 20
600.2290197251275
 30
0.0
  0
VERTEX
  5
537
  8
0
  6
CONTINUOUS
 62
     7
 10
390.3029882071873
 20
600.2076686951868
 30
0.0
  0
VERTEX
  5
538
  8
0
  6
CONTINUOUS
 62
     7
 10
390.3027816951084
 20
600.1862873985249
 30
0.0
  0
VERTEX
  5
539
  8
0
  6
CONTINUOUS
 62
     7
 10
390.3016636330375
 20
600.1649343526063
 30
0.0
  0
VERTEX
  5
53A
  8
0
  6
CONTINUOUS
 62
     7
 10
390.2996358760166
 20
600.143668074896
 30
0.0
  0
VERTEX
  5
53B
  8
0
  6
CONTINUOUS
 62
     7
 10
390.2967928613575
 20
600.1231034697018
 30
0.0
  0
VERTEX
  5
53C
  8
0
  6
CONTINUOUS
 62
     7
 10
390.2930951033224
 20
600.1026570092527
 30
0.0
  0
VERTEX
  5
53D
  8
0
  6
CONTINUOUS
 62
     7
 10
390.2885533088794
 20
600.0823813232405
 30
0.0
  0
VERTEX
  5
53E
  8
0
  6
CONTINUOUS
 62
     7
 10
390.283178184997
 20
600.0623290413574
 30
0.0
  0
VERTEX
  5
53F
  8
0
  6
CONTINUOUS
 62
     7
 10
390.2767794469133
 20
600.041947319999
 30
0.0
  0
VERTEX
  5
540
  8
0
  6
CONTINUOUS
 62
     7
 10
390.2695091972968
 20
600.0218391795692
 30
0.0
  0
VERTEX
  5
541
  8
0
  6
CONTINUOUS
 62
     7
 10
390.2613885599875
 20
600.0020591556749
 30
0.0
  0
VERTEX
  5
542
  8
0
  6
CONTINUOUS
 62
     7
 10
390.2524386588254
 20
599.982661783923
 30
0.0
  0
VERTEX
  5
543
  8
0
  6
CONTINUOUS
 62
     7
 10
390.2429476713783
 20
599.9641879246813
 30
0.0
  0
VERTEX
  5
544
  8
0
  6
CONTINUOUS
 62
     7
 10
390.2326889769816
 20
599.9461084529419
 30
0.0
  0
VERTEX
  5
545
  8
0
  6
CONTINUOUS
 62
     7
 10
390.2216901075891
 20
599.9284694842232
 30
0.0
  0
VERTEX
  5
546
  8
0
  6
CONTINUOUS
 62
     7
 10
390.2099785951544
 20
599.9113171340434
 30
0.0
  0
VERTEX
  5
547
  8
0
  6
CONTINUOUS
 62
     7
 10
390.1971920068352
 20
599.8941926461899
 30
0.0
  0
VERTEX
  5
548
  8
0
  6
CONTINUOUS
 62
     7
 10
390.1836733697731
 20
599.8776147372
 30
0.0
  0
VERTEX
  5
549
  8
0
  6
CONTINUOUS
 62
     7
 10
390.1694606562145
 20
599.8616278786257
 30
0.0
  0
VERTEX
  5
54A
  8
0
  6
CONTINUOUS
 62
     7
 10
390.1545918384056
 20
599.8462765420184
 30
0.0
  0
VERTEX
  5
54B
  8
0
  6
CONTINUOUS
 62
     7
 10
390.1358702341302
 20
599.8287008785665
 30
0.0
  0
VERTEX
  5
54C
  8
0
  6
CONTINUOUS
 62
     7
 10
390.1162149882163
 20
599.8120708998235
 30
0.0
  0
VERTEX
  5
54D
  8
0
  6
CONTINUOUS
 62
     7
 10
390.0957084230751
 20
599.7964459594828
 30
0.0
  0
VERTEX
  5
54E
  8
0
  6
CONTINUOUS
 62
     7
 10
390.0744328611177
 20
599.7818854112371
 30
0.0
  0
VERTEX
  5
54F
  8
0
  6
CONTINUOUS
 62
     7
 10
390.0524706247551
 20
599.7684486087793
 30
0.0
  0
VERTEX
  5
550
  8
0
  6
CONTINUOUS
 62
     7
 10
390.0299040363986
 20
599.7561949058027
 30
0.0
  0
SEQEND
  5
87E
  8
0
  6
CONTINUOUS
 62
     7
  0
LINE
  5
1C6
  8
0
  6
CONTINUOUS
 62
     7
 10
380.1375006917968
 20
600.7016295569916
 30
0.0
 11
389.8028534423329
 21
600.7016295569916
 31
0.0
  0
POLYLINE
  5
1C7
  8
0
  6
CONTINUOUS
 62
     7
 66
     1
 10
0.0
 20
0.0
 30
0.0
  0
VERTEX
  5
551
  8
0
  6
CONTINUOUS
 62
     7
 10
379.6686128597418
 20
600.3752146141533
 30
0.0
  0
VERTEX
  5
552
  8
0
  6
CONTINUOUS
 62
     7
 10
379.6762284998974
 20
600.3945404444136
 30
0.0
  0
VERTEX
  5
553
  8
0
  6
CONTINUOUS
 62
     7
 10
379.6846475604921
 20
600.413549699602
 30
0.0
  0
VERTEX
  5
554
  8
0
  6
CONTINUOUS
 62
     7
 10
379.6938472584146
 20
600.4321936773324
 30
0.0
  0
VERTEX
  5
555
  8
0
  6
CONTINUOUS
 62
     7
 10
379.7038048105537
 20
600.450423675219
 30
0.0
  0
VERTEX
  5
556
  8
0
  6
CONTINUOUS
 62
     7
 10
379.7148360081584
 20
600.4687327274745
 30
0.0
  0
VERTEX
  5
557
  8
0
  6
CONTINUOUS
 62
     7
 10
379.7266505129863
 20
600.4865698687944
 30
0.0
  0
VERTEX
  5
558
  8
0
  6
CONTINUOUS
 62
     7
 10
379.7392149395905
 20
600.5038869500855
 30
0.0
  0
VERTEX
  5
559
  8
0
  6
CONTINUOUS
 62
     7
 10
379.7524959025241
 20
600.5206358222541
 30
0.0
  0
VERTEX
  5
55A
  8
0
  6
CONTINUOUS
 62
     7
 10
379.7660791674228
 20
600.5363514474012
 30
0.0
  0
VERTEX
  5
55B
  8
0
  6
CONTINUOUS
 62
     7
 10
379.780315802662
 20
600.5515023849111
 30
0.0
  0
VERTEX
  5
55C
  8
0
  6
CONTINUOUS
 62
     7
 10
379.7951681837249
 20
600.5660502184302
 30
0.0
  0
VERTEX
  5
55D
  8
0
  6
CONTINUOUS
 62
     7
 10
379.8105986860947
 20
600.5799565316047
 30
0.0
  0
VERTEX
  5
55E
  8
0
  6
CONTINUOUS
 62
     7
 10
379.8270685263257
 20
600.593582061118
 30
0.0
  0
VERTEX
  5
55F
  8
0
  6
CONTINUOUS
 62
     7
 10
379.8441213270392
 20
600.6065029799493
 30
0.0
  0
VERTEX
  5
560
  8
0
  6
CONTINUOUS
 62
     7
 10
379.8617096423345
 20
600.6186849058992
 30
0.0
  0
VERTEX
  5
561
  8
0
  6
CONTINUOUS
 62
     7
 10
379.879786026311
 20
600.6300934567689
 30
0.0
  0
VERTEX
  5
562
  8
0
  6
CONTINUOUS
 62
     7
 10
379.8978052574043
 20
600.6404267104434
 30
0.0
  0
VERTEX
  5
563
  8
0
  6
CONTINUOUS
 62
     7
 10
379.9162540935131
 20
600.6500108611274
 30
0.0
  0
VERTEX
  5
564
  8
0
  6
CONTINUOUS
 62
     7
 10
379.9350843157931
 20
600.6588221171469
 30
0.0
  0
VERTEX
  5
565
  8
0
  6
CONTINUOUS
 62
     7
 10
379.9542477053998
 20
600.6668366868291
 30
0.0
  0
VERTEX
  5
566
  8
0
  6
CONTINUOUS
 62
     7
 10
379.9742988444984
 20
600.6742422953364
 30
0.0
  0
VERTEX
  5
567
  8
0
  6
CONTINUOUS
 62
     7
 10
379.9946668315698
 20
600.6807900954587
 30
0.0
  0
VERTEX
  5
568
  8
0
  6
CONTINUOUS
 62
     7
 10
380.0152955188271
 20
600.6864633536919
 30
0.0
  0
VERTEX
  5
569
  8
0
  6
CONTINUOUS
 62
     7
 10
380.0361287584835
 20
600.6912453365313
 30
0.0
  0
VERTEX
  5
56A
  8
0
  6
CONTINUOUS
 62
     7
 10
380.061223855257
 20
600.6957732433248
 30
0.0
  0
VERTEX
  5
56B
  8
0
  6
CONTINUOUS
 62
     7
 10
380.0865501752539
 20
600.6990199999584
 30
0.0
  0
VERTEX
  5
56C
  8
0
  6
CONTINUOUS
 62
     7
 10
380.1120087701939
 20
600.7009754799935
 30
0.0
  0
VERTEX
  5
56D
  8
0
  6
CONTINUOUS
 62
     7
 10
380.1375006917968
 20
600.7016295569916
 30
0.0
  0
SEQEND
  5
87F
  8
0
  6
CONTINUOUS
 62
     7
  0
ARC
  5
1C8
  8
0
  6
CONTINUOUS
 62
     7
 10
375.9285979464944
 20
601.7596384655949
 30
0.0
 40
3.988024692971779
 50
200.3128052726495
 51
339.6871947273505
  0
POLYLINE
  5
1C9
  8
0
  6
CONTINUOUS
 62
     7
 66
     1
 10
0.0
 20
0.0
 30
0.0
  0
VERTEX
  5
56E
  8
0
  6
CONTINUOUS
 62
     7
 10
371.719695201192
 20
600.7016295569916
 30
0.0
  0
VERTEX
  5
56F
  8
0
  6
CONTINUOUS
 62
     7
 10
371.7404389760624
 20
600.7011983239571
 30
0.0
  0
VERTEX
  5
570
  8
0
  6
CONTINUOUS
 62
     7
 10
371.7611559633292
 20
600.6999068435472
 30
0.0
  0
VERTEX
  5
571
  8
0
  6
CONTINUOUS
 62
     7
 10
371.7817926909177
 20
600.697758443803
 30
0.0
  0
VERTEX
  5
572
  8
0
  6
CONTINUOUS
 62
     7
 10
371.8026490660653
 20
600.6946999288865
 30
0.0
  0
VERTEX
  5
573
  8
0
  6
CONTINUOUS
 62
     7
 10
371.8233580608858
 20
600.6907654113286
 30
0.0
  0
VERTEX
  5
574
  8
0
  6
CONTINUOUS
 62
     7
 10
371.8441788070797
 20
600.6858850743961
 30
0.0
  0
VERTEX
  5
575
  8
0
  6
CONTINUOUS
 62
     7
 10
371.8647719286188
 20
600.6801192697446
 30
0.0
  0
VERTEX
  5
576
  8
0
  6
CONTINUOUS
 62
     7
 10
371.8851924643695
 20
600.6734453679163
 30
0.0
  0
VERTEX
  5
577
  8
0
  6
CONTINUOUS
 62
     7
 10
371.9046241675672
 20
600.6661721797587
 30
0.0
  0
VERTEX
  5
578
  8
0
  6
CONTINUOUS
 62
     7
 10
371.9237458354485
 20
600.6580960711882
 30
0.0
  0
VERTEX
  5
579
  8
0
  6
CONTINUOUS
 62
     7
 10
371.9425081091272
 20
600.6492378864634
 30
0.0
  0
VERTEX
  5
57A
  8
0
  6
CONTINUOUS
 62
     7
 10
371.9611764008355
 20
600.6394481489514
 30
0.0
  0
VERTEX
  5
57B
  8
0
  6
CONTINUOUS
 62
     7
 10
371.9794156425133
 20
600.6288805504495
 30
0.0
  0
VERTEX
  5
57C
  8
0
  6
CONTINUOUS
 62
     7
 10
371.9974472634533
 20
600.6173834282295
 30
0.0
  0
VERTEX
  5
57D
  8
0
  6
CONTINUOUS
 62
     7
 10
372.0149709797839
 20
600.6051260819066
 30
0.0
  0
VERTEX
  5
57E
  8
0
  6
CONTINUOUS
 62
     7
 10
372.0320312414513
 20
600.5920689406577
 30
0.0
  0
VERTEX
  5
57F
  8
0
  6
CONTINUOUS
 62
     7
 10
372.0479596852853
 20
600.5787739050359
 30
0.0
  0
VERTEX
  5
580
  8
0
  6
CONTINUOUS
 62
     7
 10
372.0633298137888
 20
600.5648238591622
 30
0.0
  0
VERTEX
  5
581
  8
0
  6
CONTINUOUS
 62
     7
 10
372.0781019549644
 20
600.5502548117213
 30
0.0
  0
VERTEX
  5
582
  8
0
  6
CONTINUOUS
 62
     7
 10
372.0924770705402
 20
600.5348378764518
 30
0.0
  0
VERTEX
  5
583
  8
0
  6
CONTINUOUS
 62
     7
 10
372.1061898754935
 20
600.5188289782096
 30
0.0
  0
VERTEX
  5
584
  8
0
  6
CONTINUOUS
 62
     7
 10
372.1194163324213
 20
600.5019877512676
 30
0.0
  0
VERTEX
  5
585
  8
0
  6
CONTINUOUS
 62
     7
 10
372.1319157639579
 20
600.4845879891468
 30
0.0
  0
VERTEX
  5
586
  8
0
  6
CONTINUOUS
 62
     7
 10
372.1436538075041
 20
600.46667753325
 30
0.0
  0
VERTEX
  5
587
  8
0
  6
CONTINUOUS
 62
     7
 10
372.1565424872708
 20
600.444847240828
 30
0.0
  0
VERTEX
  5
588
  8
0
  6
CONTINUOUS
 62
     7
 10
372.1683807626287
 20
600.422242991686
 30
0.0
  0
VERTEX
  5
589
  8
0
  6
CONTINUOUS
 62
     7
 10
372.1790511805372
 20
600.3990645742969
 30
0.0
  0
VERTEX
  5
58A
  8
0
  6
CONTINUOUS
 62
     7
 10
372.1885830332471
 20
600.3752146141533
 30
0.0
  0
SEQEND
  5
880
  8
0
  6
CONTINUOUS
 62
     7
  0
LINE
  5
1CA
  8
0
  6
CONTINUOUS
 62
     7
 10
365.4157174957273
 20
600.7016295569916
 30
0.0
 11
371.719695201192
 21
600.7016295569916
 31
0.0
  0
POLYLINE
  5
1CB
  8
0
  6
CONTINUOUS
 62
     7
 66
     1
 10
0.0
 20
0.0
 30
0.0
  0
VERTEX
  5
58B
  8
0
  6
CONTINUOUS
 62
     7
 10
372.1885830332471
 20
603.1440623170365
 30
0.0
  0
VERTEX
  5
58C
  8
0
  6
CONTINUOUS
 62
     7
 10
372.1809775149732
 20
603.1247582695446
 30
0.0
  0
VERTEX
  5
58D
  8
0
  6
CONTINUOUS
 62
     7
 10
372.1725745461167
 20
603.1057779745669
 30
0.0
  0
VERTEX
  5
58E
  8
0
  6
CONTINUOUS
 62
     7
 10
372.1633958103293
 20
603.0871704235095
 30
0.0
  0
VERTEX
  5
58F
  8
0
  6
CONTINUOUS
 62
     7
 10
372.1532873085744
 20
603.0686728266373
 30
0.0
  0
VERTEX
  5
590
  8
0
  6
CONTINUOUS
 62
     7
 10
372.142408443961
 20
603.050617544873
 30
0.0
  0
VERTEX
  5
591
  8
0
  6
CONTINUOUS
 62
     7
 10
372.1306037852221
 20
603.0327857981082
 30
0.0
  0
VERTEX
  5
592
  8
0
  6
CONTINUOUS
 62
     7
 10
372.1180477436048
 20
603.015474906251
 30
0.0
  0
VERTEX
  5
593
  8
0
  6
CONTINUOUS
 62
     7
 10
372.1046999904647
 20
602.9986411089358
 30
0.0
  0
VERTEX
  5
594
  8
0
  6
CONTINUOUS
 62
     7
 10
372.0911334883186
 20
602.9829426894407
 30
0.0
  0
VERTEX
  5
595
  8
0
  6
CONTINUOUS
 62
     7
 10
372.0769216255668
 20
602.9678137546034
 30
0.0
  0
VERTEX
  5
596
  8
0
  6
CONTINUOUS
 62
     7
 10
372.0621010848951
 20
602.9532933577633
 30
0.0
  0
VERTEX
  5
597
  8
0
  6
CONTINUOUS
 62
     7
 10
372.04643954882
 20
602.9391844824142
 30
0.0
  0
VERTEX
  5
598
  8
0
  6
CONTINUOUS
 62
     7
 10
372.0301974685445
 20
602.9257480058155
 30
0.0
  0
VERTEX
  5
599
  8
0
  6
CONTINUOUS
 62
     7
 10
372.0131557449085
 20
602.912828918055
 30
0.0
  0
VERTEX
  5
59A
  8
0
  6
CONTINUOUS
 62
     7
 10
371.9955773911383
 20
602.9006500572038
 30
0.0
  0
VERTEX
  5
59B
  8
0
  6
CONTINUOUS
 62
     7
 10
371.9774098666779
 20
602.8891834744209
 30
0.0
  0
VERTEX
  5
59C
  8
0
  6
CONTINUOUS
 62
     7
 10
371.9594121473605
 20
602.8788609071773
 30
0.0
  0
VERTEX
  5
59D
  8
0
  6
CONTINUOUS
 62
     7
 10
371.9409939684977
 20
602.8692893181018
 30
0.0
  0
VERTEX
  5
59E
  8
0
  6
CONTINUOUS
 62
     7
 10
371.9222028713887
 20
602.8604934118003
 30
0.0
  0
VERTEX
  5
59F
  8
0
  6
CONTINUOUS
 62
     7
 10
371.9027544409846
 20
602.8523641808589
 30
0.0
  0
VERTEX
  5
5A0
  8
0
  6
CONTINUOUS
 62
     7
 10
371.8829807789627
 20
602.8450615694888
 30
0.0
  0
VERTEX
  5
5A1
  8
0
  6
CONTINUOUS
 62
     7
 10
371.8625953830294
 20
602.8385039997877
 30
0.0
  0
VERTEX
  5
5A2
  8
0
  6
CONTINUOUS
 62
     7
 10
371.8419385698687
 20
602.8328221356041
 30
0.0
  0
VERTEX
  5
5A3
  8
0
  6
CONTINUOUS
 62
     7
 10
371.8210671345054
 20
602.8280315946587
 30
0.0
  0
VERTEX
  5
5A4
  8
0
  6
CONTINUOUS
 62
     7
 10
371.7961201939588
 20
602.8235227266308
 30
0.0
  0
VERTEX
  5
5A5
  8
0
  6
CONTINUOUS
 62
     7
 10
371.7708120709048
 20
602.8202676152077
 30
0.0
  0
VERTEX
  5
5A6
  8
0
  6
CONTINUOUS
 62
     7
 10
371.7453709025114
 20
602.8183070535661
 30
0.0
  0
VERTEX
  5
5A7
  8
0
  6
CONTINUOUS
 62
     7
 10
371.719695201192
 20
602.8176473741983
 30
0.0
  0
SEQEND
  5
881
  8
0
  6
CONTINUOUS
 62
     7
  0
ARC
  5
1CC
  8
0
  6
CONTINUOUS
 62
     7
 10
375.9285979464944
 20
601.7596384655949
 30
0.0
 40
3.988024692971766
 50
20.31280527265008
 51
159.6871947273499
  0
POLYLINE
  5
1CD
  8
0
  6
CONTINUOUS
 62
     7
 66
     1
 10
0.0
 20
0.0
 30
0.0
  0
VERTEX
  5
5A8
  8
0
  6
CONTINUOUS
 62
     7
 10
380.1375006917968
 20
602.8176473741983
 30
0.0
  0
VERTEX
  5
5A9
  8
0
  6
CONTINUOUS
 62
     7
 10
380.1167329750354
 20
602.8180805378641
 30
0.0
  0
VERTEX
  5
5AA
  8
0
  6
CONTINUOUS
 62
     7
 10
380.0959832423831
 20
602.8193770558894
 30
0.0
  0
VERTEX
  5
5AB
  8
0
  6
CONTINUOUS
 62
     7
 10
380.0753050765404
 20
602.8215324688155
 30
0.0
  0
VERTEX
  5
5AC
  8
0
  6
CONTINUOUS
 62
     7
 10
380.054752060208
 20
602.8245423171837
 30
0.0
  0
VERTEX
  5
5AD
  8
0
  6
CONTINUOUS
 62
     7
 10
380.0337521948595
 20
602.8285315991313
 30
0.0
  0
VERTEX
  5
5AE
  8
0
  6
CONTINUOUS
 62
     7
 10
380.0129229715674
 20
602.8334192971438
 30
0.0
  0
VERTEX
  5
5AF
  8
0
  6
CONTINUOUS
 62
     7
 10
379.9923211346983
 20
602.8391908166986
 30
0.0
  0
VERTEX
  5
5B0
  8
0
  6
CONTINUOUS
 62
     7
 10
379.9720034286192
 20
602.8458315632736
 30
0.0
  0
VERTEX
  5
5B1
  8
0
  6
CONTINUOUS
 62
     7
 10
379.9525497706553
 20
602.8531144988707
 30
0.0
  0
VERTEX
  5
5B2
  8
0
  6
CONTINUOUS
 62
     7
 10
379.9333988687659
 20
602.861206201238
 30
0.0
  0
VERTEX
  5
5B3
  8
0
  6
CONTINUOUS
 62
     7
 10
379.914599811417
 20
602.870084721731
 30
0.0
  0
VERTEX
  5
5B4
  8
0
  6
CONTINUOUS
 62
     7
 10
379.8962016870746
 20
602.8797281117045
 30
0.0
  0
VERTEX
  5
5B5
  8
0
  6
CONTINUOUS
 62
     7
 10
379.8777060836351
 20
602.8904436772605
 30
0.0
  0
VERTEX
  5
5B6
  8
0
  6
CONTINUOUS
 62
     7
 10
379.8596689001416
 20
602.9019505520425
 30
0.0
  0
VERTEX
  5
5B7
  8
0
  6
CONTINUOUS
 62
     7
 10
379.8421388512301
 20
602.9142161763624
 30
0.0
  0
VERTEX
  5
5B8
  8
0
  6
CONTINUOUS
 62
     7
 10
379.8251646515375
 20
602.9272079905323
 30
0.0
  0
VERTEX
  5
5B9
  8
0
  6
CONTINUOUS
 62
     7
 10
379.8092187181361
 20
602.9405194903984
 30
0.0
  0
VERTEX
  5
5BA
  8
0
  6
CONTINUOUS
 62
     7
 10
379.7938261666961
 20
602.9544939262831
 30
0.0
  0
VERTEX
  5
5BB
  8
0
  6
CONTINUOUS
 62
     7
 10
379.7790260482625
 20
602.9690943371727
 30
0.0
  0
VERTEX
  5
5BC
  8
0
  6
CONTINUOUS
 62
     7
 10
379.7648574138803
 20
602.9842837620528
 30
0.0
  0
VERTEX
  5
5BD
  8
0
  6
CONTINUOUS
 62
     7
 10
379.7509516921895
 20
603.0005171264856
 30
0.0
  0
VERTEX
  5
5BE
  8
0
  6
CONTINUOUS
 62
     7
 10
379.7377404406876
 20
603.0173454186621
 30
0.0
  0
VERTEX
  5
5BF
  8
0
  6
CONTINUOUS
 62
     7
 10
379.7252588436832
 20
603.0347217915056
 30
0.0
  0
VERTEX
  5
5C0
  8
0
  6
CONTINUOUS
 62
     7
 10
379.7135420854847
 20
603.0525993979397
 30
0.0
  0
VERTEX
  5
5C1
  8
0
  6
CONTINUOUS
 62
     7
 10
379.7005841192157
 20
603.0745620237391
 30
0.0
  0
VERTEX
  5
5C2
  8
0
  6
CONTINUOUS
 62
     7
 10
379.688747362092
 20
603.0971862385068
 30
0.0
  0
VERTEX
  5
5C3
  8
0
  6
CONTINUOUS
 62
     7
 10
379.6780756602289
 20
603.120382762765
 30
0.0
  0
VERTEX
  5
5C4
  8
0
  6
CONTINUOUS
 62
     7
 10
379.6686128597417
 20
603.1440623170365
 30
0.0
  0
SEQEND
  5
882
  8
0
  6
CONTINUOUS
 62
     7
  0
LINE
  5
1CE
  8
0
  6
CONTINUOUS
 62
     7
 10
415.7196952011921
 20
602.8176473741983
 30
0.0
 11
380.1375006917968
 21
602.8176473741983
 31
0.0
  0
POLYLINE
  5
1CF
  8
0
  6
CONTINUOUS
 62
     7
 66
     1
 10
0.0
 20
0.0
 30
0.0
  0
VERTEX
  5
5C5
  8
0
  6
CONTINUOUS
 62
     7
 10
416.1885830332472
 20
603.1440623170365
 30
0.0
  0
VERTEX
  5
5C6
  8
0
  6
CONTINUOUS
 62
     7
 10
416.1809673930915
 20
603.1247364867763
 30
0.0
  0
VERTEX
  5
5C7
  8
0
  6
CONTINUOUS
 62
     7
 10
416.1725483324967
 20
603.1057272315879
 30
0.0
  0
VERTEX
  5
5C8
  8
0
  6
CONTINUOUS
 62
     7
 10
416.1633486345743
 20
603.0870832538574
 30
0.0
  0
VERTEX
  5
5C9
  8
0
  6
CONTINUOUS
 62
     7
 10
416.1533910824352
 20
603.0688532559709
 30
0.0
  0
VERTEX
  5
5CA
  8
0
  6
CONTINUOUS
 62
     7
 10
416.1423598848305
 20
603.0505442037154
 30
0.0
  0
VERTEX
  5
5CB
  8
0
  6
CONTINUOUS
 62
     7
 10
416.1305453800026
 20
603.0327070623954
 30
0.0
  0
VERTEX
  5
5CC
  8
0
  6
CONTINUOUS
 62
     7
 10
416.1179809533983
 20
603.0153899811044
 30
0.0
  0
VERTEX
  5
5CD
  8
0
  6
CONTINUOUS
 62
     7
 10
416.1046999904647
 20
602.9986411089358
 30
0.0
  0
VERTEX
  5
5CE
  8
0
  6
CONTINUOUS
 62
     7
 10
416.0911167255661
 20
602.9829254837886
 30
0.0
  0
VERTEX
  5
5CF
  8
0
  6
CONTINUOUS
 62
     7
 10
416.0768800903269
 20
602.9677745462786
 30
0.0
  0
VERTEX
  5
5D0
  8
0
  6
CONTINUOUS
 62
     7
 10
416.062027709264
 20
602.9532267127596
 30
0.0
  0
VERTEX
  5
5D1
  8
0
  6
CONTINUOUS
 62
     7
 10
416.0465972068942
 20
602.9393203995852
 30
0.0
  0
VERTEX
  5
5D2
  8
0
  6
CONTINUOUS
 62
     7
 10
416.0301273666632
 20
602.9256948700719
 30
0.0
  0
VERTEX
  5
5D3
  8
0
  6
CONTINUOUS
 62
     7
 10
416.0130745659497
 20
602.9127739512406
 30
0.0
  0
VERTEX
  5
5D4
  8
0
  6
CONTINUOUS
 62
     7
 10
415.9954862506544
 20
602.9005920252906
 30
0.0
  0
VERTEX
  5
5D5
  8
0
  6
CONTINUOUS
 62
     7
 10
415.977409866678
 20
602.8891834744209
 30
0.0
  0
VERTEX
  5
5D6
  8
0
  6
CONTINUOUS
 62
     7
 10
415.9593906355846
 20
602.8788502207464
 30
0.0
  0
VERTEX
  5
5D7
  8
0
  6
CONTINUOUS
 62
     7
 10
415.9409417994758
 20
602.8692660700626
 30
0.0
  0
VERTEX
  5
5D8
  8
0
  6
CONTINUOUS
 62
     7
 10
415.9221115771958
 20
602.8604548140429
 30
0.0
  0
VERTEX
  5
5D9
  8
0
  6
CONTINUOUS
 62
     7
 10
415.902948187589
 20
602.8524402443607
 30
0.0
  0
VERTEX
  5
5DA
  8
0
  6
CONTINUOUS
 62
     7
 10
415.8828970484905
 20
602.8450346358535
 30
0.0
  0
VERTEX
  5
5DB
  8
0
  6
CONTINUOUS
 62
     7
 10
415.862529061419
 20
602.8384868357311
 30
0.0
  0
VERTEX
  5
5DC
  8
0
  6
CONTINUOUS
 62
     7
 10
415.8419003741617
 20
602.8328135774981
 30
0.0
  0
VERTEX
  5
5DD
  8
0
  6
CONTINUOUS
 62
     7
 10
415.8210671345054
 20
602.8280315946587
 30
0.0
  0
VERTEX
  5
5DE
  8
0
  6
CONTINUOUS
 62
     7
 10
415.7959720377319
 20
602.823503687865
 30
0.0
  0
VERTEX
  5
5DF
  8
0
  6
CONTINUOUS
 62
     7
 10
415.770645717735
 20
602.8202569312314
 30
0.0
  0
VERTEX
  5
5E0
  8
0
  6
CONTINUOUS
 62
     7
 10
415.745187122795
 20
602.8183014511962
 30
0.0
  0
VERTEX
  5
5E1
  8
0
  6
CONTINUOUS
 62
     7
 10
415.7196952011921
 20
602.8176473741983
 30
0.0
  0
SEQEND
  5
883
  8
0
  6
CONTINUOUS
 62
     7
  0
ARC
  5
1D0
  8
0
  6
CONTINUOUS
 62
     7
 10
419.9285979464944
 20
601.7596384655949
 30
0.0
 40
3.988024692971766
 50
20.31280527265011
 51
159.6871947273499
  0
POLYLINE
  5
1D1
  8
0
  6
CONTINUOUS
 62
     7
 66
     1
 10
0.0
 20
0.0
 30
0.0
  0
VERTEX
  5
5E2
  8
0
  6
CONTINUOUS
 62
     7
 10
424.1375006917968
 20
602.8176473741983
 30
0.0
  0
VERTEX
  5
5E3
  8
0
  6
CONTINUOUS
 62
     7
 10
424.1232362587173
 20
602.817850931651
 30
0.0
  0
VERTEX
  5
5E4
  8
0
  6
CONTINUOUS
 62
     7
 10
424.1089834355396
 20
602.8184612739252
 30
0.0
  0
VERTEX
  5
5E5
  8
0
  6
CONTINUOUS
 62
     7
 10
424.0829331489061
 20
602.8206344007032
 30
0.0
  0
VERTEX
  5
5E6
  8
0
  6
CONTINUOUS
 62
     7
 10
424.0570319176679
 20
602.8241651406762
 30
0.0
  0
VERTEX
  5
5E7
  8
0
  6
CONTINUOUS
 62
     7
 10
424.0348974161291
 20
602.8282884190393
 30
0.0
  0
VERTEX
  5
5E8
  8
0
  6
CONTINUOUS
 62
     7
 10
424.0129708730593
 20
602.8334035229552
 30
0.0
  0
VERTEX
  5
5E9
  8
0
  6
CONTINUOUS
 62
     7
 10
423.9923541310258
 20
602.8391790604182
 30
0.0
  0
VERTEX
  5
5EA
  8
0
  6
CONTINUOUS
 62
     7
 10
423.9720034286193
 20
602.8458315632736
 30
0.0
  0
VERTEX
  5
5EB
  8
0
  6
CONTINUOUS
 62
     7
 10
423.9586104623685
 20
602.8507452208745
 30
0.0
  0
VERTEX
  5
5EC
  8
0
  6
CONTINUOUS
 62
     7
 10
423.9453631049223
 20
602.8560389054571
 30
0.0
  0
VERTEX
  5
5ED
  8
0
  6
CONTINUOUS
 62
     7
 10
423.9215006056221
 20
602.8667123356992
 30
0.0
  0
VERTEX
  5
5EE
  8
0
  6
CONTINUOUS
 62
     7
 10
423.8982281593757
 20
602.8786175542269
 30
0.0
  0
VERTEX
  5
5EF
  8
0
  6
CONTINUOUS
 62
     7
 10
423.8787062430962
 20
602.8898351311209
 30
0.0
  0
VERTEX
  5
5F0
  8
0
  6
CONTINUOUS
 62
     7
 10
423.8597088807249
 20
602.9019198102171
 30
0.0
  0
VERTEX
  5
5F1
  8
0
  6
CONTINUOUS
 62
     7
 10
423.8421660967726
 20
602.9141941598739
 30
0.0
  0
VERTEX
  5
5F2
  8
0
  6
CONTINUOUS
 62
     7
 10
423.8251646515376
 20
602.9272079905323
 30
0.0
  0
VERTEX
  5
5F3
  8
0
  6
CONTINUOUS
 62
     7
 10
423.8141533912022
 20
602.9362777006932
 30
0.0
  0
VERTEX
  5
5F4
  8
0
  6
CONTINUOUS
 62
     7
 10
423.8034053163449
 20
602.9456578064247
 30
0.0
  0
VERTEX
  5
5F5
  8
0
  6
CONTINUOUS
 62
     7
 10
423.7900094615515
 20
602.9581410061011
 30
0.0
  0
VERTEX
  5
5F6
  8
0
  6
CONTINUOUS
 62
     7
 10
423.7770751086331
 20
602.9711104657487
 30
0.0
  0
VERTEX
  5
5F7
  8
0
  6
CONTINUOUS
 62
     7
 10
423.7646282637098
 20
602.9845401066053
 30
0.0
  0
VERTEX
  5
5F8
  8
0
  6
CONTINUOUS
 62
     7
 10
423.7525113510558
 20
602.9986232110306
 30
0.0
  0
VERTEX
  5
5F9
  8
0
  6
CONTINUOUS
 62
     7
 10
423.7409217335577
 20
603.013151555833
 30
0.0
  0
VERTEX
  5
5FA
  8
0
  6
CONTINUOUS
 62
     7
 10
423.7298833981266
 20
603.0280950680459
 30
0.0
  0
VERTEX
  5
5FB
  8
0
  6
CONTINUOUS
 62
     7
 10
423.7215323019707
 20
603.0402269022601
 30
0.0
  0
VERTEX
  5
5FC
  8
0
  6
CONTINUOUS
 62
     7
 10
423.7135420854848
 20
603.0525993979397
 30
0.0
  0
VERTEX
  5
5FD
  8
0
  6
CONTINUOUS
 62
     7
 10
423.7006134863796
 20
603.0745022709333
 30
0.0
  0
VERTEX
  5
5FE
  8
0
  6
CONTINUOUS
 62
     7
 10
423.6888146918747
 20
603.0970338704329
 30
0.0
  0
VERTEX
  5
5FF
  8
0
  6
CONTINUOUS
 62
     7
 10
423.6781119958719
 20
603.1202895893063
 30
0.0
  0
VERTEX
  5
600
  8
0
  6
CONTINUOUS
 62
     7
 10
423.6686128597417
 20
603.1440623170365
 30
0.0
  0
SEQEND
  5
884
  8
0
  6
CONTINUOUS
 62
     7
  0
LINE
  5
1D2
  8
0
  6
CONTINUOUS
 62
     7
 10
430.4414783972616
 20
602.8176473741983
 30
0.0
 11
424.1375006917968
 21
602.8176473741983
 31
0.0
  0
LINE
  5
1D3
  8
0
  6
CONTINUOUS
 62
     7
 10
424.1375006917968
 20
600.7016295569916
 30
0.0
 11
430.4414783972616
 21
600.7016295569916
 31
0.0
  0
POLYLINE
  5
1D4
  8
0
  6
CONTINUOUS
 62
     7
 66
     1
 10
0.0
 20
0.0
 30
0.0
  0
VERTEX
  5
601
  8
0
  6
CONTINUOUS
 62
     7
 10
423.6686128597418
 20
600.3752146141533
 30
0.0
  0
VERTEX
  5
602
  8
0
  6
CONTINUOUS
 62
     7
 10
423.6737555885035
 20
600.3885212977218
 30
0.0
  0
VERTEX
  5
603
  8
0
  6
CONTINUOUS
 62
     7
 10
423.6792757743748
 20
600.4016758799715
 30
0.0
  0
VERTEX
  5
604
  8
0
  6
CONTINUOUS
 62
     7
 10
423.6903569907941
 20
600.4253517443976
 30
0.0
  0
VERTEX
  5
605
  8
0
  6
CONTINUOUS
 62
     7
 10
423.7026596484346
 20
600.4484165339992
 30
0.0
  0
VERTEX
  5
606
  8
0
  6
CONTINUOUS
 62
     7
 10
423.714210392972
 20
600.4677431447584
 30
0.0
  0
VERTEX
  5
607
  8
0
  6
CONTINUOUS
 62
     7
 10
423.7266190909972
 20
600.4865304221653
 30
0.0
  0
VERTEX
  5
608
  8
0
  6
CONTINUOUS
 62
     7
 10
423.7391924598985
 20
600.5038600868912
 30
0.0
  0
VERTEX
  5
609
  8
0
  6
CONTINUOUS
 62
     7
 10
423.7524959025242
 20
600.5206358222541
 30
0.0
  0
VERTEX
  5
60A
  8
0
  6
CONTINUOUS
 62
     7
 10
423.7617532911982
 20
600.5314901453996
 30
0.0
  0
VERTEX
  5
60B
  8
0
  6
CONTINUOUS
 62
     7
 10
423.7713165260919
 20
600.5420759903883
 30
0.0
  0
VERTEX
  5
60C
  8
0
  6
CONTINUOUS
 62
     7
 10
423.7896099437817
 20
600.5607492829525
 30
0.0
  0
VERTEX
  5
60D
  8
0
  6
CONTINUOUS
 62
     7
 10
423.8088537124167
 20
600.5784416075928
 30
0.0
  0
VERTEX
  5
60E
  8
0
  6
CONTINUOUS
 62
     7
 10
423.8261506242232
 20
600.5928553541057
 30
0.0
  0
VERTEX
  5
60F
  8
0
  6
CONTINUOUS
 62
     7
 10
423.8440786179358
 20
600.6064761575823
 30
0.0
  0
VERTEX
  5
610
  8
0
  6
CONTINUOUS
 62
     7
 10
423.8616795368604
 20
600.6186669976393
 30
0.0
  0
VERTEX
  5
611
  8
0
  6
CONTINUOUS
 62
     7
 10
423.879786026311
 20
600.6300934567689
 30
0.0
  0
VERTEX
  5
612
  8
0
  6
CONTINUOUS
 62
     7
 10
423.8921142104337
 20
600.6372714350912
 30
0.0
  0
VERTEX
  5
613
  8
0
  6
CONTINUOUS
 62
     7
 10
423.9046421234629
 20
600.6440948427291
 30
0.0
  0
VERTEX
  5
614
  8
0
  6
CONTINUOUS
 62
     7
 10
423.9209993175277
 20
600.652324144164
 30
0.0
  0
VERTEX
  5
615
  8
0
  6
CONTINUOUS
 62
     7
 10
423.9376523235375
 20
600.6599518410497
 30
0.0
  0
VERTEX
  5
616
  8
0
  6
CONTINUOUS
 62
     7
 10
423.9545676566311
 20
600.66696259767
 30
0.0
  0
VERTEX
  5
617
  8
0
  6
CONTINUOUS
 62
     7
 10
423.9719812808693
 20
600.6734370932783
 30
0.0
  0
VERTEX
  5
618
  8
0
  6
CONTINUOUS
 62
     7
 10
423.9896294085852
 20
600.6792625224077
 30
0.0
  0
VERTEX
  5
619
  8
0
  6
CONTINUOUS
 62
     7
 10
424.0074755100663
 20
600.6844268295484
 30
0.0
  0
VERTEX
  5
61A
  8
0
  6
CONTINUOUS
 62
     7
 10
424.0217519255779
 20
600.6880470738122
 30
0.0
  0
VERTEX
  5
61B
  8
0
  6
CONTINUOUS
 62
     7
 10
424.0361287584835
 20
600.6912453365313
 30
0.0
  0
VERTEX
  5
61C
  8
0
  6
CONTINUOUS
 62
     7
 10
424.0611576237245
 20
600.6957664453676
 30
0.0
  0
VERTEX
  5
61D
  8
0
  6
CONTINUOUS
 62
     7
 10
424.0863839095267
 20
600.6990097511764
 30
0.0
  0
VERTEX
  5
61E
  8
0
  6
CONTINUOUS
 62
     7
 10
424.1119087773186
 20
600.7009737487385
 30
0.0
  0
VERTEX
  5
61F
  8
0
  6
CONTINUOUS
 62
     7
 10
424.1375006917968
 20
600.7016295569916
 30
0.0
  0
SEQEND
  5
885
  8
0
  6
CONTINUOUS
 62
     7
  0
ARC
  5
1D5
  8
0
  6
CONTINUOUS
 62
     7
 10
419.9285979464944
 20
601.7596384655949
 30
0.0
 40
3.988024692971779
 50
200.3128052726495
 51
339.6871947273505
  0
POLYLINE
  5
1D6
  8
0
  6
CONTINUOUS
 62
     7
 66
     1
 10
0.0
 20
0.0
 30
0.0
  0
VERTEX
  5
620
  8
0
  6
CONTINUOUS
 62
     7
 10
415.7196952011921
 20
600.7016295569916
 30
0.0
  0
VERTEX
  5
621
  8
0
  6
CONTINUOUS
 62
     7
 10
415.7404629179534
 20
600.7011963933257
 30
0.0
  0
VERTEX
  5
622
  8
0
  6
CONTINUOUS
 62
     7
 10
415.7612126506058
 20
600.6998998753005
 30
0.0
  0
VERTEX
  5
623
  8
0
  6
CONTINUOUS
 62
     7
 10
415.7818908164485
 20
600.6977444623744
 30
0.0
  0
VERTEX
  5
624
  8
0
  6
CONTINUOUS
 62
     7
 10
415.8024438327809
 20
600.6947346140062
 30
0.0
  0
VERTEX
  5
625
  8
0
  6
CONTINUOUS
 62
     7
 10
415.8234436981294
 20
600.6907453320584
 30
0.0
  0
VERTEX
  5
626
  8
0
  6
CONTINUOUS
 62
     7
 10
415.8442729214217
 20
600.685857634046
 30
0.0
  0
VERTEX
  5
627
  8
0
  6
CONTINUOUS
 62
     7
 10
415.8648747582907
 20
600.680086114491
 30
0.0
  0
VERTEX
  5
628
  8
0
  6
CONTINUOUS
 62
     7
 10
415.8851924643698
 20
600.6734453679162
 30
0.0
  0
VERTEX
  5
629
  8
0
  6
CONTINUOUS
 62
     7
 10
415.9046461223338
 20
600.6661624323191
 30
0.0
  0
VERTEX
  5
62A
  8
0
  6
CONTINUOUS
 62
     7
 10
415.9237970242232
 20
600.6580707299516
 30
0.0
  0
VERTEX
  5
62B
  8
0
  6
CONTINUOUS
 62
     7
 10
415.9425960815721
 20
600.6491922094586
 30
0.0
  0
VERTEX
  5
62C
  8
0
  6
CONTINUOUS
 62
     7
 10
415.9609942059146
 20
600.6395488194852
 30
0.0
  0
VERTEX
  5
62D
  8
0
  6
CONTINUOUS
 62
     7
 10
415.979489809354
 20
600.6288332539291
 30
0.0
  0
VERTEX
  5
62E
  8
0
  6
CONTINUOUS
 62
     7
 10
415.9975269928476
 20
600.6173263791471
 30
0.0
  0
VERTEX
  5
62F
  8
0
  6
CONTINUOUS
 62
     7
 10
416.0150570417591
 20
600.6050607548273
 30
0.0
  0
VERTEX
  5
630
  8
0
  6
CONTINUOUS
 62
     7
 10
416.0320312414517
 20
600.5920689406573
 30
0.0
  0
VERTEX
  5
631
  8
0
  6
CONTINUOUS
 62
     7
 10
416.0479771748531
 20
600.5787574407912
 30
0.0
  0
VERTEX
  5
632
  8
0
  6
CONTINUOUS
 62
     7
 10
416.0633697262931
 20
600.5647830049063
 30
0.0
  0
VERTEX
  5
633
  8
0
  6
CONTINUOUS
 62
     7
 10
416.0781698447267
 20
600.5501825940169
 30
0.0
  0
VERTEX
  5
634
  8
0
  6
CONTINUOUS
 62
     7
 10
416.0923384791089
 20
600.5349931691367
 30
0.0
  0
VERTEX
  5
635
  8
0
  6
CONTINUOUS
 62
     7
 10
416.1062442007996
 20
600.5187598047039
 30
0.0
  0
VERTEX
  5
636
  8
0
  6
CONTINUOUS
 62
     7
 10
416.1194554523016
 20
600.5019315125273
 30
0.0
  0
VERTEX
  5
637
  8
0
  6
CONTINUOUS
 62
     7
 10
416.131937049306
 20
600.4845551396838
 30
0.0
  0
VERTEX
  5
638
  8
0
  6
CONTINUOUS
 62
     7
 10
416.1436538075044
 20
600.4666775332498
 30
0.0
  0
VERTEX
  5
639
  8
0
  6
CONTINUOUS
 62
     7
 10
416.1566117737733
 20
600.4447149074505
 30
0.0
  0
VERTEX
  5
63A
  8
0
  6
CONTINUOUS
 62
     7
 10
416.1684485308969
 20
600.4220906926829
 30
0.0
  0
VERTEX
  5
63B
  8
0
  6
CONTINUOUS
 62
     7
 10
416.1791202327599
 20
600.3988941684247
 30
0.0
  0
VERTEX
  5
63C
  8
0
  6
CONTINUOUS
 62
     7
 10
416.1885830332471
 20
600.3752146141533
 30
0.0
  0
SEQEND
  5
886
  8
0
  6
CONTINUOUS
 62
     7
  0
LINE
  5
1D7
  8
0
  6
CONTINUOUS
 62
     7
 10
406.054342450656
 20
600.7016295569916
 30
0.0
 11
415.7196952011921
 21
600.7016295569916
 31
0.0
  0
POLYLINE
  5
1D8
  8
0
  6
CONTINUOUS
 62
     7
 66
     1
 10
0.0
 20
0.0
 30
0.0
  0
VERTEX
  5
63D
  8
0
  6
CONTINUOUS
 62
     7
 10
405.8272918565902
 20
599.7561949058027
 30
0.0
  0
VERTEX
  5
63E
  8
0
  6
CONTINUOUS
 62
     7
 10
405.8089685457654
 20
599.7660208895927
 30
0.0
  0
VERTEX
  5
63F
  8
0
  6
CONTINUOUS
 62
     7
 10
405.7910535716498
 20
599.7766083837305
 30
0.0
  0
VERTEX
  5
640
  8
0
  6
CONTINUOUS
 62
     7
 10
405.7735926880927
 20
599.7879291051717
 30
0.0
  0
VERTEX
  5
641
  8
0
  6
CONTINUOUS
 62
     7
 10
405.7566316489433
 20
599.7999547708724
 30
0.0
  0
VERTEX
  5
642
  8
0
  6
CONTINUOUS
 62
     7
 10
405.7397173576141
 20
599.8130567188681
 30
0.0
  0
VERTEX
  5
643
  8
0
  6
CONTINUOUS
 62
     7
 10
405.7233635040465
 20
599.8268822250609
 30
0.0
  0
VERTEX
  5
644
  8
0
  6
CONTINUOUS
 62
     7
 10
405.707614096948
 20
599.8413925351027
 30
0.0
  0
VERTEX
  5
645
  8
0
  6
CONTINUOUS
 62
     7
 10
405.6925131450262
 20
599.8565488946459
 30
0.0
  0
VERTEX
  5
646
  8
0
  6
CONTINUOUS
 62
     7
 10
405.6784744602664
 20
599.8718855510225
 30
0.0
  0
VERTEX
  5
647
  8
0
  6
CONTINUOUS
 62
     7
 10
405.6650734817657
 20
599.8878059775511
 30
0.0
  0
VERTEX
  5
648
  8
0
  6
CONTINUOUS
 62
     7
 10
405.6523440834078
 20
599.9042683101168
 30
0.0
  0
VERTEX
  5
649
  8
0
  6
CONTINUOUS
 62
     7
 10
405.6403201390764
 20
599.9212306846044
 30
0.0
  0
VERTEX
  5
64A
  8
0
  6
CONTINUOUS
 62
     7
 10
405.628696671002
 20
599.9391941712455
 30
0.0
  0
VERTEX
  5
64B
  8
0
  6
CONTINUOUS
 62
     7
 10
405.6178421423626
 20
599.9576552432183
 30
0.0
  0
VERTEX
  5
64C
  8
0
  6
CONTINUOUS
 62
     7
 10
405.6077853018302
 20
599.9765626929541
 30
0.0
  0
VERTEX
  5
64D
  8
0
  6
CONTINUOUS
 62
     7
 10
405.5985548980767
 20
599.9958653128839
 30
0.0
  0
VERTEX
  5
64E
  8
0
  6
CONTINUOUS
 62
     7
 10
405.5903910722925
 20
600.0149768629154
 30
0.0
  0
VERTEX
  5
64F
  8
0
  6
CONTINUOUS
 62
     7
 10
405.5830221105796
 20
600.0344279800978
 30
0.0
  0
VERTEX
  5
650
  8
0
  6
CONTINUOUS
 62
     7
 10
405.5764661070139
 20
600.0541679435373
 30
0.0
  0
VERTEX
  5
651
  8
0
  6
CONTINUOUS
 62
     7
 10
405.570741155671
 20
600.0741460323406
 30
0.0
  0
VERTEX
  5
652
  8
0
  6
CONTINUOUS
 62
     7
 10
405.5657254446115
 20
600.094936031893
 30
0.0
  0
VERTEX
  5
653
  8
0
  6
CONTINUOUS
 62
     7
 10
405.5615998594546
 20
600.1159408090033
 30
0.0
  0
VERTEX
  5
654
  8
0
  6
CONTINUOUS
 62
     7
 10
405.5583745433239
 20
600.1371025256276
 30
0.0
  0
VERTEX
  5
655
  8
0
  6
CONTINUOUS
 62
     7
 10
405.5560596393429
 20
600.1583633437222
 30
0.0
  0
VERTEX
  5
656
  8
0
  6
CONTINUOUS
 62
     7
 10
405.5546877145123
 20
600.1790864410143
 30
0.0
  0
VERTEX
  5
657
  8
0
  6
CONTINUOUS
 62
     7
 10
405.5541775860696
 20
600.1998666157831
 30
0.0
  0
VERTEX
  5
658
  8
0
  6
CONTINUOUS
 62
     7
 10
405.5545294931774
 20
600.2206500694588
 30
0.0
  0
VERTEX
  5
659
  8
0
  6
CONTINUOUS
 62
     7
 10
405.5557436749983
 20
600.2413830034719
 30
0.0
  0
VERTEX
  5
65A
  8
0
  6
CONTINUOUS
 62
     7
 10
405.5578951025735
 20
600.2626465068533
 30
0.0
  0
VERTEX
  5
65B
  8
0
  6
CONTINUOUS
 62
     7
 10
405.5609566619415
 20
600.2838179509677
 30
0.0
  0
VERTEX
  5
65C
  8
0
  6
CONTINUOUS
 62
     7
 10
405.5649187355298
 20
600.3048394905402
 30
0.0
  0
VERTEX
  5
65D
  8
0
  6
CONTINUOUS
 62
     7
 10
405.5697717057658
 20
600.3256532802961
 30
0.0
  0
VERTEX
  5
65E
  8
0
  6
CONTINUOUS
 62
     7
 10
405.5753370690876
 20
600.3456532623834
 30
0.0
  0
VERTEX
  5
65F
  8
0
  6
CONTINUOUS
 62
     7
 10
405.5817339490109
 20
600.3654218833142
 30
0.0
  0
VERTEX
  5
660
  8
0
  6
CONTINUOUS
 62
     7
 10
405.5889447296017
 20
600.384908369287
 30
0.0
  0
VERTEX
  5
661
  8
0
  6
CONTINUOUS
 62
     7
 10
405.5969517949258
 20
600.4040619465004
 30
0.0
  0
VERTEX
  5
662
  8
0
  6
CONTINUOUS
 62
     7
 10
405.60601789193
 20
600.4234054736977
 30
0.0
  0
VERTEX
  5
663
  8
0
  6
CONTINUOUS
 62
     7
 10
405.6159115238291
 20
600.4423611726841
 30
0.0
  0
VERTEX
  5
664
  8
0
  6
CONTINUOUS
 62
     7
 10
405.6266044640281
 20
600.4608777502496
 30
0.0
  0
VERTEX
  5
665
  8
0
  6
CONTINUOUS
 62
     7
 10
405.6380684859319
 20
600.4789039131839
 30
0.0
  0
VERTEX
  5
666
  8
0
  6
CONTINUOUS
 62
     7
 10
405.6499402125183
 20
600.4959347042395
 30
0.0
  0
VERTEX
  5
667
  8
0
  6
CONTINUOUS
 62
     7
 10
405.6625198135754
 20
600.5124720805012
 30
0.0
  0
VERTEX
  5
668
  8
0
  6
CONTINUOUS
 62
     7
 10
405.6757738497072
 20
600.5284740142351
 30
0.0
  0
VERTEX
  5
669
  8
0
  6
CONTINUOUS
 62
     7
 10
405.6896688815181
 20
600.543898477708
 30
0.0
  0
VERTEX
  5
66A
  8
0
  6
CONTINUOUS
 62
     7
 10
405.7046254980495
 20
600.5591516102925
 30
0.0
  0
VERTEX
  5
66B
  8
0
  6
CONTINUOUS
 62
     7
 10
405.7202343420525
 20
600.5737652288393
 30
0.0
  0
VERTEX
  5
66C
  8
0
  6
CONTINUOUS
 62
     7
 10
405.736451827801
 20
600.5877003380485
 30
0.0
  0
VERTEX
  5
66D
  8
0
  6
CONTINUOUS
 62
     7
 10
405.7532343695686
 20
600.6009179426202
 30
0.0
  0
VERTEX
  5
66E
  8
0
  6
CONTINUOUS
 62
     7
 10
405.7700796036457
 20
600.6130670346522
 30
0.0
  0
VERTEX
  5
66F
  8
0
  6
CONTINUOUS
 62
     7
 10
405.7874297209302
 20
600.6245161206288
 30
0.0
  0
VERTEX
  5
670
  8
0
  6
CONTINUOUS
 62
     7
 10
405.8052392501575
 20
600.6352366170933
 30
0.0
  0
VERTEX
  5
671
  8
0
  6
CONTINUOUS
 62
     7
 10
405.8234627200632
 20
600.6451999405894
 30
0.0
  0
VERTEX
  5
672
  8
0
  6
CONTINUOUS
 62
     7
 10
405.842631366755
 20
600.6546502285435
 30
0.0
  0
VERTEX
  5
673
  8
0
  6
CONTINUOUS
 62
     7
 10
405.8622040143784
 20
600.6632811098968
 30
0.0
  0
VERTEX
  5
674
  8
0
  6
CONTINUOUS
 62
     7
 10
405.8821266365337
 20
600.6710702069983
 30
0.0
  0
VERTEX
  5
675
  8
0
  6
CONTINUOUS
 62
     7
 10
405.9023452068208
 20
600.6779951421967
 30
0.0
  0
VERTEX
  5
676
  8
0
  6
CONTINUOUS
 62
     7
 10
405.9270064901398
 20
600.68515220004
 30
0.0
  0
VERTEX
  5
677
  8
0
  6
CONTINUOUS
 62
     7
 10
405.9520701404418
 20
600.6910427244468
 30
0.0
  0
VERTEX
  5
678
  8
0
  6
CONTINUOUS
 62
     7
 10
405.9774358596856
 20
600.6956512188814
 30
0.0
  0
VERTEX
  5
679
  8
0
  6
CONTINUOUS
 62
     7
 10
406.00300334983
 20
600.6989621868075
 30
0.0
  0
VERTEX
  5
67A
  8
0
  6
CONTINUOUS
 62
     7
 10
406.0286723128339
 20
600.7009601316896
 30
0.0
  0
VERTEX
  5
67B
  8
0
  6
CONTINUOUS
 62
     7
 10
406.054342450656
 20
600.7016295569916
 30
0.0
  0
SEQEND
  5
887
  8
0
  6
CONTINUOUS
 62
     7
  0
ARC
  5
1D9
  8
0
  6
CONTINUOUS
 62
     7
 10
397.9285979464944
 20
584.2596384655949
 30
0.0
 40
17.39346506564833
 50
297.0082299875658
 51
62.99177001243425
  0
POLYLINE
  5
1DA
  8
0
  6
CONTINUOUS
 62
     7
 66
     1
 10
0.0
 20
0.0
 30
0.0
  0
VERTEX
  5
67C
  8
0
  6
CONTINUOUS
 62
     7
 10
406.054342450656
 20
567.8176473741981
 30
0.0
  0
VERTEX
  5
67D
  8
0
  6
CONTINUOUS
 62
     7
 10
406.0335552958035
 20
567.8180807949573
 30
0.0
  0
VERTEX
  5
67E
  8
0
  6
CONTINUOUS
 62
     7
 10
406.0127861290707
 20
567.8193781099897
 30
0.0
  0
VERTEX
  5
67F
  8
0
  6
CONTINUOUS
 62
     7
 10
405.9920885583055
 20
567.821534898428
 30
0.0
  0
VERTEX
  5
680
  8
0
  6
CONTINUOUS
 62
     7
 10
405.9715161913559
 20
567.8245467394048
 30
0.0
  0
VERTEX
  5
681
  8
0
  6
CONTINUOUS
 62
     7
 10
405.9504967142869
 20
567.82853871378
 30
0.0
  0
VERTEX
  5
682
  8
0
  6
CONTINUOUS
 62
     7
 10
405.9296479732214
 20
567.8334298411729
 30
0.0
  0
VERTEX
  5
683
  8
0
  6
CONTINUOUS
 62
     7
 10
405.9090267763982
 20
567.8392055788968
 30
0.0
  0
VERTEX
  5
684
  8
0
  6
CONTINUOUS
 62
     7
 10
405.888689932056
 20
567.8458513842644
 30
0.0
  0
VERTEX
  5
685
  8
0
  6
CONTINUOUS
 62
     7
 10
405.8692176292884
 20
567.8531402186435
 30
0.0
  0
VERTEX
  5
686
  8
0
  6
CONTINUOUS
 62
     7
 10
405.8500483845452
 20
567.8612387521292
 30
0.0
  0
VERTEX
  5
687
  8
0
  6
CONTINUOUS
 62
     7
 10
405.8312313887315
 20
567.870125069006
 30
0.0
  0
VERTEX
  5
688
  8
0
  6
CONTINUOUS
 62
     7
 10
405.8128158327523
 20
567.879777253558
 30
0.0
  0
VERTEX
  5
689
  8
0
  6
CONTINUOUS
 62
     7
 10
405.7943024541031
 20
567.8905032338787
 30
0.0
  0
VERTEX
  5
68A
  8
0
  6
CONTINUOUS
 62
     7
 10
405.7762481926339
 20
567.9020217230823
 30
0.0
  0
VERTEX
  5
68B
  8
0
  6
CONTINUOUS
 62
     7
 10
405.7587019160198
 20
567.9143001535342
 30
0.0
  0
VERTEX
  5
68C
  8
0
  6
CONTINUOUS
 62
     7
 10
405.7417124919363
 20
567.9273059576004
 30
0.0
  0
VERTEX
  5
68D
  8
0
  6
CONTINUOUS
 62
     7
 10
405.7257600940086
 20
567.940625882792
 30
0.0
  0
VERTEX
  5
68E
  8
0
  6
CONTINUOUS
 62
     7
 10
405.7103616695851
 20
567.9546093048458
 30
0.0
  0
VERTEX
  5
68F
  8
0
  6
CONTINUOUS
 62
     7
 10
405.6955563727183
 20
567.9692192512775
 30
0.0
  0
VERTEX
  5
690
  8
0
  6
CONTINUOUS
 62
     7
 10
405.6813833574606
 20
567.9844187496026
 30
0.0
  0
VERTEX
  5
691
  8
0
  6
CONTINUOUS
 62
     7
 10
405.6674735299843
 20
568.0006636918457
 30
0.0
  0
VERTEX
  5
692
  8
0
  6
CONTINUOUS
 62
     7
 10
405.6542592179649
 20
568.0175042109067
 30
0.0
  0
VERTEX
  5
693
  8
0
  6
CONTINUOUS
 62
     7
 10
405.6417757236546
 20
568.0348933826664
 30
0.0
  0
VERTEX
  5
694
  8
0
  6
CONTINUOUS
 62
     7
 10
405.6300583493057
 20
568.0527842830054
 30
0.0
  0
VERTEX
  5
695
  8
0
  6
CONTINUOUS
 62
     7
 10
405.6194253027295
 20
568.0706243303758
 30
0.0
  0
VERTEX
  5
696
  8
0
  6
CONTINUOUS
 62
     7
 10
405.6095341462376
 20
568.0889065881223
 30
0.0
  0
VERTEX
  5
697
  8
0
  6
CONTINUOUS
 62
     7
 10
405.6004095238393
 20
568.1075832334848
 30
0.0
  0
VERTEX
  5
698
  8
0
  6
CONTINUOUS
 62
     7
 10
405.5920760795437
 20
568.1266064437027
 30
0.0
  0
VERTEX
  5
699
  8
0
  6
CONTINUOUS
 62
     7
 10
405.5843367248637
 20
568.1465279807666
 30
0.0
  0
VERTEX
  5
69A
  8
0
  6
CONTINUOUS
 62
     7
 10
405.5774500500501
 20
568.1667808061242
 30
0.0
  0
VERTEX
  5
69B
  8
0
  6
CONTINUOUS
 62
     7
 10
405.5714337550253
 20
568.1873090155096
 30
0.0
  0
VERTEX
  5
69C
  8
0
  6
CONTINUOUS
 62
     7
 10
405.5663055397114
 20
568.2080567046577
 30
0.0
  0
VERTEX
  5
69D
  8
0
  6
CONTINUOUS
 62
     7
 10
405.5621815900663
 20
568.2284028494221
 30
0.0
  0
VERTEX
  5
69E
  8
0
  6
CONTINUOUS
 62
     7
 10
405.5589035383165
 20
568.2489204720454
 30
0.0
  0
VERTEX
  5
69F
  8
0
  6
CONTINUOUS
 62
     7
 10
405.5564787470255
 20
568.269556336326
 30
0.0
  0
VERTEX
  5
6A0
  8
0
  6
CONTINUOUS
 62
     7
 10
405.5549145787564
 20
568.2902572060623
 30
0.0
  0
VERTEX
  5
6A1
  8
0
  6
CONTINUOUS
 62
     7
 10
405.5542076858015
 20
568.311608236003
 30
0.0
  0
VERTEX
  5
6A2
  8
0
  6
CONTINUOUS
 62
     7
 10
405.5544141978805
 20
568.332989532665
 30
0.0
  0
VERTEX
  5
6A3
  8
0
  6
CONTINUOUS
 62
     7
 10
405.5555322599514
 20
568.3543425785836
 30
0.0
  0
VERTEX
  5
6A4
  8
0
  6
CONTINUOUS
 62
     7
 10
405.5575600169723
 20
568.3756088562938
 30
0.0
  0
VERTEX
  5
6A5
  8
0
  6
CONTINUOUS
 62
     7
 10
405.5604030316314
 20
568.3961734614879
 30
0.0
  0
VERTEX
  5
6A6
  8
0
  6
CONTINUOUS
 62
     7
 10
405.5641007896665
 20
568.4166199219371
 30
0.0
  0
VERTEX
  5
6A7
  8
0
  6
CONTINUOUS
 62
     7
 10
405.5686425841094
 20
568.4368956079493
 30
0.0
  0
VERTEX
  5
6A8
  8
0
  6
CONTINUOUS
 62
     7
 10
405.5740177079919
 20
568.4569478898323
 30
0.0
  0
VERTEX
  5
6A9
  8
0
  6
CONTINUOUS
 62
     7
 10
405.5804164460756
 20
568.4773296111908
 30
0.0
  0
VERTEX
  5
6AA
  8
0
  6
CONTINUOUS
 62
     7
 10
405.5876866956921
 20
568.4974377516205
 30
0.0
  0
VERTEX
  5
6AB
  8
0
  6
CONTINUOUS
 62
     7
 10
405.5958073330013
 20
568.5172177755148
 30
0.0
  0
VERTEX
  5
6AC
  8
0
  6
CONTINUOUS
 62
     7
 10
405.6047572341635
 20
568.5366151472668
 30
0.0
  0
VERTEX
  5
6AD
  8
0
  6
CONTINUOUS
 62
     7
 10
405.6142482216105
 20
568.5550890065085
 30
0.0
  0
VERTEX
  5
6AE
  8
0
  6
CONTINUOUS
 62
     7
 10
405.6245069160072
 20
568.5731684782479
 30
0.0
  0
VERTEX
  5
6AF
  8
0
  6
CONTINUOUS
 62
     7
 10
405.6355057853997
 20
568.5908074469666
 30
0.0
  0
VERTEX
  5
6B0
  8
0
  6
CONTINUOUS
 62
     7
 10
405.6472172978344
 20
568.6079597971463
 30
0.0
  0
VERTEX
  5
6B1
  8
0
  6
CONTINUOUS
 62
     7
 10
405.6600038861536
 20
568.625084285
 30
0.0
  0
VERTEX
  5
6B2
  8
0
  6
CONTINUOUS
 62
     7
 10
405.6735225232157
 20
568.6416621939898
 30
0.0
  0
VERTEX
  5
6B3
  8
0
  6
CONTINUOUS
 62
     7
 10
405.6877352367743
 20
568.6576490525642
 30
0.0
  0
VERTEX
  5
6B4
  8
0
  6
CONTINUOUS
 62
     7
 10
405.7026040545832
 20
568.6730003891714
 30
0.0
  0
VERTEX
  5
6B5
  8
0
  6
CONTINUOUS
 62
     7
 10
405.7213256588586
 20
568.6905760526234
 30
0.0
  0
VERTEX
  5
6B6
  8
0
  6
CONTINUOUS
 62
     7
 10
405.7409809047725
 20
568.7072060313662
 30
0.0
  0
VERTEX
  5
6B7
  8
0
  6
CONTINUOUS
 62
     7
 10
405.7614874699138
 20
568.722830971707
 30
0.0
  0
VERTEX
  5
6B8
  8
0
  6
CONTINUOUS
 62
     7
 10
405.7827630318712
 20
568.7373915199527
 30
0.0
  0
VERTEX
  5
6B9
  8
0
  6
CONTINUOUS
 62
     7
 10
405.8047252682337
 20
568.7508283224105
 30
0.0
  0
VERTEX
  5
6BA
  8
0
  6
CONTINUOUS
 62
     7
 10
405.8272918565902
 20
568.7630820253871
 30
0.0
  0
SEQEND
  5
888
  8
0
  6
CONTINUOUS
 62
     7
  0
LINE
  5
1DB
  8
0
  6
CONTINUOUS
 62
     7
 10
406.054342450656
 20
567.8176473741981
 30
0.0
 11
415.7196952011921
 21
567.8176473741981
 31
0.0
  0
POLYLINE
  5
1DC
  8
0
  6
CONTINUOUS
 62
     7
 66
     1
 10
0.0
 20
0.0
 30
0.0
  0
VERTEX
  5
6BB
  8
0
  6
CONTINUOUS
 62
     7
 10
416.1885830332471
 20
568.1440623170365
 30
0.0
  0
VERTEX
  5
6BC
  8
0
  6
CONTINUOUS
 62
     7
 10
416.1809673930914
 20
568.1247364867763
 30
0.0
  0
VERTEX
  5
6BD
  8
0
  6
CONTINUOUS
 62
     7
 10
416.1725483324967
 20
568.1057272315879
 30
0.0
  0
VERTEX
  5
6BE
  8
0
  6
CONTINUOUS
 62
     7
 10
416.1633486345742
 20
568.0870832538574
 30
0.0
  0
VERTEX
  5
6BF
  8
0
  6
CONTINUOUS
 62
     7
 10
416.1533910824352
 20
568.0688532559709
 30
0.0
  0
VERTEX
  5
6C0
  8
0
  6
CONTINUOUS
 62
     7
 10
416.1423598848305
 20
568.0505442037154
 30
0.0
  0
VERTEX
  5
6C1
  8
0
  6
CONTINUOUS
 62
     7
 10
416.1305453800026
 20
568.0327070623954
 30
0.0
  0
VERTEX
  5
6C2
  8
0
  6
CONTINUOUS
 62
     7
 10
416.1179809533983
 20
568.0153899811044
 30
0.0
  0
VERTEX
  5
6C3
  8
0
  6
CONTINUOUS
 62
     7
 10
416.1046999904647
 20
567.9986411089357
 30
0.0
  0
VERTEX
  5
6C4
  8
0
  6
CONTINUOUS
 62
     7
 10
416.0911167255661
 20
567.9829254837886
 30
0.0
  0
VERTEX
  5
6C5
  8
0
  6
CONTINUOUS
 62
     7
 10
416.0768800903269
 20
567.9677745462786
 30
0.0
  0
VERTEX
  5
6C6
  8
0
  6
CONTINUOUS
 62
     7
 10
416.0620277092639
 20
567.9532267127596
 30
0.0
  0
VERTEX
  5
6C7
  8
0
  6
CONTINUOUS
 62
     7
 10
416.0465972068942
 20
567.9393203995852
 30
0.0
  0
VERTEX
  5
6C8
  8
0
  6
CONTINUOUS
 62
     7
 10
416.0301273666632
 20
567.9256948700718
 30
0.0
  0
VERTEX
  5
6C9
  8
0
  6
CONTINUOUS
 62
     7
 10
416.0130745659496
 20
567.9127739512406
 30
0.0
  0
VERTEX
  5
6CA
  8
0
  6
CONTINUOUS
 62
     7
 10
415.9954862506543
 20
567.9005920252906
 30
0.0
  0
VERTEX
  5
6CB
  8
0
  6
CONTINUOUS
 62
     7
 10
415.9774098666779
 20
567.8891834744209
 30
0.0
  0
VERTEX
  5
6CC
  8
0
  6
CONTINUOUS
 62
     7
 10
415.9593906355846
 20
567.8788502207464
 30
0.0
  0
VERTEX
  5
6CD
  8
0
  6
CONTINUOUS
 62
     7
 10
415.9409417994758
 20
567.8692660700625
 30
0.0
  0
VERTEX
  5
6CE
  8
0
  6
CONTINUOUS
 62
     7
 10
415.9221115771958
 20
567.8604548140429
 30
0.0
  0
VERTEX
  5
6CF
  8
0
  6
CONTINUOUS
 62
     7
 10
415.902948187589
 20
567.8524402443607
 30
0.0
  0
VERTEX
  5
6D0
  8
0
  6
CONTINUOUS
 62
     7
 10
415.8828970484905
 20
567.8450346358535
 30
0.0
  0
VERTEX
  5
6D1
  8
0
  6
CONTINUOUS
 62
     7
 10
415.862529061419
 20
567.8384868357311
 30
0.0
  0
VERTEX
  5
6D2
  8
0
  6
CONTINUOUS
 62
     7
 10
415.8419003741617
 20
567.832813577498
 30
0.0
  0
VERTEX
  5
6D3
  8
0
  6
CONTINUOUS
 62
     7
 10
415.8210671345054
 20
567.8280315946586
 30
0.0
  0
VERTEX
  5
6D4
  8
0
  6
CONTINUOUS
 62
     7
 10
415.7959720377319
 20
567.823503687865
 30
0.0
  0
VERTEX
  5
6D5
  8
0
  6
CONTINUOUS
 62
     7
 10
415.770645717735
 20
567.8202569312314
 30
0.0
  0
VERTEX
  5
6D6
  8
0
  6
CONTINUOUS
 62
     7
 10
415.745187122795
 20
567.8183014511962
 30
0.0
  0
VERTEX
  5
6D7
  8
0
  6
CONTINUOUS
 62
     7
 10
415.7196952011921
 20
567.8176473741981
 30
0.0
  0
SEQEND
  5
889
  8
0
  6
CONTINUOUS
 62
     7
  0
ARC
  5
1DD
  8
0
  6
CONTINUOUS
 62
     7
 10
419.9285979464944
 20
566.759638465595
 30
0.0
 40
3.988024692971779
 50
20.31280527264952
 51
159.6871947273505
  0
POLYLINE
  5
1DE
  8
0
  6
CONTINUOUS
 62
     7
 66
     1
 10
0.0
 20
0.0
 30
0.0
  0
VERTEX
  5
6D8
  8
0
  6
CONTINUOUS
 62
     7
 10
424.1375006917968
 20
567.8176473741981
 30
0.0
  0
VERTEX
  5
6D9
  8
0
  6
CONTINUOUS
 62
     7
 10
424.1192931736678
 20
567.817979439177
 30
0.0
  0
VERTEX
  5
6DA
  8
0
  6
CONTINUOUS
 62
     7
 10
424.1011037684765
 20
567.8189743175807
 30
0.0
  0
VERTEX
  5
6DB
  8
0
  6
CONTINUOUS
 62
     7
 10
424.0829686484321
 20
567.8206300346104
 30
0.0
  0
VERTEX
  5
6DC
  8
0
  6
CONTINUOUS
 62
     7
 10
424.0588510898361
 20
567.8238722920929
 30
0.0
  0
VERTEX
  5
6DD
  8
0
  6
CONTINUOUS
 62
     7
 10
424.0349197237169
 20
567.8282834796706
 30
0.0
  0
VERTEX
  5
6DE
  8
0
  6
CONTINUOUS
 62
     7
 10
424.0135267277549
 20
567.8332611548805
 30
0.0
  0
VERTEX
  5
6DF
  8
0
  6
CONTINUOUS
 62
     7
 10
423.9923728686238
 20
567.8391731568724
 30
0.0
  0
VERTEX
  5
6E0
  8
0
  6
CONTINUOUS
 62
     7
 10
423.9720034286194
 20
567.8458315632735
 30
0.0
  0
VERTEX
  5
6E1
  8
0
  6
CONTINUOUS
 62
     7
 10
423.9549321835813
 20
567.8521716629593
 30
0.0
  0
VERTEX
  5
6E2
  8
0
  6
CONTINUOUS
 62
     7
 10
423.938097433925
 20
567.8591312430441
 30
0.0
  0
VERTEX
  5
6E3
  8
0
  6
CONTINUOUS
 62
     7
 10
423.9215326610422
 20
567.8666964639837
 30
0.0
  0
VERTEX
  5
6E4
  8
0
  6
CONTINUOUS
 62
     7
 10
423.8998478401421
 20
567.8777390560186
 30
0.0
  0
VERTEX
  5
6E5
  8
0
  6
CONTINUOUS
 62
     7
 10
423.8787256592346
 20
567.889823085492
 30
0.0
  0
VERTEX
  5
6E6
  8
0
  6
CONTINUOUS
 62
     7
 10
423.8601862713253
 20
567.9016014764429
 30
0.0
  0
VERTEX
  5
6E7
  8
0
  6
CONTINUOUS
 62
     7
 10
423.8421818245345
 20
567.9141823863072
 30
0.0
  0
VERTEX
  5
6E8
  8
0
  6
CONTINUOUS
 62
     7
 10
423.8251646515376
 20
567.9272079905322
 30
0.0
  0
VERTEX
  5
6E9
  8
0
  6
CONTINUOUS
 62
     7
 10
423.8108212245398
 20
567.9391288535307
 30
0.0
  0
VERTEX
  5
6EA
  8
0
  6
CONTINUOUS
 62
     7
 10
423.7969273040991
 20
567.9515804485754
 30
0.0
  0
VERTEX
  5
6EB
  8
0
  6
CONTINUOUS
 62
     7
 10
423.7835118722668
 20
567.9645368008072
 30
0.0
  0
VERTEX
  5
6EC
  8
0
  6
CONTINUOUS
 62
     7
 10
423.7707301105071
 20
567.9778335022335
 30
0.0
  0
VERTEX
  5
6ED
  8
0
  6
CONTINUOUS
 62
     7
 10
423.7584430283096
 20
567.9915970450571
 30
0.0
  0
VERTEX
  5
6EE
  8
0
  6
CONTINUOUS
 62
     7
 10
423.7466756903324
 20
568.0057993498868
 30
0.0
  0
VERTEX
  5
6EF
  8
0
  6
CONTINUOUS
 62
     7
 10
423.7350388165478
 20
568.0209714366429
 30
0.0
  0
VERTEX
  5
6F0
  8
0
  6
CONTINUOUS
 62
     7
 10
423.7239862051102
 20
568.0365828621586
 30
0.0
  0
VERTEX
  5
6F1
  8
0
  6
CONTINUOUS
 62
     7
 10
423.7135420854848
 20
568.0525993979397
 30
0.0
  0
VERTEX
  5
6F2
  8
0
  6
CONTINUOUS
 62
     7
 10
423.7006291388577
 20
568.0744732853948
 30
0.0
  0
VERTEX
  5
6F3
  8
0
  6
CONTINUOUS
 62
     7
 10
423.6887930328126
 20
568.0970788916238
 30
0.0
  0
VERTEX
  5
6F4
  8
0
  6
CONTINUOUS
 62
     7
 10
423.678124859635
 20
568.120258557899
 30
0.0
  0
VERTEX
  5
6F5
  8
0
  6
CONTINUOUS
 62
     7
 10
423.6686128597418
 20
568.1440623170365
 30
0.0
  0
SEQEND
  5
88A
  8
0
  6
CONTINUOUS
 62
     7
  0
LINE
  5
1DF
  8
0
  6
CONTINUOUS
 62
     7
 10
424.1375006917968
 20
567.8176473741981
 30
0.0
 11
430.4414783972616
 21
567.8176473741981
 31
0.0
  0
LINE
  5
1E0
  8
0
  6
CONTINUOUS
 62
     7
 10
371.588098415805
 20
600.5096384655949
 30
0.0
 11
365.7997289241482
 21
600.5096384655949
 31
0.0
  0
LINE
  5
1E1
  8
0
  6
CONTINUOUS
 62
     7
 10
430.0574669688407
 20
600.5096384655949
 30
0.0
 11
424.2690974771838
 21
600.5096384655949
 31
0.0
  0
LINE
  5
1E2
  8
0
  6
CONTINUOUS
 62
     7
 10
424.2690974771838
 20
568.0096384655949
 30
0.0
 11
430.0574669688407
 21
568.0096384655949
 31
0.0
  0
LINE
  5
1E3
  8
0
  6
CONTINUOUS
 62
     7
 10
430.0574669688407
 20
565.5096384655949
 30
0.0
 11
424.2690974771838
 21
565.5096384655949
 31
0.0
  0
LINE
  5
1E4
  8
0
  6
CONTINUOUS
 62
     7
 10
424.2690974771838
 20
603.009638465595
 30
0.0
 11
430.0574669688407
 21
603.009638465595
 31
0.0
  0
ARC
  5
1E5
  8
0
  6
CONTINUOUS
 62
     7
 10
375.9285979464944
 20
601.7596384655949
 30
0.0
 40
4.180015784368457
 50
56.05612339575395
 51
158.04193919171
  0
POLYLINE
  5
1E6
  8
0
  6
CONTINUOUS
 62
     7
 66
     1
 10
0.0
 20
0.0
 30
0.0
  0
VERTEX
  5
6F6
  8
0
  6
CONTINUOUS
 62
     7
 10
372.0518096632081
 20
565.1966142929914
 30
0.0
  0
VERTEX
  5
6F7
  8
0
  6
CONTINUOUS
 62
     7
 10
372.0436423011514
 20
565.2157134867667
 30
0.0
  0
VERTEX
  5
6F8
  8
0
  6
CONTINUOUS
 62
     7
 10
372.034680938795
 20
565.2344731686626
 30
0.0
  0
VERTEX
  5
6F9
  8
0
  6
CONTINUOUS
 62
     7
 10
372.0249497483628
 20
565.2528453105316
 30
0.0
  0
VERTEX
  5
6FA
  8
0
  6
CONTINUOUS
 62
     7
 10
372.0144729020781
 20
565.270781884226
 30
0.0
  0
VERTEX
  5
6FB
  8
0
  6
CONTINUOUS
 62
     7
 10
372.0029205831814
 20
565.2887666542721
 30
0.0
  0
VERTEX
  5
6FC
  8
0
  6
CONTINUOUS
 62
     7
 10
371.9905988295185
 20
565.3062572183248
 30
0.0
  0
VERTEX
  5
6FD
  8
0
  6
CONTINUOUS
 62
     7
 10
371.9775423953604
 20
565.3232064058446
 30
0.0
  0
VERTEX
  5
6FE
  8
0
  6
CONTINUOUS
 62
     7
 10
371.963786034978
 20
565.3395670462916
 30
0.0
  0
VERTEX
  5
6FF
  8
0
  6
CONTINUOUS
 62
     7
 10
371.9497571644608
 20
565.354886186379
 30
0.0
  0
VERTEX
  5
700
  8
0
  6
CONTINUOUS
 62
     7
 10
371.935091406875
 20
565.3696221133677
 30
0.0
  0
VERTEX
  5
701
  8
0
  6
CONTINUOUS
 62
     7
 10
371.9198274742454
 20
565.3837375072367
 30
0.0
  0
VERTEX
  5
702
  8
0
  6
CONTINUOUS
 62
     7
 10
371.904004078597
 20
565.3971950479648
 30
0.0
  0
VERTEX
  5
703
  8
0
  6
CONTINUOUS
 62
     7
 10
371.8871498381456
 20
565.41034208041
 30
0.0
  0
VERTEX
  5
704
  8
0
  6
CONTINUOUS
 62
     7
 10
371.8697331091979
 20
565.4227680570452
 30
0.0
  0
VERTEX
  5
705
  8
0
  6
CONTINUOUS
 62
     7
 10
371.8518023051223
 20
565.4344399723801
 30
0.0
  0
VERTEX
  5
706
  8
0
  6
CONTINUOUS
 62
     7
 10
371.8334058392876
 20
565.4453248209244
 30
0.0
  0
VERTEX
  5
707
  8
0
  6
CONTINUOUS
 62
     7
 10
371.8150973493916
 20
565.45513647301
 30
0.0
  0
VERTEX
  5
708
  8
0
  6
CONTINUOUS
 62
     7
 10
371.7963809391537
 20
565.4641869969342
 30
0.0
  0
VERTEX
  5
709
  8
0
  6
CONTINUOUS
 62
     7
 10
371.777305490584
 20
565.4724539953874
 30
0.0
  0
VERTEX
  5
70A
  8
0
  6
CONTINUOUS
 62
     7
 10
371.7579198856929
 20
565.4799150710598
 30
0.0
  0
VERTEX
  5
70B
  8
0
  6
CONTINUOUS
 62
     7
 10
371.7376643825509
 20
565.4867419490618
 30
0.0
  0
VERTEX
  5
70C
  8
0
  6
CONTINUOUS
 62
     7
 10
371.7171167906154
 20
565.4927022763777
 30
0.0
  0
VERTEX
  5
70D
  8
0
  6
CONTINUOUS
 62
     7
 10
371.6963337148079
 20
565.4977809385474
 30
0.0
  0
VERTEX
  5
70E
  8
0
  6
CONTINUOUS
 62
     7
 10
371.6753717600497
 20
565.5019628211103
 30
0.0
  0
VERTEX
  5
70F
  8
0
  6
CONTINUOUS
 62
     7
 10
371.6537109756908
 20
565.5053126232706
 30
0.0
  0
VERTEX
  5
710
  8
0
  6
CONTINUOUS
 62
     7
 10
371.631903207571
 20
565.5077121835388
 30
0.0
  0
VERTEX
  5
711
  8
0
  6
CONTINUOUS
 62
     7
 10
371.6100113796294
 20
565.5091559737141
 30
0.0
  0
VERTEX
  5
712
  8
0
  6
CONTINUOUS
 62
     7
 10
371.588098415805
 20
565.5096384655949
 30
0.0
  0
SEQEND
  5
88B
  8
0
  6
CONTINUOUS
 62
     7
  0
POLYLINE
  5
1E7
  8
0
  6
CONTINUOUS
 62
     7
 66
     1
 10
0.0
 20
0.0
 30
0.0
  0
VERTEX
  5
713
  8
0
  6
CONTINUOUS
 62
     7
 10
372.0518096632081
 20
600.1966142929914
 30
0.0
  0
VERTEX
  5
714
  8
0
  6
CONTINUOUS
 62
     7
 10
372.0436423011514
 20
600.2157134867667
 30
0.0
  0
VERTEX
  5
715
  8
0
  6
CONTINUOUS
 62
     7
 10
372.034680938795
 20
600.2344731686627
 30
0.0
  0
VERTEX
  5
716
  8
0
  6
CONTINUOUS
 62
     7
 10
372.0249497483628
 20
600.2528453105317
 30
0.0
  0
VERTEX
  5
717
  8
0
  6
CONTINUOUS
 62
     7
 10
372.0144729020781
 20
600.2707818842262
 30
0.0
  0
VERTEX
  5
718
  8
0
  6
CONTINUOUS
 62
     7
 10
372.0029205831814
 20
600.2887666542721
 30
0.0
  0
VERTEX
  5
719
  8
0
  6
CONTINUOUS
 62
     7
 10
371.9905988295185
 20
600.3062572183248
 30
0.0
  0
VERTEX
  5
71A
  8
0
  6
CONTINUOUS
 62
     7
 10
371.9775423953604
 20
600.3232064058446
 30
0.0
  0
VERTEX
  5
71B
  8
0
  6
CONTINUOUS
 62
     7
 10
371.963786034978
 20
600.3395670462918
 30
0.0
  0
VERTEX
  5
71C
  8
0
  6
CONTINUOUS
 62
     7
 10
371.9497571644608
 20
600.354886186379
 30
0.0
  0
VERTEX
  5
71D
  8
0
  6
CONTINUOUS
 62
     7
 10
371.935091406875
 20
600.3696221133678
 30
0.0
  0
VERTEX
  5
71E
  8
0
  6
CONTINUOUS
 62
     7
 10
371.9198274742454
 20
600.3837375072367
 30
0.0
  0
VERTEX
  5
71F
  8
0
  6
CONTINUOUS
 62
     7
 10
371.904004078597
 20
600.3971950479648
 30
0.0
  0
VERTEX
  5
720
  8
0
  6
CONTINUOUS
 62
     7
 10
371.8871498381456
 20
600.4103420804101
 30
0.0
  0
VERTEX
  5
721
  8
0
  6
CONTINUOUS
 62
     7
 10
371.8697331091979
 20
600.4227680570453
 30
0.0
  0
VERTEX
  5
722
  8
0
  6
CONTINUOUS
 62
     7
 10
371.8518023051223
 20
600.4344399723801
 30
0.0
  0
VERTEX
  5
723
  8
0
  6
CONTINUOUS
 62
     7
 10
371.8334058392876
 20
600.4453248209244
 30
0.0
  0
VERTEX
  5
724
  8
0
  6
CONTINUOUS
 62
     7
 10
371.8150973493916
 20
600.4551364730102
 30
0.0
  0
VERTEX
  5
725
  8
0
  6
CONTINUOUS
 62
     7
 10
371.7963809391537
 20
600.4641869969342
 30
0.0
  0
VERTEX
  5
726
  8
0
  6
CONTINUOUS
 62
     7
 10
371.777305490584
 20
600.4724539953874
 30
0.0
  0
VERTEX
  5
727
  8
0
  6
CONTINUOUS
 62
     7
 10
371.7579198856929
 20
600.4799150710598
 30
0.0
  0
VERTEX
  5
728
  8
0
  6
CONTINUOUS
 62
     7
 10
371.7376643825509
 20
600.4867419490618
 30
0.0
  0
VERTEX
  5
729
  8
0
  6
CONTINUOUS
 62
     7
 10
371.7171167906154
 20
600.4927022763778
 30
0.0
  0
VERTEX
  5
72A
  8
0
  6
CONTINUOUS
 62
     7
 10
371.6963337148079
 20
600.4977809385474
 30
0.0
  0
VERTEX
  5
72B
  8
0
  6
CONTINUOUS
 62
     7
 10
371.6753717600497
 20
600.5019628211103
 30
0.0
  0
VERTEX
  5
72C
  8
0
  6
CONTINUOUS
 62
     7
 10
371.6537109756908
 20
600.5053126232707
 30
0.0
  0
VERTEX
  5
72D
  8
0
  6
CONTINUOUS
 62
     7
 10
371.631903207571
 20
600.507712183539
 30
0.0
  0
VERTEX
  5
72E
  8
0
  6
CONTINUOUS
 62
     7
 10
371.6100113796294
 20
600.5091559737141
 30
0.0
  0
VERTEX
  5
72F
  8
0
  6
CONTINUOUS
 62
     7
 10
371.588098415805
 20
600.5096384655949
 30
0.0
  0
SEQEND
  5
88C
  8
0
  6
CONTINUOUS
 62
     7
  0
ARC
  5
1E8
  8
0
  6
CONTINUOUS
 62
     7
 10
375.9285979464944
 20
566.759638465595
 30
0.0
 40
4.180015784368457
 50
201.95806080829
 51
303.943876604246
  0
POLYLINE
  5
1E9
  8
0
  6
CONTINUOUS
 62
     7
 66
     1
 10
0.0
 20
0.0
 30
0.0
  0
VERTEX
  5
730
  8
0
  6
CONTINUOUS
 62
     7
 10
371.588098415805
 20
568.0096384655949
 30
0.0
  0
VERTEX
  5
731
  8
0
  6
CONTINUOUS
 62
     7
 10
371.6088661160839
 20
568.0100716295044
 30
0.0
  0
VERTEX
  5
732
  8
0
  6
CONTINUOUS
 62
     7
 10
371.6296158322167
 20
568.0113681481282
 30
0.0
  0
VERTEX
  5
733
  8
0
  6
CONTINUOUS
 62
     7
 10
371.6502939814561
 20
568.013523561809
 30
0.0
  0
VERTEX
  5
734
  8
0
  6
CONTINUOUS
 62
     7
 10
371.6708469810545
 20
568.0165334108896
 30
0.0
  0
VERTEX
  5
735
  8
0
  6
CONTINUOUS
 62
     7
 10
371.6918468298605
 20
568.0205226934866
 30
0.0
  0
VERTEX
  5
736
  8
0
  6
CONTINUOUS
 62
     7
 10
371.7126760365202
 20
568.0254103917341
 30
0.0
  0
VERTEX
  5
737
  8
0
  6
CONTINUOUS
 62
     7
 10
371.7332778567593
 20
568.031181910889
 30
0.0
  0
VERTEX
  5
738
  8
0
  6
CONTINUOUS
 62
     7
 10
371.7535955463039
 20
568.0378226562084
 30
0.0
  0
VERTEX
  5
739
  8
0
  6
CONTINUOUS
 62
     7
 10
371.7730491873257
 20
568.0451055891349
 30
0.0
  0
VERTEX
  5
73A
  8
0
  6
CONTINUOUS
 62
     7
 10
371.7922000725951
 20
568.0531972875473
 30
0.0
  0
VERTEX
  5
73B
  8
0
  6
CONTINUOUS
 62
     7
 10
371.8109991138641
 20
568.0620758026695
 30
0.0
  0
VERTEX
  5
73C
  8
0
  6
CONTINUOUS
 62
     7
 10
371.8293972228847
 20
568.0717191857259
 30
0.0
  0
VERTEX
  5
73D
  8
0
  6
CONTINUOUS
 62
     7
 10
371.8478928101192
 20
568.0824347415293
 30
0.0
  0
VERTEX
  5
73E
  8
0
  6
CONTINUOUS
 62
     7
 10
371.8659299786065
 20
568.0939416045056
 30
0.0
  0
VERTEX
  5
73F
  8
0
  6
CONTINUOUS
 62
     7
 10
371.8834600140415
 20
568.106207214969
 30
0.0
  0
VERTEX
  5
740
  8
0
  6
CONTINUOUS
 62
     7
 10
371.9004342021194
 20
568.1191990132336
 30
0.0
  0
VERTEX
  5
741
  8
0
  6
CONTINUOUS
 62
     7
 10
371.9163801491103
 20
568.1325105155345
 30
0.0
  0
VERTEX
  5
742
  8
0
  6
CONTINUOUS
 62
     7
 10
371.9317727146062
 20
568.1464849537335
 30
0.0
  0
VERTEX
  5
743
  8
0
  6
CONTINUOUS
 62
     7
 10
371.946572847704
 20
568.1610853668054
 30
0.0
  0
VERTEX
  5
744
  8
0
  6
CONTINUOUS
 62
     7
 10
371.9607414975009
 20
568.1762747937249
 30
0.0
  0
VERTEX
  5
745
  8
0
  6
CONTINUOUS
 62
     7
 10
371.9746472348683
 20
568.1925081587207
 30
0.0
  0
VERTEX
  5
746
  8
0
  6
CONTINUOUS
 62
     7
 10
371.9878585031592
 20
568.2093364511544
 30
0.0
  0
VERTEX
  5
747
  8
0
  6
CONTINUOUS
 62
     7
 10
372.0003401181945
 20
568.2267128240669
 30
0.0
  0
VERTEX
  5
748
  8
0
  6
CONTINUOUS
 62
     7
 10
372.0120568957954
 20
568.2445904304989
 30
0.0
  0
VERTEX
  5
749
  8
0
  6
CONTINUOUS
 62
     7
 10
372.0232632657532
 20
568.2634273099062
 30
0.0
  0
VERTEX
  5
74A
  8
0
  6
CONTINUOUS
 62
     7
 10
372.0336432877642
 20
568.2827558324256
 30
0.0
  0
VERTEX
  5
74B
  8
0
  6
CONTINUOUS
 62
     7
 10
372.0431683056439
 20
568.3025197059065
 30
0.0
  0
VERTEX
  5
74C
  8
0
  6
CONTINUOUS
 62
     7
 10
372.0518096632081
 20
568.3226626381984
 30
0.0
  0
SEQEND
  5
88D
  8
0
  6
CONTINUOUS
 62
     7
  0
POLYLINE
  5
1EA
  8
0
  6
CONTINUOUS
 62
     7
 66
     1
 10
0.0
 20
0.0
 30
0.0
  0
VERTEX
  5
74D
  8
0
  6
CONTINUOUS
 62
     7
 10
371.588098415805
 20
603.009638465595
 30
0.0
  0
VERTEX
  5
74E
  8
0
  6
CONTINUOUS
 62
     7
 10
371.6088661160839
 20
603.0100716295045
 30
0.0
  0
VERTEX
  5
74F
  8
0
  6
CONTINUOUS
 62
     7
 10
371.6296158322168
 20
603.0113681481282
 30
0.0
  0
VERTEX
  5
750
  8
0
  6
CONTINUOUS
 62
     7
 10
371.6502939814561
 20
603.013523561809
 30
0.0
  0
VERTEX
  5
751
  8
0
  6
CONTINUOUS
 62
     7
 10
371.6708469810545
 20
603.0165334108896
 30
0.0
  0
VERTEX
  5
752
  8
0
  6
CONTINUOUS
 62
     7
 10
371.6918468298605
 20
603.0205226934866
 30
0.0
  0
VERTEX
  5
753
  8
0
  6
CONTINUOUS
 62
     7
 10
371.7126760365202
 20
603.0254103917342
 30
0.0
  0
VERTEX
  5
754
  8
0
  6
CONTINUOUS
 62
     7
 10
371.7332778567593
 20
603.0311819108892
 30
0.0
  0
VERTEX
  5
755
  8
0
  6
CONTINUOUS
 62
     7
 10
371.7535955463039
 20
603.0378226562084
 30
0.0
  0
VERTEX
  5
756
  8
0
  6
CONTINUOUS
 62
     7
 10
371.7730491873257
 20
603.045105589135
 30
0.0
  0
VERTEX
  5
757
  8
0
  6
CONTINUOUS
 62
     7
 10
371.7922000725951
 20
603.0531972875474
 30
0.0
  0
VERTEX
  5
758
  8
0
  6
CONTINUOUS
 62
     7
 10
371.8109991138641
 20
603.0620758026696
 30
0.0
  0
VERTEX
  5
759
  8
0
  6
CONTINUOUS
 62
     7
 10
371.8293972228847
 20
603.071719185726
 30
0.0
  0
VERTEX
  5
75A
  8
0
  6
CONTINUOUS
 62
     7
 10
371.8478928101192
 20
603.0824347415294
 30
0.0
  0
VERTEX
  5
75B
  8
0
  6
CONTINUOUS
 62
     7
 10
371.8659299786065
 20
603.0939416045056
 30
0.0
  0
VERTEX
  5
75C
  8
0
  6
CONTINUOUS
 62
     7
 10
371.8834600140415
 20
603.1062072149691
 30
0.0
  0
VERTEX
  5
75D
  8
0
  6
CONTINUOUS
 62
     7
 10
371.9004342021194
 20
603.1191990132336
 30
0.0
  0
VERTEX
  5
75E
  8
0
  6
CONTINUOUS
 62
     7
 10
371.9163801491103
 20
603.1325105155345
 30
0.0
  0
VERTEX
  5
75F
  8
0
  6
CONTINUOUS
 62
     7
 10
371.9317727146062
 20
603.1464849537335
 30
0.0
  0
VERTEX
  5
760
  8
0
  6
CONTINUOUS
 62
     7
 10
371.946572847704
 20
603.1610853668054
 30
0.0
  0
VERTEX
  5
761
  8
0
  6
CONTINUOUS
 62
     7
 10
371.9607414975009
 20
603.1762747937249
 30
0.0
  0
VERTEX
  5
762
  8
0
  6
CONTINUOUS
 62
     7
 10
371.9746472348683
 20
603.1925081587207
 30
0.0
  0
VERTEX
  5
763
  8
0
  6
CONTINUOUS
 62
     7
 10
371.9878585031592
 20
603.2093364511545
 30
0.0
  0
VERTEX
  5
764
  8
0
  6
CONTINUOUS
 62
     7
 10
372.0003401181945
 20
603.2267128240669
 30
0.0
  0
VERTEX
  5
765
  8
0
  6
CONTINUOUS
 62
     7
 10
372.0120568957954
 20
603.2445904304989
 30
0.0
  0
VERTEX
  5
766
  8
0
  6
CONTINUOUS
 62
     7
 10
372.0232632657533
 20
603.2634273099062
 30
0.0
  0
VERTEX
  5
767
  8
0
  6
CONTINUOUS
 62
     7
 10
372.0336432877642
 20
603.2827558324257
 30
0.0
  0
VERTEX
  5
768
  8
0
  6
CONTINUOUS
 62
     7
 10
372.0431683056439
 20
603.3025197059065
 30
0.0
  0
VERTEX
  5
769
  8
0
  6
CONTINUOUS
 62
     7
 10
372.0518096632081
 20
603.3226626381984
 30
0.0
  0
SEQEND
  5
88E
  8
0
  6
CONTINUOUS
 62
     7
  0
ARC
  5
1EB
  8
0
  6
CONTINUOUS
 62
     7
 10
375.9285979464944
 20
601.7596384655949
 30
0.0
 40
4.180015784368424
 50
201.9580608082895
 51
303.943876604246
  0
ARC
  5
1EC
  8
0
  6
CONTINUOUS
 62
     7
 10
375.9285979464944
 20
566.759638465595
 30
0.0
 40
4.180015784368424
 50
56.05612339575404
 51
158.0419391917106
  0
ARC
  5
1ED
  8
0
  6
CONTINUOUS
 62
     7
 10
419.9285979464944
 20
601.7596384655949
 30
0.0
 40
4.180015784368457
 50
21.95806080829001
 51
123.943876604246
  0
POLYLINE
  5
1EE
  8
0
  6
CONTINUOUS
 62
     7
 66
     1
 10
0.0
 20
0.0
 30
0.0
  0
VERTEX
  5
76A
  8
0
  6
CONTINUOUS
 62
     7
 10
423.8053862297808
 20
603.3226626381984
 30
0.0
  0
VERTEX
  5
76B
  8
0
  6
CONTINUOUS
 62
     7
 10
423.8135535918375
 20
603.3035634444232
 30
0.0
  0
VERTEX
  5
76C
  8
0
  6
CONTINUOUS
 62
     7
 10
423.8225149541938
 20
603.2848037625272
 30
0.0
  0
VERTEX
  5
76D
  8
0
  6
CONTINUOUS
 62
     7
 10
423.8322461446261
 20
603.2664316206582
 30
0.0
  0
VERTEX
  5
76E
  8
0
  6
CONTINUOUS
 62
     7
 10
423.8427229909107
 20
603.2484950469637
 30
0.0
  0
VERTEX
  5
76F
  8
0
  6
CONTINUOUS
 62
     7
 10
423.8542753098074
 20
603.2305102769177
 30
0.0
  0
VERTEX
  5
770
  8
0
  6
CONTINUOUS
 62
     7
 10
423.8665970634703
 20
603.213019712865
 30
0.0
  0
VERTEX
  5
771
  8
0
  6
CONTINUOUS
 62
     7
 10
423.8796534976285
 20
603.1960705253451
 30
0.0
  0
VERTEX
  5
772
  8
0
  6
CONTINUOUS
 62
     7
 10
423.8934098580109
 20
603.1797098848982
 30
0.0
  0
VERTEX
  5
773
  8
0
  6
CONTINUOUS
 62
     7
 10
423.907438728528
 20
603.1643907448108
 30
0.0
  0
VERTEX
  5
774
  8
0
  6
CONTINUOUS
 62
     7
 10
423.9221044861138
 20
603.1496548178221
 30
0.0
  0
VERTEX
  5
775
  8
0
  6
CONTINUOUS
 62
     7
 10
423.9373684187434
 20
603.1355394239531
 30
0.0
  0
VERTEX
  5
776
  8
0
  6
CONTINUOUS
 62
     7
 10
423.9531918143919
 20
603.1220818832251
 30
0.0
  0
VERTEX
  5
777
  8
0
  6
CONTINUOUS
 62
     7
 10
423.9700460548432
 20
603.1089348507797
 30
0.0
  0
VERTEX
  5
778
  8
0
  6
CONTINUOUS
 62
     7
 10
423.987462783791
 20
603.0965088741445
 30
0.0
  0
VERTEX
  5
779
  8
0
  6
CONTINUOUS
 62
     7
 10
424.0053935878665
 20
603.0848369588098
 30
0.0
  0
VERTEX
  5
77A
  8
0
  6
CONTINUOUS
 62
     7
 10
424.0237900537012
 20
603.0739521102655
 30
0.0
  0
VERTEX
  5
77B
  8
0
  6
CONTINUOUS
 62
     7
 10
424.0420985435972
 20
603.0641404581797
 30
0.0
  0
VERTEX
  5
77C
  8
0
  6
CONTINUOUS
 62
     7
 10
424.0608149538351
 20
603.0550899342556
 30
0.0
  0
VERTEX
  5
77D
  8
0
  6
CONTINUOUS
 62
     7
 10
424.0798904024048
 20
603.0468229358024
 30
0.0
  0
VERTEX
  5
77E
  8
0
  6
CONTINUOUS
 62
     7
 10
424.0992760072959
 20
603.0393618601299
 30
0.0
  0
VERTEX
  5
77F
  8
0
  6
CONTINUOUS
 62
     7
 10
424.119531510438
 20
603.032534982128
 30
0.0
  0
VERTEX
  5
780
  8
0
  6
CONTINUOUS
 62
     7
 10
424.1400791023734
 20
603.0265746548121
 30
0.0
  0
VERTEX
  5
781
  8
0
  6
CONTINUOUS
 62
     7
 10
424.1608621781809
 20
603.0214959926424
 30
0.0
  0
VERTEX
  5
782
  8
0
  6
CONTINUOUS
 62
     7
 10
424.1818241329391
 20
603.0173141100795
 30
0.0
  0
VERTEX
  5
783
  8
0
  6
CONTINUOUS
 62
     7
 10
424.203484917298
 20
603.0139643079192
 30
0.0
  0
VERTEX
  5
784
  8
0
  6
CONTINUOUS
 62
     7
 10
424.2252926854178
 20
603.0115647476509
 30
0.0
  0
VERTEX
  5
785
  8
0
  6
CONTINUOUS
 62
     7
 10
424.2471845133594
 20
603.0101209574757
 30
0.0
  0
VERTEX
  5
786
  8
0
  6
CONTINUOUS
 62
     7
 10
424.2690974771838
 20
603.009638465595
 30
0.0
  0
SEQEND
  5
88F
  8
0
  6
CONTINUOUS
 62
     7
  0
POLYLINE
  5
1EF
  8
0
  6
CONTINUOUS
 62
     7
 66
     1
 10
0.0
 20
0.0
 30
0.0
  0
VERTEX
  5
787
  8
0
  6
CONTINUOUS
 62
     7
 10
424.2690974771838
 20
565.5096384655949
 30
0.0
  0
VERTEX
  5
788
  8
0
  6
CONTINUOUS
 62
     7
 10
424.2483297769049
 20
565.5092053016854
 30
0.0
  0
VERTEX
  5
789
  8
0
  6
CONTINUOUS
 62
     7
 10
424.2275800607721
 20
565.5079087830616
 30
0.0
  0
VERTEX
  5
78A
  8
0
  6
CONTINUOUS
 62
     7
 10
424.2069019115328
 20
565.5057533693808
 30
0.0
  0
VERTEX
  5
78B
  8
0
  6
CONTINUOUS
 62
     7
 10
424.1863489119343
 20
565.5027435203002
 30
0.0
  0
VERTEX
  5
78C
  8
0
  6
CONTINUOUS
 62
     7
 10
424.1653490631283
 20
565.4987542377032
 30
0.0
  0
VERTEX
  5
78D
  8
0
  6
CONTINUOUS
 62
     7
 10
424.1445198564687
 20
565.4938665394557
 30
0.0
  0
VERTEX
  5
78E
  8
0
  6
CONTINUOUS
 62
     7
 10
424.1239180362295
 20
565.4880950203006
 30
0.0
  0
VERTEX
  5
78F
  8
0
  6
CONTINUOUS
 62
     7
 10
424.1036003466849
 20
565.4814542749814
 30
0.0
  0
VERTEX
  5
790
  8
0
  6
CONTINUOUS
 62
     7
 10
424.0841467056631
 20
565.4741713420548
 30
0.0
  0
VERTEX
  5
791
  8
0
  6
CONTINUOUS
 62
     7
 10
424.0649958203937
 20
565.4660796436425
 30
0.0
  0
VERTEX
  5
792
  8
0
  6
CONTINUOUS
 62
     7
 10
424.0461967791247
 20
565.4572011285203
 30
0.0
  0
VERTEX
  5
793
  8
0
  6
CONTINUOUS
 62
     7
 10
424.0277986701041
 20
565.4475577454639
 30
0.0
  0
VERTEX
  5
794
  8
0
  6
CONTINUOUS
 62
     7
 10
424.0093030828697
 20
565.4368421896605
 30
0.0
  0
VERTEX
  5
795
  8
0
  6
CONTINUOUS
 62
     7
 10
423.9912659143824
 20
565.4253353266841
 30
0.0
  0
VERTEX
  5
796
  8
0
  6
CONTINUOUS
 62
     7
 10
423.9737358789474
 20
565.4130697162208
 30
0.0
  0
VERTEX
  5
797
  8
0
  6
CONTINUOUS
 62
     7
 10
423.9567616908694
 20
565.4000779179562
 30
0.0
  0
VERTEX
  5
798
  8
0
  6
CONTINUOUS
 62
     7
 10
423.9408157438785
 20
565.3867664156553
 30
0.0
  0
VERTEX
  5
799
  8
0
  6
CONTINUOUS
 62
     7
 10
423.9254231783826
 20
565.3727919774562
 30
0.0
  0
VERTEX
  5
79A
  8
0
  6
CONTINUOUS
 62
     7
 10
423.9106230452848
 20
565.3581915643844
 30
0.0
  0
VERTEX
  5
79B
  8
0
  6
CONTINUOUS
 62
     7
 10
423.8964543954879
 20
565.3430021374649
 30
0.0
  0
VERTEX
  5
79C
  8
0
  6
CONTINUOUS
 62
     7
 10
423.8825486581206
 20
565.3267687724691
 30
0.0
  0
VERTEX
  5
79D
  8
0
  6
CONTINUOUS
 62
     7
 10
423.8693373898297
 20
565.3099404800354
 30
0.0
  0
VERTEX
  5
79E
  8
0
  6
CONTINUOUS
 62
     7
 10
423.8568557747943
 20
565.2925641071229
 30
0.0
  0
VERTEX
  5
79F
  8
0
  6
CONTINUOUS
 62
     7
 10
423.8451389971934
 20
565.2746865006909
 30
0.0
  0
VERTEX
  5
7A0
  8
0
  6
CONTINUOUS
 62
     7
 10
423.8339326272356
 20
565.2558496212836
 30
0.0
  0
VERTEX
  5
7A1
  8
0
  6
CONTINUOUS
 62
     7
 10
423.8235526052247
 20
565.2365210987642
 30
0.0
  0
VERTEX
  5
7A2
  8
0
  6
CONTINUOUS
 62
     7
 10
423.8140275873449
 20
565.2167572252833
 30
0.0
  0
VERTEX
  5
7A3
  8
0
  6
CONTINUOUS
 62
     7
 10
423.8053862297808
 20
565.1966142929914
 30
0.0
  0
SEQEND
  5
890
  8
0
  6
CONTINUOUS
 62
     7
  0
ARC
  5
1F0
  8
0
  6
CONTINUOUS
 62
     7
 10
419.9285979464944
 20
566.759638465595
 30
0.0
 40
4.180015784368457
 50
236.056123395754
 51
338.0419391917101
  0
ARC
  5
1F1
  8
0
  6
CONTINUOUS
 62
     7
 10
419.9285979464944
 20
601.7596384655949
 30
0.0
 40
4.180015784368424
 50
236.056123395754
 51
338.0419391917105
  0
ARC
  5
1F2
  8
0
  6
CONTINUOUS
 62
     7
 10
419.9285979464944
 20
566.759638465595
 30
0.0
 40
4.180015784368424
 50
21.95806080828942
 51
123.943876604246
  0
POLYLINE
  5
1F3
  8
0
  6
CONTINUOUS
 62
     7
 66
     1
 10
0.0
 20
0.0
 30
0.0
  0
VERTEX
  5
7A4
  8
0
  6
CONTINUOUS
 62
     7
 10
423.8053862297808
 20
568.3226626381984
 30
0.0
  0
VERTEX
  5
7A5
  8
0
  6
CONTINUOUS
 62
     7
 10
423.8135535918375
 20
568.3035634444232
 30
0.0
  0
VERTEX
  5
7A6
  8
0
  6
CONTINUOUS
 62
     7
 10
423.8225149541939
 20
568.2848037625271
 30
0.0
  0
VERTEX
  5
7A7
  8
0
  6
CONTINUOUS
 62
     7
 10
423.8322461446261
 20
568.2664316206582
 30
0.0
  0
VERTEX
  5
7A8
  8
0
  6
CONTINUOUS
 62
     7
 10
423.8427229909107
 20
568.2484950469637
 30
0.0
  0
VERTEX
  5
7A9
  8
0
  6
CONTINUOUS
 62
     7
 10
423.8542753098074
 20
568.2305102769177
 30
0.0
  0
VERTEX
  5
7AA
  8
0
  6
CONTINUOUS
 62
     7
 10
423.8665970634703
 20
568.2130197128649
 30
0.0
  0
VERTEX
  5
7AB
  8
0
  6
CONTINUOUS
 62
     7
 10
423.8796534976285
 20
568.1960705253451
 30
0.0
  0
VERTEX
  5
7AC
  8
0
  6
CONTINUOUS
 62
     7
 10
423.8934098580109
 20
568.1797098848981
 30
0.0
  0
VERTEX
  5
7AD
  8
0
  6
CONTINUOUS
 62
     7
 10
423.907438728528
 20
568.1643907448108
 30
0.0
  0
VERTEX
  5
7AE
  8
0
  6
CONTINUOUS
 62
     7
 10
423.9221044861139
 20
568.1496548178221
 30
0.0
  0
VERTEX
  5
7AF
  8
0
  6
CONTINUOUS
 62
     7
 10
423.9373684187435
 20
568.1355394239531
 30
0.0
  0
VERTEX
  5
7B0
  8
0
  6
CONTINUOUS
 62
     7
 10
423.9531918143919
 20
568.122081883225
 30
0.0
  0
VERTEX
  5
7B1
  8
0
  6
CONTINUOUS
 62
     7
 10
423.9700460548432
 20
568.1089348507797
 30
0.0
  0
VERTEX
  5
7B2
  8
0
  6
CONTINUOUS
 62
     7
 10
423.987462783791
 20
568.0965088741445
 30
0.0
  0
VERTEX
  5
7B3
  8
0
  6
CONTINUOUS
 62
     7
 10
424.0053935878665
 20
568.0848369588098
 30
0.0
  0
VERTEX
  5
7B4
  8
0
  6
CONTINUOUS
 62
     7
 10
424.0237900537012
 20
568.0739521102654
 30
0.0
  0
VERTEX
  5
7B5
  8
0
  6
CONTINUOUS
 62
     7
 10
424.0420985435972
 20
568.0641404581796
 30
0.0
  0
VERTEX
  5
7B6
  8
0
  6
CONTINUOUS
 62
     7
 10
424.0608149538351
 20
568.0550899342555
 30
0.0
  0
VERTEX
  5
7B7
  8
0
  6
CONTINUOUS
 62
     7
 10
424.0798904024048
 20
568.0468229358024
 30
0.0
  0
VERTEX
  5
7B8
  8
0
  6
CONTINUOUS
 62
     7
 10
424.0992760072959
 20
568.0393618601299
 30
0.0
  0
VERTEX
  5
7B9
  8
0
  6
CONTINUOUS
 62
     7
 10
424.119531510438
 20
568.032534982128
 30
0.0
  0
VERTEX
  5
7BA
  8
0
  6
CONTINUOUS
 62
     7
 10
424.1400791023734
 20
568.026574654812
 30
0.0
  0
VERTEX
  5
7BB
  8
0
  6
CONTINUOUS
 62
     7
 10
424.1608621781809
 20
568.0214959926424
 30
0.0
  0
VERTEX
  5
7BC
  8
0
  6
CONTINUOUS
 62
     7
 10
424.1818241329391
 20
568.0173141100795
 30
0.0
  0
VERTEX
  5
7BD
  8
0
  6
CONTINUOUS
 62
     7
 10
424.203484917298
 20
568.0139643079192
 30
0.0
  0
VERTEX
  5
7BE
  8
0
  6
CONTINUOUS
 62
     7
 10
424.2252926854178
 20
568.0115647476509
 30
0.0
  0
VERTEX
  5
7BF
  8
0
  6
CONTINUOUS
 62
     7
 10
424.2471845133595
 20
568.0101209574757
 30
0.0
  0
VERTEX
  5
7C0
  8
0
  6
CONTINUOUS
 62
     7
 10
424.2690974771838
 20
568.0096384655949
 30
0.0
  0
SEQEND
  5
891
  8
0
  6
CONTINUOUS
 62
     7
  0
POLYLINE
  5
1F4
  8
0
  6
CONTINUOUS
 62
     7
 66
     1
 10
0.0
 20
0.0
 30
0.0
  0
VERTEX
  5
7C1
  8
0
  6
CONTINUOUS
 62
     7
 10
424.2690974771838
 20
600.5096384655949
 30
0.0
  0
VERTEX
  5
7C2
  8
0
  6
CONTINUOUS
 62
     7
 10
424.2483297769049
 20
600.5092053016854
 30
0.0
  0
VERTEX
  5
7C3
  8
0
  6
CONTINUOUS
 62
     7
 10
424.2275800607721
 20
600.5079087830616
 30
0.0
  0
VERTEX
  5
7C4
  8
0
  6
CONTINUOUS
 62
     7
 10
424.2069019115328
 20
600.5057533693808
 30
0.0
  0
VERTEX
  5
7C5
  8
0
  6
CONTINUOUS
 62
     7
 10
424.1863489119344
 20
600.5027435203003
 30
0.0
  0
VERTEX
  5
7C6
  8
0
  6
CONTINUOUS
 62
     7
 10
424.1653490631283
 20
600.4987542377032
 30
0.0
  0
VERTEX
  5
7C7
  8
0
  6
CONTINUOUS
 62
     7
 10
424.1445198564687
 20
600.4938665394557
 30
0.0
  0
VERTEX
  5
7C8
  8
0
  6
CONTINUOUS
 62
     7
 10
424.1239180362295
 20
600.4880950203008
 30
0.0
  0
VERTEX
  5
7C9
  8
0
  6
CONTINUOUS
 62
     7
 10
424.1036003466849
 20
600.4814542749814
 30
0.0
  0
VERTEX
  5
7CA
  8
0
  6
CONTINUOUS
 62
     7
 10
424.0841467056631
 20
600.4741713420549
 30
0.0
  0
VERTEX
  5
7CB
  8
0
  6
CONTINUOUS
 62
     7
 10
424.0649958203937
 20
600.4660796436425
 30
0.0
  0
VERTEX
  5
7CC
  8
0
  6
CONTINUOUS
 62
     7
 10
424.0461967791247
 20
600.4572011285203
 30
0.0
  0
VERTEX
  5
7CD
  8
0
  6
CONTINUOUS
 62
     7
 10
424.0277986701041
 20
600.4475577454639
 30
0.0
  0
VERTEX
  5
7CE
  8
0
  6
CONTINUOUS
 62
     7
 10
424.0093030828697
 20
600.4368421896605
 30
0.0
  0
VERTEX
  5
7CF
  8
0
  6
CONTINUOUS
 62
     7
 10
423.9912659143824
 20
600.4253353266841
 30
0.0
  0
VERTEX
  5
7D0
  8
0
  6
CONTINUOUS
 62
     7
 10
423.9737358789474
 20
600.4130697162209
 30
0.0
  0
VERTEX
  5
7D1
  8
0
  6
CONTINUOUS
 62
     7
 10
423.9567616908694
 20
600.4000779179562
 30
0.0
  0
VERTEX
  5
7D2
  8
0
  6
CONTINUOUS
 62
     7
 10
423.9408157438785
 20
600.3867664156553
 30
0.0
  0
VERTEX
  5
7D3
  8
0
  6
CONTINUOUS
 62
     7
 10
423.9254231783826
 20
600.3727919774562
 30
0.0
  0
VERTEX
  5
7D4
  8
0
  6
CONTINUOUS
 62
     7
 10
423.9106230452848
 20
600.3581915643844
 30
0.0
  0
VERTEX
  5
7D5
  8
0
  6
CONTINUOUS
 62
     7
 10
423.8964543954879
 20
600.343002137465
 30
0.0
  0
VERTEX
  5
7D6
  8
0
  6
CONTINUOUS
 62
     7
 10
423.8825486581206
 20
600.3267687724691
 30
0.0
  0
VERTEX
  5
7D7
  8
0
  6
CONTINUOUS
 62
     7
 10
423.8693373898297
 20
600.3099404800354
 30
0.0
  0
VERTEX
  5
7D8
  8
0
  6
CONTINUOUS
 62
     7
 10
423.8568557747943
 20
600.292564107123
 30
0.0
  0
VERTEX
  5
7D9
  8
0
  6
CONTINUOUS
 62
     7
 10
423.8451389971934
 20
600.2746865006909
 30
0.0
  0
VERTEX
  5
7DA
  8
0
  6
CONTINUOUS
 62
     7
 10
423.8339326272356
 20
600.2558496212837
 30
0.0
  0
VERTEX
  5
7DB
  8
0
  6
CONTINUOUS
 62
     7
 10
423.8235526052247
 20
600.2365210987642
 30
0.0
  0
VERTEX
  5
7DC
  8
0
  6
CONTINUOUS
 62
     7
 10
423.814027587345
 20
600.2167572252833
 30
0.0
  0
VERTEX
  5
7DD
  8
0
  6
CONTINUOUS
 62
     7
 10
423.8053862297808
 20
600.1966142929914
 30
0.0
  0
SEQEND
  5
892
  8
0
  6
CONTINUOUS
 62
     7
  0
LINE
  5
1F5
  8
0
  6
CONTINUOUS
 62
     7
 10
378.2626375071973
 20
605.2273165484976
 30
0.0
 11
378.2626375071973
 21
610.0770199621506
 31
0.0
  0
LINE
  5
1F6
  8
0
  6
CONTINUOUS
 62
     7
 10
417.5945583857916
 20
605.2273165484976
 30
0.0
 11
417.5945583857916
 21
610.0770199621506
 31
0.0
  0
LINE
  5
1F7
  8
0
  6
CONTINUOUS
 62
     7
 10
417.5945583857916
 20
558.4422569690391
 30
0.0
 11
417.5945583857916
 21
563.2919603826922
 31
0.0
  0
LINE
  5
1F8
  8
0
  6
CONTINUOUS
 62
     7
 10
378.2626375071973
 20
558.4422569690391
 30
0.0
 11
378.2626375071973
 21
563.2919603826922
 31
0.0
  0
LINE
  5
1F9
  8
0
  6
CONTINUOUS
 62
     7
 10
417.5945583857916
 20
570.2273165484976
 30
0.0
 11
417.5945583857916
 21
598.2919603826923
 31
0.0
  0
LINE
  5
1FA
  8
0
  6
CONTINUOUS
 62
     7
 10
378.2626375071973
 20
570.2273165484976
 30
0.0
 11
378.2626375071973
 21
598.2919603826923
 31
0.0
  0
LINE
  5
1FB
  8
0
  6
CONTINUOUS
 62
     7
 10
362.7290244650173
 20
518.7582830174476
 30
0.0
 11
362.7290244650173
 21
649.7609939137421
 31
0.0
  0
POLYLINE
  5
1FC
  8
0
  6
CONTINUOUS
 62
     7
 66
     1
 10
0.0
 20
0.0
 30
0.0
  0
VERTEX
  5
7DE
  8
0
  6
CONTINUOUS
 62
     7
 10
362.7290244650173
 20
518.7582830174476
 30
0.0
  0
VERTEX
  5
7DF
  8
0
  6
CONTINUOUS
 62
     7
 10
362.9678415642139
 20
516.4063061710663
 30
0.0
  0
VERTEX
  5
7E0
  8
0
  6
CONTINUOUS
 62
     7
 10
363.6745450121669
 20
514.1504759576388
 30
0.0
  0
VERTEX
  5
7E1
  8
0
  6
CONTINUOUS
 62
     7
 10
364.8202891400718
 20
512.0828690911032
 30
0.0
  0
SEQEND
  5
893
  8
0
  6
CONTINUOUS
 62
     7
  0
LINE
  5
1FD
  8
0
  6
CONTINUOUS
 62
     7
 10
364.909708292538
 20
511.7974211001994
 30
0.0
 11
364.8202891400718
 21
512.0828690911032
 31
0.0
  0
LINE
  5
1FE
  8
0
  6
CONTINUOUS
 62
     7
 10
364.909708292538
 20
479.2596384655949
 30
0.0
 11
364.909708292538
 21
511.7974211001994
 31
0.0
  0
LINE
  5
1FF
  8
0
  6
CONTINUOUS
 62
     7
 10
364.909708292538
 20
479.2596384655949
 30
0.0
 11
363.6089736971803
 21
479.2596384655949
 31
0.0
  0
POLYLINE
  5
200
  8
0
  6
CONTINUOUS
 62
     7
 66
     1
 10
0.0
 20
0.0
 30
0.0
  0
VERTEX
  5
7E2
  8
0
  6
CONTINUOUS
 62
     7
 10
362.109601673058
 20
480.7610109770724
 30
0.0
  0
VERTEX
  5
7E3
  8
0
  6
CONTINUOUS
 62
     7
 10
362.1384081454604
 20
480.4680712050099
 30
0.0
  0
VERTEX
  5
7E4
  8
0
  6
CONTINUOUS
 62
     7
 10
362.2237211876604
 20
480.1864087674131
 30
0.0
  0
VERTEX
  5
7E5
  8
0
  6
CONTINUOUS
 62
     7
 10
362.3622641673658
 20
479.9268415206691
 30
0.0
  0
VERTEX
  5
7E6
  8
0
  6
CONTINUOUS
 62
     7
 10
362.5487160411648
 20
479.6993387074721
 30
0.0
  0
VERTEX
  5
7E7
  8
0
  6
CONTINUOUS
 62
     7
 10
362.7759157207308
 20
479.5126380664493
 30
0.0
  0
VERTEX
  5
7E8
  8
0
  6
CONTINUOUS
 62
     7
 10
363.0351371099404
 20
479.3739102403718
 30
0.0
  0
VERTEX
  5
7E9
  8
0
  6
CONTINUOUS
 62
     7
 10
363.316424249508
 20
479.2884833720771
 30
0.0
  0
VERTEX
  5
7EA
  8
0
  6
CONTINUOUS
 62
     7
 10
363.6089736971803
 20
479.2596384655949
 30
0.0
  0
SEQEND
  5
894
  8
0
  6
CONTINUOUS
 62
     7
  0
LINE
  5
201
  8
0
  6
CONTINUOUS
 62
     7
 10
359.9285979464944
 20
518.7574300453625
 30
0.0
 11
359.9285979464944
 21
649.7618468858273
 31
0.0
  0
POLYLINE
  5
202
  8
0
  6
CONTINUOUS
 62
     7
 66
     1
 10
0.0
 20
0.0
 30
0.0
  0
VERTEX
  5
7EB
  8
0
  6
CONTINUOUS
 62
     7
 10
363.6089736971803
 20
689.2596384655949
 30
0.0
  0
VERTEX
  5
7EC
  8
0
  6
CONTINUOUS
 62
     7
 10
363.316424249508
 20
689.2307935591128
 30
0.0
  0
VERTEX
  5
7ED
  8
0
  6
CONTINUOUS
 62
     7
 10
363.0351371099404
 20
689.145366690818
 30
0.0
  0
VERTEX
  5
7EE
  8
0
  6
CONTINUOUS
 62
     7
 10
362.7759157207308
 20
689.0066388647407
 30
0.0
  0
VERTEX
  5
7EF
  8
0
  6
CONTINUOUS
 62
     7
 10
362.5487160411648
 20
688.8199382237178
 30
0.0
  0
VERTEX
  5
7F0
  8
0
  6
CONTINUOUS
 62
     7
 10
362.3622641673658
 20
688.5924354105208
 30
0.0
  0
VERTEX
  5
7F1
  8
0
  6
CONTINUOUS
 62
     7
 10
362.2237211876604
 20
688.3328681637769
 30
0.0
  0
VERTEX
  5
7F2
  8
0
  6
CONTINUOUS
 62
     7
 10
362.1384081454604
 20
688.0512057261799
 30
0.0
  0
VERTEX
  5
7F3
  8
0
  6
CONTINUOUS
 62
     7
 10
362.109601673058
 20
687.7582659541175
 30
0.0
  0
SEQEND
  5
895
  8
0
  6
CONTINUOUS
 62
     7
  0
LINE
  5
203
  8
0
  6
CONTINUOUS
 62
     7
 10
364.909708292538
 20
689.2596384655949
 30
0.0
 11
363.6089736971803
 21
689.2596384655949
 31
0.0
  0
LINE
  5
204
  8
0
  6
CONTINUOUS
 62
     7
 10
364.909708292538
 20
689.2596384655949
 30
0.0
 11
364.909708292538
 21
656.7218558309904
 31
0.0
  0
LINE
  5
205
  8
0
  6
CONTINUOUS
 62
     7
 10
364.8202891400718
 20
656.4364078400866
 30
0.0
 11
364.909708292538
 21
656.7218558309904
 31
0.0
  0
POLYLINE
  5
206
  8
0
  6
CONTINUOUS
 62
     7
 66
     1
 10
0.0
 20
0.0
 30
0.0
  0
VERTEX
  5
7F4
  8
0
  6
CONTINUOUS
 62
     7
 10
364.8202891400718
 20
656.4364078400864
 30
0.0
  0
VERTEX
  5
7F5
  8
0
  6
CONTINUOUS
 62
     7
 10
363.6745450121669
 20
654.368800973551
 30
0.0
  0
VERTEX
  5
7F6
  8
0
  6
CONTINUOUS
 62
     7
 10
362.9678415642139
 20
652.1129707601234
 30
0.0
  0
VERTEX
  5
7F7
  8
0
  6
CONTINUOUS
 62
     7
 10
362.7290244650173
 20
649.7609939137421
 30
0.0
  0
SEQEND
  5
896
  8
0
  6
CONTINUOUS
 62
     7
  0
LINE
  5
207
  8
0
  6
CONTINUOUS
 62
     7
 10
362.109601673058
 20
480.7610109770724
 30
0.0
 11
362.109601673058
 21
509.3203465397973
 31
0.0
  0
LINE
  5
208
  8
0
  6
CONTINUOUS
 62
     7
 10
362.109601673058
 20
687.7582659541175
 30
0.0
 11
362.109601673058
 21
659.1989303913925
 31
0.0
  0
POLYLINE
  5
209
  8
0
  6
CONTINUOUS
 62
     7
 66
     1
 10
0.0
 20
0.0
 30
0.0
  0
VERTEX
  5
7F8
  8
0
  6
CONTINUOUS
 62
     7
 10
359.9285979464944
 20
518.7574300453626
 30
0.0
  0
VERTEX
  5
7F9
  8
0
  6
CONTINUOUS
 62
     7
 10
360.3010012330469
 20
515.4921713348696
 30
0.0
  0
VERTEX
  5
7FA
  8
0
  6
CONTINUOUS
 62
     7
 10
361.3990851498687
 20
512.3948371201342
 30
0.0
  0
SEQEND
  5
897
  8
0
  6
CONTINUOUS
 62
     7
  0
POLYLINE
  5
20A
  8
0
  6
CONTINUOUS
 62
     7
 66
     1
 10
0.0
 20
0.0
 30
0.0
  0
VERTEX
  5
7FB
  8
0
  6
CONTINUOUS
 62
     7
 10
361.3990851498687
 20
656.1244398110556
 30
0.0
  0
VERTEX
  5
7FC
  8
0
  6
CONTINUOUS
 62
     7
 10
360.3010012330469
 20
653.0271055963202
 30
0.0
  0
VERTEX
  5
7FD
  8
0
  6
CONTINUOUS
 62
     7
 10
359.9285979464944
 20
649.7618468858273
 30
0.0
  0
SEQEND
  5
898
  8
0
  6
CONTINUOUS
 62
     7
  0
ARC
  5
20B
  8
0
  6
CONTINUOUS
 62
     7
 10
355.1921438499261
 20
509.3410637939713
 30
0.0
 40
6.917488846353753
 50
359.8284040598952
 51
26.19687545217812
  0
ARC
  5
20C
  8
0
  6
CONTINUOUS
 62
     7
 10
355.1921438499261
 20
659.1782131372186
 30
0.0
 40
6.917488846353753
 50
333.8031245478218
 51
0.1715959401048508
  0
LINE
  5
20D
  8
0
  6
CONTINUOUS
 62
     7
 10
430.9474876004509
 20
689.2596384655949
 30
0.0
 11
432.2482221958085
 21
689.2596384655949
 31
0.0
  0
POLYLINE
  5
20E
  8
0
  6
CONTINUOUS
 62
     7
 66
     1
 10
0.0
 20
0.0
 30
0.0
  0
VERTEX
  5
7FE
  8
0
  6
CONTINUOUS
 62
     7
 10
433.7475942199309
 20
687.7582659541175
 30
0.0
  0
VERTEX
  5
7FF
  8
0
  6
CONTINUOUS
 62
     7
 10
433.7187877475284
 20
688.0512057261799
 30
0.0
  0
VERTEX
  5
800
  8
0
  6
CONTINUOUS
 62
     7
 10
433.6334747053285
 20
688.3328681637769
 30
0.0
  0
VERTEX
  5
801
  8
0
  6
CONTINUOUS
 62
     7
 10
433.494931725623
 20
688.5924354105208
 30
0.0
  0
VERTEX
  5
802
  8
0
  6
CONTINUOUS
 62
     7
 10
433.308479851824
 20
688.8199382237178
 30
0.0
  0
VERTEX
  5
803
  8
0
  6
CONTINUOUS
 62
     7
 10
433.0812801722581
 20
689.0066388647407
 30
0.0
  0
VERTEX
  5
804
  8
0
  6
CONTINUOUS
 62
     7
 10
432.8220587830484
 20
689.145366690818
 30
0.0
  0
VERTEX
  5
805
  8
0
  6
CONTINUOUS
 62
     7
 10
432.5407716434809
 20
689.2307935591128
 30
0.0
  0
VERTEX
  5
806
  8
0
  6
CONTINUOUS
 62
     7
 10
432.2482221958085
 20
689.2596384655949
 30
0.0
  0
SEQEND
  5
899
  8
0
  6
CONTINUOUS
 62
     7
  0
LINE
  5
20F
  8
0
  6
CONTINUOUS
 62
     7
 10
433.7475942199309
 20
687.7582659541175
 30
0.0
 11
433.7475942199309
 21
659.1989303913929
 31
0.0
  0
LINE
  5
210
  8
0
  6
CONTINUOUS
 62
     7
 10
435.9285979464944
 20
649.7618468858273
 30
0.0
 11
435.9285979464944
 21
518.7574300453625
 31
0.0
  0
LINE
  5
211
  8
0
  6
CONTINUOUS
 62
     7
 10
433.7475942199309
 20
480.7610109770724
 30
0.0
 11
433.7475942199309
 21
509.320346539797
 31
0.0
  0
POLYLINE
  5
212
  8
0
  6
CONTINUOUS
 62
     7
 66
     1
 10
0.0
 20
0.0
 30
0.0
  0
VERTEX
  5
807
  8
0
  6
CONTINUOUS
 62
     7
 10
432.2482221958085
 20
479.2596384655949
 30
0.0
  0
VERTEX
  5
808
  8
0
  6
CONTINUOUS
 62
     7
 10
432.5407716434809
 20
479.288483372077
 30
0.0
  0
VERTEX
  5
809
  8
0
  6
CONTINUOUS
 62
     7
 10
432.8220587830484
 20
479.3739102403717
 30
0.0
  0
VERTEX
  5
80A
  8
0
  6
CONTINUOUS
 62
     7
 10
433.0812801722581
 20
479.5126380664493
 30
0.0
  0
VERTEX
  5
80B
  8
0
  6
CONTINUOUS
 62
     7
 10
433.308479851824
 20
479.699338707472
 30
0.0
  0
VERTEX
  5
80C
  8
0
  6
CONTINUOUS
 62
     7
 10
433.494931725623
 20
479.9268415206691
 30
0.0
  0
VERTEX
  5
80D
  8
0
  6
CONTINUOUS
 62
     7
 10
433.6334747053284
 20
480.1864087674131
 30
0.0
  0
VERTEX
  5
80E
  8
0
  6
CONTINUOUS
 62
     7
 10
433.7187877475284
 20
480.4680712050099
 30
0.0
  0
VERTEX
  5
80F
  8
0
  6
CONTINUOUS
 62
     7
 10
433.7475942199309
 20
480.7610109770724
 30
0.0
  0
SEQEND
  5
89A
  8
0
  6
CONTINUOUS
 62
     7
  0
LINE
  5
213
  8
0
  6
CONTINUOUS
 62
     7
 10
430.9474876004509
 20
479.2596384655949
 30
0.0
 11
432.2482221958085
 21
479.2596384655949
 31
0.0
  0
LINE
  5
214
  8
0
  6
CONTINUOUS
 62
     7
 10
430.9474876004509
 20
479.2596384655949
 30
0.0
 11
430.9474876004509
 21
511.7974211001994
 31
0.0
  0
LINE
  5
215
  8
0
  6
CONTINUOUS
 62
     7
 10
431.036906752917
 20
512.0828690911032
 30
0.0
 11
430.9474876004509
 21
511.7974211001994
 31
0.0
  0
POLYLINE
  5
216
  8
0
  6
CONTINUOUS
 62
     7
 66
     1
 10
0.0
 20
0.0
 30
0.0
  0
VERTEX
  5
810
  8
0
  6
CONTINUOUS
 62
     7
 10
431.036906752917
 20
512.0828690911032
 30
0.0
  0
VERTEX
  5
811
  8
0
  6
CONTINUOUS
 62
     7
 10
432.1826508808219
 20
514.1504759576388
 30
0.0
  0
VERTEX
  5
812
  8
0
  6
CONTINUOUS
 62
     7
 10
432.8893543287749
 20
516.4063061710663
 30
0.0
  0
VERTEX
  5
813
  8
0
  6
CONTINUOUS
 62
     7
 10
433.1281714279715
 20
518.7582830174476
 30
0.0
  0
SEQEND
  5
89B
  8
0
  6
CONTINUOUS
 62
     7
  0
LINE
  5
217
  8
0
  6
CONTINUOUS
 62
     7
 10
433.1281714279715
 20
649.7609939137421
 30
0.0
 11
433.1281714279715
 21
518.7582830174476
 31
0.0
  0
POLYLINE
  5
218
  8
0
  6
CONTINUOUS
 62
     7
 66
     1
 10
0.0
 20
0.0
 30
0.0
  0
VERTEX
  5
814
  8
0
  6
CONTINUOUS
 62
     7
 10
433.1281714279714
 20
649.7609939137421
 30
0.0
  0
VERTEX
  5
815
  8
0
  6
CONTINUOUS
 62
     7
 10
432.8893543287749
 20
652.1129707601234
 30
0.0
  0
VERTEX
  5
816
  8
0
  6
CONTINUOUS
 62
     7
 10
432.1826508808219
 20
654.368800973551
 30
0.0
  0
VERTEX
  5
817
  8
0
  6
CONTINUOUS
 62
     7
 10
431.036906752917
 20
656.4364078400864
 30
0.0
  0
SEQEND
  5
89C
  8
0
  6
CONTINUOUS
 62
     7
  0
LINE
  5
219
  8
0
  6
CONTINUOUS
 62
     7
 10
430.9474876004509
 20
656.7218558309904
 30
0.0
 11
431.036906752917
 21
656.4364078400866
 31
0.0
  0
LINE
  5
21A
  8
0
  6
CONTINUOUS
 62
     7
 10
430.9474876004509
 20
689.2596384655949
 30
0.0
 11
430.9474876004509
 21
656.7218558309904
 31
0.0
  0
POLYLINE
  5
21B
  8
0
  6
CONTINUOUS
 62
     7
 66
     1
 10
0.0
 20
0.0
 30
0.0
  0
VERTEX
  5
818
  8
0
  6
CONTINUOUS
 62
     7
 10
434.4581107431204
 20
512.3948371201349
 30
0.0
  0
VERTEX
  5
819
  8
0
  6
CONTINUOUS
 62
     7
 10
435.556194659942
 20
515.4921713348699
 30
0.0
  0
VERTEX
  5
81A
  8
0
  6
CONTINUOUS
 62
     7
 10
435.9285979464944
 20
518.7574300453626
 30
0.0
  0
SEQEND
  5
89D
  8
0
  6
CONTINUOUS
 62
     7
  0
POLYLINE
  5
21C
  8
0
  6
CONTINUOUS
 62
     7
 66
     1
 10
0.0
 20
0.0
 30
0.0
  0
VERTEX
  5
81B
  8
0
  6
CONTINUOUS
 62
     7
 10
435.9285979464944
 20
649.7618468858273
 30
0.0
  0
VERTEX
  5
81C
  8
0
  6
CONTINUOUS
 62
     7
 10
435.556194659942
 20
653.0271055963198
 30
0.0
  0
VERTEX
  5
81D
  8
0
  6
CONTINUOUS
 62
     7
 10
434.4581107431204
 20
656.1244398110549
 30
0.0
  0
SEQEND
  5
89E
  8
0
  6
CONTINUOUS
 62
     7
  0
ARC
  5
21D
  8
0
  6
CONTINUOUS
 62
     7
 10
440.6650520430804
 20
509.3410637939672
 30
0.0
 40
6.917488846371398
 50
153.8031245478528
 51
180.171595940074
  0
ARC
  5
21E
  8
0
  6
CONTINUOUS
 62
     7
 10
440.6650520430804
 20
659.1782131372225
 30
0.0
 40
6.917488846371398
 50
179.828404059926
 51
206.1968754521473
  0
LINE
  5
21F
  8
0
  6
CONTINUOUS
 62
     7
 10
365.2872427497679
 20
481.5268599911918
 30
0.0
 11
364.909708292538
 21
479.2596384655949
 31
0.0
  0
LINE
  5
220
  8
0
  6
CONTINUOUS
 62
     7
 10
365.2872427497679
 20
686.9924169399981
 30
0.0
 11
364.909708292538
 21
689.2596384655949
 31
0.0
  0
LINE
  5
221
  8
0
  6
CONTINUOUS
 62
     7
 10
430.569953143221
 20
481.5268599911918
 30
0.0
 11
430.9474876004509
 21
479.2596384655949
 31
0.0
  0
LINE
  5
222
  8
0
  6
CONTINUOUS
 62
     7
 10
430.569953143221
 20
686.9924169399981
 30
0.0
 11
430.9474876004509
 21
689.2596384655949
 31
0.0
  0
POLYLINE
  5
223
  8
0
  6
CONTINUOUS
 62
     7
 66
     1
 10
0.0
 20
0.0
 30
0.0
  0
VERTEX
  5
81E
  8
0
  6
CONTINUOUS
 62
     7
 10
365.2872427497678
 20
686.9924169399981
 30
0.0
  0
VERTEX
  5
81F
  8
0
  6
CONTINUOUS
 62
     7
 10
365.5183842168381
 20
686.8749450965054
 30
0.0
  0
VERTEX
  5
820
  8
0
  6
CONTINUOUS
 62
     7
 10
366.1645033926658
 20
686.7618090685955
 30
0.0
  0
VERTEX
  5
821
  8
0
  6
CONTINUOUS
 62
     7
 10
367.2028168046892
 20
686.6569982620687
 30
0.0
  0
VERTEX
  5
822
  8
0
  6
CONTINUOUS
 62
     7
 10
368.5967114161524
 20
686.5642085185343
 30
0.0
  0
SEQEND
  5
89F
  8
0
  6
CONTINUOUS
 62
     7
  0
POLYLINE
  5
224
  8
0
  6
CONTINUOUS
 62
     7
 66
     1
 10
0.0
 20
0.0
 30
0.0
  0
VERTEX
  5
823
  8
0
  6
CONTINUOUS
 62
     7
 10
368.5967114161524
 20
481.9550684126556
 30
0.0
  0
VERTEX
  5
824
  8
0
  6
CONTINUOUS
 62
     7
 10
367.2028168046892
 20
481.8622786691212
 30
0.0
  0
VERTEX
  5
825
  8
0
  6
CONTINUOUS
 62
     7
 10
366.1645033926658
 20
481.7574678625944
 30
0.0
  0
VERTEX
  5
826
  8
0
  6
CONTINUOUS
 62
     7
 10
365.5183842168381
 20
481.6443318346845
 30
0.0
  0
VERTEX
  5
827
  8
0
  6
CONTINUOUS
 62
     7
 10
365.2872427497678
 20
481.5268599911918
 30
0.0
  0
SEQEND
  5
8A0
  8
0
  6
CONTINUOUS
 62
     7
  0
POLYLINE
  5
225
  8
0
  6
CONTINUOUS
 62
     7
 66
     1
 10
0.0
 20
0.0
 30
0.0
  0
VERTEX
  5
828
  8
0
  6
CONTINUOUS
 62
     7
 10
430.569953143221
 20
481.5268599911918
 30
0.0
  0
VERTEX
  5
829
  8
0
  6
CONTINUOUS
 62
     7
 10
430.3388116761507
 20
481.6443318346845
 30
0.0
  0
VERTEX
  5
82A
  8
0
  6
CONTINUOUS
 62
     7
 10
429.692692500323
 20
481.7574678625944
 30
0.0
  0
VERTEX
  5
82B
  8
0
  6
CONTINUOUS
 62
     7
 10
428.6543790882996
 20
481.8622786691212
 30
0.0
  0
VERTEX
  5
82C
  8
0
  6
CONTINUOUS
 62
     7
 10
427.2604844768364
 20
481.9550684126556
 30
0.0
  0
SEQEND
  5
8A1
  8
0
  6
CONTINUOUS
 62
     7
  0
POLYLINE
  5
226
  8
0
  6
CONTINUOUS
 62
     7
 66
     1
 10
0.0
 20
0.0
 30
0.0
  0
VERTEX
  5
82D
  8
0
  6
CONTINUOUS
 62
     7
 10
427.2604844768363
 20
686.5642085185343
 30
0.0
  0
VERTEX
  5
82E
  8
0
  6
CONTINUOUS
 62
     7
 10
428.6543790882996
 20
686.6569982620687
 30
0.0
  0
VERTEX
  5
82F
  8
0
  6
CONTINUOUS
 62
     7
 10
429.692692500323
 20
686.7618090685955
 30
0.0
  0
VERTEX
  5
830
  8
0
  6
CONTINUOUS
 62
     7
 10
430.3388116761507
 20
686.8749450965054
 30
0.0
  0
VERTEX
  5
831
  8
0
  6
CONTINUOUS
 62
     7
 10
430.569953143221
 20
686.9924169399981
 30
0.0
  0
SEQEND
  5
8A2
  8
0
  6
CONTINUOUS
 62
     7
  0
LINE
  5
227
  8
0
  6
CONTINUOUS
 62
     7
 10
380.9285979464944
 20
685.8855385513505
 30
0.0
 11
380.9285979464944
 21
664.2596384655949
 31
0.0
  0
LINE
  5
228
  8
0
  6
CONTINUOUS
 62
     7
 10
380.9285979464944
 20
685.8855385513505
 30
0.0
 11
368.5967114161525
 21
686.5642085185343
 31
0.0
  0
LINE
  5
229
  8
0
  6
CONTINUOUS
 62
     7
 10
380.9285979464944
 20
482.6337383798394
 30
0.0
 11
380.9285979464944
 21
504.2596384655949
 31
0.0
  0
LINE
  5
22A
  8
0
  6
CONTINUOUS
 62
     7
 10
380.9285979464944
 20
482.6337383798394
 30
0.0
 11
368.5967114161525
 21
481.9550684126556
 31
0.0
  0
LINE
  5
22B
  8
0
  6
CONTINUOUS
 62
     7
 10
414.9285979464944
 20
685.8855385513505
 30
0.0
 11
414.9285979464944
 21
664.2596384655949
 31
0.0
  0
LINE
  5
22C
  8
0
  6
CONTINUOUS
 62
     7
 10
414.9285979464944
 20
685.8855385513505
 30
0.0
 11
427.2604844768364
 21
686.5642085185343
 31
0.0
  0
LINE
  5
22D
  8
0
  6
CONTINUOUS
 62
     7
 10
414.9285979464944
 20
482.6337383798394
 30
0.0
 11
414.9285979464944
 21
504.2596384655949
 31
0.0
  0
LINE
  5
22E
  8
0
  6
CONTINUOUS
 62
     7
 10
414.9285979464944
 20
482.6337383798394
 30
0.0
 11
427.2604844768364
 21
481.9550684126556
 31
0.0
  0
LINE
  5
22F
  8
0
  6
CONTINUOUS
 62
     7
 10
380.9285979464944
 20
685.8855385513505
 30
0.0
 11
414.9285979464945
 21
685.8855385513505
 31
0.0
  0
LINE
  5
230
  8
0
  6
CONTINUOUS
 62
     7
 10
414.9285979464944
 20
482.6337383798394
 30
0.0
 11
380.9285979464943
 21
482.6337383798394
 31
0.0
  0
ENDBLK
  8
0
  0
BLOCK
  8
0
  2
D_FRAME_VIEW_2110
 70
     0
 10
0.0
 20
0.0
 30
0.0
  0
LINE
  5
235
  8
0
  6
CONTINUOUS
 62
     7
 10
303.9488317787182
 20
512.9725831864183
 30
0.0
 11
303.9488317864491
 21
513.2235357780991
 31
0.0
  0
LINE
  5
236
  8
0
  6
CONTINUOUS
 62
     7
 10
260.7630279946944
 20
513.6979698869756
 30
0.0
 11
303.9488317785315
 21
512.3948371201361
 31
0.0
  0
ARC
  5
237
  8
0
  6
CONTINUOUS
 62
     7
 10
272.9507760524642
 20
482.7426894503849
 30
0.0
 40
34.63541824190904
 50
120.8892166687046
 51
132.4171839639218
  0
ARC
  5
238
  8
0
  6
CONTINUOUS
 62
     7
 10
260.4159584748325
 20
501.9647503716656
 30
0.0
 40
11.7383515642559
 50
88.3056805630034
 51
116.5473407002888
  0
ARC
  5
239
  8
0
  6
CONTINUOUS
 62
     7
 10
240.256793204847
 20
521.6595967066872
 30
0.0
 40
16.28576046098419
 50
269.1129800137029
 51
304.9589485430668
  0
LINE
  5
23A
  8
0
  6
CONTINUOUS
 62
     7
 10
240.0046765899257
 20
505.3757878461953
 30
0.0
 11
237.4978163455994
 21
505.419545254526
 31
0.0
  0
LINE
  5
23B
  8
0
  6
CONTINUOUS
 62
     7
 10
303.9488317787182
 20
518.7574300453625
 30
0.0
 11
303.9488317787182
 21
512.3948371201342
 31
0.0
  0
ARC
  5
23C
  8
0
  6
CONTINUOUS
 62
     7
 10
240.256793204847
 20
646.8596802245025
 30
0.0
 40
16.28576046098419
 50
55.04105145693325
 51
90.88701998629712
  0
ARC
  5
23D
  8
0
  6
CONTINUOUS
 62
     7
 10
272.9507760524642
 20
685.7765874808049
 30
0.0
 40
34.63541824190904
 50
227.5828160360781
 51
239.1107833312954
  0
ARC
  5
23E
  8
0
  6
CONTINUOUS
 62
     7
 10
260.4159584748325
 20
666.5545265595243
 30
0.0
 40
11.7383515642559
 50
243.4526592997112
 51
271.6943194369966
  0
LINE
  5
23F
  8
0
  6
CONTINUOUS
 62
     7
 10
260.7630279946944
 20
654.8213070442142
 30
0.0
 11
303.9488317785315
 21
656.1244398110537
 31
0.0
  0
LINE
  5
240
  8
0
  6
CONTINUOUS
 62
     7
 10
240.0046765899257
 20
663.1434890849945
 30
0.0
 11
237.4978163455994
 21
663.0997316766637
 31
0.0
  0
LINE
  5
241
  8
0
  6
CONTINUOUS
 62
     7
 10
303.9488317787182
 20
649.7618468858273
 30
0.0
 11
303.9488317787182
 21
656.1244398110556
 31
0.0
  0
LINE
  5
242
  8
0
  6
CONTINUOUS
 62
     7
 10
303.9488317787182
 20
518.7574300453625
 30
0.0
 11
303.9488317787182
 21
649.7618468858273
 31
0.0
  0
LINE
  5
243
  8
0
  6
CONTINUOUS
 62
     7
 10
303.9488317787182
 20
512.3948371236521
 30
0.0
 11
303.9488317787182
 21
509.3203465397973
 31
0.0
  0
LINE
  5
244
  8
0
  6
CONTINUOUS
 62
     7
 10
303.9488317787182
 20
656.1244398075378
 30
0.0
 11
303.9488317787182
 21
659.1989303913925
 31
0.0
  0
LINE
  5
245
  8
0
  6
CONTINUOUS
 62
     7
 10
303.9488317787182
 20
687.7582659541175
 30
0.0
 11
303.9488317787182
 21
659.1989303913925
 31
0.0
  0
LINE
  5
246
  8
0
  6
CONTINUOUS
 62
     7
 10
303.9488317787182
 20
480.7610109770724
 30
0.0
 11
303.9488317787182
 21
509.3203465397973
 31
0.0
  0
LINE
  5
247
  8
0
  6
CONTINUOUS
 62
     7
 10
303.9488317787182
 20
479.2596384655949
 30
0.0
 11
260.5978195169324
 21
481.531568747907
 31
0.0
  0
LINE
  5
248
  8
0
  6
CONTINUOUS
 62
     7
 10
303.9488317787182
 20
480.7610109770724
 30
0.0
 11
303.9488317787182
 21
479.2596384655949
 31
0.0
  0
LINE
  5
249
  8
0
  6
CONTINUOUS
 62
     7
 10
303.9488317787182
 20
689.2596384655949
 30
0.0
 11
260.5978195169325
 21
686.9877081832828
 31
0.0
  0
LINE
  5
24A
  8
0
  6
CONTINUOUS
 62
     7
 10
303.9488317787182
 20
687.7582659541175
 30
0.0
 11
303.9488317787182
 21
689.2596384655949
 31
0.0
  0
LINE
  5
24B
  8
0
  6
CONTINUOUS
 62
     7
 10
260.5978195169325
 20
481.531568747907
 30
0.0
 11
251.5419565588931
 21
482.0061664150293
 31
0.0
  0
LINE
  5
24C
  8
0
  6
CONTINUOUS
 62
     7
 10
260.5978195169325
 20
686.9877081832828
 30
0.0
 11
251.5419565588931
 21
686.5131105161605
 31
0.0
  0
LINE
  5
24D
  8
0
  6
CONTINUOUS
 62
     7
 10
236.855782205898
 20
484.1995177389408
 30
0.0
 11
236.8558046618213
 21
484.2236814809628
 31
0.0
  0
LINE
  5
24E
  8
0
  6
CONTINUOUS
 62
     7
 10
251.5419565588931
 20
482.0061664150293
 30
0.0
 11
238.2291550326262
 21
482.7038607790569
 31
0.0
  0
LINE
  5
24F
  8
0
  6
CONTINUOUS
 62
     7
 10
236.855782205898
 20
684.3197591922491
 30
0.0
 11
236.8558046618213
 21
684.295595450227
 31
0.0
  0
LINE
  5
250
  8
0
  6
CONTINUOUS
 62
     7
 10
251.5419565588931
 20
686.5131105161605
 30
0.0
 11
238.2291550326262
 21
685.8154161521329
 31
0.0
  0
LINE
  5
251
  8
0
  6
CONTINUOUS
 62
     7
 10
235.4488317787182
 20
556.7596384655949
 30
0.0
 11
235.4488317787182
 21
611.7596384655949
 31
0.0
  0
LINE
  5
252
  8
0
  6
CONTINUOUS
 62
     7
 10
236.9153290465162
 20
663.0895643230384
 30
0.0
 11
237.2347887085604
 21
663.0951405121814
 31
0.0
  0
LINE
  5
253
  8
0
  6
CONTINUOUS
 62
     7
 10
236.9153290465162
 20
505.4297126081514
 30
0.0
 11
237.2347887085604
 21
505.4241364190084
 31
0.0
  0
LINE
  5
254
  8
0
  6
CONTINUOUS
 62
     7
 10
236.8558046618213
 20
504.9366927490038
 30
0.0
 11
236.9153290465162
 21
505.4297126081514
 31
0.0
  0
LINE
  5
255
  8
0
  6
CONTINUOUS
 62
     7
 10
237.4978163455994
 20
505.419545254526
 30
0.0
 11
237.2347887085604
 21
505.4241364190085
 31
0.0
  0
LINE
  5
256
  8
0
  6
CONTINUOUS
 62
     7
 10
237.2347887085604
 20
663.0951405121814
 30
0.0
 11
237.4978163455994
 21
663.0997316766639
 31
0.0
  0
POLYLINE
  5
257
  8
0
  6
CONTINUOUS
 62
     7
 66
     1
 10
0.0
 20
0.0
 30
0.0
  0
VERTEX
  5
834
  8
0
  6
CONTINUOUS
 62
     7
 10
236.9153290465162
 20
505.4297126081514
 30
0.0
  0
VERTEX
  5
835
  8
0
  6
CONTINUOUS
 62
     7
 10
236.8982590806893
 20
505.442864653549
 30
0.0
  0
VERTEX
  5
836
  8
0
  6
CONTINUOUS
 62
     7
 10
236.8817552503857
 20
505.4567185733043
 30
0.0
  0
VERTEX
  5
837
  8
0
  6
CONTINUOUS
 62
     7
 10
236.8658584224181
 20
505.4712356162382
 30
0.0
  0
VERTEX
  5
838
  8
0
  6
CONTINUOUS
 62
     7
 10
236.8506094635992
 20
505.4863770311717
 30
0.0
  0
VERTEX
  5
839
  8
0
  6
CONTINUOUS
 62
     7
 10
236.8356061635546
 20
505.5025992695512
 30
0.0
  0
VERTEX
  5
83A
  8
0
  6
CONTINUOUS
 62
     7
 10
236.8213139780922
 20
505.519451542614
 30
0.0
  0
VERTEX
  5
83B
  8
0
  6
CONTINUOUS
 62
     7
 10
236.807769673402
 20
505.5368861811791
 30
0.0
  0
VERTEX
  5
83C
  8
0
  6
CONTINUOUS
 62
     7
 10
236.7950100156743
 20
505.5548555160653
 30
0.0
  0
VERTEX
  5
83D
  8
0
  6
CONTINUOUS
 62
     7
 10
236.783377624159
 20
505.5728102123363
 30
0.0
  0
VERTEX
  5
83E
  8
0
  6
CONTINUOUS
 62
     7
 10
236.772505118196
 20
505.5912375787248
 30
0.0
  0
VERTEX
  5
83F
  8
0
  6
CONTINUOUS
 62
     7
 10
236.7624188702636
 20
505.6100896191119
 30
0.0
  0
VERTEX
  5
840
  8
0
  6
CONTINUOUS
 62
     7
 10
236.7531452528405
 20
505.6293183373788
 30
0.0
  0
VERTEX
  5
841
  8
0
  6
CONTINUOUS
 62
     7
 10
236.7444647829452
 20
505.6494738872623
 30
0.0
  0
VERTEX
  5
842
  8
0
  6
CONTINUOUS
 62
     7
 10
236.7366603620939
 20
505.6699917980982
 30
0.0
  0
VERTEX
  5
843
  8
0
  6
CONTINUOUS
 62
     7
 10
236.7297522382593
 20
505.6908159616913
 30
0.0
  0
VERTEX
  5
844
  8
0
  6
CONTINUOUS
 62
     7
 10
236.7237606594139
 20
505.7118902698462
 30
0.0
  0
VERTEX
  5
845
  8
0
  6
CONTINUOUS
 62
     7
 10
236.7185671739016
 20
505.7337988638266
 30
0.0
  0
VERTEX
  5
846
  8
0
  6
CONTINUOUS
 62
     7
 10
236.7143545448053
 20
505.7559409913863
 30
0.0
  0
VERTEX
  5
847
  8
0
  6
CONTINUOUS
 62
     7
 10
236.7111333053928
 20
505.7782520562545
 30
0.0
  0
VERTEX
  5
848
  8
0
  6
CONTINUOUS
 62
     7
 10
236.7089139889323
 20
505.800667462161
 30
0.0
  0
VERTEX
  5
849
  8
0
  6
CONTINUOUS
 62
     7
 10
236.7077071286915
 20
505.8231226128353
 30
0.0
  0
VERTEX
  5
84A
  8
0
  6
CONTINUOUS
 62
     7
 10
236.7075434306955
 20
505.8298600724209
 30
0.0
  0
SEQEND
  5
8A3
  8
0
  6
CONTINUOUS
 62
     7
  0
LINE
  5
258
  8
0
  6
CONTINUOUS
 62
     7
 10
236.1488317787182
 20
663.0761850634617
 30
0.0
 11
236.9153290465162
 21
663.0895643230384
 31
0.0
  0
LINE
  5
259
  8
0
  6
CONTINUOUS
 62
     7
 10
236.1488317787182
 20
505.4430918677281
 30
0.0
 11
236.9153290465162
 21
505.4297126081514
 31
0.0
  0
LINE
  5
25A
  8
0
  6
CONTINUOUS
 62
     7
 10
238.2291550326261
 20
685.8154161521329
 30
0.0
 11
237.5703278443538
 21
685.7808884822642
 31
0.0
  0
LINE
  5
25B
  8
0
  6
CONTINUOUS
 62
     7
 10
238.2291550326261
 20
482.7038607790569
 30
0.0
 11
237.5703278443538
 21
482.7383884489255
 31
0.0
  0
LINE
  5
25C
  8
0
  6
CONTINUOUS
 62
     7
 10
235.9488317787182
 20
556.2596384655949
 30
0.0
 11
235.9488317787182
 21
505.8430918677333
 31
0.0
  0
LINE
  5
25D
  8
0
  6
CONTINUOUS
 62
     7
 10
235.9488317787182
 20
505.8430918677333
 30
0.0
 11
235.9488317787182
 21
505.8426516776609
 31
0.0
  0
LINE
  5
25E
  8
0
  6
CONTINUOUS
 62
     7
 10
235.9488317787182
 20
662.6766252535166
 30
0.0
 11
235.9488317787182
 21
662.676185063457
 31
0.0
  0
LINE
  5
25F
  8
0
  6
CONTINUOUS
 62
     7
 10
235.9488317787182
 20
662.676185063457
 30
0.0
 11
235.9488317787182
 21
612.2596384655949
 31
0.0
  0
ARC
  5
260
  8
0
  6
CONTINUOUS
 62
     7
 10
235.9488317787182
 20
611.7596384655949
 30
0.0
 40
0.500000000000056
 50
90.0
 51
180.0
  0
ARC
  5
261
  8
0
  6
CONTINUOUS
 62
     7
 10
235.9488317787182
 20
556.7596384655949
 30
0.0
 40
0.5000000000000004
 50
180.0
 51
270.0
  0
LINE
  5
262
  8
0
  6
CONTINUOUS
 62
     7
 10
236.1488317787182
 20
684.2829441801323
 30
0.0
 11
236.1488317787182
 21
663.0761850634617
 31
0.0
  0
LINE
  5
263
  8
0
  6
CONTINUOUS
 62
     7
 10
236.1488317787182
 20
505.4430918677281
 30
0.0
 11
236.1488317787182
 21
484.2363327510574
 31
0.0
  0
ARC
  5
264
  8
0
  6
CONTINUOUS
 62
     7
 10
236.4488317787182
 20
505.843091867733
 30
0.0
 40
0.5000000000000004
 50
180.0
 51
233.130102354497
  0
ARC
  5
265
  8
0
  6
CONTINUOUS
 62
     7
 10
236.4488317787182
 20
662.6761850634568
 30
0.0
 40
0.4999999999999504
 50
126.8698976455031
 51
180.0
  0
ARC
  5
266
  8
0
  6
CONTINUOUS
 62
     7
 10
237.6488317787182
 20
684.2829441801323
 30
0.0
 40
1.500000000000042
 50
92.99999999999989
 51
180.0
  0
ARC
  5
267
  8
0
  6
CONTINUOUS
 62
     7
 10
237.6488317787182
 20
484.2363327510574
 30
0.0
 40
1.500000000000001
 50
180.0
 51
267.0000000000001
  0
ENDBLK
  8
0
  0
ENDSEC
  0
SECTION
  2
ENTITIES
  0
INSERT
  5
BE
  8
0
  6
CENTER
 62
     7
  2
D_FRAME_VIEW_1713
 10
0.0
 20
0.0
 30
0.0
  0
TEXT
  5
C0
  8
0
  6
CONTINUOUS
 62
     7
 10
392.9504029983889
 20
458.9448766799253
 30
0.0
 40
3.0
  1
RMTB-40
  0
LINE
  5
C1
  8
0
  6
CENTER
 62
     7
 10
142.4917418295416
 20
476.2596384655949
 30
0.0
 11
142.4917418295416
 21
692.2596384655949
 31
0.0
  0
LINE
  5
C2
  8
0
  6
CENTER
 62
     7
 10
397.9285979464944
 20
476.2596384655949
 30
0.0
 11
397.9285979464944
 21
692.2596384655949
 31
0.0
  0
LINE
  5
C3
  8
0
  6
CENTER
 62
     7
 10
142.4917418295416
 20
380.6850747236302
 30
0.0
 11
142.4917418295416
 21
455.1850747313612
 31
0.0
  0
INSERT
  5
15E
  8
0
  6
CENTER
 62
     7
  2
D_FRAME_VIEW_3050
 10
0.0
 20
0.0
 30
0.0
  0
INSERT
  5
231
  8
0
  6
CENTER
 62
     7
  2
D_FRAME_VIEW_2707
 10
0.0
 20
0.0
 30
0.0
  0
INSERT
  5
268
  8
0
  6
CENTER
 62
     7
  2
D_FRAME_VIEW_2110
 10
0.0
 20
0.0
 30
0.0
  0
POINT
  5
269
  8
0
 62
     7
 10
142.4917418295416
 20
417.7383475868604
 30
0.0
  0
POINT
  5
26A
  8
0
 62
     7
 10
142.4917418295416
 20
584.2596384655949
 30
0.0
  0
POINT
  5
26B
  8
0
 62
     7
 10
397.9285979464944
 20
584.2596384655949
 30
0.0
  0
LINE
  5
26C
  8
0
  6
CENTER
 62
     7
 10
122.9917418295416
 20
418.6850747313612
 30
0.0
 11
161.9917418295416
 21
418.6850747313612
 31
0.0
  0
LINE
  5
26D
  8
0
  6
CENTER
 62
     7
 10
380.8352204611333
 20
584.2596384655949
 30
0.0
 11
415.0219754318555
 21
584.2596384655949
 31
0.0
  0
LINE
  5
26E
  8
0
  6
CENTER
 62
     7
 10
142.4917418295416
 20
554.7596384655949
 30
0.0
 11
142.4917418295416
 21
613.7596384655949
 31
0.0
  0
LINE
  5
26F
  8
0
  6
CENTER
 62
     7
 10
112.9917418295416
 20
584.2596384655949
 30
0.0
 11
171.9917418295416
 21
584.2596384655949
 31
0.0
  0
LINE
  5
270
  8
0
  6
CENTER
 62
     7
 10
397.9285979464944
 20
567.1662609802338
 30
0.0
 11
397.9285979464944
 21
601.353015950956
 31
0.0
  0
LINE
  5
271
  8
0
  6
CENTER
 62
     7
 10
142.4917418295416
 20
399.1850747313612
 30
0.0
 11
142.4917418295416
 21
438.1850747313612
 31
0.0
  0
ENDSEC
  0
EOF
