  0
SECTION
  2
HEADER
  9
$ACADVER
  1
AC1006
  9
$DWGCODEPAGE
  3
ansi_932
  9
$INSBASE
 10
0.0
 20
0.0
 30
0.0
  9
$EXTMIN
 10
1.011035319722901
 20
343.0010321373547
  9
$EXTMAX
 10
316.2806624836074
 20
632.2706593012392
  9
$LIMMIN
 10
0.0
 20
0.0
  9
$LIMMAX
 10
12.0
 20
9.0
  9
$ORTHOMODE
 70
     0
  9
$REGENMODE
 70
     1
  9
$FILLMODE
 70
     1
  9
$QTEXTMODE
 70
     0
  9
$MIRRTEXT
 70
     1
  9
$DRAGMODE
 70
     2
  9
$LTSCALE
 40
1.0
  9
$OSMODE
 70
    37
  9
$ATTMODE
 70
     1
  9
$TEXTSIZE
 40
0.2
  9
$TRACEWID
 40
0.05
  9
$TEXTSTYLE
  7
STANDARD
  9
$CLAYER
  8
0
  9
$CELTYPE
  6
BYLAYER
  9
$CECOLOR
 62
   256
  9
$DIMSCALE
 40
1.0
  9
$DIMASZ
 40
3.0
  9
$DIMEXO
 40
0.0625
  9
$DIMDLI
 40
0.38
  9
$DIMRND
 40
0.0
  9
$DIMDLE
 40
0.0
  9
$DIMEXE
 40
1.5
  9
$DIMTP
 40
0.0
  9
$DIMTM
 40
0.0
  9
$DIMTXT
 40
3.0
  9
$DIMCEN
 40
0.09
  9
$DIMTSZ
 40
0.0
  9
$DIMTOL
 70
     0
  9
$DIMLIM
 70
     0
  9
$DIMTIH
 70
     1
  9
$DIMTOH
 70
     1
  9
$DIMSE1
 70
     0
  9
$DIMSE2
 70
     0
  9
$DIMTAD
 70
     1
  9
$DIMZIN
 70
     0
  9
$DIMBLK
  1

  9
$DIMASO
 70
     1
  9
$DIMSHO
 70
     1
  9
$DIMPOST
  1

  9
$DIMAPOST
  1

  9
$DIMALT
 70
     0
  9
$DIMALTD
 70
     2
  9
$DIMALTF
 40
25.4
  9
$DIMLFAC
 40
1.0
  9
$DIMTOFL
 70
     0
  9
$DIMTVP
 40
0.0
  9
$DIMTIX
 70
     0
  9
$DIMSOXD
 70
     0
  9
$DIMSAH
 70
     0
  9
$DIMBLK1
  1

  9
$DIMBLK2
  1

  9
$LUNITS
 70
     2
  9
$LUPREC
 70
     4
  9
$SKETCHINC
 40
0.1
  9
$FILLETRAD
 40
0.5
  9
$AUNITS
 70
     0
  9
$AUPREC
 70
     0
  9
$MENU
  1
.
  9
$ELEVATION
 40
0.0
  9
$THICKNESS
 40
0.0
  9
$LIMCHECK
 70
     0
  9
$CHAMFERA
 40
0.0
  9
$CHAMFERB
 40
0.0
  9
$SKPOLY
 70
     0
  9
$TDCREATE
 40
2459110.419049502
  9
$TDUPDATE
 40
2459110.41904978
  9
$TDINDWG
 40
0.0000000116
  9
$TDUSRTIMER
 40
0.0000000116
  9
$USRTIMER
 70
     1
  9
$ANGBASE
 50
0.0
  9
$ANGDIR
 70
     0
  9
$PDMODE
 70
     0
  9
$PDSIZE
 40
0.0
  9
$PLINEWID
 40
0.0
  9
$COORDS
 70
     1
  9
$SPLFRAME
 70
     0
  9
$SPLINETYPE
 70
     6
  9
$SPLINESEGS
 70
     8
  9
$ATTDIA
 70
     0
  9
$ATTREQ
 70
     1
  9
$HANDLING
 70
     1
  9
$HANDSEED
  5
5F2
  9
$SURFTAB1
 70
     6
  9
$SURFTAB2
 70
     6
  9
$SURFTYPE
 70
     6
  9
$SURFU
 70
     6
  9
$SURFV
 70
     6
  9
$UCSNAME
  2

  9
$UCSORG
 10
0.0
 20
0.0
 30
0.0
  9
$UCSXDIR
 10
1.0
 20
0.0
 30
0.0
  9
$UCSYDIR
 10
0.0
 20
1.0
 30
0.0
  9
$USERI1
 70
     0
  9
$USERI2
 70
     0
  9
$USERI3
 70
     0
  9
$USERI4
 70
     0
  9
$USERI5
 70
     0
  9
$USERR1
 40
0.0
  9
$USERR2
 40
0.0
  9
$USERR3
 40
0.0
  9
$USERR4
 40
0.0
  9
$USERR5
 40
0.0
  9
$WORLDVIEW
 70
     1
  0
ENDSEC
  0
SECTION
  2
TABLES
  0
TABLE
  2
VPORT
 70
     1
  0
VPORT
  2
*ACTIVE
 70
     0
 10
0.0
 20
0.0
 11
1.0
 21
1.0
 12
158.6458489016652
 22
487.635845719297
 13
0.0
 23
0.0
 14
0.5
 24
0.5
 15
0.5
 25
0.5
 16
0.0
 26
0.0
 36
1.0
 17
0.0
 27
0.0
 37
0.0
 40
289.2696271638845
 41
1.6
 42
50.0
 43
0.0
 44
0.0
 50
0.0
 51
0.0
 71
     0
 72
   100
 73
     1
 74
     3
 75
     0
 76
     0
 77
     0
 78
     0
  0
ENDTAB
  0
TABLE
  2
LTYPE
 70
     2
  0
LTYPE
  2
CONTINUOUS
 70
     0
  3
Solid line
 72
    65
 73
     0
 40
0.0
  0
LTYPE
  2
CENTER
 70
     0
  3

 72
    65
 73
     0
 40
0.0
  0
ENDTAB
  0
TABLE
  2
LAYER
 70
     1
  0
LAYER
  2
0
 70
     0
 62
     7
  6
CONTINUOUS
  0
ENDTAB
  0
TABLE
  2
STYLE
 70
     2
  0
STYLE
  2
STANDARD
 70
     0
 40
0.0
 41
1.0
 50
0.0
 71
     0
 42
0.2
  3
txt
  4

  0
STYLE
  2
ＭＳ_ゴシック
 70
     0
 40
0.0
 41
1.0
 50
0.0
 71
     0
 42
0.2
  3
ＭＳ ゴシック.shx
  4

  0
ENDTAB
  0
TABLE
  2
VIEW
 70
     0
  0
ENDTAB
  0
TABLE
  2
UCS
 70
     0
  0
ENDTAB
  0
ENDSEC
  0
SECTION
  2
BLOCKS
  0
BLOCK
  8
0
  2
D_FRAME_VIEW_1714
 70
     0
 10
0.0
 20
0.0
 30
0.0
  0
ARC
  5
70
  8
0
  6
CONTINUOUS
 62
     7
 10
59.89575438861795
 20
587.8363820966978
 30
0.0
 40
9.41124271267363
 50
359.5998754340365
 51
90.40012456596321
  0
LINE
  5
71
  8
0
  6
CONTINUOUS
 62
     7
 10
69.30676761308052
 20
587.7706593012391
 30
0.0
 11
69.29552456006513
 21
585.6539166851576
 31
0.0
  0
LINE
  5
72
  8
0
  6
CONTINUOUS
 62
     7
 10
57.71328897707813
 20
597.2361522681449
 30
0.0
 11
59.8300315931594
 21
597.2473953211603
 31
0.0
  0
LINE
  5
73
  8
0
  6
CONTINUOUS
 62
     7
 10
57.71328897707813
 20
597.2361522681449
 30
0.0
 11
44.30878166236779
 21
597.2361522681449
 31
0.0
  0
ARC
  5
74
  8
0
  6
CONTINUOUS
 62
     7
 10
42.12647193976971
 20
587.8362264077559
 30
0.0
 40
9.411397311881334
 50
89.60082985089281
 51
180.3991701491075
  0
LINE
  5
75
  8
0
  6
CONTINUOUS
 62
     7
 10
42.19203904628639
 20
597.2473953211603
 30
0.0
 11
44.30878166236779
 21
597.2361522681449
 31
0.0
  0
LINE
  5
76
  8
0
  6
CONTINUOUS
 62
     7
 10
32.72654607938066
 20
585.6539166851576
 30
0.0
 11
32.71530302636527
 21
587.7706593012391
 31
0.0
  0
LINE
  5
77
  8
0
  6
CONTINUOUS
 62
     7
 10
69.29552456006513
 20
585.6539166851576
 30
0.0
 11
69.29552456006512
 21
444.2347023166071
 31
0.0
  0
LINE
  5
78
  8
0
  6
CONTINUOUS
 62
     7
 10
69.29523460232356
 20
444.210538574585
 30
0.0
 11
69.29552456006512
 21
444.2347023166071
 31
0.0
  0
LINE
  5
79
  8
0
  6
CONTINUOUS
 62
     7
 10
32.72654607938068
 20
444.2347023166071
 30
0.0
 11
32.72683603712228
 21
444.210538574585
 31
0.0
  0
LINE
  5
7A
  8
0
  6
CONTINUOUS
 62
     7
 10
32.72654607938066
 20
585.6539166851576
 30
0.0
 11
32.72654607938068
 21
444.2347023166071
 31
0.0
  0
POLYLINE
  5
7B
  8
0
  6
CONTINUOUS
 62
     7
 66
     1
 10
0.0
 20
0.0
 30
0.0
  0
VERTEX
  5
2B4
  8
0
  6
CONTINUOUS
 62
     7
 10
33.41529658737687
 20
442.7148816147012
 30
0.0
  0
VERTEX
  5
2B5
  8
0
  6
CONTINUOUS
 62
     7
 10
33.29745066351483
 20
442.7499727443674
 30
0.0
  0
VERTEX
  5
2B6
  8
0
  6
CONTINUOUS
 62
     7
 10
33.20505977748286
 20
442.8095371780545
 30
0.0
  0
VERTEX
  5
2B7
  8
0
  6
CONTINUOUS
 62
     7
 10
33.12500964420752
 20
442.8863495328338
 30
0.0
  0
VERTEX
  5
2B8
  8
0
  6
CONTINUOUS
 62
     7
 10
33.0483946486404
 20
442.9853550652996
 30
0.0
  0
SEQEND
  5
5BA
  8
0
  6
CONTINUOUS
 62
     7
  0
ARC
  5
7C
  8
0
  6
CONTINUOUS
 62
     7
 10
35.19554347720923
 20
444.2036798882816
 30
0.0
 40
2.468716967640983
 50
179.8408184134187
 51
209.5712340773269
  0
POLYLINE
  5
7D
  8
0
  6
CONTINUOUS
 62
     7
 66
     1
 10
0.0
 20
0.0
 30
0.0
  0
VERTEX
  5
2B9
  8
0
  6
CONTINUOUS
 62
     7
 10
68.60677405206891
 20
442.7148816147012
 30
0.0
  0
VERTEX
  5
2BA
  8
0
  6
CONTINUOUS
 62
     7
 10
68.72461997593098
 20
442.7499727443674
 30
0.0
  0
VERTEX
  5
2BB
  8
0
  6
CONTINUOUS
 62
     7
 10
68.81701086196296
 20
442.8095371780545
 30
0.0
  0
VERTEX
  5
2BC
  8
0
  6
CONTINUOUS
 62
     7
 10
68.89706099523829
 20
442.8863495328338
 30
0.0
  0
VERTEX
  5
2BD
  8
0
  6
CONTINUOUS
 62
     7
 10
68.97367599080538
 20
442.9853550652996
 30
0.0
  0
SEQEND
  5
5BB
  8
0
  6
CONTINUOUS
 62
     7
  0
ARC
  5
7E
  8
0
  6
CONTINUOUS
 62
     7
 10
66.82652716223583
 20
444.2036798882818
 30
0.0
 40
2.468716967641748
 50
330.4287659226758
 51
0.1591815865762101
  0
LINE
  5
7F
  8
0
  6
CONTINUOUS
 62
     7
 10
84.02992497367933
 20
439.2706593012392
 30
0.0
 11
85.33065956903702
 21
439.2706593012392
 31
0.0
  0
LINE
  5
80
  8
0
  6
CONTINUOUS
 62
     7
 10
83.65239051644944
 20
441.537880826836
 30
0.0
 11
84.02992497367933
 21
439.2706593012392
 31
0.0
  0
POLYLINE
  5
81
  8
0
  6
CONTINUOUS
 62
     7
 66
     1
 10
0.0
 20
0.0
 30
0.0
  0
VERTEX
  5
2BE
  8
0
  6
CONTINUOUS
 62
     7
 10
83.65239051644944
 20
441.537880826836
 30
0.0
  0
VERTEX
  5
2BF
  8
0
  6
CONTINUOUS
 62
     7
 10
83.42124904937916
 20
441.6553526703287
 30
0.0
  0
VERTEX
  5
2C0
  8
0
  6
CONTINUOUS
 62
     7
 10
82.77512987355149
 20
441.7684886982386
 30
0.0
  0
VERTEX
  5
2C1
  8
0
  6
CONTINUOUS
 62
     7
 10
81.73681646152811
 20
441.8732995047654
 30
0.0
  0
VERTEX
  5
2C2
  8
0
  6
CONTINUOUS
 62
     7
 10
80.34292185006485
 20
441.9660892482998
 30
0.0
  0
SEQEND
  5
5BC
  8
0
  6
CONTINUOUS
 62
     7
  0
LINE
  5
82
  8
0
  6
CONTINUOUS
 62
     7
 10
68.01103531972277
 20
442.6447592154837
 30
0.0
 11
80.34292185006488
 21
441.9660892482998
 31
0.0
  0
LINE
  5
83
  8
0
  6
CONTINUOUS
 62
     7
 10
68.0110353197227
 20
442.6447592154836
 30
0.0
 11
34.01103531972316
 21
442.6447592154836
 31
0.0
  0
LINE
  5
84
  8
0
  6
CONTINUOUS
 62
     7
 10
34.01103531972304
 20
442.6447592154837
 30
0.0
 11
21.6791487893809
 21
441.9660892482998
 31
0.0
  0
POLYLINE
  5
85
  8
0
  6
CONTINUOUS
 62
     7
 66
     1
 10
0.0
 20
0.0
 30
0.0
  0
VERTEX
  5
2C3
  8
0
  6
CONTINUOUS
 62
     7
 10
21.67914878938093
 20
441.9660892482998
 30
0.0
  0
VERTEX
  5
2C4
  8
0
  6
CONTINUOUS
 62
     7
 10
20.2852541779177
 20
441.8732995047654
 30
0.0
  0
VERTEX
  5
2C5
  8
0
  6
CONTINUOUS
 62
     7
 10
19.24694076589433
 20
441.7684886982386
 30
0.0
  0
VERTEX
  5
2C6
  8
0
  6
CONTINUOUS
 62
     7
 10
18.60082159006667
 20
441.6553526703287
 30
0.0
  0
VERTEX
  5
2C7
  8
0
  6
CONTINUOUS
 62
     7
 10
18.36968012299635
 20
441.537880826836
 30
0.0
  0
SEQEND
  5
5BD
  8
0
  6
CONTINUOUS
 62
     7
  0
LINE
  5
86
  8
0
  6
CONTINUOUS
 62
     7
 10
18.36968012299635
 20
441.537880826836
 30
0.0
 11
17.99214566576647
 21
439.2706593012392
 31
0.0
  0
LINE
  5
87
  8
0
  6
CONTINUOUS
 62
     7
 10
17.99214566576647
 20
439.2706593012392
 30
0.0
 11
16.69141107040876
 21
439.2706593012392
 31
0.0
  0
POLYLINE
  5
88
  8
0
  6
CONTINUOUS
 62
     7
 66
     1
 10
0.0
 20
0.0
 30
0.0
  0
VERTEX
  5
2C8
  8
0
  6
CONTINUOUS
 62
     7
 10
15.19203904628644
 20
440.7720318127167
 30
0.0
  0
VERTEX
  5
2C9
  8
0
  6
CONTINUOUS
 62
     7
 10
15.22084551868888
 20
440.4790920406543
 30
0.0
  0
VERTEX
  5
2CA
  8
0
  6
CONTINUOUS
 62
     7
 10
15.30615856088883
 20
440.1974296030574
 30
0.0
  0
VERTEX
  5
2CB
  8
0
  6
CONTINUOUS
 62
     7
 10
15.44470154059422
 20
439.9378623563134
 30
0.0
  0
VERTEX
  5
2CC
  8
0
  6
CONTINUOUS
 62
     7
 10
15.63115341439322
 20
439.7103595431163
 30
0.0
  0
VERTEX
  5
2CD
  8
0
  6
CONTINUOUS
 62
     7
 10
15.85835309395921
 20
439.5236589020935
 30
0.0
  0
VERTEX
  5
2CE
  8
0
  6
CONTINUOUS
 62
     7
 10
16.11757448316882
 20
439.384931076016
 30
0.0
  0
VERTEX
  5
2CF
  8
0
  6
CONTINUOUS
 62
     7
 10
16.3988616227364
 20
439.2995042077213
 30
0.0
  0
VERTEX
  5
2D0
  8
0
  6
CONTINUOUS
 62
     7
 10
16.69141107040875
 20
439.2706593012392
 30
0.0
  0
SEQEND
  5
5BE
  8
0
  6
CONTINUOUS
 62
     7
  0
POLYLINE
  5
89
  8
0
  6
CONTINUOUS
 62
     7
 66
     1
 10
0.0
 20
0.0
 30
0.0
  0
VERTEX
  5
2D1
  8
0
  6
CONTINUOUS
 62
     7
 10
85.33065956903704
 20
439.2706593012392
 30
0.0
  0
VERTEX
  5
2D2
  8
0
  6
CONTINUOUS
 62
     7
 10
85.6232090167094
 20
439.2995042077213
 30
0.0
  0
VERTEX
  5
2D3
  8
0
  6
CONTINUOUS
 62
     7
 10
85.90449615627698
 20
439.384931076016
 30
0.0
  0
VERTEX
  5
2D4
  8
0
  6
CONTINUOUS
 62
     7
 10
86.1637175454866
 20
439.5236589020935
 30
0.0
  0
VERTEX
  5
2D5
  8
0
  6
CONTINUOUS
 62
     7
 10
86.3909172250526
 20
439.7103595431163
 30
0.0
  0
VERTEX
  5
2D6
  8
0
  6
CONTINUOUS
 62
     7
 10
86.57736909885162
 20
439.9378623563134
 30
0.0
  0
VERTEX
  5
2D7
  8
0
  6
CONTINUOUS
 62
     7
 10
86.71591207855703
 20
440.1974296030574
 30
0.0
  0
VERTEX
  5
2D8
  8
0
  6
CONTINUOUS
 62
     7
 10
86.80122512075697
 20
440.4790920406543
 30
0.0
  0
VERTEX
  5
2D9
  8
0
  6
CONTINUOUS
 62
     7
 10
86.83003159315942
 20
440.7720318127167
 30
0.0
  0
SEQEND
  5
5BF
  8
0
  6
CONTINUOUS
 62
     7
  0
LINE
  5
8A
  8
0
  6
CONTINUOUS
 62
     7
 10
15.1920390462864
 20
496.2706593012392
 30
0.0
 11
15.21821964965868
 21
496.2968399046114
 31
0.0
  0
LINE
  5
8B
  8
0
  6
CONTINUOUS
 62
     7
 10
15.21821964965868
 20
496.2968399046114
 30
0.0
 11
15.21821964965867
 21
587.7706593012391
 31
0.0
  0
LINE
  5
8C
  8
0
  6
CONTINUOUS
 62
     7
 10
15.1920390462864
 20
496.2706593012392
 30
0.0
 11
15.1920390462864
 21
440.7720318127167
 31
0.0
  0
LINE
  5
8D
  8
0
  6
CONTINUOUS
 62
     7
 10
86.80385098978712
 20
587.7706593012391
 30
0.0
 11
86.80385098978711
 21
496.2968399046114
 31
0.0
  0
LINE
  5
8E
  8
0
  6
CONTINUOUS
 62
     7
 10
86.80385098978711
 20
496.2968399046114
 30
0.0
 11
86.83003159315938
 21
496.2706593012392
 31
0.0
  0
LINE
  5
8F
  8
0
  6
CONTINUOUS
 62
     7
 10
86.83003159315938
 20
496.2706593012392
 30
0.0
 11
86.83003159315938
 21
440.7720318127166
 31
0.0
  0
ARC
  5
90
  8
0
  6
CONTINUOUS
 62
     7
 10
42.1920390462864
 20
587.7706593012392
 30
0.0
 40
26.97381939662773
 50
90.0
 51
180.0000000000001
  0
LINE
  5
91
  8
0
  6
CONTINUOUS
 62
     7
 10
42.19203904628639
 20
614.744478697867
 30
0.0
 11
59.8300315931594
 21
614.744478697867
 31
0.0
  0
ARC
  5
92
  8
0
  6
CONTINUOUS
 62
     7
 10
59.8300315931594
 20
587.7706593012392
 30
0.0
 40
26.97381939662769
 50
359.9999999999998
 51
90.0
  0
LINE
  5
93
  8
0
  6
CONTINUOUS
 62
     7
 10
86.80385098978711
 20
496.7634749713035
 30
0.0
 11
93.6887048493866
 21
503.6483288309029
 31
0.0
  0
LINE
  5
94
  8
0
  6
CONTINUOUS
 62
     7
 10
15.21821964965869
 20
496.7634749713035
 30
0.0
 11
8.333365790059222
 21
503.6483288309029
 31
0.0
  0
ARC
  5
95
  8
0
  6
CONTINUOUS
 62
     7
 10
26.01103531972292
 20
521.3259983605666
 30
0.0
 40
24.99999999999999
 50
180.0
 51
224.9999999999999
  0
ARC
  5
96
  8
0
  6
CONTINUOUS
 62
     7
 10
76.01103531972286
 20
521.3259983605666
 30
0.0
 40
25.00000000000001
 50
315.0000000000001
 51
0.0
  0
LINE
  5
97
  8
0
  6
CONTINUOUS
 62
     7
 10
1.011035319722922
 20
521.3259983605666
 30
0.0
 11
1.011035319722908
 21
594.2706593012392
 31
0.0
  0
LINE
  5
98
  8
0
  6
CONTINUOUS
 62
     7
 10
101.0110353197229
 20
521.3259983605666
 30
0.0
 11
101.0110353197229
 21
594.2706593012392
 31
0.0
  0
ARC
  5
99
  8
0
  6
CONTINUOUS
 62
     7
 10
36.01103531972291
 20
594.2706593012392
 30
0.0
 40
35.00000000000001
 50
90.00000000000006
 51
180.0
  0
ARC
  5
9A
  8
0
  6
CONTINUOUS
 62
     7
 10
66.01103531972288
 20
594.2706593012392
 30
0.0
 40
35.0
 50
359.9999999999999
 51
90.0
  0
LINE
  5
9B
  8
0
  6
CONTINUOUS
 62
     7
 10
66.01103531972288
 20
629.2706593012392
 30
0.0
 11
36.0110353197229
 21
629.2706593012392
 31
0.0
  0
ENDBLK
  8
0
  0
BLOCK
  8
0
  2
D_FRAME_VIEW_2259
 70
     0
 10
0.0
 20
0.0
 30
0.0
  0
LINE
  5
A0
  8
0
  6
CONTINUOUS
 62
     7
 10
190.7063960388578
 20
439.2706593012392
 30
0.0
 11
147.1579322700418
 21
441.5529375785508
 31
0.0
  0
LINE
  5
A1
  8
0
  6
CONTINUOUS
 62
     7
 10
190.7063960388578
 20
440.7720318127166
 30
0.0
 11
190.7063960388578
 21
439.2706593012392
 31
0.0
  0
LINE
  5
A2
  8
0
  6
CONTINUOUS
 62
     7
 10
187.7063960388578
 20
498.9033885734975
 30
0.0
 11
187.7063960388578
 21
496.2968399046114
 31
0.0
  0
LINE
  5
A3
  8
0
  6
CONTINUOUS
 62
     7
 10
187.7063960388578
 20
496.2968399046114
 30
0.0
 11
190.7063960388578
 21
496.2706593012392
 31
0.0
  0
LINE
  5
A4
  8
0
  6
CONTINUOUS
 62
     7
 10
190.7063960388578
 20
496.2706593012392
 30
0.0
 11
190.7063960388578
 21
440.7720318127166
 31
0.0
  0
LINE
  5
A5
  8
0
  6
CONTINUOUS
 62
     7
 10
187.7063960388578
 20
614.744478697867
 30
0.0
 11
147.2233464011587
 21
614.391188475912
 31
0.0
  0
ARC
  5
A6
  8
0
  6
CONTINUOUS
 62
     7
 10
147.3481358587854
 20
600.0917329760944
 30
0.0
 40
14.29999999999994
 50
90.49999999999997
 51
133.5999164104001
  0
LINE
  5
A7
  8
0
  6
CONTINUOUS
 62
     7
 10
147.1579322700418
 20
441.5529375785508
 30
0.0
 11
138.4425152878686
 21
442.0096932281122
 31
0.0
  0
LINE
  5
A8
  8
0
  6
CONTINUOUS
 62
     7
 10
123.6251753252009
 20
597.2473953211603
 30
0.0
 11
123.6251753252009
 21
587.7706593012391
 31
0.0
  0
LINE
  5
A9
  8
0
  6
CONTINUOUS
 62
     7
 10
137.486591491387
 20
610.4474049818037
 30
0.0
 11
123.6251753252009
 21
597.2473953211603
 31
0.0
  0
LINE
  5
AA
  8
0
  6
CONTINUOUS
 62
     7
 10
123.6133689219609
 20
585.6539166851576
 30
0.0
 11
123.6133689219609
 21
444.2347023166071
 31
0.0
  0
LINE
  5
AB
  8
0
  6
CONTINUOUS
 62
     7
 10
123.6251753252009
 20
587.7706593012391
 30
0.0
 11
123.6133689219609
 21
585.6539166851576
 31
0.0
  0
LINE
  5
AC
  8
0
  6
CONTINUOUS
 62
     7
 10
124.9867192927658
 20
442.7148816147012
 30
0.0
 11
124.8188074294549
 21
442.7338449670478
 31
0.0
  0
ARC
  5
AD
  8
0
  6
CONTINUOUS
 62
     7
 10
125.0939713957083
 20
444.1888383937973
 30
0.0
 40
1.480783941096243
 50
179.1603276849175
 51
259.290871213148
  0
LINE
  5
AE
  8
0
  6
CONTINUOUS
 62
     7
 10
123.6133464660376
 20
444.210538574585
 30
0.0
 11
123.6133689219609
 21
444.2347023166071
 31
0.0
  0
LINE
  5
AF
  8
0
  6
CONTINUOUS
 62
     7
 10
138.4425152878686
 20
442.0096932281122
 30
0.0
 11
124.9867192927658
 21
442.7148816147012
 31
0.0
  0
ARC
  5
B0
  8
0
  6
CONTINUOUS
 62
     7
 10
359.7063960388578
 20
578.9516630278027
 30
0.0
 40
236.8
 50
175.5715038818578
 51
180.0
  0
LINE
  5
B1
  8
0
  6
CONTINUOUS
 62
     7
 10
124.9867192927655
 20
442.7148816147013
 30
0.0
 11
124.3278921044931
 21
442.7494092845699
 31
0.0
  0
LINE
  5
B2
  8
0
  6
CONTINUOUS
 62
     7
 10
190.7063960388578
 20
521.3259983605666
 30
0.0
 11
190.7063960388578
 21
594.2706593012392
 31
0.0
  0
LINE
  5
B3
  8
0
  6
CONTINUOUS
 62
     7
 10
189.1933062356103
 20
629.2574547665707
 30
0.0
 11
190.7063960388578
 21
629.2706593012392
 31
0.0
  0
LINE
  5
B4
  8
0
  6
CONTINUOUS
 62
     7
 10
190.7063960388578
 20
594.2706593012392
 30
0.0
 11
190.7063960388578
 21
629.2706593012392
 31
0.0
  0
LINE
  5
B5
  8
0
  6
CONTINUOUS
 62
     7
 10
190.7063960388578
 20
503.6483288309029
 30
0.0
 11
190.7063960388578
 21
521.3259983605666
 31
0.0
  0
LINE
  5
B6
  8
0
  6
CONTINUOUS
 62
     7
 10
187.7063960388578
 20
521.3259983605666
 30
0.0
 11
187.7063960388578
 21
594.2706593012392
 31
0.0
  0
LINE
  5
B7
  8
0
  6
CONTINUOUS
 62
     7
 10
187.7063960388578
 20
594.2706593012392
 30
0.0
 11
187.7063960388578
 21
627.7575118819744
 31
0.0
  0
ARC
  5
B8
  8
0
  6
CONTINUOUS
 62
     7
 10
189.2063960388578
 20
627.7575118819744
 30
0.0
 40
1.500000000000001
 50
90.5
 51
180.0000000000006
  0
LINE
  5
B9
  8
0
  6
CONTINUOUS
 62
     7
 10
187.7063960388578
 20
504.7182856319999
 30
0.0
 11
187.7063960388578
 21
521.3259983605666
 31
0.0
  0
LINE
  5
BA
  8
0
  6
CONTINUOUS
 62
     7
 10
190.7063960388578
 20
496.4171003344078
 30
0.0
 11
190.7063960388578
 21
503.6483288309029
 31
0.0
  0
LINE
  5
BB
  8
0
  6
CONTINUOUS
 62
     7
 10
187.7063960388578
 20
498.9033885734975
 30
0.0
 11
187.7063960388578
 21
504.7182856319999
 31
0.0
  0
LINE
  5
BC
  8
0
  6
CONTINUOUS
 62
     7
 10
190.7063960388578
 20
496.4171003344078
 30
0.0
 11
190.7063960388578
 21
496.2706593012392
 31
0.0
  0
ARC
  5
BD
  8
0
  6
CONTINUOUS
 62
     7
 10
189.2063960388578
 20
497.7838067205039
 30
0.0
 40
1.500000000000001
 50
180.0
 51
269.4999999999995
  0
LINE
  5
BE
  8
0
  6
CONTINUOUS
 62
     7
 10
190.9063960388578
 20
519.2706593012391
 30
0.0
 11
190.9063960388578
 21
519.1206593012391
 31
0.0
  0
LINE
  5
BF
  8
0
  6
CONTINUOUS
 62
     7
 10
190.9063960388578
 20
519.1206593012391
 30
0.0
 11
190.9063960388578
 21
485.4206593012392
 31
0.0
  0
LINE
  5
C0
  8
0
  6
CONTINUOUS
 62
     7
 10
190.9063960388578
 20
485.4206593012392
 30
0.0
 11
190.9063960388578
 21
485.2706593012392
 31
0.0
  0
ARC
  5
C1
  8
0
  6
CONTINUOUS
 62
     7
 10
190.8063960388578
 20
485.2706593012392
 30
0.0
 40
0.1000000000000167
 50
270.0
 51
0.0
  0
LINE
  5
C2
  8
0
  6
CONTINUOUS
 62
     7
 10
190.7063960388578
 20
519.3706593012391
 30
0.0
 11
190.8063960388578
 21
519.3706593012391
 31
0.0
  0
LINE
  5
C3
  8
0
  6
CONTINUOUS
 62
     7
 10
190.8063960388578
 20
485.1706593012392
 30
0.0
 11
190.7063960388578
 21
485.1706593012392
 31
0.0
  0
ARC
  5
C4
  8
0
  6
CONTINUOUS
 62
     7
 10
190.8063960388578
 20
519.2706593012391
 30
0.0
 40
0.099999999999989
 50
0.0
 51
90.0
  0
ARC
  5
C5
  8
0
  6
CONTINUOUS
 62
     7
 10
124.4063960388577
 20
444.2473535867018
 30
0.0
 40
1.500000000000001
 50
180.0
 51
267.0000000000001
  0
LINE
  5
C6
  8
0
  6
CONTINUOUS
 62
     7
 10
122.9063960388578
 20
578.9516630278027
 30
0.0
 11
122.9063960388578
 21
444.2473535867018
 31
0.0
  0
ENDBLK
  8
0
  0
BLOCK
  8
0
  2
D_FRAME_VIEW_2692
 70
     0
 10
0.0
 20
0.0
 30
0.0
  0
LINE
  5
CB
  8
0
  6
CONTINUOUS
 62
     7
 10
242.8013357796597
 20
598.3751241766857
 30
0.0
 11
244.876078747452
 21
600.7953192070169
 31
0.0
  0
LINE
  5
CC
  8
0
  6
CONTINUOUS
 62
     7
 10
244.876078747452
 20
600.7953192070169
 30
0.0
 11
245.7792090892435
 21
601.7437383773288
 31
0.0
  0
LINE
  5
CD
  8
0
  6
CONTINUOUS
 62
     7
 10
243.9656272621635
 20
599.5934941869529
 30
0.0
 11
245.878296582179
 21
601.6019242265704
 31
0.0
  0
LINE
  5
CE
  8
0
  6
CONTINUOUS
 62
     7
 10
242.8013357796597
 20
598.3751241766857
 30
0.0
 11
243.9656272621635
 21
599.5934941869529
 31
0.0
  0
LINE
  5
CF
  8
0
  6
CONTINUOUS
 62
     7
 10
287.6852462197628
 20
600.7953192070169
 30
0.0
 11
291.2186163846371
 21
600.7953192070169
 31
0.0
  0
LINE
  5
D0
  8
0
  6
CONTINUOUS
 62
     7
 10
287.6852462197628
 20
600.7953192070169
 30
0.0
 11
286.7821158779714
 21
601.7437383773288
 31
0.0
  0
LINE
  5
D1
  8
0
  6
CONTINUOUS
 62
     7
 10
244.876078747452
 20
600.7953192070169
 30
0.0
 11
241.3427085825778
 21
600.7953192070169
 31
0.0
  0
LINE
  5
D2
  8
0
  6
CONTINUOUS
 62
     7
 10
259.2806624836076
 20
611.7349404275196
 30
0.0
 11
258.7806624836077
 21
611.7194409346987
 31
0.0
  0
LINE
  5
D3
  8
0
  6
CONTINUOUS
 62
     7
 10
273.7806624836074
 20
611.7194409346987
 30
0.0
 11
273.2806624836074
 21
611.7349404275196
 31
0.0
  0
LINE
  5
D4
  8
0
  6
CONTINUOUS
 62
     7
 10
237.3928281600553
 20
548.711080164381
 30
0.0
 11
237.3928281600553
 21
561.8377647848035
 31
0.0
  0
LINE
  5
D5
  8
0
  6
CONTINUOUS
 62
     7
 10
237.5005584637289
 20
574.0751746222097
 30
0.0
 11
237.3928281600553
 21
561.8377647848035
 31
0.0
  0
LINE
  5
D6
  8
0
  6
CONTINUOUS
 62
     7
 10
242.3805317868077
 20
598.1706593012392
 30
0.0
 11
242.6059462748726
 21
598.1706593012392
 31
0.0
  0
LINE
  5
D7
  8
0
  6
CONTINUOUS
 62
     7
 10
242.5213552551303
 20
598.0821392329053
 30
0.0
 11
242.6059462748726
 21
598.1706593012392
 31
0.0
  0
LINE
  5
D8
  8
0
  6
CONTINUOUS
 62
     7
 10
237.3928281600553
 20
561.8377647848035
 30
0.0
 11
237.49959954099
 21
574.0730190795415
 31
0.0
  0
LINE
  5
D9
  8
0
  6
CONTINUOUS
 62
     7
 10
233.3926758465124
 20
496.2706593012392
 30
0.0
 11
233.3926758465124
 21
489.3106681120623
 31
0.0
  0
LINE
  5
DA
  8
0
  6
CONTINUOUS
 62
     7
 10
244.1951000896013
 20
598.1706593012392
 30
0.0
 11
242.8013357796597
 21
598.3751241766857
 31
0.0
  0
LINE
  5
DB
  8
0
  6
CONTINUOUS
 62
     7
 10
288.5956977050514
 20
599.5934941869529
 30
0.0
 11
286.6830283850359
 21
601.6019242265704
 31
0.0
  0
LINE
  5
DC
  8
0
  6
CONTINUOUS
 62
     7
 10
289.7599891875551
 20
598.3751241766857
 30
0.0
 11
287.6852462197628
 21
600.7953192070169
 31
0.0
  0
LINE
  5
DD
  8
0
  6
CONTINUOUS
 62
     7
 10
289.7599891875551
 20
598.3751241766857
 30
0.0
 11
288.5956977050514
 21
599.5934941869529
 31
0.0
  0
LINE
  5
DE
  8
0
  6
CONTINUOUS
 62
     7
 10
288.3662248776135
 20
598.1706593012392
 30
0.0
 11
289.7599891875551
 21
598.3751241766857
 31
0.0
  0
LINE
  5
DF
  8
0
  6
CONTINUOUS
 62
     7
 10
290.0399697120845
 20
598.0821392329053
 30
0.0
 11
289.9553786923423
 21
598.1706593012392
 31
0.0
  0
LINE
  5
E0
  8
0
  6
CONTINUOUS
 62
     7
 10
290.1807931804072
 20
598.1706593012392
 30
0.0
 11
289.9553786923423
 21
598.1706593012392
 31
0.0
  0
LINE
  5
E1
  8
0
  6
CONTINUOUS
 62
     7
 10
295.060766503486
 20
574.0751746222097
 30
0.0
 11
295.1684968071596
 21
561.8377647848035
 31
0.0
  0
LINE
  5
E2
  8
0
  6
CONTINUOUS
 62
     7
 10
295.1684968071596
 20
548.711080164381
 30
0.0
 11
295.1684968071596
 21
561.8377647848035
 31
0.0
  0
LINE
  5
E3
  8
0
  6
CONTINUOUS
 62
     7
 10
295.1684968071596
 20
561.8377647848035
 30
0.0
 11
295.0617254262249
 21
574.0730190795415
 31
0.0
  0
LINE
  5
E4
  8
0
  6
CONTINUOUS
 62
     7
 10
299.1686491207025
 20
496.2706593012392
 30
0.0
 11
299.1686491207025
 21
489.3106681120623
 31
0.0
  0
LINE
  5
E5
  8
0
  6
CONTINUOUS
 62
     7
 10
243.9656272621635
 20
599.5934941869529
 30
0.0
 11
246.0869605096244
 21
601.2066803991497
 31
0.0
  0
LINE
  5
E6
  8
0
  6
CONTINUOUS
 62
     7
 10
242.6059462748726
 20
598.1706593012392
 30
0.0
 11
244.1951000896013
 21
598.1706593012392
 31
0.0
  0
LINE
  5
E7
  8
0
  6
CONTINUOUS
 62
     7
 10
288.5956977050514
 20
599.5934941869529
 30
0.0
 11
286.4743644575905
 21
601.2066803991497
 31
0.0
  0
LINE
  5
E8
  8
0
  6
CONTINUOUS
 62
     7
 10
289.9553786923423
 20
598.1706593012392
 30
0.0
 11
288.3662248776135
 21
598.1706593012392
 31
0.0
  0
LINE
  5
E9
  8
0
  6
CONTINUOUS
 62
     7
 10
251.106725948665
 20
578.9516820669955
 30
0.0
 11
251.106725948665
 21
588.8750366721117
 31
0.0
  0
LINE
  5
EA
  8
0
  6
CONTINUOUS
 62
     7
 10
281.4545990185499
 20
578.9516820669955
 30
0.0
 11
281.4545990185499
 21
588.8750366721117
 31
0.0
  0
LINE
  5
EB
  8
0
  6
CONTINUOUS
 62
     7
 10
251.1067259486649
 20
578.9516820669955
 30
0.0
 11
251.1067259486649
 21
533.6662819303667
 31
0.0
  0
LINE
  5
EC
  8
0
  6
CONTINUOUS
 62
     7
 10
281.4545990185499
 20
578.9516820669955
 30
0.0
 11
281.4545990185499
 21
533.6662819303667
 31
0.0
  0
LINE
  5
ED
  8
0
  6
CONTINUOUS
 62
     7
 10
233.261772829651
 20
489.2284867328308
 30
0.0
 11
233.2642717928763
 21
489.2731582644644
 31
0.0
  0
LINE
  5
EE
  8
0
  6
CONTINUOUS
 62
     7
 10
233.261772829651
 20
496.2706593012392
 30
0.0
 11
233.261772829651
 21
489.2284867328315
 31
0.0
  0
LINE
  5
EF
  8
0
  6
CONTINUOUS
 62
     7
 10
233.6393072868809
 20
441.537880826836
 30
0.0
 11
233.261772829651
 21
439.2706593012392
 31
0.0
  0
LINE
  5
F0
  8
0
  6
CONTINUOUS
 62
     7
 10
233.261772829651
 20
464.3128318696469
 30
0.0
 11
233.261772829651
 21
439.2706593012392
 31
0.0
  0
LINE
  5
F1
  8
0
  6
CONTINUOUS
 62
     7
 10
233.2642717928763
 20
464.2681603380139
 30
0.0
 11
233.261772829651
 21
464.3128318696475
 31
0.0
  0
LINE
  5
F2
  8
0
  6
CONTINUOUS
 62
     7
 10
233.2642717928763
 20
464.2681603380139
 30
0.0
 11
233.3022376969992
 21
464.230194433891
 31
0.0
  0
LINE
  5
F3
  8
0
  6
CONTINUOUS
 62
     7
 10
233.2642717928763
 20
489.2731582644644
 30
0.0
 11
233.3022376969992
 21
489.3111241685874
 31
0.0
  0
LINE
  5
F4
  8
0
  6
CONTINUOUS
 62
     7
 10
233.261772829651
 20
439.2706593012392
 30
0.0
 11
231.9610382342933
 21
439.2706593012392
 31
0.0
  0
POLYLINE
  5
F5
  8
0
  6
CONTINUOUS
 62
     7
 66
     1
 10
0.0
 20
0.0
 30
0.0
  0
VERTEX
  5
2DA
  8
0
  6
CONTINUOUS
 62
     7
 10
230.4616662101709
 20
440.7720318127167
 30
0.0
  0
VERTEX
  5
2DB
  8
0
  6
CONTINUOUS
 62
     7
 10
230.4904726825733
 20
440.4790920406543
 30
0.0
  0
VERTEX
  5
2DC
  8
0
  6
CONTINUOUS
 62
     7
 10
230.5757857247733
 20
440.1974296030574
 30
0.0
  0
VERTEX
  5
2DD
  8
0
  6
CONTINUOUS
 62
     7
 10
230.7143287044787
 20
439.9378623563134
 30
0.0
  0
VERTEX
  5
2DE
  8
0
  6
CONTINUOUS
 62
     7
 10
230.9007805782777
 20
439.7103595431163
 30
0.0
  0
VERTEX
  5
2DF
  8
0
  6
CONTINUOUS
 62
     7
 10
231.1279802578437
 20
439.5236589020935
 30
0.0
  0
VERTEX
  5
2E0
  8
0
  6
CONTINUOUS
 62
     7
 10
231.3872016470534
 20
439.384931076016
 30
0.0
  0
VERTEX
  5
2E1
  8
0
  6
CONTINUOUS
 62
     7
 10
231.6684887866209
 20
439.2995042077213
 30
0.0
  0
VERTEX
  5
2E2
  8
0
  6
CONTINUOUS
 62
     7
 10
231.9610382342933
 20
439.2706593012392
 30
0.0
  0
SEQEND
  5
5C0
  8
0
  6
CONTINUOUS
 62
     7
  0
LINE
  5
F6
  8
0
  6
CONTINUOUS
 62
     7
 10
230.4616662101709
 20
496.2706593012392
 30
0.0
 11
231.1877613788024
 21
496.2706593012392
 31
0.0
  0
LINE
  5
F7
  8
0
  6
CONTINUOUS
 62
     7
 10
231.1877613788024
 20
496.2706593012392
 30
0.0
 11
233.261772829651
 21
496.2706593012392
 31
0.0
  0
POLYLINE
  5
F8
  8
0
  6
CONTINUOUS
 62
     7
 66
     1
 10
0.0
 20
0.0
 30
0.0
  0
VERTEX
  5
2E3
  8
0
  6
CONTINUOUS
 62
     7
 10
233.6806624836074
 20
488.773725675743
 30
0.0
  0
VERTEX
  5
2E4
  8
0
  6
CONTINUOUS
 62
     7
 10
233.6676922019844
 20
488.8689980166859
 30
0.0
  0
VERTEX
  5
2E5
  8
0
  6
CONTINUOUS
 62
     7
 10
233.6292571783346
 20
488.9606620545792
 30
0.0
  0
VERTEX
  5
2E6
  8
0
  6
CONTINUOUS
 62
     7
 10
233.5667674205782
 20
489.0453550486947
 30
0.0
  0
VERTEX
  5
2E7
  8
0
  6
CONTINUOUS
 62
     7
 10
233.4825153964957
 20
489.1199699945049
 30
0.0
  0
VERTEX
  5
2E8
  8
0
  6
CONTINUOUS
 62
     7
 10
233.3795919334097
 20
489.1817696056873
 30
0.0
  0
VERTEX
  5
2E9
  8
0
  6
CONTINUOUS
 62
     7
 10
233.2617728296506
 20
489.2284867328308
 30
0.0
  0
SEQEND
  5
5C1
  8
0
  6
CONTINUOUS
 62
     7
  0
LINE
  5
F9
  8
0
  6
CONTINUOUS
 62
     7
 10
233.6806624836074
 20
488.773725675743
 30
0.0
 11
233.6806624836074
 21
488.2706593012392
 31
0.0
  0
POLYLINE
  5
FA
  8
0
  6
CONTINUOUS
 62
     7
 66
     1
 10
0.0
 20
0.0
 30
0.0
  0
VERTEX
  5
2EA
  8
0
  6
CONTINUOUS
 62
     7
 10
233.2617728296505
 20
487.8140791398373
 30
0.0
  0
VERTEX
  5
2EB
  8
0
  6
CONTINUOUS
 62
     7
 10
233.3795919334097
 20
487.8613094636159
 30
0.0
  0
VERTEX
  5
2EC
  8
0
  6
CONTINUOUS
 62
     7
 10
233.4825153964956
 20
487.9235569893718
 30
0.0
  0
VERTEX
  5
2ED
  8
0
  6
CONTINUOUS
 62
     7
 10
233.5667674205781
 20
487.9985381357257
 30
0.0
  0
VERTEX
  5
2EE
  8
0
  6
CONTINUOUS
 62
     7
 10
233.6292571783346
 20
488.0835021821059
 30
0.0
  0
VERTEX
  5
2EF
  8
0
  6
CONTINUOUS
 62
     7
 10
233.6676922019844
 20
488.1753321802985
 30
0.0
  0
VERTEX
  5
2F0
  8
0
  6
CONTINUOUS
 62
     7
 10
233.6806624836074
 20
488.2706593012392
 30
0.0
  0
SEQEND
  5
5C2
  8
0
  6
CONTINUOUS
 62
     7
  0
LINE
  5
FB
  8
0
  6
CONTINUOUS
 62
     7
 10
233.261772829651
 20
465.7272394626418
 30
0.0
 11
233.261772829651
 21
487.8140791398366
 31
0.0
  0
POLYLINE
  5
FC
  8
0
  6
CONTINUOUS
 62
     7
 66
     1
 10
0.0
 20
0.0
 30
0.0
  0
VERTEX
  5
2F1
  8
0
  6
CONTINUOUS
 62
     7
 10
233.6806624836074
 20
465.2706593012392
 30
0.0
  0
VERTEX
  5
2F2
  8
0
  6
CONTINUOUS
 62
     7
 10
233.6676922019844
 20
465.3659864221799
 30
0.0
  0
VERTEX
  5
2F3
  8
0
  6
CONTINUOUS
 62
     7
 10
233.6292571783346
 20
465.4578164203725
 30
0.0
  0
VERTEX
  5
2F4
  8
0
  6
CONTINUOUS
 62
     7
 10
233.5667674205781
 20
465.5427804667527
 30
0.0
  0
VERTEX
  5
2F5
  8
0
  6
CONTINUOUS
 62
     7
 10
233.4825153964956
 20
465.6177616131066
 30
0.0
  0
VERTEX
  5
2F6
  8
0
  6
CONTINUOUS
 62
     7
 10
233.3795919334097
 20
465.6800091388625
 30
0.0
  0
VERTEX
  5
2F7
  8
0
  6
CONTINUOUS
 62
     7
 10
233.2617728296505
 20
465.7272394626411
 30
0.0
  0
SEQEND
  5
5C3
  8
0
  6
CONTINUOUS
 62
     7
  0
LINE
  5
FD
  8
0
  6
CONTINUOUS
 62
     7
 10
233.6806624836074
 20
465.2706593012392
 30
0.0
 11
233.6806624836074
 21
464.7675929267353
 31
0.0
  0
POLYLINE
  5
FE
  8
0
  6
CONTINUOUS
 62
     7
 66
     1
 10
0.0
 20
0.0
 30
0.0
  0
VERTEX
  5
2F8
  8
0
  6
CONTINUOUS
 62
     7
 10
233.2617728296506
 20
464.3128318696475
 30
0.0
  0
VERTEX
  5
2F9
  8
0
  6
CONTINUOUS
 62
     7
 10
233.3795919334097
 20
464.359548996791
 30
0.0
  0
VERTEX
  5
2FA
  8
0
  6
CONTINUOUS
 62
     7
 10
233.4825153964957
 20
464.4213486079734
 30
0.0
  0
VERTEX
  5
2FB
  8
0
  6
CONTINUOUS
 62
     7
 10
233.5667674205782
 20
464.4959635537837
 30
0.0
  0
VERTEX
  5
2FC
  8
0
  6
CONTINUOUS
 62
     7
 10
233.6292571783346
 20
464.5806565478991
 30
0.0
  0
VERTEX
  5
2FD
  8
0
  6
CONTINUOUS
 62
     7
 10
233.6676922019844
 20
464.6723205857924
 30
0.0
  0
VERTEX
  5
2FE
  8
0
  6
CONTINUOUS
 62
     7
 10
233.6806624836074
 20
464.7675929267353
 30
0.0
  0
SEQEND
  5
5C4
  8
0
  6
CONTINUOUS
 62
     7
  0
LINE
  5
FF
  8
0
  6
CONTINUOUS
 62
     7
 10
230.4616662101709
 20
496.2706593012392
 30
0.0
 11
230.4616662101709
 21
440.7720318127166
 31
0.0
  0
LINE
  5
100
  8
0
  6
CONTINUOUS
 62
     7
 10
230.4878468135432
 20
496.2968399046114
 30
0.0
 11
231.0280920201884
 21
496.2968399046114
 31
0.0
  0
LINE
  5
101
  8
0
  6
CONTINUOUS
 62
     7
 10
230.4878468135432
 20
496.2968399046114
 30
0.0
 11
230.4616662101709
 21
496.2706593012392
 31
0.0
  0
LINE
  5
102
  8
0
  6
CONTINUOUS
 62
     7
 10
233.2642717928763
 20
489.2731582644644
 30
0.0
 11
235.0806624836074
 21
489.2890096658788
 31
0.0
  0
LINE
  5
103
  8
0
  6
CONTINUOUS
 62
     7
 10
235.0806624836074
 20
487.7706593012392
 30
0.0
 11
233.2643102057612
 21
487.7706593012392
 31
0.0
  0
LINE
  5
104
  8
0
  6
CONTINUOUS
 62
     7
 10
233.2643102057612
 20
487.7706593012392
 30
0.0
 11
233.261772829651
 21
487.8140791398374
 31
0.0
  0
LINE
  5
105
  8
0
  6
CONTINUOUS
 62
     7
 10
233.2827173123488
 20
465.7706593012392
 30
0.0
 11
233.2827173123488
 21
487.7706593012392
 31
0.0
  0
LINE
  5
106
  8
0
  6
CONTINUOUS
 62
     7
 10
233.261772829651
 20
465.727239462641
 30
0.0
 11
233.2643102057612
 21
465.7706593012392
 31
0.0
  0
LINE
  5
107
  8
0
  6
CONTINUOUS
 62
     7
 10
233.2643102057612
 20
465.7706593012392
 30
0.0
 11
235.0806624836074
 21
465.7706593012392
 31
0.0
  0
LINE
  5
108
  8
0
  6
CONTINUOUS
 62
     7
 10
235.0806624836074
 20
464.2523089365995
 30
0.0
 11
233.2642717928763
 21
464.2681603380139
 31
0.0
  0
LINE
  5
109
  8
0
  6
CONTINUOUS
 62
     7
 10
298.922017680334
 20
441.537880826836
 30
0.0
 11
299.2995521375639
 21
439.2706593012392
 31
0.0
  0
LINE
  5
10A
  8
0
  6
CONTINUOUS
 62
     7
 10
299.2995521375639
 20
496.2706593012392
 30
0.0
 11
299.2995521375639
 21
489.2284867328315
 31
0.0
  0
LINE
  5
10B
  8
0
  6
CONTINUOUS
 62
     7
 10
299.2970531743386
 20
489.2731582644644
 30
0.0
 11
299.2995521375639
 21
489.2284867328308
 31
0.0
  0
LINE
  5
10C
  8
0
  6
CONTINUOUS
 62
     7
 10
299.2970531743386
 20
489.2731582644645
 30
0.0
 11
299.2590872702157
 21
489.3111241685874
 31
0.0
  0
LINE
  5
10D
  8
0
  6
CONTINUOUS
 62
     7
 10
299.2970531743386
 20
464.2681603380139
 30
0.0
 11
299.2590872702157
 21
464.230194433891
 31
0.0
  0
LINE
  5
10E
  8
0
  6
CONTINUOUS
 62
     7
 10
299.2995521375639
 20
464.3128318696475
 30
0.0
 11
299.2970531743386
 21
464.2681603380138
 31
0.0
  0
LINE
  5
10F
  8
0
  6
CONTINUOUS
 62
     7
 10
299.2995521375639
 20
464.3128318696469
 30
0.0
 11
299.2995521375639
 21
439.2706593012392
 31
0.0
  0
LINE
  5
110
  8
0
  6
CONTINUOUS
 62
     7
 10
299.2995521375639
 20
496.2706593012392
 30
0.0
 11
301.3735635884124
 21
496.2706593012392
 31
0.0
  0
LINE
  5
111
  8
0
  6
CONTINUOUS
 62
     7
 10
301.3735635884124
 20
496.2706593012392
 30
0.0
 11
302.0996587570439
 21
496.2706593012392
 31
0.0
  0
POLYLINE
  5
112
  8
0
  6
CONTINUOUS
 62
     7
 66
     1
 10
0.0
 20
0.0
 30
0.0
  0
VERTEX
  5
2FF
  8
0
  6
CONTINUOUS
 62
     7
 10
300.6002867329215
 20
439.2706593012392
 30
0.0
  0
VERTEX
  5
300
  8
0
  6
CONTINUOUS
 62
     7
 10
300.8928361805939
 20
439.2995042077213
 30
0.0
  0
VERTEX
  5
301
  8
0
  6
CONTINUOUS
 62
     7
 10
301.1741233201614
 20
439.384931076016
 30
0.0
  0
VERTEX
  5
302
  8
0
  6
CONTINUOUS
 62
     7
 10
301.4333447093711
 20
439.5236589020935
 30
0.0
  0
VERTEX
  5
303
  8
0
  6
CONTINUOUS
 62
     7
 10
301.6605443889371
 20
439.7103595431163
 30
0.0
  0
VERTEX
  5
304
  8
0
  6
CONTINUOUS
 62
     7
 10
301.8469962627361
 20
439.9378623563134
 30
0.0
  0
VERTEX
  5
305
  8
0
  6
CONTINUOUS
 62
     7
 10
301.9855392424415
 20
440.1974296030573
 30
0.0
  0
VERTEX
  5
306
  8
0
  6
CONTINUOUS
 62
     7
 10
302.0708522846414
 20
440.4790920406542
 30
0.0
  0
VERTEX
  5
307
  8
0
  6
CONTINUOUS
 62
     7
 10
302.0996587570439
 20
440.7720318127167
 30
0.0
  0
SEQEND
  5
5C5
  8
0
  6
CONTINUOUS
 62
     7
  0
POLYLINE
  5
113
  8
0
  6
CONTINUOUS
 62
     7
 66
     1
 10
0.0
 20
0.0
 30
0.0
  0
VERTEX
  5
308
  8
0
  6
CONTINUOUS
 62
     7
 10
298.8806624836075
 20
464.7675929267353
 30
0.0
  0
VERTEX
  5
309
  8
0
  6
CONTINUOUS
 62
     7
 10
298.8936327652304
 20
464.6723205857924
 30
0.0
  0
VERTEX
  5
30A
  8
0
  6
CONTINUOUS
 62
     7
 10
298.9320677888803
 20
464.580656547899
 30
0.0
  0
VERTEX
  5
30B
  8
0
  6
CONTINUOUS
 62
     7
 10
298.9945575466367
 20
464.4959635537837
 30
0.0
  0
VERTEX
  5
30C
  8
0
  6
CONTINUOUS
 62
     7
 10
299.0788095707192
 20
464.4213486079734
 30
0.0
  0
VERTEX
  5
30D
  8
0
  6
CONTINUOUS
 62
     7
 10
299.1817330338051
 20
464.359548996791
 30
0.0
  0
VERTEX
  5
30E
  8
0
  6
CONTINUOUS
 62
     7
 10
299.2995521375643
 20
464.3128318696474
 30
0.0
  0
SEQEND
  5
5C6
  8
0
  6
CONTINUOUS
 62
     7
  0
LINE
  5
114
  8
0
  6
CONTINUOUS
 62
     7
 10
298.8806624836075
 20
465.2706593012392
 30
0.0
 11
298.8806624836075
 21
464.7675929267353
 31
0.0
  0
POLYLINE
  5
115
  8
0
  6
CONTINUOUS
 62
     7
 66
     1
 10
0.0
 20
0.0
 30
0.0
  0
VERTEX
  5
30F
  8
0
  6
CONTINUOUS
 62
     7
 10
299.2995521375643
 20
465.7272394626411
 30
0.0
  0
VERTEX
  5
310
  8
0
  6
CONTINUOUS
 62
     7
 10
299.1817330338052
 20
465.6800091388625
 30
0.0
  0
VERTEX
  5
311
  8
0
  6
CONTINUOUS
 62
     7
 10
299.0788095707192
 20
465.6177616131066
 30
0.0
  0
VERTEX
  5
312
  8
0
  6
CONTINUOUS
 62
     7
 10
298.9945575466367
 20
465.5427804667528
 30
0.0
  0
VERTEX
  5
313
  8
0
  6
CONTINUOUS
 62
     7
 10
298.9320677888803
 20
465.4578164203725
 30
0.0
  0
VERTEX
  5
314
  8
0
  6
CONTINUOUS
 62
     7
 10
298.8936327652304
 20
465.36598642218
 30
0.0
  0
VERTEX
  5
315
  8
0
  6
CONTINUOUS
 62
     7
 10
298.8806624836075
 20
465.2706593012392
 30
0.0
  0
SEQEND
  5
5C7
  8
0
  6
CONTINUOUS
 62
     7
  0
LINE
  5
116
  8
0
  6
CONTINUOUS
 62
     7
 10
299.2995521375639
 20
465.7272394626418
 30
0.0
 11
299.2995521375639
 21
487.8140791398366
 31
0.0
  0
POLYLINE
  5
117
  8
0
  6
CONTINUOUS
 62
     7
 66
     1
 10
0.0
 20
0.0
 30
0.0
  0
VERTEX
  5
316
  8
0
  6
CONTINUOUS
 62
     7
 10
298.8806624836075
 20
488.2706593012392
 30
0.0
  0
VERTEX
  5
317
  8
0
  6
CONTINUOUS
 62
     7
 10
298.8936327652305
 20
488.1753321802985
 30
0.0
  0
VERTEX
  5
318
  8
0
  6
CONTINUOUS
 62
     7
 10
298.9320677888803
 20
488.0835021821059
 30
0.0
  0
VERTEX
  5
319
  8
0
  6
CONTINUOUS
 62
     7
 10
298.9945575466368
 20
487.9985381357257
 30
0.0
  0
VERTEX
  5
31A
  8
0
  6
CONTINUOUS
 62
     7
 10
299.0788095707193
 20
487.9235569893718
 30
0.0
  0
VERTEX
  5
31B
  8
0
  6
CONTINUOUS
 62
     7
 10
299.1817330338052
 20
487.861309463616
 30
0.0
  0
VERTEX
  5
31C
  8
0
  6
CONTINUOUS
 62
     7
 10
299.2995521375643
 20
487.8140791398374
 30
0.0
  0
SEQEND
  5
5C8
  8
0
  6
CONTINUOUS
 62
     7
  0
LINE
  5
118
  8
0
  6
CONTINUOUS
 62
     7
 10
298.8806624836075
 20
488.773725675743
 30
0.0
 11
298.8806624836075
 21
488.2706593012392
 31
0.0
  0
POLYLINE
  5
119
  8
0
  6
CONTINUOUS
 62
     7
 66
     1
 10
0.0
 20
0.0
 30
0.0
  0
VERTEX
  5
31D
  8
0
  6
CONTINUOUS
 62
     7
 10
299.2995521375643
 20
489.2284867328309
 30
0.0
  0
VERTEX
  5
31E
  8
0
  6
CONTINUOUS
 62
     7
 10
299.1817330338051
 20
489.1817696056874
 30
0.0
  0
VERTEX
  5
31F
  8
0
  6
CONTINUOUS
 62
     7
 10
299.0788095707192
 20
489.119969994505
 30
0.0
  0
VERTEX
  5
320
  8
0
  6
CONTINUOUS
 62
     7
 10
298.9945575466367
 20
489.0453550486947
 30
0.0
  0
VERTEX
  5
321
  8
0
  6
CONTINUOUS
 62
     7
 10
298.9320677888803
 20
488.9606620545793
 30
0.0
  0
VERTEX
  5
322
  8
0
  6
CONTINUOUS
 62
     7
 10
298.8936327652304
 20
488.8689980166859
 30
0.0
  0
VERTEX
  5
323
  8
0
  6
CONTINUOUS
 62
     7
 10
298.8806624836075
 20
488.773725675743
 30
0.0
  0
SEQEND
  5
5C9
  8
0
  6
CONTINUOUS
 62
     7
  0
LINE
  5
11A
  8
0
  6
CONTINUOUS
 62
     7
 10
299.2995521375639
 20
439.2706593012392
 30
0.0
 11
300.6002867329215
 21
439.2706593012392
 31
0.0
  0
LINE
  5
11B
  8
0
  6
CONTINUOUS
 62
     7
 10
302.0996587570439
 20
496.2706593012392
 30
0.0
 11
302.0996587570439
 21
440.7720318127167
 31
0.0
  0
LINE
  5
11C
  8
0
  6
CONTINUOUS
 62
     7
 10
301.5332329470264
 20
496.2968399046114
 30
0.0
 11
302.0734781536717
 21
496.2968399046114
 31
0.0
  0
LINE
  5
11D
  8
0
  6
CONTINUOUS
 62
     7
 10
302.0996587570439
 20
496.2706593012392
 30
0.0
 11
302.0734781536717
 21
496.2968399046114
 31
0.0
  0
LINE
  5
11E
  8
0
  6
CONTINUOUS
 62
     7
 10
297.4806624836074
 20
489.2890096658788
 30
0.0
 11
299.2970531743386
 21
489.2731582644645
 31
0.0
  0
LINE
  5
11F
  8
0
  6
CONTINUOUS
 62
     7
 10
299.2995521375639
 20
487.8140791398374
 30
0.0
 11
299.2970147614536
 21
487.7706593012392
 31
0.0
  0
LINE
  5
120
  8
0
  6
CONTINUOUS
 62
     7
 10
299.2970147614536
 20
487.7706593012392
 30
0.0
 11
297.4806624836074
 21
487.7706593012392
 31
0.0
  0
LINE
  5
121
  8
0
  6
CONTINUOUS
 62
     7
 10
299.2970147614536
 20
465.7706593012392
 30
0.0
 11
299.2995521375639
 21
465.727239462641
 31
0.0
  0
LINE
  5
122
  8
0
  6
CONTINUOUS
 62
     7
 10
299.278607654866
 20
465.7706593012392
 30
0.0
 11
299.278607654866
 21
487.7706593012392
 31
0.0
  0
LINE
  5
123
  8
0
  6
CONTINUOUS
 62
     7
 10
297.4806624836074
 20
465.7706593012392
 30
0.0
 11
299.2970147614536
 21
465.7706593012392
 31
0.0
  0
LINE
  5
124
  8
0
  6
CONTINUOUS
 62
     7
 10
299.2970531743386
 20
464.2681603380139
 30
0.0
 11
297.4806624836074
 21
464.2523089365995
 31
0.0
  0
LINE
  5
125
  8
0
  6
CONTINUOUS
 62
     7
 10
233.3098139428731
 20
489.3110856084053
 30
0.0
 11
233.3022376969992
 21
489.3111241685874
 31
0.0
  0
LINE
  5
126
  8
0
  6
CONTINUOUS
 62
     7
 10
235.0806624836074
 20
489.3021632598085
 30
0.0
 11
233.3098139428731
 21
489.3110856084053
 31
0.0
  0
LINE
  5
127
  8
0
  6
CONTINUOUS
 62
     7
 10
299.2515110243418
 20
489.3110856084053
 30
0.0
 11
297.4806624836074
 21
489.3021632598085
 31
0.0
  0
LINE
  5
128
  8
0
  6
CONTINUOUS
 62
     7
 10
299.2590872702157
 20
489.3111241685874
 30
0.0
 11
299.2515110243418
 21
489.3110856084053
 31
0.0
  0
LINE
  5
129
  8
0
  6
CONTINUOUS
 62
     7
 10
233.3098139428731
 20
464.230232994073
 30
0.0
 11
235.0806624836074
 21
464.2391553426698
 31
0.0
  0
LINE
  5
12A
  8
0
  6
CONTINUOUS
 62
     7
 10
233.3022376969992
 20
464.230194433891
 30
0.0
 11
233.3098139428731
 21
464.230232994073
 31
0.0
  0
LINE
  5
12B
  8
0
  6
CONTINUOUS
 62
     7
 10
299.2515110243418
 20
464.230232994073
 30
0.0
 11
299.2590872702157
 21
464.230194433891
 31
0.0
  0
LINE
  5
12C
  8
0
  6
CONTINUOUS
 62
     7
 10
297.4806624836074
 20
464.2391553426698
 30
0.0
 11
299.2515110243418
 21
464.230232994073
 31
0.0
  0
ARC
  5
12D
  8
0
  6
CONTINUOUS
 62
     7
 10
235.0806624836074
 20
488.2706593012392
 30
0.0
 40
0.5000000000000004
 50
270.0
 51
0.0
  0
LINE
  5
12E
  8
0
  6
CONTINUOUS
 62
     7
 10
235.5806624836074
 20
488.7890287043467
 30
0.0
 11
235.5806624836074
 21
488.2706593012392
 31
0.0
  0
ARC
  5
12F
  8
0
  6
CONTINUOUS
 62
     7
 10
235.0806624836074
 20
465.2706593012392
 30
0.0
 40
0.5000000000000004
 50
0.0
 51
90.0
  0
LINE
  5
130
  8
0
  6
CONTINUOUS
 62
     7
 10
235.5806624836074
 20
465.2706593012392
 30
0.0
 11
235.5806624836074
 21
464.7522898981317
 31
0.0
  0
ARC
  5
131
  8
0
  6
CONTINUOUS
 62
     7
 10
297.4806624836074
 20
488.2706593012392
 30
0.0
 40
0.5000000000000004
 50
180.0
 51
270.0
  0
LINE
  5
132
  8
0
  6
CONTINUOUS
 62
     7
 10
296.9806624836074
 20
488.2706593012392
 30
0.0
 11
296.9806624836074
 21
488.7890287043467
 31
0.0
  0
ARC
  5
133
  8
0
  6
CONTINUOUS
 62
     7
 10
297.4806624836074
 20
465.2706593012392
 30
0.0
 40
0.5000000000000004
 50
90.0
 51
180.0
  0
LINE
  5
134
  8
0
  6
CONTINUOUS
 62
     7
 10
296.9806624836074
 20
464.7522898981317
 30
0.0
 11
296.9806624836074
 21
465.2706593012392
 31
0.0
  0
LINE
  5
135
  8
0
  6
CONTINUOUS
 62
     7
 10
235.5806624836074
 20
488.8021822982765
 30
0.0
 11
235.5806624836074
 21
488.7890287043467
 31
0.0
  0
POLYLINE
  5
136
  8
0
  6
CONTINUOUS
 62
     7
 66
     1
 10
0.0
 20
0.0
 30
0.0
  0
VERTEX
  5
324
  8
0
  6
CONTINUOUS
 62
     7
 10
235.5806624836074
 20
488.8021822982765
 30
0.0
  0
VERTEX
  5
325
  8
0
  6
CONTINUOUS
 62
     7
 10
235.571055123809
 20
488.8997237450637
 30
0.0
  0
VERTEX
  5
326
  8
0
  6
CONTINUOUS
 62
     7
 10
235.5426022498631
 20
488.9935167287528
 30
0.0
  0
VERTEX
  5
327
  8
0
  6
CONTINUOUS
 62
     7
 10
235.4963972897587
 20
489.0799568375802
 30
0.0
  0
VERTEX
  5
328
  8
0
  6
CONTINUOUS
 62
     7
 10
235.4342158742007
 20
489.15572222664
 30
0.0
  0
VERTEX
  5
329
  8
0
  6
CONTINUOUS
 62
     7
 10
235.3584476001172
 20
489.2179012745202
 30
0.0
  0
VERTEX
  5
32A
  8
0
  6
CONTINUOUS
 62
     7
 10
235.27200419979
 20
489.2641044752813
 30
0.0
  0
VERTEX
  5
32B
  8
0
  6
CONTINUOUS
 62
     7
 10
235.1782076446155
 20
489.292556265829
 30
0.0
  0
VERTEX
  5
32C
  8
0
  6
CONTINUOUS
 62
     7
 10
235.0806624836074
 20
489.3021632598085
 30
0.0
  0
SEQEND
  5
5CA
  8
0
  6
CONTINUOUS
 62
     7
  0
LINE
  5
137
  8
0
  6
CONTINUOUS
 62
     7
 10
235.5806624836074
 20
464.7522898981317
 30
0.0
 11
235.5806624836074
 21
464.7391363042018
 31
0.0
  0
POLYLINE
  5
138
  8
0
  6
CONTINUOUS
 62
     7
 66
     1
 10
0.0
 20
0.0
 30
0.0
  0
VERTEX
  5
32D
  8
0
  6
CONTINUOUS
 62
     7
 10
235.0806624836074
 20
464.2391553426698
 30
0.0
  0
VERTEX
  5
32E
  8
0
  6
CONTINUOUS
 62
     7
 10
235.1782076446155
 20
464.2487623366493
 30
0.0
  0
VERTEX
  5
32F
  8
0
  6
CONTINUOUS
 62
     7
 10
235.27200419979
 20
464.2772141271971
 30
0.0
  0
VERTEX
  5
330
  8
0
  6
CONTINUOUS
 62
     7
 10
235.3584476001172
 20
464.3234173279581
 30
0.0
  0
VERTEX
  5
331
  8
0
  6
CONTINUOUS
 62
     7
 10
235.4342158742007
 20
464.3855963758384
 30
0.0
  0
VERTEX
  5
332
  8
0
  6
CONTINUOUS
 62
     7
 10
235.4963972897587
 20
464.4613617648981
 30
0.0
  0
VERTEX
  5
333
  8
0
  6
CONTINUOUS
 62
     7
 10
235.5426022498631
 20
464.5478018737256
 30
0.0
  0
VERTEX
  5
334
  8
0
  6
CONTINUOUS
 62
     7
 10
235.571055123809
 20
464.6415948574146
 30
0.0
  0
VERTEX
  5
335
  8
0
  6
CONTINUOUS
 62
     7
 10
235.5806624836074
 20
464.7391363042018
 30
0.0
  0
SEQEND
  5
5CB
  8
0
  6
CONTINUOUS
 62
     7
  0
LINE
  5
139
  8
0
  6
CONTINUOUS
 62
     7
 10
296.9806624836074
 20
488.7890287043467
 30
0.0
 11
296.9806624836074
 21
488.8021822982765
 31
0.0
  0
POLYLINE
  5
13A
  8
0
  6
CONTINUOUS
 62
     7
 66
     1
 10
0.0
 20
0.0
 30
0.0
  0
VERTEX
  5
336
  8
0
  6
CONTINUOUS
 62
     7
 10
297.4806624836074
 20
489.3021632598085
 30
0.0
  0
VERTEX
  5
337
  8
0
  6
CONTINUOUS
 62
     7
 10
297.3831173225994
 20
489.292556265829
 30
0.0
  0
VERTEX
  5
338
  8
0
  6
CONTINUOUS
 62
     7
 10
297.2893207674249
 20
489.2641044752813
 30
0.0
  0
VERTEX
  5
339
  8
0
  6
CONTINUOUS
 62
     7
 10
297.2028773670976
 20
489.2179012745202
 30
0.0
  0
VERTEX
  5
33A
  8
0
  6
CONTINUOUS
 62
     7
 10
297.1271090930142
 20
489.15572222664
 30
0.0
  0
VERTEX
  5
33B
  8
0
  6
CONTINUOUS
 62
     7
 10
297.0649276774562
 20
489.0799568375802
 30
0.0
  0
VERTEX
  5
33C
  8
0
  6
CONTINUOUS
 62
     7
 10
297.0187227173518
 20
488.9935167287528
 30
0.0
  0
VERTEX
  5
33D
  8
0
  6
CONTINUOUS
 62
     7
 10
296.9902698434058
 20
488.8997237450637
 30
0.0
  0
VERTEX
  5
33E
  8
0
  6
CONTINUOUS
 62
     7
 10
296.9806624836074
 20
488.8021822982765
 30
0.0
  0
SEQEND
  5
5CC
  8
0
  6
CONTINUOUS
 62
     7
  0
LINE
  5
13B
  8
0
  6
CONTINUOUS
 62
     7
 10
296.9806624836074
 20
464.7391363042018
 30
0.0
 11
296.9806624836074
 21
464.7522898981317
 31
0.0
  0
POLYLINE
  5
13C
  8
0
  6
CONTINUOUS
 62
     7
 66
     1
 10
0.0
 20
0.0
 30
0.0
  0
VERTEX
  5
33F
  8
0
  6
CONTINUOUS
 62
     7
 10
296.9806624836074
 20
464.7391363042018
 30
0.0
  0
VERTEX
  5
340
  8
0
  6
CONTINUOUS
 62
     7
 10
296.9902698434058
 20
464.6415948574146
 30
0.0
  0
VERTEX
  5
341
  8
0
  6
CONTINUOUS
 62
     7
 10
297.0187227173518
 20
464.5478018737256
 30
0.0
  0
VERTEX
  5
342
  8
0
  6
CONTINUOUS
 62
     7
 10
297.0649276774562
 20
464.4613617648981
 30
0.0
  0
VERTEX
  5
343
  8
0
  6
CONTINUOUS
 62
     7
 10
297.1271090930142
 20
464.3855963758384
 30
0.0
  0
VERTEX
  5
344
  8
0
  6
CONTINUOUS
 62
     7
 10
297.2028773670976
 20
464.3234173279581
 30
0.0
  0
VERTEX
  5
345
  8
0
  6
CONTINUOUS
 62
     7
 10
297.2893207674249
 20
464.2772141271971
 30
0.0
  0
VERTEX
  5
346
  8
0
  6
CONTINUOUS
 62
     7
 10
297.3831173225994
 20
464.2487623366493
 30
0.0
  0
VERTEX
  5
347
  8
0
  6
CONTINUOUS
 62
     7
 10
297.4806624836074
 20
464.2391553426698
 30
0.0
  0
SEQEND
  5
5CD
  8
0
  6
CONTINUOUS
 62
     7
  0
LINE
  5
13D
  8
0
  6
CONTINUOUS
 62
     7
 10
235.5806624836074
 20
488.2706593012392
 30
0.0
 11
235.5806624836074
 21
465.2706593012392
 31
0.0
  0
LINE
  5
13E
  8
0
  6
CONTINUOUS
 62
     7
 10
296.9806624836074
 20
465.2706593012392
 30
0.0
 11
296.9806624836074
 21
488.2706593012392
 31
0.0
  0
POLYLINE
  5
13F
  8
0
  6
CONTINUOUS
 62
     7
 66
     1
 10
0.0
 20
0.0
 30
0.0
  0
VERTEX
  5
348
  8
0
  6
CONTINUOUS
 62
     7
 10
259.2806624836074
 20
611.2631330767385
 30
0.0
  0
VERTEX
  5
349
  8
0
  6
CONTINUOUS
 62
     7
 10
259.2903455973872
 20
611.1245666358845
 30
0.0
  0
VERTEX
  5
34A
  8
0
  6
CONTINUOUS
 62
     7
 10
259.3190199022375
 20
610.991198015485
 30
0.0
  0
VERTEX
  5
34B
  8
0
  6
CONTINUOUS
 62
     7
 10
259.365574814222
 20
610.8681927129501
 30
0.0
  0
VERTEX
  5
34C
  8
0
  6
CONTINUOUS
 62
     7
 10
259.4282072159613
 20
610.7603148442299
 30
0.0
  0
VERTEX
  5
34D
  8
0
  6
CONTINUOUS
 62
     7
 10
259.5044912931372
 20
610.6717426249335
 30
0.0
  0
VERTEX
  5
34E
  8
0
  6
CONTINUOUS
 62
     7
 10
259.5914724886588
 20
610.6059065439416
 30
0.0
  0
VERTEX
  5
34F
  8
0
  6
CONTINUOUS
 62
     7
 10
259.6857819355556
 20
610.5653564972109
 30
0.0
  0
VERTEX
  5
350
  8
0
  6
CONTINUOUS
 62
     7
 10
259.783766936497
 20
610.5516630278028
 30
0.0
  0
SEQEND
  5
5CE
  8
0
  6
CONTINUOUS
 62
     7
  0
LINE
  5
140
  8
0
  6
CONTINUOUS
 62
     7
 10
259.2806624836074
 20
611.2631330767385
 30
0.0
 11
259.2806624836074
 21
611.9166084829654
 31
0.0
  0
LINE
  5
141
  8
0
  6
CONTINUOUS
 62
     7
 10
273.2806624836074
 20
611.9166084829654
 30
0.0
 11
273.2806624836074
 21
611.2631330767384
 31
0.0
  0
POLYLINE
  5
142
  8
0
  6
CONTINUOUS
 62
     7
 66
     1
 10
0.0
 20
0.0
 30
0.0
  0
VERTEX
  5
351
  8
0
  6
CONTINUOUS
 62
     7
 10
272.7775580307179
 20
610.5516630278028
 30
0.0
  0
VERTEX
  5
352
  8
0
  6
CONTINUOUS
 62
     7
 10
272.8755430316592
 20
610.5653564972109
 30
0.0
  0
VERTEX
  5
353
  8
0
  6
CONTINUOUS
 62
     7
 10
272.969852478556
 20
610.6059065439416
 30
0.0
  0
VERTEX
  5
354
  8
0
  6
CONTINUOUS
 62
     7
 10
273.0568336740777
 20
610.6717426249335
 30
0.0
  0
VERTEX
  5
355
  8
0
  6
CONTINUOUS
 62
     7
 10
273.1331177512535
 20
610.7603148442299
 30
0.0
  0
VERTEX
  5
356
  8
0
  6
CONTINUOUS
 62
     7
 10
273.1957501529928
 20
610.8681927129501
 30
0.0
  0
VERTEX
  5
357
  8
0
  6
CONTINUOUS
 62
     7
 10
273.2423050649772
 20
610.991198015485
 30
0.0
  0
VERTEX
  5
358
  8
0
  6
CONTINUOUS
 62
     7
 10
273.2709793698276
 20
611.1245666358844
 30
0.0
  0
VERTEX
  5
359
  8
0
  6
CONTINUOUS
 62
     7
 10
273.2806624836074
 20
611.2631330767384
 30
0.0
  0
SEQEND
  5
5CF
  8
0
  6
CONTINUOUS
 62
     7
  0
LINE
  5
143
  8
0
  6
CONTINUOUS
 62
     7
 10
272.283766936497
 20
610.5516630278028
 30
0.0
 11
272.7775580307179
 21
610.5516630278028
 31
0.0
  0
POLYLINE
  5
144
  8
0
  6
CONTINUOUS
 62
     7
 66
     1
 10
0.0
 20
0.0
 30
0.0
  0
VERTEX
  5
35A
  8
0
  6
CONTINUOUS
 62
     7
 10
271.7806624836074
 20
611.2631330767385
 30
0.0
  0
VERTEX
  5
35B
  8
0
  6
CONTINUOUS
 62
     7
 10
271.7903455973872
 20
611.1245666358845
 30
0.0
  0
VERTEX
  5
35C
  8
0
  6
CONTINUOUS
 62
     7
 10
271.8190199022375
 20
610.991198015485
 30
0.0
  0
VERTEX
  5
35D
  8
0
  6
CONTINUOUS
 62
     7
 10
271.865574814222
 20
610.8681927129501
 30
0.0
  0
VERTEX
  5
35E
  8
0
  6
CONTINUOUS
 62
     7
 10
271.9282072159613
 20
610.7603148442299
 30
0.0
  0
VERTEX
  5
35F
  8
0
  6
CONTINUOUS
 62
     7
 10
272.0044912931372
 20
610.6717426249335
 30
0.0
  0
VERTEX
  5
360
  8
0
  6
CONTINUOUS
 62
     7
 10
272.0914724886588
 20
610.6059065439416
 30
0.0
  0
VERTEX
  5
361
  8
0
  6
CONTINUOUS
 62
     7
 10
272.1857819355556
 20
610.5653564972109
 30
0.0
  0
VERTEX
  5
362
  8
0
  6
CONTINUOUS
 62
     7
 10
272.283766936497
 20
610.5516630278028
 30
0.0
  0
SEQEND
  5
5D0
  8
0
  6
CONTINUOUS
 62
     7
  0
LINE
  5
145
  8
0
  6
CONTINUOUS
 62
     7
 10
271.7806624836074
 20
611.9166084829654
 30
0.0
 11
271.7806624836074
 21
611.2631330767385
 31
0.0
  0
LINE
  5
146
  8
0
  6
CONTINUOUS
 62
     7
 10
260.7806624836074
 20
611.2631330767384
 30
0.0
 11
260.7806624836074
 21
611.9166084829654
 31
0.0
  0
POLYLINE
  5
147
  8
0
  6
CONTINUOUS
 62
     7
 66
     1
 10
0.0
 20
0.0
 30
0.0
  0
VERTEX
  5
363
  8
0
  6
CONTINUOUS
 62
     7
 10
260.2775580307178
 20
610.5516630278028
 30
0.0
  0
VERTEX
  5
364
  8
0
  6
CONTINUOUS
 62
     7
 10
260.3755430316592
 20
610.5653564972109
 30
0.0
  0
VERTEX
  5
365
  8
0
  6
CONTINUOUS
 62
     7
 10
260.4698524785559
 20
610.6059065439416
 30
0.0
  0
VERTEX
  5
366
  8
0
  6
CONTINUOUS
 62
     7
 10
260.5568336740776
 20
610.6717426249335
 30
0.0
  0
VERTEX
  5
367
  8
0
  6
CONTINUOUS
 62
     7
 10
260.6331177512535
 20
610.7603148442299
 30
0.0
  0
VERTEX
  5
368
  8
0
  6
CONTINUOUS
 62
     7
 10
260.6957501529927
 20
610.8681927129501
 30
0.0
  0
VERTEX
  5
369
  8
0
  6
CONTINUOUS
 62
     7
 10
260.7423050649772
 20
610.9911980154849
 30
0.0
  0
VERTEX
  5
36A
  8
0
  6
CONTINUOUS
 62
     7
 10
260.7709793698275
 20
611.1245666358844
 30
0.0
  0
VERTEX
  5
36B
  8
0
  6
CONTINUOUS
 62
     7
 10
260.7806624836073
 20
611.2631330767384
 30
0.0
  0
SEQEND
  5
5D1
  8
0
  6
CONTINUOUS
 62
     7
  0
LINE
  5
148
  8
0
  6
CONTINUOUS
 62
     7
 10
259.783766936497
 20
610.5516630278028
 30
0.0
 11
260.2775580307179
 21
610.5516630278028
 31
0.0
  0
LINE
  5
149
  8
0
  6
CONTINUOUS
 62
     7
 10
302.0734781536717
 20
496.2968399046114
 30
0.0
 11
302.0734781536717
 21
496.7634749713035
 31
0.0
  0
LINE
  5
14A
  8
0
  6
CONTINUOUS
 62
     7
 10
230.4878468135432
 20
496.7634749713035
 30
0.0
 11
230.4878468135432
 21
496.2968399046114
 31
0.0
  0
LINE
  5
14B
  8
0
  6
CONTINUOUS
 62
     7
 10
259.7916211175087
 20
609.6516630278027
 30
0.0
 11
260.2697038497062
 21
609.6516630278027
 31
0.0
  0
LINE
  5
14C
  8
0
  6
CONTINUOUS
 62
     7
 10
259.7916211175087
 20
609.6516630278027
 30
0.0
 11
259.788535821294
 21
609.6516630278027
 31
0.0
  0
POLYLINE
  5
14D
  8
0
  6
CONTINUOUS
 62
     7
 66
     1
 10
0.0
 20
0.0
 30
0.0
  0
VERTEX
  5
36C
  8
0
  6
CONTINUOUS
 62
     7
 10
259.788535821294
 20
609.6516630278027
 30
0.0
  0
VERTEX
  5
36D
  8
0
  6
CONTINUOUS
 62
     7
 10
259.7640050952467
 20
609.6522652997002
 30
0.0
  0
VERTEX
  5
36E
  8
0
  6
CONTINUOUS
 62
     7
 10
259.7395378197534
 20
609.6540706644666
 30
0.0
  0
VERTEX
  5
36F
  8
0
  6
CONTINUOUS
 62
     7
 10
259.7151929386237
 20
609.6570747728204
 30
0.0
  0
VERTEX
  5
370
  8
0
  6
CONTINUOUS
 62
     7
 10
259.6910291008086
 20
609.6612703876011
 30
0.0
  0
VERTEX
  5
371
  8
0
  6
CONTINUOUS
 62
     7
 10
259.66710451911
 20
609.6666474012054
 30
0.0
  0
VERTEX
  5
372
  8
0
  6
CONTINUOUS
 62
     7
 10
259.6434768299408
 20
609.6731928599365
 30
0.0
  0
VERTEX
  5
373
  8
0
  6
CONTINUOUS
 62
     7
 10
259.6202029544735
 20
609.6808909952113
 30
0.0
  0
VERTEX
  5
374
  8
0
  6
CONTINUOUS
 62
     7
 10
259.5973389615129
 20
609.6897232615471
 30
0.0
  0
VERTEX
  5
375
  8
0
  6
CONTINUOUS
 62
     7
 10
259.5749399324206
 20
609.699668381241
 30
0.0
  0
VERTEX
  5
376
  8
0
  6
CONTINUOUS
 62
     7
 10
259.5530598284196
 20
609.7107023956285
 30
0.0
  0
VERTEX
  5
377
  8
0
  6
CONTINUOUS
 62
     7
 10
259.5317513605968
 20
609.7227987228026
 30
0.0
  0
VERTEX
  5
378
  8
0
  6
CONTINUOUS
 62
     7
 10
259.5110658629179
 20
609.7359282216514
 30
0.0
  0
VERTEX
  5
379
  8
0
  6
CONTINUOUS
 62
     7
 10
259.4910531685584
 20
609.7500592620623
 30
0.0
  0
VERTEX
  5
37A
  8
0
  6
CONTINUOUS
 62
     7
 10
259.4717614898518
 20
609.7651578011214
 30
0.0
  0
VERTEX
  5
37B
  8
0
  6
CONTINUOUS
 62
     7
 10
259.4532373021422
 20
609.7811874651252
 30
0.0
  0
VERTEX
  5
37C
  8
0
  6
CONTINUOUS
 62
     7
 10
259.4355252318201
 20
609.7981096372094
 30
0.0
  0
VERTEX
  5
37D
  8
0
  6
CONTINUOUS
 62
     7
 10
259.4186679488143
 20
609.8158835503792
 30
0.0
  0
VERTEX
  5
37E
  8
0
  6
CONTINUOUS
 62
     7
 10
259.4027060637961
 20
609.8344663857209
 30
0.0
  0
VERTEX
  5
37F
  8
0
  6
CONTINUOUS
 62
     7
 10
259.3876780303447
 20
609.8538133755566
 30
0.0
  0
VERTEX
  5
380
  8
0
  6
CONTINUOUS
 62
     7
 10
259.3736200523089
 20
609.8738779112929
 30
0.0
  0
VERTEX
  5
381
  8
0
  6
CONTINUOUS
 62
     7
 10
259.3605659965891
 20
609.8946116557062
 30
0.0
  0
VERTEX
  5
382
  8
0
  6
CONTINUOUS
 62
     7
 10
259.348547311549
 20
609.9159646593897
 30
0.0
  0
VERTEX
  5
383
  8
0
  6
CONTINUOUS
 62
     7
 10
259.3375929512535
 20
609.9378854810876
 30
0.0
  0
VERTEX
  5
384
  8
0
  6
CONTINUOUS
 62
     7
 10
259.3277293057161
 20
609.9603213116202
 30
0.0
  0
VERTEX
  5
385
  8
0
  6
CONTINUOUS
 62
     7
 10
259.3189801373229
 20
609.9832181011067
 30
0.0
  0
VERTEX
  5
386
  8
0
  6
CONTINUOUS
 62
     7
 10
259.3113665235867
 20
610.0065206891754
 30
0.0
  0
VERTEX
  5
387
  8
0
  6
CONTINUOUS
 62
     7
 10
259.3049068063701
 20
610.0301729378511
 30
0.0
  0
VERTEX
  5
388
  8
0
  6
CONTINUOUS
 62
     7
 10
259.2996165476975
 20
610.0541178667946
 30
0.0
  0
VERTEX
  5
389
  8
0
  6
CONTINUOUS
 62
     7
 10
259.2955084922655
 20
610.0782977905751
 30
0.0
  0
VERTEX
  5
38A
  8
0
  6
CONTINUOUS
 62
     7
 10
259.2925925367394
 20
610.102654457638
 30
0.0
  0
VERTEX
  5
38B
  8
0
  6
CONTINUOUS
 62
     7
 10
259.2908757059117
 20
610.127129190639
 30
0.0
  0
VERTEX
  5
38C
  8
0
  6
CONTINUOUS
 62
     7
 10
259.2903621357779
 20
610.1516630278028
 30
0.0
  0
SEQEND
  5
5D2
  8
0
  6
CONTINUOUS
 62
     7
  0
LINE
  5
14E
  8
0
  6
CONTINUOUS
 62
     7
 10
259.2903621357779
 20
610.1516630278028
 30
0.0
 11
259.2806624836074
 21
611.2631330767385
 31
0.0
  0
POLYLINE
  5
14F
  8
0
  6
CONTINUOUS
 62
     7
 66
     1
 10
0.0
 20
0.0
 30
0.0
  0
VERTEX
  5
38D
  8
0
  6
CONTINUOUS
 62
     7
 10
260.2727891459209
 20
609.6516630278028
 30
0.0
  0
VERTEX
  5
38E
  8
0
  6
CONTINUOUS
 62
     7
 10
260.2973198719681
 20
609.6522652997003
 30
0.0
  0
VERTEX
  5
38F
  8
0
  6
CONTINUOUS
 62
     7
 10
260.3217871474615
 20
609.6540706644668
 30
0.0
  0
VERTEX
  5
390
  8
0
  6
CONTINUOUS
 62
     7
 10
260.3461320285912
 20
609.6570747728205
 30
0.0
  0
VERTEX
  5
391
  8
0
  6
CONTINUOUS
 62
     7
 10
260.3702958664063
 20
609.6612703876013
 30
0.0
  0
VERTEX
  5
392
  8
0
  6
CONTINUOUS
 62
     7
 10
260.3942204481048
 20
609.6666474012055
 30
0.0
  0
VERTEX
  5
393
  8
0
  6
CONTINUOUS
 62
     7
 10
260.4178481372741
 20
609.6731928599368
 30
0.0
  0
VERTEX
  5
394
  8
0
  6
CONTINUOUS
 62
     7
 10
260.4411220127413
 20
609.6808909952114
 30
0.0
  0
VERTEX
  5
395
  8
0
  6
CONTINUOUS
 62
     7
 10
260.463986005702
 20
609.6897232615472
 30
0.0
  0
VERTEX
  5
396
  8
0
  6
CONTINUOUS
 62
     7
 10
260.4863850347942
 20
609.699668381241
 30
0.0
  0
VERTEX
  5
397
  8
0
  6
CONTINUOUS
 62
     7
 10
260.5082651387953
 20
609.7107023956287
 30
0.0
  0
VERTEX
  5
398
  8
0
  6
CONTINUOUS
 62
     7
 10
260.529573606618
 20
609.7227987228027
 30
0.0
  0
VERTEX
  5
399
  8
0
  6
CONTINUOUS
 62
     7
 10
260.550259104297
 20
609.7359282216515
 30
0.0
  0
VERTEX
  5
39A
  8
0
  6
CONTINUOUS
 62
     7
 10
260.5702717986565
 20
609.7500592620626
 30
0.0
  0
VERTEX
  5
39B
  8
0
  6
CONTINUOUS
 62
     7
 10
260.589563477363
 20
609.7651578011215
 30
0.0
  0
VERTEX
  5
39C
  8
0
  6
CONTINUOUS
 62
     7
 10
260.6080876650727
 20
609.7811874651254
 30
0.0
  0
VERTEX
  5
39D
  8
0
  6
CONTINUOUS
 62
     7
 10
260.6257997353948
 20
609.7981096372096
 30
0.0
  0
VERTEX
  5
39E
  8
0
  6
CONTINUOUS
 62
     7
 10
260.6426570184005
 20
609.8158835503795
 30
0.0
  0
VERTEX
  5
39F
  8
0
  6
CONTINUOUS
 62
     7
 10
260.6586189034188
 20
609.834466385721
 30
0.0
  0
VERTEX
  5
3A0
  8
0
  6
CONTINUOUS
 62
     7
 10
260.6736469368701
 20
609.8538133755567
 30
0.0
  0
VERTEX
  5
3A1
  8
0
  6
CONTINUOUS
 62
     7
 10
260.687704914906
 20
609.8738779112931
 30
0.0
  0
VERTEX
  5
3A2
  8
0
  6
CONTINUOUS
 62
     7
 10
260.7007589706257
 20
609.8946116557063
 30
0.0
  0
VERTEX
  5
3A3
  8
0
  6
CONTINUOUS
 62
     7
 10
260.7127776556658
 20
609.9159646593899
 30
0.0
  0
VERTEX
  5
3A4
  8
0
  6
CONTINUOUS
 62
     7
 10
260.7237320159613
 20
609.9378854810877
 30
0.0
  0
VERTEX
  5
3A5
  8
0
  6
CONTINUOUS
 62
     7
 10
260.7335956614987
 20
609.9603213116203
 30
0.0
  0
VERTEX
  5
3A6
  8
0
  6
CONTINUOUS
 62
     7
 10
260.742344829892
 20
609.9832181011068
 30
0.0
  0
VERTEX
  5
3A7
  8
0
  6
CONTINUOUS
 62
     7
 10
260.7499584436281
 20
610.0065206891755
 30
0.0
  0
VERTEX
  5
3A8
  8
0
  6
CONTINUOUS
 62
     7
 10
260.7564181608448
 20
610.0301729378513
 30
0.0
  0
VERTEX
  5
3A9
  8
0
  6
CONTINUOUS
 62
     7
 10
260.7617084195173
 20
610.0541178667947
 30
0.0
  0
VERTEX
  5
3AA
  8
0
  6
CONTINUOUS
 62
     7
 10
260.7658164749494
 20
610.0782977905752
 30
0.0
  0
VERTEX
  5
3AB
  8
0
  6
CONTINUOUS
 62
     7
 10
260.7687324304754
 20
610.1026544576381
 30
0.0
  0
VERTEX
  5
3AC
  8
0
  6
CONTINUOUS
 62
     7
 10
260.7704492613032
 20
610.1271291906392
 30
0.0
  0
VERTEX
  5
3AD
  8
0
  6
CONTINUOUS
 62
     7
 10
260.770962831437
 20
610.1516630278029
 30
0.0
  0
SEQEND
  5
5D3
  8
0
  6
CONTINUOUS
 62
     7
  0
LINE
  5
150
  8
0
  6
CONTINUOUS
 62
     7
 10
260.2727891459209
 20
609.6516630278027
 30
0.0
 11
260.2697038497062
 21
609.6516630278027
 31
0.0
  0
LINE
  5
151
  8
0
  6
CONTINUOUS
 62
     7
 10
260.7806624836074
 20
611.2631330767384
 30
0.0
 11
260.770962831437
 21
610.1516630278028
 31
0.0
  0
LINE
  5
152
  8
0
  6
CONTINUOUS
 62
     7
 10
272.2916211175087
 20
609.6516630278027
 30
0.0
 11
272.7697038497062
 21
609.6516630278027
 31
0.0
  0
LINE
  5
153
  8
0
  6
CONTINUOUS
 62
     7
 10
272.2916211175087
 20
609.6516630278027
 30
0.0
 11
272.288535821294
 21
609.6516630278027
 31
0.0
  0
POLYLINE
  5
154
  8
0
  6
CONTINUOUS
 62
     7
 66
     1
 10
0.0
 20
0.0
 30
0.0
  0
VERTEX
  5
3AE
  8
0
  6
CONTINUOUS
 62
     7
 10
272.288535821294
 20
609.6516630278027
 30
0.0
  0
VERTEX
  5
3AF
  8
0
  6
CONTINUOUS
 62
     7
 10
272.2640050952467
 20
609.6522652997002
 30
0.0
  0
VERTEX
  5
3B0
  8
0
  6
CONTINUOUS
 62
     7
 10
272.2395378197534
 20
609.6540706644666
 30
0.0
  0
VERTEX
  5
3B1
  8
0
  6
CONTINUOUS
 62
     7
 10
272.2151929386237
 20
609.6570747728204
 30
0.0
  0
VERTEX
  5
3B2
  8
0
  6
CONTINUOUS
 62
     7
 10
272.1910291008086
 20
609.6612703876011
 30
0.0
  0
VERTEX
  5
3B3
  8
0
  6
CONTINUOUS
 62
     7
 10
272.16710451911
 20
609.6666474012054
 30
0.0
  0
VERTEX
  5
3B4
  8
0
  6
CONTINUOUS
 62
     7
 10
272.1434768299407
 20
609.6731928599365
 30
0.0
  0
VERTEX
  5
3B5
  8
0
  6
CONTINUOUS
 62
     7
 10
272.1202029544735
 20
609.6808909952113
 30
0.0
  0
VERTEX
  5
3B6
  8
0
  6
CONTINUOUS
 62
     7
 10
272.0973389615129
 20
609.6897232615471
 30
0.0
  0
VERTEX
  5
3B7
  8
0
  6
CONTINUOUS
 62
     7
 10
272.0749399324206
 20
609.699668381241
 30
0.0
  0
VERTEX
  5
3B8
  8
0
  6
CONTINUOUS
 62
     7
 10
272.0530598284196
 20
609.7107023956285
 30
0.0
  0
VERTEX
  5
3B9
  8
0
  6
CONTINUOUS
 62
     7
 10
272.0317513605968
 20
609.7227987228026
 30
0.0
  0
VERTEX
  5
3BA
  8
0
  6
CONTINUOUS
 62
     7
 10
272.0110658629179
 20
609.7359282216514
 30
0.0
  0
VERTEX
  5
3BB
  8
0
  6
CONTINUOUS
 62
     7
 10
271.9910531685583
 20
609.7500592620623
 30
0.0
  0
VERTEX
  5
3BC
  8
0
  6
CONTINUOUS
 62
     7
 10
271.9717614898519
 20
609.7651578011214
 30
0.0
  0
VERTEX
  5
3BD
  8
0
  6
CONTINUOUS
 62
     7
 10
271.9532373021422
 20
609.7811874651252
 30
0.0
  0
VERTEX
  5
3BE
  8
0
  6
CONTINUOUS
 62
     7
 10
271.9355252318201
 20
609.7981096372094
 30
0.0
  0
VERTEX
  5
3BF
  8
0
  6
CONTINUOUS
 62
     7
 10
271.9186679488143
 20
609.8158835503792
 30
0.0
  0
VERTEX
  5
3C0
  8
0
  6
CONTINUOUS
 62
     7
 10
271.9027060637961
 20
609.8344663857209
 30
0.0
  0
VERTEX
  5
3C1
  8
0
  6
CONTINUOUS
 62
     7
 10
271.8876780303447
 20
609.8538133755566
 30
0.0
  0
VERTEX
  5
3C2
  8
0
  6
CONTINUOUS
 62
     7
 10
271.8736200523089
 20
609.8738779112929
 30
0.0
  0
VERTEX
  5
3C3
  8
0
  6
CONTINUOUS
 62
     7
 10
271.8605659965891
 20
609.8946116557062
 30
0.0
  0
VERTEX
  5
3C4
  8
0
  6
CONTINUOUS
 62
     7
 10
271.848547311549
 20
609.9159646593897
 30
0.0
  0
VERTEX
  5
3C5
  8
0
  6
CONTINUOUS
 62
     7
 10
271.8375929512536
 20
609.9378854810876
 30
0.0
  0
VERTEX
  5
3C6
  8
0
  6
CONTINUOUS
 62
     7
 10
271.8277293057161
 20
609.9603213116202
 30
0.0
  0
VERTEX
  5
3C7
  8
0
  6
CONTINUOUS
 62
     7
 10
271.8189801373229
 20
609.9832181011067
 30
0.0
  0
VERTEX
  5
3C8
  8
0
  6
CONTINUOUS
 62
     7
 10
271.8113665235867
 20
610.0065206891754
 30
0.0
  0
VERTEX
  5
3C9
  8
0
  6
CONTINUOUS
 62
     7
 10
271.8049068063701
 20
610.0301729378511
 30
0.0
  0
VERTEX
  5
3CA
  8
0
  6
CONTINUOUS
 62
     7
 10
271.7996165476975
 20
610.0541178667946
 30
0.0
  0
VERTEX
  5
3CB
  8
0
  6
CONTINUOUS
 62
     7
 10
271.7955084922655
 20
610.0782977905751
 30
0.0
  0
VERTEX
  5
3CC
  8
0
  6
CONTINUOUS
 62
     7
 10
271.7925925367395
 20
610.102654457638
 30
0.0
  0
VERTEX
  5
3CD
  8
0
  6
CONTINUOUS
 62
     7
 10
271.7908757059116
 20
610.127129190639
 30
0.0
  0
VERTEX
  5
3CE
  8
0
  6
CONTINUOUS
 62
     7
 10
271.7903621357779
 20
610.1516630278028
 30
0.0
  0
SEQEND
  5
5D4
  8
0
  6
CONTINUOUS
 62
     7
  0
LINE
  5
155
  8
0
  6
CONTINUOUS
 62
     7
 10
271.7903621357779
 20
610.1516630278028
 30
0.0
 11
271.7806624836074
 21
611.2631330767385
 31
0.0
  0
LINE
  5
156
  8
0
  6
CONTINUOUS
 62
     7
 10
273.2806624836074
 20
611.2631330767384
 30
0.0
 11
273.270962831437
 21
610.1516630278028
 31
0.0
  0
POLYLINE
  5
157
  8
0
  6
CONTINUOUS
 62
     7
 66
     1
 10
0.0
 20
0.0
 30
0.0
  0
VERTEX
  5
3CF
  8
0
  6
CONTINUOUS
 62
     7
 10
272.7727891459209
 20
609.6516630278028
 30
0.0
  0
VERTEX
  5
3D0
  8
0
  6
CONTINUOUS
 62
     7
 10
272.7973198719681
 20
609.6522652997003
 30
0.0
  0
VERTEX
  5
3D1
  8
0
  6
CONTINUOUS
 62
     7
 10
272.8217871474615
 20
609.6540706644668
 30
0.0
  0
VERTEX
  5
3D2
  8
0
  6
CONTINUOUS
 62
     7
 10
272.8461320285912
 20
609.6570747728205
 30
0.0
  0
VERTEX
  5
3D3
  8
0
  6
CONTINUOUS
 62
     7
 10
272.8702958664063
 20
609.6612703876013
 30
0.0
  0
VERTEX
  5
3D4
  8
0
  6
CONTINUOUS
 62
     7
 10
272.8942204481048
 20
609.6666474012055
 30
0.0
  0
VERTEX
  5
3D5
  8
0
  6
CONTINUOUS
 62
     7
 10
272.9178481372742
 20
609.6731928599368
 30
0.0
  0
VERTEX
  5
3D6
  8
0
  6
CONTINUOUS
 62
     7
 10
272.9411220127413
 20
609.6808909952114
 30
0.0
  0
VERTEX
  5
3D7
  8
0
  6
CONTINUOUS
 62
     7
 10
272.963986005702
 20
609.6897232615472
 30
0.0
  0
VERTEX
  5
3D8
  8
0
  6
CONTINUOUS
 62
     7
 10
272.9863850347944
 20
609.699668381241
 30
0.0
  0
VERTEX
  5
3D9
  8
0
  6
CONTINUOUS
 62
     7
 10
273.0082651387953
 20
609.7107023956287
 30
0.0
  0
VERTEX
  5
3DA
  8
0
  6
CONTINUOUS
 62
     7
 10
273.029573606618
 20
609.7227987228027
 30
0.0
  0
VERTEX
  5
3DB
  8
0
  6
CONTINUOUS
 62
     7
 10
273.050259104297
 20
609.7359282216515
 30
0.0
  0
VERTEX
  5
3DC
  8
0
  6
CONTINUOUS
 62
     7
 10
273.0702717986566
 20
609.7500592620626
 30
0.0
  0
VERTEX
  5
3DD
  8
0
  6
CONTINUOUS
 62
     7
 10
273.089563477363
 20
609.7651578011215
 30
0.0
  0
VERTEX
  5
3DE
  8
0
  6
CONTINUOUS
 62
     7
 10
273.1080876650727
 20
609.7811874651254
 30
0.0
  0
VERTEX
  5
3DF
  8
0
  6
CONTINUOUS
 62
     7
 10
273.1257997353948
 20
609.7981096372096
 30
0.0
  0
VERTEX
  5
3E0
  8
0
  6
CONTINUOUS
 62
     7
 10
273.1426570184005
 20
609.8158835503795
 30
0.0
  0
VERTEX
  5
3E1
  8
0
  6
CONTINUOUS
 62
     7
 10
273.1586189034188
 20
609.834466385721
 30
0.0
  0
VERTEX
  5
3E2
  8
0
  6
CONTINUOUS
 62
     7
 10
273.1736469368702
 20
609.8538133755567
 30
0.0
  0
VERTEX
  5
3E3
  8
0
  6
CONTINUOUS
 62
     7
 10
273.187704914906
 20
609.8738779112931
 30
0.0
  0
VERTEX
  5
3E4
  8
0
  6
CONTINUOUS
 62
     7
 10
273.2007589706257
 20
609.8946116557063
 30
0.0
  0
VERTEX
  5
3E5
  8
0
  6
CONTINUOUS
 62
     7
 10
273.2127776556659
 20
609.9159646593899
 30
0.0
  0
VERTEX
  5
3E6
  8
0
  6
CONTINUOUS
 62
     7
 10
273.2237320159613
 20
609.9378854810877
 30
0.0
  0
VERTEX
  5
3E7
  8
0
  6
CONTINUOUS
 62
     7
 10
273.2335956614987
 20
609.9603213116202
 30
0.0
  0
VERTEX
  5
3E8
  8
0
  6
CONTINUOUS
 62
     7
 10
273.242344829892
 20
609.9832181011068
 30
0.0
  0
VERTEX
  5
3E9
  8
0
  6
CONTINUOUS
 62
     7
 10
273.2499584436281
 20
610.0065206891755
 30
0.0
  0
VERTEX
  5
3EA
  8
0
  6
CONTINUOUS
 62
     7
 10
273.2564181608448
 20
610.0301729378513
 30
0.0
  0
VERTEX
  5
3EB
  8
0
  6
CONTINUOUS
 62
     7
 10
273.2617084195173
 20
610.0541178667947
 30
0.0
  0
VERTEX
  5
3EC
  8
0
  6
CONTINUOUS
 62
     7
 10
273.2658164749494
 20
610.0782977905752
 30
0.0
  0
VERTEX
  5
3ED
  8
0
  6
CONTINUOUS
 62
     7
 10
273.2687324304754
 20
610.1026544576381
 30
0.0
  0
VERTEX
  5
3EE
  8
0
  6
CONTINUOUS
 62
     7
 10
273.2704492613032
 20
610.1271291906392
 30
0.0
  0
VERTEX
  5
3EF
  8
0
  6
CONTINUOUS
 62
     7
 10
273.270962831437
 20
610.1516630278029
 30
0.0
  0
SEQEND
  5
5D5
  8
0
  6
CONTINUOUS
 62
     7
  0
LINE
  5
158
  8
0
  6
CONTINUOUS
 62
     7
 10
272.7727891459209
 20
609.6516630278027
 30
0.0
 11
272.7697038497062
 21
609.6516630278027
 31
0.0
  0
LINE
  5
159
  8
0
  6
CONTINUOUS
 62
     7
 10
272.288535821294
 20
609.6516630278027
 30
0.0
 11
260.2727891459209
 21
609.6516630278027
 31
0.0
  0
POLYLINE
  5
15A
  8
0
  6
CONTINUOUS
 62
     7
 66
     1
 10
0.0
 20
0.0
 30
0.0
  0
VERTEX
  5
3F0
  8
0
  6
CONTINUOUS
 62
     7
 10
236.9487759532655
 20
441.9660892482998
 30
0.0
  0
VERTEX
  5
3F1
  8
0
  6
CONTINUOUS
 62
     7
 10
235.5548813418022
 20
441.8732995047654
 30
0.0
  0
VERTEX
  5
3F2
  8
0
  6
CONTINUOUS
 62
     7
 10
234.5165679297789
 20
441.7684886982386
 30
0.0
  0
VERTEX
  5
3F3
  8
0
  6
CONTINUOUS
 62
     7
 10
233.8704487539512
 20
441.6553526703287
 30
0.0
  0
VERTEX
  5
3F4
  8
0
  6
CONTINUOUS
 62
     7
 10
233.6393072868809
 20
441.537880826836
 30
0.0
  0
SEQEND
  5
5D6
  8
0
  6
CONTINUOUS
 62
     7
  0
POLYLINE
  5
15B
  8
0
  6
CONTINUOUS
 62
     7
 66
     1
 10
0.0
 20
0.0
 30
0.0
  0
VERTEX
  5
3F5
  8
0
  6
CONTINUOUS
 62
     7
 10
298.922017680334
 20
441.537880826836
 30
0.0
  0
VERTEX
  5
3F6
  8
0
  6
CONTINUOUS
 62
     7
 10
298.6908762132637
 20
441.6553526703287
 30
0.0
  0
VERTEX
  5
3F7
  8
0
  6
CONTINUOUS
 62
     7
 10
298.044757037436
 20
441.7684886982386
 30
0.0
  0
VERTEX
  5
3F8
  8
0
  6
CONTINUOUS
 62
     7
 10
297.0064436254126
 20
441.8732995047654
 30
0.0
  0
VERTEX
  5
3F9
  8
0
  6
CONTINUOUS
 62
     7
 10
295.6125490139494
 20
441.9660892482998
 30
0.0
  0
SEQEND
  5
5D7
  8
0
  6
CONTINUOUS
 62
     7
  0
LINE
  5
15C
  8
0
  6
CONTINUOUS
 62
     7
 10
249.2806624836076
 20
464.2706593012392
 30
0.0
 11
249.2806624836076
 21
442.6447592154837
 31
0.0
  0
LINE
  5
15D
  8
0
  6
CONTINUOUS
 62
     7
 10
249.2806624836076
 20
442.6447592154837
 30
0.0
 11
236.9487759532654
 21
441.9660892482998
 31
0.0
  0
LINE
  5
15E
  8
0
  6
CONTINUOUS
 62
     7
 10
283.2806624836073
 20
464.2706593012392
 30
0.0
 11
283.2806624836073
 21
442.6447592154837
 31
0.0
  0
LINE
  5
15F
  8
0
  6
CONTINUOUS
 62
     7
 10
283.2806624836073
 20
442.6447592154837
 30
0.0
 11
295.6125490139494
 21
441.9660892482998
 31
0.0
  0
LINE
  5
160
  8
0
  6
CONTINUOUS
 62
     7
 10
283.2806624836073
 20
442.6447592154836
 30
0.0
 11
249.2806624836076
 21
442.6447592154836
 31
0.0
  0
ARC
  5
161
  8
0
  6
CONTINUOUS
 62
     7
 10
249.2806624836074
 20
519.2706593012391
 30
0.0
 40
0.099999999999989
 50
90.000000000002
 51
180.0
  0
LINE
  5
162
  8
0
  6
CONTINUOUS
 62
     7
 10
249.3806624836074
 20
519.1206593012391
 30
0.0
 11
249.3806624836074
 21
485.4206593012392
 31
0.0
  0
LINE
  5
163
  8
0
  6
CONTINUOUS
 62
     7
 10
249.2806624836074
 20
519.3706593012391
 30
0.0
 11
283.2806624836074
 21
519.3706593012391
 31
0.0
  0
ARC
  5
164
  8
0
  6
CONTINUOUS
 62
     7
 10
249.4306624836074
 20
519.1206593012391
 30
0.0
 40
0.0499999999999945
 50
90.0
 51
180.0
  0
LINE
  5
165
  8
0
  6
CONTINUOUS
 62
     7
 10
283.1306624836074
 20
519.1706593012392
 30
0.0
 11
249.4306624836074
 21
519.1706593012392
 31
0.0
  0
LINE
  5
166
  8
0
  6
CONTINUOUS
 62
     7
 10
249.1806624836074
 20
485.2706593012392
 30
0.0
 11
249.1806624836074
 21
519.2706593012391
 31
0.0
  0
ARC
  5
167
  8
0
  6
CONTINUOUS
 62
     7
 10
249.4306624836074
 20
485.4206593012392
 30
0.0
 40
0.0499999999999945
 50
180.0
 51
270.0
  0
LINE
  5
168
  8
0
  6
CONTINUOUS
 62
     7
 10
283.2806624836074
 20
485.1706593012392
 30
0.0
 11
249.2806624836074
 21
485.1706593012392
 31
0.0
  0
LINE
  5
169
  8
0
  6
CONTINUOUS
 62
     7
 10
249.4306624836074
 20
485.3706593012392
 30
0.0
 11
283.1306624836074
 21
485.3706593012392
 31
0.0
  0
ARC
  5
16A
  8
0
  6
CONTINUOUS
 62
     7
 10
249.2806624836074
 20
485.2706593012392
 30
0.0
 40
0.099999999999989
 50
180.0
 51
270.0
  0
LINE
  5
16B
  8
0
  6
CONTINUOUS
 62
     7
 10
283.1806624836075
 20
485.4206593012392
 30
0.0
 11
283.1806624836075
 21
519.1206593012391
 31
0.0
  0
ARC
  5
16C
  8
0
  6
CONTINUOUS
 62
     7
 10
283.1306624836074
 20
519.1206593012391
 30
0.0
 40
0.05000000000005
 50
0.0
 51
90.0
  0
ARC
  5
16D
  8
0
  6
CONTINUOUS
 62
     7
 10
283.2806624836074
 20
519.2706593012391
 30
0.0
 40
0.099999999999989
 50
0.0
 51
90.0
  0
LINE
  5
16E
  8
0
  6
CONTINUOUS
 62
     7
 10
283.3806624836074
 20
519.2706593012391
 30
0.0
 11
283.3806624836074
 21
485.2706593012392
 31
0.0
  0
ARC
  5
16F
  8
0
  6
CONTINUOUS
 62
     7
 10
283.1306624836074
 20
485.4206593012392
 30
0.0
 40
0.0499999999999945
 50
270.0
 51
0.0
  0
ARC
  5
170
  8
0
  6
CONTINUOUS
 62
     7
 10
283.2806624836074
 20
485.2706593012392
 30
0.0
 40
0.099999999999989
 50
270.000000000002
 51
0.0
  0
LINE
  5
171
  8
0
  6
CONTINUOUS
 62
     7
 10
257.9806624836074
 20
617.0706593012392
 30
0.0
 11
274.5806624836075
 21
617.0706593012392
 31
0.0
  0
ARC
  5
172
  8
0
  6
CONTINUOUS
 62
     7
 10
257.9806624836074
 20
587.2706593012392
 30
0.0
 40
29.79999999999994
 50
90.00000000000001
 51
148.1023421551503
  0
LINE
  5
173
  8
0
  6
CONTINUOUS
 62
     7
 10
232.6806624836074
 20
603.017087467652
 30
0.0
 11
232.6806624836074
 21
596.1109081665145
 31
0.0
  0
ARC
  5
174
  8
0
  6
CONTINUOUS
 62
     7
 10
257.9806624836074
 20
587.2706593012392
 30
0.0
 40
26.79999999999993
 50
90.00000000000001
 51
160.7397197558068
  0
LINE
  5
175
  8
0
  6
CONTINUOUS
 62
     7
 10
257.9806624836074
 20
614.0706593012392
 30
0.0
 11
274.5806624836075
 21
614.0706593012392
 31
0.0
  0
ARC
  5
176
  8
0
  6
CONTINUOUS
 62
     7
 10
274.5806624836075
 20
587.2706593012392
 30
0.0
 40
26.79999999999993
 50
19.26028024419326
 51
90.0
  0
LINE
  5
177
  8
0
  6
CONTINUOUS
 62
     7
 10
299.8806624836075
 20
603.017087467652
 30
0.0
 11
299.8806624836075
 21
596.1109081665145
 31
0.0
  0
ARC
  5
178
  8
0
  6
CONTINUOUS
 62
     7
 10
274.5806624836075
 20
587.2706593012392
 30
0.0
 40
29.79999999999994
 50
31.89765784484974
 51
90.0
  0
LINE
  5
179
  8
0
  6
CONTINUOUS
 62
     7
 10
304.3806624836075
 20
502.2706593012392
 30
0.0
 11
304.3806624836075
 21
616.7706593012392
 31
0.0
  0
LINE
  5
17A
  8
0
  6
CONTINUOUS
 62
     7
 10
301.3806624836075
 20
616.7706593012392
 30
0.0
 11
304.3806624836075
 21
616.7706593012392
 31
0.0
  0
LINE
  5
17B
  8
0
  6
CONTINUOUS
 62
     7
 10
301.3806624836075
 20
616.7706593012392
 30
0.0
 11
301.3806624836075
 21
502.2706593012392
 31
0.0
  0
LINE
  5
17C
  8
0
  6
CONTINUOUS
 62
     7
 10
301.3806624836075
 20
502.2706593012392
 30
0.0
 11
304.3806624836075
 21
502.2706593012392
 31
0.0
  0
CIRCLE
  5
17D
  8
0
  6
CONTINUOUS
 62
     7
 10
288.7806624836074
 20
600.2418024715389
 30
0.0
 40
2.500000000000002
  0
CIRCLE
  5
17E
  8
0
  6
CONTINUOUS
 62
     7
 10
243.7806624836074
 20
600.2418024715389
 30
0.0
 40
2.500000000000002
  0
LINE
  5
17F
  8
0
  6
CONTINUOUS
 62
     7
 10
258.6234391457583
 20
612.3382309870727
 30
0.0
 11
273.9378858214566
 21
612.3382309870727
 31
0.0
  0
LINE
  5
180
  8
0
  6
CONTINUOUS
 62
     7
 10
258.6234391457583
 20
609.4706593012393
 30
0.0
 11
258.6234391457583
 21
612.3382309870727
 31
0.0
  0
LINE
  5
181
  8
0
  6
CONTINUOUS
 62
     7
 10
258.6234391457583
 20
609.4706593012393
 30
0.0
 11
273.9378858214566
 21
609.4706593012393
 31
0.0
  0
LINE
  5
182
  8
0
  6
CONTINUOUS
 62
     7
 10
273.9378858214566
 20
609.4706593012393
 30
0.0
 11
273.9378858214566
 21
612.3382309870727
 31
0.0
  0
LINE
  5
183
  8
0
  6
CONTINUOUS
 62
     7
 10
296.7806624836074
 20
489.4278826390883
 30
0.0
 11
296.7806624836074
 21
496.2706593012392
 31
0.0
  0
LINE
  5
184
  8
0
  6
CONTINUOUS
 62
     7
 10
296.7806624836074
 20
464.2706593012392
 30
0.0
 11
296.7806624836074
 21
489.4278826390883
 31
0.0
  0
LINE
  5
185
  8
0
  6
CONTINUOUS
 62
     7
 10
283.2802438330223
 20
464.2706593012392
 30
0.0
 11
296.7806624836074
 21
464.2706593012392
 31
0.0
  0
POLYLINE
  5
186
  8
0
  6
CONTINUOUS
 62
     7
 66
     1
 10
0.0
 20
0.0
 30
0.0
  0
VERTEX
  5
3FA
  8
0
  6
CONTINUOUS
 62
     7
 10
283.2802438330223
 20
464.2706593012392
 30
0.0
  0
VERTEX
  5
3FB
  8
0
  6
CONTINUOUS
 62
     7
 10
283.0852108679074
 20
464.2514293635845
 30
0.0
  0
VERTEX
  5
3FC
  8
0
  6
CONTINUOUS
 62
     7
 10
282.8976861081957
 20
464.1944781180546
 30
0.0
  0
VERTEX
  5
3FD
  8
0
  6
CONTINUOUS
 62
     7
 10
282.7248718487226
 20
464.1019929006697
 30
0.0
  0
VERTEX
  5
3FE
  8
0
  6
CONTINUOUS
 62
     7
 10
282.5734053956786
 20
463.9775258066545
 30
0.0
  0
VERTEX
  5
3FF
  8
0
  6
CONTINUOUS
 62
     7
 10
282.4491041464793
 20
463.8258572645231
 30
0.0
  0
VERTEX
  5
400
  8
0
  6
CONTINUOUS
 62
     7
 10
282.356742160009
 20
463.6528124333605
 30
0.0
  0
VERTEX
  5
401
  8
0
  6
CONTINUOUS
 62
     7
 10
282.2998667985424
 20
463.4650374749625
 30
0.0
  0
VERTEX
  5
402
  8
0
  6
CONTINUOUS
 62
     7
 10
282.2806624836074
 20
463.2697442935876
 30
0.0
  0
SEQEND
  5
5D8
  8
0
  6
CONTINUOUS
 62
     7
  0
LINE
  5
187
  8
0
  6
CONTINUOUS
 62
     7
 10
282.2806624836074
 20
463.2697442935876
 30
0.0
 11
282.2806624836074
 21
450.2706212243034
 31
0.0
  0
POLYLINE
  5
188
  8
0
  6
CONTINUOUS
 62
     7
 66
     1
 10
0.0
 20
0.0
 30
0.0
  0
VERTEX
  5
403
  8
0
  6
CONTINUOUS
 62
     7
 10
281.2807005605433
 20
449.2706593012392
 30
0.0
  0
VERTEX
  5
404
  8
0
  6
CONTINUOUS
 62
     7
 10
281.4757875110454
 20
449.2898728954002
 30
0.0
  0
VERTEX
  5
405
  8
0
  6
CONTINUOUS
 62
     7
 10
281.6633751776872
 20
449.3467753815949
 30
0.0
  0
VERTEX
  5
406
  8
0
  6
CONTINUOUS
 62
     7
 10
281.836255368352
 20
449.4391802405296
 30
0.0
  0
VERTEX
  5
407
  8
0
  6
CONTINUOUS
 62
     7
 10
281.9877850363526
 20
449.563536748494
 30
0.0
  0
VERTEX
  5
408
  8
0
  6
CONTINUOUS
 62
     7
 10
282.112141544317
 20
449.7150664164946
 30
0.0
  0
VERTEX
  5
409
  8
0
  6
CONTINUOUS
 62
     7
 10
282.2045464032518
 20
449.8879466071594
 30
0.0
  0
VERTEX
  5
40A
  8
0
  6
CONTINUOUS
 62
     7
 10
282.2614488894465
 20
450.0755342738012
 30
0.0
  0
VERTEX
  5
40B
  8
0
  6
CONTINUOUS
 62
     7
 10
282.2806624836074
 20
450.2706212243033
 30
0.0
  0
SEQEND
  5
5D9
  8
0
  6
CONTINUOUS
 62
     7
  0
LINE
  5
189
  8
0
  6
CONTINUOUS
 62
     7
 10
278.2806244066716
 20
449.2706593012392
 30
0.0
 11
281.2807005605433
 21
449.2706593012392
 31
0.0
  0
POLYLINE
  5
18A
  8
0
  6
CONTINUOUS
 62
     7
 66
     1
 10
0.0
 20
0.0
 30
0.0
  0
VERTEX
  5
40C
  8
0
  6
CONTINUOUS
 62
     7
 10
277.2806624836074
 20
450.2706212243033
 30
0.0
  0
VERTEX
  5
40D
  8
0
  6
CONTINUOUS
 62
     7
 10
277.2998760777684
 20
450.0755342738012
 30
0.0
  0
VERTEX
  5
40E
  8
0
  6
CONTINUOUS
 62
     7
 10
277.3567785639631
 20
449.8879466071594
 30
0.0
  0
VERTEX
  5
40F
  8
0
  6
CONTINUOUS
 62
     7
 10
277.4491834228979
 20
449.7150664164946
 30
0.0
  0
VERTEX
  5
410
  8
0
  6
CONTINUOUS
 62
     7
 10
277.5735399308622
 20
449.563536748494
 30
0.0
  0
VERTEX
  5
411
  8
0
  6
CONTINUOUS
 62
     7
 10
277.7250695988629
 20
449.4391802405296
 30
0.0
  0
VERTEX
  5
412
  8
0
  6
CONTINUOUS
 62
     7
 10
277.8979497895277
 20
449.3467753815949
 30
0.0
  0
VERTEX
  5
413
  8
0
  6
CONTINUOUS
 62
     7
 10
278.0855374561694
 20
449.2898728954002
 30
0.0
  0
VERTEX
  5
414
  8
0
  6
CONTINUOUS
 62
     7
 10
278.2806244066716
 20
449.2706593012392
 30
0.0
  0
SEQEND
  5
5DA
  8
0
  6
CONTINUOUS
 62
     7
  0
LINE
  5
18B
  8
0
  6
CONTINUOUS
 62
     7
 10
277.2806624836074
 20
463.2697442935876
 30
0.0
 11
277.2806624836074
 21
450.2706212243034
 31
0.0
  0
POLYLINE
  5
18C
  8
0
  6
CONTINUOUS
 62
     7
 66
     1
 10
0.0
 20
0.0
 30
0.0
  0
VERTEX
  5
415
  8
0
  6
CONTINUOUS
 62
     7
 10
277.2806624836074
 20
463.2697442935876
 30
0.0
  0
VERTEX
  5
416
  8
0
  6
CONTINUOUS
 62
     7
 10
277.2614581686724
 20
463.4650374749625
 30
0.0
  0
VERTEX
  5
417
  8
0
  6
CONTINUOUS
 62
     7
 10
277.2045828072059
 20
463.6528124333605
 30
0.0
  0
VERTEX
  5
418
  8
0
  6
CONTINUOUS
 62
     7
 10
277.1122208207356
 20
463.8258572645231
 30
0.0
  0
VERTEX
  5
419
  8
0
  6
CONTINUOUS
 62
     7
 10
276.9879195715362
 20
463.9775258066545
 30
0.0
  0
VERTEX
  5
41A
  8
0
  6
CONTINUOUS
 62
     7
 10
276.8364531184922
 20
464.1019929006696
 30
0.0
  0
VERTEX
  5
41B
  8
0
  6
CONTINUOUS
 62
     7
 10
276.6636388590192
 20
464.1944781180546
 30
0.0
  0
VERTEX
  5
41C
  8
0
  6
CONTINUOUS
 62
     7
 10
276.4761140993074
 20
464.2514293635845
 30
0.0
  0
VERTEX
  5
41D
  8
0
  6
CONTINUOUS
 62
     7
 10
276.2810811341926
 20
464.2706593012392
 30
0.0
  0
SEQEND
  5
5DB
  8
0
  6
CONTINUOUS
 62
     7
  0
LINE
  5
18D
  8
0
  6
CONTINUOUS
 62
     7
 10
276.2810811341925
 20
464.2706593012392
 30
0.0
 11
256.2802438330223
 21
464.2706593012392
 31
0.0
  0
POLYLINE
  5
18E
  8
0
  6
CONTINUOUS
 62
     7
 66
     1
 10
0.0
 20
0.0
 30
0.0
  0
VERTEX
  5
41E
  8
0
  6
CONTINUOUS
 62
     7
 10
256.2802438330223
 20
464.2706593012392
 30
0.0
  0
VERTEX
  5
41F
  8
0
  6
CONTINUOUS
 62
     7
 10
256.0852108679073
 20
464.2514293635845
 30
0.0
  0
VERTEX
  5
420
  8
0
  6
CONTINUOUS
 62
     7
 10
255.8976861081956
 20
464.1944781180546
 30
0.0
  0
VERTEX
  5
421
  8
0
  6
CONTINUOUS
 62
     7
 10
255.7248718487226
 20
464.1019929006696
 30
0.0
  0
VERTEX
  5
422
  8
0
  6
CONTINUOUS
 62
     7
 10
255.5734053956786
 20
463.9775258066545
 30
0.0
  0
VERTEX
  5
423
  8
0
  6
CONTINUOUS
 62
     7
 10
255.4491041464792
 20
463.8258572645231
 30
0.0
  0
VERTEX
  5
424
  8
0
  6
CONTINUOUS
 62
     7
 10
255.356742160009
 20
463.6528124333605
 30
0.0
  0
VERTEX
  5
425
  8
0
  6
CONTINUOUS
 62
     7
 10
255.2998667985423
 20
463.4650374749625
 30
0.0
  0
VERTEX
  5
426
  8
0
  6
CONTINUOUS
 62
     7
 10
255.2806624836074
 20
463.2697442935876
 30
0.0
  0
SEQEND
  5
5DC
  8
0
  6
CONTINUOUS
 62
     7
  0
LINE
  5
18F
  8
0
  6
CONTINUOUS
 62
     7
 10
255.2806624836074
 20
463.2697442935876
 30
0.0
 11
255.2806624836074
 21
450.2706212243034
 31
0.0
  0
POLYLINE
  5
190
  8
0
  6
CONTINUOUS
 62
     7
 66
     1
 10
0.0
 20
0.0
 30
0.0
  0
VERTEX
  5
427
  8
0
  6
CONTINUOUS
 62
     7
 10
254.2807005605433
 20
449.2706593012392
 30
0.0
  0
VERTEX
  5
428
  8
0
  6
CONTINUOUS
 62
     7
 10
254.4757875110454
 20
449.2898728954002
 30
0.0
  0
VERTEX
  5
429
  8
0
  6
CONTINUOUS
 62
     7
 10
254.6633751776871
 20
449.3467753815949
 30
0.0
  0
VERTEX
  5
42A
  8
0
  6
CONTINUOUS
 62
     7
 10
254.836255368352
 20
449.4391802405296
 30
0.0
  0
VERTEX
  5
42B
  8
0
  6
CONTINUOUS
 62
     7
 10
254.9877850363526
 20
449.563536748494
 30
0.0
  0
VERTEX
  5
42C
  8
0
  6
CONTINUOUS
 62
     7
 10
255.112141544317
 20
449.7150664164946
 30
0.0
  0
VERTEX
  5
42D
  8
0
  6
CONTINUOUS
 62
     7
 10
255.2045464032518
 20
449.8879466071594
 30
0.0
  0
VERTEX
  5
42E
  8
0
  6
CONTINUOUS
 62
     7
 10
255.2614488894465
 20
450.0755342738012
 30
0.0
  0
VERTEX
  5
42F
  8
0
  6
CONTINUOUS
 62
     7
 10
255.2806624836074
 20
450.2706212243033
 30
0.0
  0
SEQEND
  5
5DD
  8
0
  6
CONTINUOUS
 62
     7
  0
LINE
  5
191
  8
0
  6
CONTINUOUS
 62
     7
 10
254.2807005605432
 20
449.2706593012392
 30
0.0
 11
251.2806244066716
 21
449.2706593012392
 31
0.0
  0
POLYLINE
  5
192
  8
0
  6
CONTINUOUS
 62
     7
 66
     1
 10
0.0
 20
0.0
 30
0.0
  0
VERTEX
  5
430
  8
0
  6
CONTINUOUS
 62
     7
 10
250.2806624836074
 20
450.2706212243033
 30
0.0
  0
VERTEX
  5
431
  8
0
  6
CONTINUOUS
 62
     7
 10
250.2998760777683
 20
450.0755342738012
 30
0.0
  0
VERTEX
  5
432
  8
0
  6
CONTINUOUS
 62
     7
 10
250.3567785639631
 20
449.8879466071594
 30
0.0
  0
VERTEX
  5
433
  8
0
  6
CONTINUOUS
 62
     7
 10
250.4491834228978
 20
449.7150664164946
 30
0.0
  0
VERTEX
  5
434
  8
0
  6
CONTINUOUS
 62
     7
 10
250.5735399308622
 20
449.563536748494
 30
0.0
  0
VERTEX
  5
435
  8
0
  6
CONTINUOUS
 62
     7
 10
250.7250695988628
 20
449.4391802405296
 30
0.0
  0
VERTEX
  5
436
  8
0
  6
CONTINUOUS
 62
     7
 10
250.8979497895277
 20
449.3467753815949
 30
0.0
  0
VERTEX
  5
437
  8
0
  6
CONTINUOUS
 62
     7
 10
251.0855374561694
 20
449.2898728954002
 30
0.0
  0
VERTEX
  5
438
  8
0
  6
CONTINUOUS
 62
     7
 10
251.2806244066716
 20
449.2706593012392
 30
0.0
  0
SEQEND
  5
5DE
  8
0
  6
CONTINUOUS
 62
     7
  0
LINE
  5
193
  8
0
  6
CONTINUOUS
 62
     7
 10
250.2806624836074
 20
463.2697442935876
 30
0.0
 11
250.2806624836074
 21
450.2706212243034
 31
0.0
  0
POLYLINE
  5
194
  8
0
  6
CONTINUOUS
 62
     7
 66
     1
 10
0.0
 20
0.0
 30
0.0
  0
VERTEX
  5
439
  8
0
  6
CONTINUOUS
 62
     7
 10
250.2806624836074
 20
463.2697442935876
 30
0.0
  0
VERTEX
  5
43A
  8
0
  6
CONTINUOUS
 62
     7
 10
250.2614581686725
 20
463.4650374749625
 30
0.0
  0
VERTEX
  5
43B
  8
0
  6
CONTINUOUS
 62
     7
 10
250.2045828072058
 20
463.6528124333605
 30
0.0
  0
VERTEX
  5
43C
  8
0
  6
CONTINUOUS
 62
     7
 10
250.1122208207356
 20
463.8258572645231
 30
0.0
  0
VERTEX
  5
43D
  8
0
  6
CONTINUOUS
 62
     7
 10
249.9879195715362
 20
463.9775258066545
 30
0.0
  0
VERTEX
  5
43E
  8
0
  6
CONTINUOUS
 62
     7
 10
249.8364531184922
 20
464.1019929006697
 30
0.0
  0
VERTEX
  5
43F
  8
0
  6
CONTINUOUS
 62
     7
 10
249.6636388590192
 20
464.1944781180546
 30
0.0
  0
VERTEX
  5
440
  8
0
  6
CONTINUOUS
 62
     7
 10
249.4761140993074
 20
464.2514293635845
 30
0.0
  0
VERTEX
  5
441
  8
0
  6
CONTINUOUS
 62
     7
 10
249.2810811341925
 20
464.2706593012392
 30
0.0
  0
SEQEND
  5
5DF
  8
0
  6
CONTINUOUS
 62
     7
  0
LINE
  5
195
  8
0
  6
CONTINUOUS
 62
     7
 10
249.2810811341925
 20
464.2706593012392
 30
0.0
 11
235.7806624836074
 21
464.2706593012392
 31
0.0
  0
LINE
  5
196
  8
0
  6
CONTINUOUS
 62
     7
 10
235.7806624836074
 20
464.2706593012392
 30
0.0
 11
235.7806624836074
 21
489.4278826390883
 31
0.0
  0
LINE
  5
197
  8
0
  6
CONTINUOUS
 62
     7
 10
235.7806624836074
 20
489.4278826390883
 30
0.0
 11
235.7806624836074
 21
496.2706593012392
 31
0.0
  0
LINE
  5
198
  8
0
  6
CONTINUOUS
 62
     7
 10
235.7806624836074
 20
496.2706593012392
 30
0.0
 11
231.1877613788024
 21
496.2706593012392
 31
0.0
  0
POLYLINE
  5
199
  8
0
  6
CONTINUOUS
 62
     7
 66
     1
 10
0.0
 20
0.0
 30
0.0
  0
VERTEX
  5
442
  8
0
  6
CONTINUOUS
 62
     7
 10
230.8342214504389
 20
496.4171003344078
 30
0.0
  0
VERTEX
  5
443
  8
0
  6
CONTINUOUS
 62
     7
 10
230.9099869410266
 20
496.3549211318248
 30
0.0
  0
VERTEX
  5
444
  8
0
  6
CONTINUOUS
 62
     7
 10
230.9964268988704
 20
496.3087179663699
 30
0.0
  0
VERTEX
  5
445
  8
0
  6
CONTINUOUS
 62
     7
 10
231.0902197508326
 20
496.2802662576185
 30
0.0
  0
VERTEX
  5
446
  8
0
  6
CONTINUOUS
 62
     7
 10
231.1877613788024
 20
496.2706593012392
 30
0.0
  0
SEQEND
  5
5E0
  8
0
  6
CONTINUOUS
 62
     7
  0
LINE
  5
19A
  8
0
  6
CONTINUOUS
 62
     7
 10
230.8342214504389
 20
496.4171003344078
 30
0.0
 11
223.6029929539437
 21
503.6483288309029
 31
0.0
  0
ARC
  5
19B
  8
0
  6
CONTINUOUS
 62
     7
 10
241.2806624836075
 20
521.3259983605666
 30
0.0
 40
25.00000000000001
 50
180.0
 51
224.9999999999999
  0
LINE
  5
19C
  8
0
  6
CONTINUOUS
 62
     7
 10
216.2806624836074
 20
521.3259983605666
 30
0.0
 11
216.2806624836074
 21
594.2706593012392
 31
0.0
  0
ARC
  5
19D
  8
0
  6
CONTINUOUS
 62
     7
 10
251.2806624836075
 20
594.2706593012392
 30
0.0
 40
35.00000000000003
 50
90.00000000000006
 51
180.0
  0
LINE
  5
19E
  8
0
  6
CONTINUOUS
 62
     7
 10
251.2806624836074
 20
629.2706593012392
 30
0.0
 11
281.2806624836074
 21
629.2706593012392
 31
0.0
  0
ARC
  5
19F
  8
0
  6
CONTINUOUS
 62
     7
 10
281.2806624836074
 20
594.2706593012392
 30
0.0
 40
35.00000000000003
 50
359.9999999999999
 51
89.99999999999994
  0
LINE
  5
1A0
  8
0
  6
CONTINUOUS
 62
     7
 10
316.2806624836074
 20
521.3259983605666
 30
0.0
 11
316.2806624836074
 21
594.2706593012392
 31
0.0
  0
ARC
  5
1A1
  8
0
  6
CONTINUOUS
 62
     7
 10
291.2806624836074
 20
521.3259983605666
 30
0.0
 40
24.99999999999999
 50
315.0000000000001
 51
0.0
  0
LINE
  5
1A2
  8
0
  6
CONTINUOUS
 62
     7
 10
301.727103516776
 20
496.4171003344078
 30
0.0
 11
308.9583320132711
 21
503.6483288309029
 31
0.0
  0
POLYLINE
  5
1A3
  8
0
  6
CONTINUOUS
 62
     7
 66
     1
 10
0.0
 20
0.0
 30
0.0
  0
VERTEX
  5
447
  8
0
  6
CONTINUOUS
 62
     7
 10
301.3735635884124
 20
496.2706593012392
 30
0.0
  0
VERTEX
  5
448
  8
0
  6
CONTINUOUS
 62
     7
 10
301.4711052163822
 20
496.2802662576185
 30
0.0
  0
VERTEX
  5
449
  8
0
  6
CONTINUOUS
 62
     7
 10
301.5648980683444
 20
496.3087179663699
 30
0.0
  0
VERTEX
  5
44A
  8
0
  6
CONTINUOUS
 62
     7
 10
301.6513380261882
 20
496.3549211318248
 30
0.0
  0
VERTEX
  5
44B
  8
0
  6
CONTINUOUS
 62
     7
 10
301.7271035167759
 20
496.4171003344078
 30
0.0
  0
SEQEND
  5
5E1
  8
0
  6
CONTINUOUS
 62
     7
  0
LINE
  5
1A4
  8
0
  6
CONTINUOUS
 62
     7
 10
296.7806624836074
 20
496.2706593012392
 30
0.0
 11
301.3735635884124
 21
496.2706593012392
 31
0.0
  0
CIRCLE
  5
1A5
  8
0
  6
CONTINUOUS
 62
     7
 10
266.2806624836074
 20
561.2706593012392
 30
0.0
 40
31.5
  0
CIRCLE
  5
1A6
  8
0
  6
CONTINUOUS
 62
     7
 10
266.2806624836074
 20
474.2706593012392
 30
0.0
 40
2.500000000000002
  0
LINE
  5
1A7
  8
0
  6
CONTINUOUS
 62
     7
 10
231.1806624836074
 20
616.7706593012392
 30
0.0
 11
228.1806624836074
 21
616.7706593012392
 31
0.0
  0
LINE
  5
1A8
  8
0
  6
CONTINUOUS
 62
     7
 10
228.1806624836074
 20
502.2706593012392
 30
0.0
 11
228.1806624836074
 21
616.7706593012392
 31
0.0
  0
LINE
  5
1A9
  8
0
  6
CONTINUOUS
 62
     7
 10
231.1806624836074
 20
502.2706593012392
 30
0.0
 11
228.1806624836074
 21
502.2706593012392
 31
0.0
  0
LINE
  5
1AA
  8
0
  6
CONTINUOUS
 62
     7
 10
231.1806624836074
 20
616.7706593012392
 30
0.0
 11
231.1806624836074
 21
502.2706593012392
 31
0.0
  0
LINE
  5
1AB
  8
0
  6
CONTINUOUS
 62
     7
 10
258.7806624836074
 20
611.9166084829654
 30
0.0
 11
258.7806624836074
 21
609.4706593012393
 31
0.0
  0
LINE
  5
1AC
  8
0
  6
CONTINUOUS
 62
     7
 10
258.6234391457583
 20
612.3382309870727
 30
0.0
 11
258.7806624836074
 21
611.9166084829654
 31
0.0
  0
LINE
  5
1AD
  8
0
  6
CONTINUOUS
 62
     7
 10
273.9378858214566
 20
612.3382309870727
 30
0.0
 11
273.7806624836074
 21
611.9166084829654
 31
0.0
  0
LINE
  5
1AE
  8
0
  6
CONTINUOUS
 62
     7
 10
273.7806624836074
 20
611.9166084829654
 30
0.0
 11
273.2806624836074
 21
611.9166084829654
 31
0.0
  0
LINE
  5
1AF
  8
0
  6
CONTINUOUS
 62
     7
 10
273.2806624836074
 20
611.9166084829654
 30
0.0
 11
271.7806624836074
 21
611.9166084829654
 31
0.0
  0
LINE
  5
1B0
  8
0
  6
CONTINUOUS
 62
     7
 10
271.7806624836074
 20
611.9166084829654
 30
0.0
 11
260.7806624836074
 21
611.9166084829654
 31
0.0
  0
LINE
  5
1B1
  8
0
  6
CONTINUOUS
 62
     7
 10
260.7806624836074
 20
611.9166084829654
 30
0.0
 11
259.2806624836074
 21
611.9166084829654
 31
0.0
  0
LINE
  5
1B2
  8
0
  6
CONTINUOUS
 62
     7
 10
259.2806624836074
 20
611.9166084829654
 30
0.0
 11
258.7806624836074
 21
611.9166084829654
 31
0.0
  0
LINE
  5
1B3
  8
0
  6
CONTINUOUS
 62
     7
 10
273.7806624836074
 20
611.9166084829654
 30
0.0
 11
273.7806624836074
 21
609.4706593012393
 31
0.0
  0
LINE
  5
1B4
  8
0
  6
CONTINUOUS
 62
     7
 10
231.159863210912
 20
616.7498600285437
 30
0.0
 11
231.1806624836074
 21
616.7706593012392
 31
0.0
  0
LINE
  5
1B5
  8
0
  6
CONTINUOUS
 62
     7
 10
228.1806624836074
 20
616.7706593012392
 30
0.0
 11
231.159863210912
 21
616.7498600285437
 31
0.0
  0
LINE
  5
1B6
  8
0
  6
CONTINUOUS
 62
     7
 10
231.159863210912
 20
616.7498600285437
 30
0.0
 11
231.159863210912
 21
502.2914585739346
 31
0.0
  0
LINE
  5
1B7
  8
0
  6
CONTINUOUS
 62
     7
 10
228.1806624836074
 20
502.2706593012392
 30
0.0
 11
231.159863210912
 21
502.2914585739346
 31
0.0
  0
LINE
  5
1B8
  8
0
  6
CONTINUOUS
 62
     7
 10
231.159863210912
 20
502.2914585739346
 30
0.0
 11
231.1806624836074
 21
502.2706593012392
 31
0.0
  0
ARC
  5
1B9
  8
0
  6
CONTINUOUS
 62
     7
 10
257.9806624836074
 20
587.2706593012392
 30
0.0
 40
26.82251953458836
 50
90.00000000000001
 51
160.458196290157
  0
LINE
  5
1BA
  8
0
  6
CONTINUOUS
 62
     7
 10
232.6806624836074
 20
603.017087467652
 30
0.0
 11
232.7031820181958
 21
596.2426454528173
 31
0.0
  0
LINE
  5
1BB
  8
0
  6
CONTINUOUS
 62
     7
 10
232.7031820181958
 20
596.2426454528173
 30
0.0
 11
232.6806624836074
 21
596.1109081665145
 31
0.0
  0
LINE
  5
1BC
  8
0
  6
CONTINUOUS
 62
     7
 10
257.9806624836074
 20
614.0931788358275
 30
0.0
 11
274.5806624836075
 21
614.0931788358275
 31
0.0
  0
LINE
  5
1BD
  8
0
  6
CONTINUOUS
 62
     7
 10
299.858142949019
 20
596.2426454528173
 30
0.0
 11
299.8806624836075
 21
603.017087467652
 31
0.0
  0
ARC
  5
1BE
  8
0
  6
CONTINUOUS
 62
     7
 10
274.5806624836075
 20
587.2706593012392
 30
0.0
 40
26.82251953458836
 50
19.54180370984301
 51
90.0
  0
LINE
  5
1BF
  8
0
  6
CONTINUOUS
 62
     7
 10
299.858142949019
 20
596.2426454528173
 30
0.0
 11
299.8806624836075
 21
596.1109081665145
 31
0.0
  0
LINE
  5
1C0
  8
0
  6
CONTINUOUS
 62
     7
 10
304.3806624836075
 20
616.7706593012392
 30
0.0
 11
301.4014617563029
 21
616.7498600285437
 31
0.0
  0
LINE
  5
1C1
  8
0
  6
CONTINUOUS
 62
     7
 10
301.4014617563029
 20
616.7498600285437
 30
0.0
 11
301.3806624836075
 21
616.7706593012392
 31
0.0
  0
LINE
  5
1C2
  8
0
  6
CONTINUOUS
 62
     7
 10
304.3806624836075
 20
502.2706593012392
 30
0.0
 11
301.4014617563029
 21
502.2914585739346
 31
0.0
  0
LINE
  5
1C3
  8
0
  6
CONTINUOUS
 62
     7
 10
301.4014617563029
 20
616.7498600285437
 30
0.0
 11
301.4014617563029
 21
502.2914585739346
 31
0.0
  0
LINE
  5
1C4
  8
0
  6
CONTINUOUS
 62
     7
 10
301.4014617563029
 20
502.2914585739346
 30
0.0
 11
301.3806624836075
 21
502.2706593012392
 31
0.0
  0
POLYLINE
  5
1C5
  8
0
  6
CONTINUOUS
 62
     7
 66
     1
 10
0.0
 20
0.0
 30
0.0
  0
VERTEX
  5
44C
  8
0
  6
CONTINUOUS
 62
     7
 10
270.9791645732232
 20
467.1872930030815
 30
0.0
  0
VERTEX
  5
44D
  8
0
  6
CONTINUOUS
 62
     7
 10
270.9620878951629
 20
467.1754458272142
 30
0.0
  0
VERTEX
  5
44E
  8
0
  6
CONTINUOUS
 62
     7
 10
270.9455036017423
 20
467.1628888792166
 30
0.0
  0
VERTEX
  5
44F
  8
0
  6
CONTINUOUS
 62
     7
 10
270.9294539067112
 20
467.1496554777356
 30
0.0
  0
VERTEX
  5
450
  8
0
  6
CONTINUOUS
 62
     7
 10
270.9139810238195
 20
467.1357789414175
 30
0.0
  0
VERTEX
  5
451
  8
0
  6
CONTINUOUS
 62
     7
 10
270.8986772642673
 20
467.1208387896704
 30
0.0
  0
VERTEX
  5
452
  8
0
  6
CONTINUOUS
 62
     7
 10
270.8840126024417
 20
467.1052439458111
 30
0.0
  0
VERTEX
  5
453
  8
0
  6
CONTINUOUS
 62
     7
 10
270.8700263110435
 20
467.0890379297755
 30
0.0
  0
VERTEX
  5
454
  8
0
  6
CONTINUOUS
 62
     7
 10
270.8567576627738
 20
467.0722642614997
 30
0.0
  0
VERTEX
  5
455
  8
0
  6
CONTINUOUS
 62
     7
 10
270.8445645516813
 20
467.0554327618979
 30
0.0
  0
VERTEX
  5
456
  8
0
  6
CONTINUOUS
 62
     7
 10
270.8330712646689
 20
467.0380942638887
 30
0.0
  0
VERTEX
  5
457
  8
0
  6
CONTINUOUS
 62
     7
 10
270.8223066434437
 20
467.0202942095124
 30
0.0
  0
VERTEX
  5
458
  8
0
  6
CONTINUOUS
 62
     7
 10
270.8122995297127
 20
467.0020780408091
 30
0.0
  0
VERTEX
  5
459
  8
0
  6
CONTINUOUS
 62
     7
 10
270.8028042177012
 20
466.982913538344
 30
0.0
  0
VERTEX
  5
45A
  8
0
  6
CONTINUOUS
 62
     7
 10
270.7941291081128
 20
466.9633426238805
 30
0.0
  0
VERTEX
  5
45B
  8
0
  6
CONTINUOUS
 62
     7
 10
270.7862968775397
 20
466.9434194161149
 30
0.0
  0
VERTEX
  5
45C
  8
0
  6
CONTINUOUS
 62
     7
 10
270.7793302025736
 20
466.9231980337437
 30
0.0
  0
VERTEX
  5
45D
  8
0
  6
CONTINUOUS
 62
     7
 10
270.7733998749912
 20
466.9032849372045
 30
0.0
  0
VERTEX
  5
45E
  8
0
  6
CONTINUOUS
 62
     7
 10
270.7682976221525
 20
466.883125205916
 30
0.0
  0
VERTEX
  5
45F
  8
0
  6
CONTINUOUS
 62
     7
 10
270.7640356052268
 20
466.8627712670452
 30
0.0
  0
VERTEX
  5
460
  8
0
  6
CONTINUOUS
 62
     7
 10
270.7606259853833
 20
466.8422755477594
 30
0.0
  0
VERTEX
  5
461
  8
0
  6
CONTINUOUS
 62
     7
 10
270.7580131517269
 20
466.8210545407335
 30
0.0
  0
VERTEX
  5
462
  8
0
  6
CONTINUOUS
 62
     7
 10
270.7563086377896
 20
466.7997216689385
 30
0.0
  0
VERTEX
  5
463
  8
0
  6
CONTINUOUS
 62
     7
 10
270.7555159017072
 20
466.7783354995628
 30
0.0
  0
VERTEX
  5
464
  8
0
  6
CONTINUOUS
 62
     7
 10
270.7556384016152
 20
466.7569545997953
 30
0.0
  0
VERTEX
  5
465
  8
0
  6
CONTINUOUS
 62
     7
 10
270.7566363017046
 20
466.7362098620501
 30
0.0
  0
VERTEX
  5
466
  8
0
  6
CONTINUOUS
 62
     7
 10
270.7584967845493
 20
466.7155065940626
 30
0.0
  0
VERTEX
  5
467
  8
0
  6
CONTINUOUS
 62
     7
 10
270.7612139441255
 20
466.6948982537531
 30
0.0
  0
VERTEX
  5
468
  8
0
  6
CONTINUOUS
 62
     7
 10
270.7647818744099
 20
466.6744382990421
 30
0.0
  0
VERTEX
  5
469
  8
0
  6
CONTINUOUS
 62
     7
 10
270.7693411731154
 20
466.6535581646087
 30
0.0
  0
VERTEX
  5
46A
  8
0
  6
CONTINUOUS
 62
     7
 10
270.7747940041719
 20
466.6328731106923
 30
0.0
  0
VERTEX
  5
46B
  8
0
  6
CONTINUOUS
 62
     7
 10
270.781124222638
 20
466.6124394827395
 30
0.0
  0
VERTEX
  5
46C
  8
0
  6
CONTINUOUS
 62
     7
 10
270.7883156835721
 20
466.5923136261969
 30
0.0
  0
VERTEX
  5
46D
  8
0
  6
CONTINUOUS
 62
     7
 10
270.7961236397479
 20
466.5730735965759
 30
0.0
  0
VERTEX
  5
46E
  8
0
  6
CONTINUOUS
 62
     7
 10
270.8047314763126
 20
466.5541581484788
 30
0.0
  0
VERTEX
  5
46F
  8
0
  6
CONTINUOUS
 62
     7
 10
270.8141159084382
 20
466.535615723936
 30
0.0
  0
VERTEX
  5
470
  8
0
  6
CONTINUOUS
 62
     7
 10
270.8242536512964
 20
466.5174947649772
 30
0.0
  0
VERTEX
  5
471
  8
0
  6
CONTINUOUS
 62
     7
 10
270.8354653033329
 20
466.4993056809012
 30
0.0
  0
VERTEX
  5
472
  8
0
  6
CONTINUOUS
 62
     7
 10
270.8474550679812
 20
466.4815961908477
 30
0.0
  0
VERTEX
  5
473
  8
0
  6
CONTINUOUS
 62
     7
 10
270.8601890659208
 20
466.4644140519118
 30
0.0
  0
VERTEX
  5
474
  8
0
  6
CONTINUOUS
 62
     7
 10
270.8736334178307
 20
466.4478070211887
 30
0.0
  0
VERTEX
  5
475
  8
0
  6
CONTINUOUS
 62
     7
 10
270.8873702265594
 20
466.4322347623337
 30
0.0
  0
VERTEX
  5
476
  8
0
  6
CONTINUOUS
 62
     7
 10
270.9017543226053
 20
466.4172334678113
 30
0.0
  0
VERTEX
  5
477
  8
0
  6
CONTINUOUS
 62
     7
 10
270.9167476961182
 20
466.4028411109505
 30
0.0
  0
VERTEX
  5
478
  8
0
  6
CONTINUOUS
 62
     7
 10
270.9323123372483
 20
466.3890956650807
 30
0.0
  0
VERTEX
  5
479
  8
0
  6
CONTINUOUS
 62
     7
 10
270.9489125695166
 20
466.3756413731035
 30
0.0
  0
VERTEX
  5
47A
  8
0
  6
CONTINUOUS
 62
     7
 10
270.9660881959372
 20
466.3628969763261
 30
0.0
  0
VERTEX
  5
47B
  8
0
  6
CONTINUOUS
 62
     7
 10
270.9837914600573
 20
466.3508962928222
 30
0.0
  0
VERTEX
  5
47C
  8
0
  6
CONTINUOUS
 62
     7
 10
271.0019746054238
 20
466.3396731406663
 30
0.0
  0
VERTEX
  5
47D
  8
0
  6
CONTINUOUS
 62
     7
 10
271.0200962346513
 20
466.3295202969117
 30
0.0
  0
VERTEX
  5
47E
  8
0
  6
CONTINUOUS
 62
     7
 10
271.0386398490767
 20
466.3201206023544
 30
0.0
  0
VERTEX
  5
47F
  8
0
  6
CONTINUOUS
 62
     7
 10
271.0575570069732
 20
466.3114973091866
 30
0.0
  0
VERTEX
  5
480
  8
0
  6
CONTINUOUS
 62
     7
 10
271.0767992666138
 20
466.3036736696006
 30
0.0
  0
VERTEX
  5
481
  8
0
  6
CONTINUOUS
 62
     7
 10
271.0969225449356
 20
466.2964675789461
 30
0.0
  0
VERTEX
  5
482
  8
0
  6
CONTINUOUS
 62
     7
 10
271.1173539741827
 20
466.2901219361968
 30
0.0
  0
VERTEX
  5
483
  8
0
  6
CONTINUOUS
 62
     7
 10
271.1380372964805
 20
466.2846528572744
 30
0.0
  0
VERTEX
  5
484
  8
0
  6
CONTINUOUS
 62
     7
 10
271.1589162539547
 20
466.2800764581001
 30
0.0
  0
VERTEX
  5
485
  8
0
  6
CONTINUOUS
 62
     7
 10
271.182857300699
 20
466.275968862193
 30
0.0
  0
VERTEX
  5
486
  8
0
  6
CONTINUOUS
 62
     7
 10
271.2069979953295
 20
466.2730246217607
 30
0.0
  0
VERTEX
  5
487
  8
0
  6
CONTINUOUS
 62
     7
 10
271.2312528871053
 20
466.2712520102829
 30
0.0
  0
VERTEX
  5
488
  8
0
  6
CONTINUOUS
 62
     7
 10
271.2555365252852
 20
466.2706593012392
 30
0.0
  0
SEQEND
  5
5E2
  8
0
  6
CONTINUOUS
 62
     7
  0
POLYLINE
  5
1C6
  8
0
  6
CONTINUOUS
 62
     7
 66
     1
 10
0.0
 20
0.0
 30
0.0
  0
VERTEX
  5
489
  8
0
  6
CONTINUOUS
 62
     7
 10
261.3057884419297
 20
466.2706593012392
 30
0.0
  0
VERTEX
  5
48A
  8
0
  6
CONTINUOUS
 62
     7
 10
261.326567776528
 20
466.2710926046228
 30
0.0
  0
VERTEX
  5
48B
  8
0
  6
CONTINUOUS
 62
     7
 10
261.3473291258404
 20
466.2723895605138
 30
0.0
  0
VERTEX
  5
48C
  8
0
  6
CONTINUOUS
 62
     7
 10
261.368018894197
 20
466.274545737522
 30
0.0
  0
VERTEX
  5
48D
  8
0
  6
CONTINUOUS
 62
     7
 10
261.3885834859279
 20
466.2775567042573
 30
0.0
  0
VERTEX
  5
48E
  8
0
  6
CONTINUOUS
 62
     7
 10
261.4095950702227
 20
466.2815475067643
 30
0.0
  0
VERTEX
  5
48F
  8
0
  6
CONTINUOUS
 62
     7
 10
261.4304359614518
 20
466.2864371593884
 30
0.0
  0
VERTEX
  5
490
  8
0
  6
CONTINUOUS
 62
     7
 10
261.4510493759185
 20
466.2922111039159
 30
0.0
  0
VERTEX
  5
491
  8
0
  6
CONTINUOUS
 62
     7
 10
261.4713785299263
 20
466.298854782133
 30
0.0
  0
VERTEX
  5
492
  8
0
  6
CONTINUOUS
 62
     7
 10
261.4908433659024
 20
466.306141172576
 30
0.0
  0
VERTEX
  5
493
  8
0
  6
CONTINUOUS
 62
     7
 10
261.5100052633869
 20
466.3142369018586
 30
0.0
  0
VERTEX
  5
494
  8
0
  6
CONTINUOUS
 62
     7
 10
261.5288150687489
 20
466.3231200441202
 30
0.0
  0
VERTEX
  5
495
  8
0
  6
CONTINUOUS
 62
     7
 10
261.5472236283574
 20
466.3327686735002
 30
0.0
  0
VERTEX
  5
496
  8
0
  6
CONTINUOUS
 62
     7
 10
261.5657298901982
 20
466.3434904906937
 30
0.0
  0
VERTEX
  5
497
  8
0
  6
CONTINUOUS
 62
     7
 10
261.5837772971689
 20
466.3550043652446
 30
0.0
  0
VERTEX
  5
498
  8
0
  6
CONTINUOUS
 62
     7
 10
261.6013170371087
 20
466.3672777328551
 30
0.0
  0
VERTEX
  5
499
  8
0
  6
CONTINUOUS
 62
     7
 10
261.6183002978568
 20
466.3802780292279
 30
0.0
  0
VERTEX
  5
49A
  8
0
  6
CONTINUOUS
 62
     7
 10
261.6342495226276
 20
466.3935942763989
 30
0.0
  0
VERTEX
  5
49B
  8
0
  6
CONTINUOUS
 62
     7
 10
261.6496450129509
 20
466.4075737841816
 30
0.0
  0
VERTEX
  5
49C
  8
0
  6
CONTINUOUS
 62
     7
 10
261.6644476545725
 20
466.4221795853355
 30
0.0
  0
VERTEX
  5
49D
  8
0
  6
CONTINUOUS
 62
     7
 10
261.6786183332378
 20
466.4373747126197
 30
0.0
  0
VERTEX
  5
49E
  8
0
  6
CONTINUOUS
 62
     7
 10
261.6925259339705
 20
466.4536146846352
 30
0.0
  0
VERTEX
  5
49F
  8
0
  6
CONTINUOUS
 62
     7
 10
261.7057384330135
 20
466.4704499650344
 30
0.0
  0
VERTEX
  5
4A0
  8
0
  6
CONTINUOUS
 62
     7
 10
261.7182205746834
 20
466.4878336591377
 30
0.0
  0
VERTEX
  5
4A1
  8
0
  6
CONTINUOUS
 62
     7
 10
261.7299371032972
 20
466.5057188722657
 30
0.0
  0
VERTEX
  5
4A2
  8
0
  6
CONTINUOUS
 62
     7
 10
261.7405724804494
 20
466.5235578387318
 30
0.0
  0
VERTEX
  5
4A3
  8
0
  6
CONTINUOUS
 62
     7
 10
261.7504661122446
 20
466.5418390524437
 30
0.0
  0
VERTEX
  5
4A4
  8
0
  6
CONTINUOUS
 62
     7
 10
261.7595933707228
 20
466.5605147002835
 30
0.0
  0
VERTEX
  5
4A5
  8
0
  6
CONTINUOUS
 62
     7
 10
261.7679296279244
 20
466.5795369691332
 30
0.0
  0
VERTEX
  5
4A6
  8
0
  6
CONTINUOUS
 62
     7
 10
261.7756720015389
 20
466.599457383153
 30
0.0
  0
VERTEX
  5
4A7
  8
0
  6
CONTINUOUS
 62
     7
 10
261.7825619276832
 20
466.6197091427094
 30
0.0
  0
VERTEX
  5
4A8
  8
0
  6
CONTINUOUS
 62
     7
 10
261.7885817147445
 20
466.6402363686843
 30
0.0
  0
VERTEX
  5
4A9
  8
0
  6
CONTINUOUS
 62
     7
 10
261.7937136711099
 20
466.660983181959
 30
0.0
  0
VERTEX
  5
4AA
  8
0
  6
CONTINUOUS
 62
     7
 10
261.7978422248451
 20
466.6813325792761
 30
0.0
  0
VERTEX
  5
4AB
  8
0
  6
CONTINUOUS
 62
     7
 10
261.8011247911737
 20
466.701853636584
 30
0.0
  0
VERTEX
  5
4AC
  8
0
  6
CONTINUOUS
 62
     7
 10
261.8035539971497
 20
466.722493114297
 30
0.0
  0
VERTEX
  5
4AD
  8
0
  6
CONTINUOUS
 62
     7
 10
261.8051224698268
 20
466.7431977728294
 30
0.0
  0
VERTEX
  5
4AE
  8
0
  6
CONTINUOUS
 62
     7
 10
261.805833671168
 20
466.7645528219543
 30
0.0
  0
VERTEX
  5
4AF
  8
0
  6
CONTINUOUS
 62
     7
 10
261.8056313395081
 20
466.7859383209154
 30
0.0
  0
VERTEX
  5
4B0
  8
0
  6
CONTINUOUS
 62
     7
 10
261.8045173092961
 20
466.8072957446423
 30
0.0
  0
VERTEX
  5
4B1
  8
0
  6
CONTINUOUS
 62
     7
 10
261.8024934149809
 20
466.8285665680647
 30
0.0
  0
VERTEX
  5
4B2
  8
0
  6
CONTINUOUS
 62
     7
 10
261.799653819952
 20
466.8491367368396
 30
0.0
  0
VERTEX
  5
4B3
  8
0
  6
CONTINUOUS
 62
     7
 10
261.7959592072528
 20
466.8695888975286
 30
0.0
  0
VERTEX
  5
4B4
  8
0
  6
CONTINUOUS
 62
     7
 10
261.791420261581
 20
466.8898703950309
 30
0.0
  0
VERTEX
  5
4B5
  8
0
  6
CONTINUOUS
 62
     7
 10
261.7860476676339
 20
466.9099285742457
 30
0.0
  0
VERTEX
  5
4B6
  8
0
  6
CONTINUOUS
 62
     7
 10
261.7796511373963
 20
466.9303165625656
 30
0.0
  0
VERTEX
  5
4B7
  8
0
  6
CONTINUOUS
 62
     7
 10
261.7723827046279
 20
466.9504310265175
 30
0.0
  0
VERTEX
  5
4B8
  8
0
  6
CONTINUOUS
 62
     7
 10
261.7642634731143
 20
466.9702173861504
 30
0.0
  0
VERTEX
  5
4B9
  8
0
  6
CONTINUOUS
 62
     7
 10
261.7553145466413
 20
466.989621061513
 30
0.0
  0
VERTEX
  5
4BA
  8
0
  6
CONTINUOUS
 62
     7
 10
261.7458252549638
 20
467.0080988049937
 30
0.0
  0
VERTEX
  5
4BB
  8
0
  6
CONTINUOUS
 62
     7
 10
261.7355679928706
 20
467.0261821798596
 30
0.0
  0
VERTEX
  5
4BC
  8
0
  6
CONTINUOUS
 62
     7
 10
261.72457027566
 20
467.0438250323092
 30
0.0
  0
VERTEX
  5
4BD
  8
0
  6
CONTINUOUS
 62
     7
 10
261.7128596186306
 20
467.0609812085416
 30
0.0
  0
VERTEX
  5
4BE
  8
0
  6
CONTINUOUS
 62
     7
 10
261.7000734166093
 20
467.0781097545036
 30
0.0
  0
VERTEX
  5
4BF
  8
0
  6
CONTINUOUS
 62
     7
 10
261.6865547955558
 20
467.094691592268
 30
0.0
  0
VERTEX
  5
4C0
  8
0
  6
CONTINUOUS
 62
     7
 10
261.6723417289332
 20
467.1106821944638
 30
0.0
  0
VERTEX
  5
4C1
  8
0
  6
CONTINUOUS
 62
     7
 10
261.6574721902048
 20
467.1260370337204
 30
0.0
  0
VERTEX
  5
4C2
  8
0
  6
CONTINUOUS
 62
     7
 10
261.6397917594377
 20
467.1426938184813
 30
0.0
  0
VERTEX
  5
4C3
  8
0
  6
CONTINUOUS
 62
     7
 10
261.6213018924798
 20
467.1584914941433
 30
0.0
  0
VERTEX
  5
4C4
  8
0
  6
CONTINUOUS
 62
     7
 10
261.6020692253311
 20
467.1733759319342
 30
0.0
  0
VERTEX
  5
4C5
  8
0
  6
CONTINUOUS
 62
     7
 10
261.5821603939917
 20
467.1872930030815
 30
0.0
  0
SEQEND
  5
5E3
  8
0
  6
CONTINUOUS
 62
     7
  0
POLYLINE
  5
1C7
  8
0
  6
CONTINUOUS
 62
     7
 66
     1
 10
0.0
 20
0.0
 30
0.0
  0
VERTEX
  5
4C6
  8
0
  6
CONTINUOUS
 62
     7
 10
258.1151731752884
 20
471.909561176271
 30
0.0
  0
VERTEX
  5
4C7
  8
0
  6
CONTINUOUS
 62
     7
 10
258.1089882667497
 20
471.9293913211777
 30
0.0
  0
VERTEX
  5
4C8
  8
0
  6
CONTINUOUS
 62
     7
 10
258.1019789766996
 20
471.9489643706809
 30
0.0
  0
VERTEX
  5
4C9
  8
0
  6
CONTINUOUS
 62
     7
 10
258.0941644725631
 20
471.9682300894772
 30
0.0
  0
VERTEX
  5
4CA
  8
0
  6
CONTINUOUS
 62
     7
 10
258.0855639217657
 20
471.9871382422632
 30
0.0
  0
VERTEX
  5
4CB
  8
0
  6
CONTINUOUS
 62
     7
 10
258.075898357888
 20
472.0062035947939
 30
0.0
  0
VERTEX
  5
4CC
  8
0
  6
CONTINUOUS
 62
     7
 10
258.0654171333687
 20
472.0248554619266
 30
0.0
  0
VERTEX
  5
4CD
  8
0
  6
CONTINUOUS
 62
     7
 10
258.0541500301202
 20
472.0430433860206
 30
0.0
  0
VERTEX
  5
4CE
  8
0
  6
CONTINUOUS
 62
     7
 10
258.042126830055
 20
472.0607169094351
 30
0.0
  0
VERTEX
  5
4CF
  8
0
  6
CONTINUOUS
 62
     7
 10
258.0297267218129
 20
472.0773820035446
 30
0.0
  0
VERTEX
  5
4D0
  8
0
  6
CONTINUOUS
 62
     7
 10
258.0166337703772
 20
472.0935315981895
 30
0.0
  0
VERTEX
  5
4D1
  8
0
  6
CONTINUOUS
 62
     7
 10
258.002882696062
 20
472.1091246328816
 30
0.0
  0
VERTEX
  5
4D2
  8
0
  6
CONTINUOUS
 62
     7
 10
257.9885082191815
 20
472.1241200471325
 30
0.0
  0
VERTEX
  5
4D3
  8
0
  6
CONTINUOUS
 62
     7
 10
257.9730766757105
 20
472.1389112794699
 30
0.0
  0
VERTEX
  5
4D4
  8
0
  6
CONTINUOUS
 62
     7
 10
257.957012297961
 20
472.1530423209076
 30
0.0
  0
VERTEX
  5
4D5
  8
0
  6
CONTINUOUS
 62
     7
 10
257.9403598962904
 20
472.1664754173713
 30
0.0
  0
VERTEX
  5
4D6
  8
0
  6
CONTINUOUS
 62
     7
 10
257.9231642810557
 20
472.1791728147871
 30
0.0
  0
VERTEX
  5
4D7
  8
0
  6
CONTINUOUS
 62
     7
 10
257.9059472552974
 20
472.1907935596807
 30
0.0
  0
VERTEX
  5
4D8
  8
0
  6
CONTINUOUS
 62
     7
 10
257.8882470991053
 20
472.2016985511377
 30
0.0
  0
VERTEX
  5
4D9
  8
0
  6
CONTINUOUS
 62
     7
 10
257.8701101664634
 20
472.2118605414339
 30
0.0
  0
VERTEX
  5
4DA
  8
0
  6
CONTINUOUS
 62
     7
 10
257.8515828113556
 20
472.2212522828455
 30
0.0
  0
VERTEX
  5
4DB
  8
0
  6
CONTINUOUS
 62
     7
 10
257.8321256270476
 20
472.2301014747221
 30
0.0
  0
VERTEX
  5
4DC
  8
0
  6
CONTINUOUS
 62
     7
 10
257.8122898351472
 20
472.2381182665371
 30
0.0
  0
VERTEX
  5
4DD
  8
0
  6
CONTINUOUS
 62
     7
 10
257.7921302128885
 20
472.2452818713677
 30
0.0
  0
VERTEX
  5
4DE
  8
0
  6
CONTINUOUS
 62
     7
 10
257.7717015375055
 20
472.2515715022915
 30
0.0
  0
VERTEX
  5
4DF
  8
0
  6
CONTINUOUS
 62
     7
 10
257.749383824508
 20
472.2573615419198
 30
0.0
  0
VERTEX
  5
4E0
  8
0
  6
CONTINUOUS
 62
     7
 10
257.7267737938939
 20
472.2621216355094
 30
0.0
  0
VERTEX
  5
4E1
  8
0
  6
CONTINUOUS
 62
     7
 10
257.7039443491009
 20
472.2658416206482
 30
0.0
  0
VERTEX
  5
4E2
  8
0
  6
CONTINUOUS
 62
     7
 10
257.6809683935663
 20
472.2685113349241
 30
0.0
  0
VERTEX
  5
4E3
  8
0
  6
CONTINUOUS
 62
     7
 10
257.657918830728
 20
472.2701206159251
 30
0.0
  0
VERTEX
  5
4E4
  8
0
  6
CONTINUOUS
 62
     7
 10
257.6348685640233
 20
472.2706593012392
 30
0.0
  0
SEQEND
  5
5E4
  8
0
  6
CONTINUOUS
 62
     7
  0
POLYLINE
  5
1C8
  8
0
  6
CONTINUOUS
 62
     7
 66
     1
 10
0.0
 20
0.0
 30
0.0
  0
VERTEX
  5
4E5
  8
0
  6
CONTINUOUS
 62
     7
 10
274.9264564031915
 20
472.2706593012392
 30
0.0
  0
VERTEX
  5
4E6
  8
0
  6
CONTINUOUS
 62
     7
 10
274.9056886370534
 20
472.2702261381111
 30
0.0
  0
VERTEX
  5
4E7
  8
0
  6
CONTINUOUS
 62
     7
 10
274.8849388549303
 20
472.2689296213485
 30
0.0
  0
VERTEX
  5
4E8
  8
0
  6
CONTINUOUS
 62
     7
 10
274.8642606394109
 20
472.2667742098835
 30
0.0
  0
VERTEX
  5
4E9
  8
0
  6
CONTINUOUS
 62
     7
 10
274.8437075730841
 20
472.2637643626489
 30
0.0
  0
VERTEX
  5
4EA
  8
0
  6
CONTINUOUS
 62
     7
 10
274.8227076581431
 20
472.2597750814263
 30
0.0
  0
VERTEX
  5
4EB
  8
0
  6
CONTINUOUS
 62
     7
 10
274.801878385059
 20
472.25488738281
 30
0.0
  0
VERTEX
  5
4EC
  8
0
  6
CONTINUOUS
 62
     7
 10
274.7812764984607
 20
472.2491158607349
 30
0.0
  0
VERTEX
  5
4ED
  8
0
  6
CONTINUOUS
 62
     7
 10
274.7609587429768
 20
472.242475109136
 30
0.0
  0
VERTEX
  5
4EE
  8
0
  6
CONTINUOUS
 62
     7
 10
274.7415050347303
 20
472.235192164569
 30
0.0
  0
VERTEX
  5
4EF
  8
0
  6
CONTINUOUS
 62
     7
 10
274.7223540834958
 20
472.2271004495892
 30
0.0
  0
VERTEX
  5
4F0
  8
0
  6
CONTINUOUS
 62
     7
 10
274.7035549783374
 20
472.218221912492
 30
0.0
  0
VERTEX
  5
4F1
  8
0
  6
CONTINUOUS
 62
     7
 10
274.6851568083196
 20
472.2085785015731
 30
0.0
  0
VERTEX
  5
4F2
  8
0
  6
CONTINUOUS
 62
     7
 10
274.6666611568062
 20
472.1978629071864
 30
0.0
  0
VERTEX
  5
4F3
  8
0
  6
CONTINUOUS
 62
     7
 10
274.6486239285758
 20
472.1863559978551
 30
0.0
  0
VERTEX
  5
4F4
  8
0
  6
CONTINUOUS
 62
     7
 10
274.631093839174
 20
472.1740903332754
 30
0.0
  0
VERTEX
  5
4F5
  8
0
  6
CONTINUOUS
 62
     7
 10
274.6141196041467
 20
472.1610984731437
 30
0.0
  0
VERTEX
  5
4F6
  8
0
  6
CONTINUOUS
 62
     7
 10
274.5981737035086
 20
472.1477869765819
 30
0.0
  0
VERTEX
  5
4F7
  8
0
  6
CONTINUOUS
 62
     7
 10
274.5827811862439
 20
472.133812543492
 30
0.0
  0
VERTEX
  5
4F8
  8
0
  6
CONTINUOUS
 62
     7
 10
274.5679811038001
 20
472.1192121348633
 30
0.0
  0
VERTEX
  5
4F9
  8
0
  6
CONTINUOUS
 62
     7
 10
274.5538125076247
 20
472.1040227116854
 30
0.0
  0
VERTEX
  5
4FA
  8
0
  6
CONTINUOUS
 62
     7
 10
274.5399068249135
 20
472.0877893446152
 30
0.0
  0
VERTEX
  5
4FB
  8
0
  6
CONTINUOUS
 62
     7
 10
274.5266956156291
 20
472.0709610487836
 30
0.0
  0
VERTEX
  5
4FC
  8
0
  6
CONTINUOUS
 62
     7
 10
274.5142140644562
 20
472.0535846715969
 30
0.0
  0
VERTEX
  5
4FD
  8
0
  6
CONTINUOUS
 62
     7
 10
274.5024973560792
 20
472.0357070604616
 30
0.0
  0
VERTEX
  5
4FE
  8
0
  6
CONTINUOUS
 62
     7
 10
274.4907358481991
 20
472.0158759786795
 30
0.0
  0
VERTEX
  5
4FF
  8
0
  6
CONTINUOUS
 62
     7
 10
274.479882554765
 20
471.9954779886583
 30
0.0
  0
VERTEX
  5
500
  8
0
  6
CONTINUOUS
 62
     7
 10
274.4699674890987
 20
471.9745803019023
 30
0.0
  0
VERTEX
  5
501
  8
0
  6
CONTINUOUS
 62
     7
 10
274.4610206645223
 20
471.9532501299162
 30
0.0
  0
VERTEX
  5
502
  8
0
  6
CONTINUOUS
 62
     7
 10
274.4530720943575
 20
471.9315546842043
 30
0.0
  0
VERTEX
  5
503
  8
0
  6
CONTINUOUS
 62
     7
 10
274.4461517919264
 20
471.909561176271
 30
0.0
  0
SEQEND
  5
5E5
  8
0
  6
CONTINUOUS
 62
     7
  0
POLYLINE
  5
1C9
  8
0
  6
CONTINUOUS
 62
     7
 66
     1
 10
0.0
 20
0.0
 30
0.0
  0
VERTEX
  5
504
  8
0
  6
CONTINUOUS
 62
     7
 10
238.2806434451395
 20
472.2706593012392
 30
0.0
  0
VERTEX
  5
505
  8
0
  6
CONTINUOUS
 62
     7
 10
238.1830999698884
 20
472.2610525041588
 30
0.0
  0
VERTEX
  5
506
  8
0
  6
CONTINUOUS
 62
     7
 10
238.0893061365676
 20
472.2326012610614
 30
0.0
  0
VERTEX
  5
507
  8
0
  6
CONTINUOUS
 62
     7
 10
238.0028660412351
 20
472.186398831594
 30
0.0
  0
VERTEX
  5
508
  8
0
  6
CONTINUOUS
 62
     7
 10
237.9271012072348
 20
472.1242205776118
 30
0.0
  0
VERTEX
  5
509
  8
0
  6
CONTINUOUS
 62
     7
 10
237.8649229532526
 20
472.0484557436115
 30
0.0
  0
VERTEX
  5
50A
  8
0
  6
CONTINUOUS
 62
     7
 10
237.8187205237852
 20
471.9620156482791
 30
0.0
  0
VERTEX
  5
50B
  8
0
  6
CONTINUOUS
 62
     7
 10
237.7902692806879
 20
471.8682218149582
 30
0.0
  0
VERTEX
  5
50C
  8
0
  6
CONTINUOUS
 62
     7
 10
237.7806624836074
 20
471.7706783397072
 30
0.0
  0
SEQEND
  5
5E6
  8
0
  6
CONTINUOUS
 62
     7
  0
POLYLINE
  5
1CA
  8
0
  6
CONTINUOUS
 62
     7
 66
     1
 10
0.0
 20
0.0
 30
0.0
  0
VERTEX
  5
50D
  8
0
  6
CONTINUOUS
 62
     7
 10
237.7806624836074
 20
466.7706402627713
 30
0.0
  0
VERTEX
  5
50E
  8
0
  6
CONTINUOUS
 62
     7
 10
237.7902692806879
 20
466.6730967875203
 30
0.0
  0
VERTEX
  5
50F
  8
0
  6
CONTINUOUS
 62
     7
 10
237.8187205237853
 20
466.5793029541994
 30
0.0
  0
VERTEX
  5
510
  8
0
  6
CONTINUOUS
 62
     7
 10
237.8649229532527
 20
466.4928628588669
 30
0.0
  0
VERTEX
  5
511
  8
0
  6
CONTINUOUS
 62
     7
 10
237.9271012072348
 20
466.4170980248666
 30
0.0
  0
VERTEX
  5
512
  8
0
  6
CONTINUOUS
 62
     7
 10
238.0028660412352
 20
466.3549197708844
 30
0.0
  0
VERTEX
  5
513
  8
0
  6
CONTINUOUS
 62
     7
 10
238.0893061365676
 20
466.3087173414171
 30
0.0
  0
VERTEX
  5
514
  8
0
  6
CONTINUOUS
 62
     7
 10
238.1830999698885
 20
466.2802660983197
 30
0.0
  0
VERTEX
  5
515
  8
0
  6
CONTINUOUS
 62
     7
 10
238.2806434451395
 20
466.2706593012392
 30
0.0
  0
SEQEND
  5
5E7
  8
0
  6
CONTINUOUS
 62
     7
  0
POLYLINE
  5
1CB
  8
0
  6
CONTINUOUS
 62
     7
 66
     1
 10
0.0
 20
0.0
 30
0.0
  0
VERTEX
  5
516
  8
0
  6
CONTINUOUS
 62
     7
 10
294.7806624836074
 20
471.7706783397072
 30
0.0
  0
VERTEX
  5
517
  8
0
  6
CONTINUOUS
 62
     7
 10
294.771055686527
 20
471.8682218149582
 30
0.0
  0
VERTEX
  5
518
  8
0
  6
CONTINUOUS
 62
     7
 10
294.7426044434296
 20
471.9620156482791
 30
0.0
  0
VERTEX
  5
519
  8
0
  6
CONTINUOUS
 62
     7
 10
294.6964020139623
 20
472.0484557436115
 30
0.0
  0
VERTEX
  5
51A
  8
0
  6
CONTINUOUS
 62
     7
 10
294.63422375998
 20
472.1242205776118
 30
0.0
  0
VERTEX
  5
51B
  8
0
  6
CONTINUOUS
 62
     7
 10
294.5584589259797
 20
472.186398831594
 30
0.0
  0
VERTEX
  5
51C
  8
0
  6
CONTINUOUS
 62
     7
 10
294.4720188306474
 20
472.2326012610614
 30
0.0
  0
VERTEX
  5
51D
  8
0
  6
CONTINUOUS
 62
     7
 10
294.3782249973265
 20
472.2610525041588
 30
0.0
  0
VERTEX
  5
51E
  8
0
  6
CONTINUOUS
 62
     7
 10
294.2806815220754
 20
472.2706593012392
 30
0.0
  0
SEQEND
  5
5E8
  8
0
  6
CONTINUOUS
 62
     7
  0
POLYLINE
  5
1CC
  8
0
  6
CONTINUOUS
 62
     7
 66
     1
 10
0.0
 20
0.0
 30
0.0
  0
VERTEX
  5
51F
  8
0
  6
CONTINUOUS
 62
     7
 10
294.2806815220754
 20
466.2706593012392
 30
0.0
  0
VERTEX
  5
520
  8
0
  6
CONTINUOUS
 62
     7
 10
294.3782249973264
 20
466.2802660983197
 30
0.0
  0
VERTEX
  5
521
  8
0
  6
CONTINUOUS
 62
     7
 10
294.4720188306473
 20
466.3087173414171
 30
0.0
  0
VERTEX
  5
522
  8
0
  6
CONTINUOUS
 62
     7
 10
294.5584589259797
 20
466.3549197708845
 30
0.0
  0
VERTEX
  5
523
  8
0
  6
CONTINUOUS
 62
     7
 10
294.63422375998
 20
466.4170980248667
 30
0.0
  0
VERTEX
  5
524
  8
0
  6
CONTINUOUS
 62
     7
 10
294.6964020139622
 20
466.492862858867
 30
0.0
  0
VERTEX
  5
525
  8
0
  6
CONTINUOUS
 62
     7
 10
294.7426044434296
 20
466.5793029541994
 30
0.0
  0
VERTEX
  5
526
  8
0
  6
CONTINUOUS
 62
     7
 10
294.7710556865269
 20
466.6730967875203
 30
0.0
  0
VERTEX
  5
527
  8
0
  6
CONTINUOUS
 62
     7
 10
294.7806624836074
 20
466.7706402627713
 30
0.0
  0
SEQEND
  5
5E9
  8
0
  6
CONTINUOUS
 62
     7
  0
LINE
  5
1CD
  8
0
  6
CONTINUOUS
 62
     7
 10
238.2806434451395
 20
472.2706593012392
 30
0.0
 11
257.6348685640233
 21
472.2706593012392
 31
0.0
  0
LINE
  5
1CE
  8
0
  6
CONTINUOUS
 62
     7
 10
237.7806624836074
 20
471.7706783397071
 30
0.0
 11
237.7806624836074
 21
466.7706402627713
 31
0.0
  0
LINE
  5
1CF
  8
0
  6
CONTINUOUS
 62
     7
 10
238.2806434451395
 20
466.2706593012392
 30
0.0
 11
261.3057884419297
 21
466.2706593012392
 31
0.0
  0
ARC
  5
1D0
  8
0
  6
CONTINUOUS
 62
     7
 10
266.2806624836074
 20
474.2706593012392
 30
0.0
 40
8.50000000000004
 50
196.1275290916951
 51
236.4430922247728
  0
LINE
  5
1D1
  8
0
  6
CONTINUOUS
 62
     7
 10
271.2555365252852
 20
466.2706593012392
 30
0.0
 11
294.2806815220753
 21
466.2706593012392
 31
0.0
  0
ARC
  5
1D2
  8
0
  6
CONTINUOUS
 62
     7
 10
266.2806624836074
 20
474.2706593012392
 30
0.0
 40
8.500000000000025
 50
303.556907775227
 51
343.8724709083048
  0
LINE
  5
1D3
  8
0
  6
CONTINUOUS
 62
     7
 10
274.9264564031915
 20
472.2706593012392
 30
0.0
 11
294.2806815220753
 21
472.2706593012392
 31
0.0
  0
LINE
  5
1D4
  8
0
  6
CONTINUOUS
 62
     7
 10
294.7806624836074
 20
471.7706783397071
 30
0.0
 11
294.7806624836074
 21
466.7706402627713
 31
0.0
  0
LINE
  5
1D5
  8
0
  6
CONTINUOUS
 62
     7
 10
235.3645361923517
 20
489.2137680318321
 30
0.0
 11
235.7806624836074
 21
489.2263590336265
 31
0.0
  0
LINE
  5
1D6
  8
0
  6
CONTINUOUS
 62
     7
 10
235.5085169284463
 20
464.4804173904271
 30
0.0
 11
235.7806624836074
 21
464.472182906701
 31
0.0
  0
LINE
  5
1D7
  8
0
  6
CONTINUOUS
 62
     7
 10
297.1967887748631
 20
489.2137680318321
 30
0.0
 11
296.7806624836074
 21
489.2263590336265
 31
0.0
  0
LINE
  5
1D8
  8
0
  6
CONTINUOUS
 62
     7
 10
297.0528080387685
 20
464.4804173904271
 30
0.0
 11
296.7806624836074
 21
464.472182906701
 31
0.0
  0
LINE
  5
1D9
  8
0
  6
CONTINUOUS
 62
     7
 10
273.7806624836074
 20
611.3631671923974
 30
0.0
 11
273.2806624836074
 21
611.3631671923974
 31
0.0
  0
LINE
  5
1DA
  8
0
  6
CONTINUOUS
 62
     7
 10
259.2806624836074
 20
611.3631671923974
 30
0.0
 11
258.7806624836074
 21
611.3631671923974
 31
0.0
  0
ENDBLK
  8
0
  0
BLOCK
  8
0
  2
D_FRAME_VIEW_2158
 70
     0
 10
0.0
 20
0.0
 30
0.0
  0
LINE
  5
1DF
  8
0
  6
CONTINUOUS
 62
     7
 10
24.5758402595094
 20
394.8744254404928
 30
0.0
 11
35.83709878478044
 21
406.6999464050122
 31
0.0
  0
ARC
  5
1E0
  8
0
  6
CONTINUOUS
 62
     7
 10
71.65284743967939
 20
389.3574775426476
 30
0.0
 40
7.999999999999996
 50
0.4999999999999832
 51
43.59991641039996
  0
LINE
  5
1E1
  8
0
  6
CONTINUOUS
 62
     7
 10
22.12320099617079
 20
361.2010321373547
 30
0.0
 11
22.36952781525303
 21
389.4272898266346
 31
0.0
  0
LINE
  5
1E2
  8
0
  6
CONTINUOUS
 62
     7
 10
77.4462303799364
 20
394.8744254404928
 30
0.0
 11
66.18497185466535
 21
406.6999464050122
 31
0.0
  0
LINE
  5
1E3
  8
0
  6
CONTINUOUS
 62
     7
 10
22.12320099617079
 20
361.2010321373547
 30
0.0
 11
18.12304868262785
 21
361.2010321373547
 31
0.0
  0
ARC
  5
1E4
  8
0
  6
CONTINUOUS
 62
     7
 10
30.3692231997664
 20
389.3574775426476
 30
0.0
 40
8.000000000000004
 50
136.4000835896001
 51
179.5
  0
LINE
  5
1E5
  8
0
  6
CONTINUOUS
 62
     7
 10
79.89886964327499
 20
361.2010321373547
 30
0.0
 11
83.89902195681795
 21
361.2010321373547
 31
0.0
  0
LINE
  5
1E6
  8
0
  6
CONTINUOUS
 62
     7
 10
79.89886964327499
 20
361.2010321373547
 30
0.0
 11
79.65254282419276
 21
389.4272898266346
 31
0.0
  0
ARC
  5
1E7
  8
0
  6
CONTINUOUS
 62
     7
 10
51.01103531972289
 20
177.2010321373547
 30
0.0
 40
230.0
 50
86.21724155378472
 51
93.78275844621533
  0
LINE
  5
1E8
  8
0
  6
CONTINUOUS
 62
     7
 10
22.31134264157751
 20
382.7213626172652
 30
0.0
 11
22.36952781525303
 21
385.4125063362667
 31
0.0
  0
LINE
  5
1E9
  8
0
  6
CONTINUOUS
 62
     7
 10
22.12320099617079
 20
361.2010321373547
 30
0.0
 11
22.36952781525303
 21
361.2010321373547
 31
0.0
  0
LINE
  5
1EA
  8
0
  6
CONTINUOUS
 62
     7
 10
79.71072799786828
 20
382.7213626172652
 30
0.0
 11
79.65254282419276
 21
385.4125063362667
 31
0.0
  0
LINE
  5
1EB
  8
0
  6
CONTINUOUS
 62
     7
 10
79.89886964327499
 20
361.2010321373547
 30
0.0
 11
79.65254282419276
 21
361.2010321373547
 31
0.0
  0
LINE
  5
1EC
  8
0
  6
CONTINUOUS
 62
     7
 10
66.18497185466585
 20
406.2132604314633
 30
0.0
 11
35.83709878478039
 21
406.2132604314633
 31
0.0
  0
LINE
  5
1ED
  8
0
  6
CONTINUOUS
 62
     7
 10
35.83709878478044
 20
406.6999464050123
 30
0.0
 11
35.83709878478044
 21
406.2132604314635
 31
0.0
  0
LINE
  5
1EE
  8
0
  6
CONTINUOUS
 62
     7
 10
66.18497185466535
 20
406.6999464050123
 30
0.0
 11
66.18497185466535
 21
406.2132604314635
 31
0.0
  0
LINE
  5
1EF
  8
0
  6
CONTINUOUS
 62
     7
 10
79.71744424895125
 20
381.9604975978289
 30
0.0
 11
79.65254282419276
 21
389.3129957698375
 31
0.0
  0
LINE
  5
1F0
  8
0
  6
CONTINUOUS
 62
     7
 10
22.36952781525303
 20
389.3129957698375
 30
0.0
 11
22.37228453689655
 21
389.4622392534386
 31
0.0
  0
ARC
  5
1F1
  8
0
  6
CONTINUOUS
 62
     7
 10
30.14751760528653
 20
389.2397102647405
 30
0.0
 40
7.778416832402081
 50
135.749812648985
 51
178.3606289063476
  0
LINE
  5
1F2
  8
0
  6
CONTINUOUS
 62
     7
 10
22.30462639049453
 20
381.9604975978289
 30
0.0
 11
22.36952781525303
 21
389.3129957698375
 31
0.0
  0
LINE
  5
1F3
  8
0
  6
CONTINUOUS
 62
     7
 10
24.57584025950939
 20
394.6674335418752
 30
0.0
 11
35.83709878478044
 21
406.2132604314633
 31
0.0
  0
LINE
  5
1F4
  8
0
  6
CONTINUOUS
 62
     7
 10
79.65254282419276
 20
389.3129957698375
 30
0.0
 11
79.64978610254924
 21
389.4622392534386
 31
0.0
  0
ARC
  5
1F5
  8
0
  6
CONTINUOUS
 62
     7
 10
71.87455303415919
 20
389.2397102647404
 30
0.0
 40
7.778416832402152
 50
1.639371093652789
 51
44.25018735101506
  0
LINE
  5
1F6
  8
0
  6
CONTINUOUS
 62
     7
 10
77.4462303799364
 20
394.6674335418752
 30
0.0
 11
66.18497185466535
 21
406.2132604314633
 31
0.0
  0
POLYLINE
  5
1F7
  8
0
  6
CONTINUOUS
 62
     7
 66
     1
 10
0.0
 20
0.0
 30
0.0
  0
VERTEX
  5
52A
  8
0
  6
CONTINUOUS
 62
     7
 10
24.57584025950939
 20
387.6111312304746
 30
0.0
  0
VERTEX
  5
52B
  8
0
  6
CONTINUOUS
 62
     7
 10
23.64657718520056
 20
387.1347047291823
 30
0.0
  0
VERTEX
  5
52C
  8
0
  6
CONTINUOUS
 62
     7
 10
22.95436824385165
 20
386.5965563956578
 30
0.0
  0
VERTEX
  5
52D
  8
0
  6
CONTINUOUS
 62
     7
 10
22.52362212663321
 20
386.0156624315829
 30
0.0
  0
VERTEX
  5
52E
  8
0
  6
CONTINUOUS
 62
     7
 10
22.36952781525301
 20
385.4125063362666
 30
0.0
  0
SEQEND
  5
5EA
  8
0
  6
CONTINUOUS
 62
     7
  0
POLYLINE
  5
1F8
  8
0
  6
CONTINUOUS
 62
     7
 66
     1
 10
0.0
 20
0.0
 30
0.0
  0
VERTEX
  5
52F
  8
0
  6
CONTINUOUS
 62
     7
 10
79.65254282419278
 20
385.4125063362666
 30
0.0
  0
VERTEX
  5
530
  8
0
  6
CONTINUOUS
 62
     7
 10
79.49844851281259
 20
386.0156624315828
 30
0.0
  0
VERTEX
  5
531
  8
0
  6
CONTINUOUS
 62
     7
 10
79.06770239559414
 20
386.5965563956578
 30
0.0
  0
VERTEX
  5
532
  8
0
  6
CONTINUOUS
 62
     7
 10
78.37549345424523
 20
387.1347047291823
 30
0.0
  0
VERTEX
  5
533
  8
0
  6
CONTINUOUS
 62
     7
 10
77.4462303799364
 20
387.6111312304746
 30
0.0
  0
SEQEND
  5
5EB
  8
0
  6
CONTINUOUS
 62
     7
  0
LINE
  5
1F9
  8
0
  6
CONTINUOUS
 62
     7
 10
74.68575152845774
 20
388.7811712897825
 30
0.0
 11
73.09659771372898
 21
391.2010321373538
 31
0.0
  0
LINE
  5
1FA
  8
0
  6
CONTINUOUS
 62
     7
 10
73.09659771372898
 20
391.2010321373538
 30
0.0
 11
74.49036202367058
 21
388.863987916922
 31
0.0
  0
LINE
  5
1FB
  8
0
  6
CONTINUOUS
 62
     7
 10
74.49036202367058
 20
388.863987916922
 30
0.0
 11
73.32607054116686
 21
389.3574775426479
 31
0.0
  0
LINE
  5
1FC
  8
0
  6
CONTINUOUS
 62
     7
 10
73.32607054116686
 20
389.3574775426479
 30
0.0
 11
66.18497185466538
 21
394.5288674557818
 31
0.0
  0
LINE
  5
1FD
  8
0
  6
CONTINUOUS
 62
     7
 10
66.18497185466538
 20
394.5288674557818
 30
0.0
 11
66.18497185466535
 21
406.2132604314633
 31
0.0
  0
LINE
  5
1FE
  8
0
  6
CONTINUOUS
 62
     7
 10
77.4462303799364
 20
387.6111312304747
 30
0.0
 11
74.68575152845774
 21
388.7811712897825
 31
0.0
  0
LINE
  5
1FF
  8
0
  6
CONTINUOUS
 62
     7
 10
35.83709878478042
 20
394.5288674557818
 30
0.0
 11
35.83709878478045
 21
406.2132604314633
 31
0.0
  0
LINE
  5
200
  8
0
  6
CONTINUOUS
 62
     7
 10
28.69600009827894
 20
389.3574775426479
 30
0.0
 11
35.83709878478042
 21
394.5288674557818
 31
0.0
  0
LINE
  5
201
  8
0
  6
CONTINUOUS
 62
     7
 10
27.53170861577521
 20
388.863987916922
 30
0.0
 11
28.69600009827894
 21
389.3574775426479
 31
0.0
  0
LINE
  5
202
  8
0
  6
CONTINUOUS
 62
     7
 10
28.92547292571682
 20
391.2010321373538
 30
0.0
 11
27.53170861577521
 21
388.863987916922
 31
0.0
  0
LINE
  5
203
  8
0
  6
CONTINUOUS
 62
     7
 10
27.33631911098805
 20
388.7811712897825
 30
0.0
 11
28.92547292571682
 21
391.2010321373538
 31
0.0
  0
LINE
  5
204
  8
0
  6
CONTINUOUS
 62
     7
 10
24.5758402595094
 20
387.6111312304747
 30
0.0
 11
27.33631911098805
 21
388.7811712897825
 31
0.0
  0
LINE
  5
205
  8
0
  6
CONTINUOUS
 62
     7
 10
24.57584025950939
 20
361.2010321373547
 30
0.0
 11
22.36952781525302
 21
361.2010321373547
 31
0.0
  0
LINE
  5
206
  8
0
  6
CONTINUOUS
 62
     7
 10
77.44623037993641
 20
361.2010321373547
 30
0.0
 11
79.65254282419278
 21
361.2010321373547
 31
0.0
  0
LINE
  5
207
  8
0
  6
CONTINUOUS
 62
     7
 10
74.91494643346796
 20
361.2010321373547
 30
0.0
 11
74.68575152845774
 21
388.7811712897825
 31
0.0
  0
LINE
  5
208
  8
0
  6
CONTINUOUS
 62
     7
 10
77.4462303799364
 20
361.2010321373547
 30
0.0
 11
74.91494643346796
 21
361.2010321373547
 31
0.0
  0
LINE
  5
209
  8
0
  6
CONTINUOUS
 62
     7
 10
27.10712420597783
 20
361.2010321373547
 30
0.0
 11
27.33631911098805
 21
388.7811712897825
 31
0.0
  0
LINE
  5
20A
  8
0
  6
CONTINUOUS
 62
     7
 10
24.5758402595094
 20
361.2010321373547
 30
0.0
 11
27.10712420597783
 21
361.2010321373547
 31
0.0
  0
LINE
  5
20B
  8
0
  6
CONTINUOUS
 62
     7
 10
72.41561905587828
 20
361.2010321373547
 30
0.0
 11
74.91494643346796
 21
361.2010321373547
 31
0.0
  0
LINE
  5
20C
  8
0
  6
CONTINUOUS
 62
     7
 10
74.49036202367058
 20
388.863987916922
 30
0.0
 11
72.41561905587828
 21
361.2010321373547
 31
0.0
  0
LINE
  5
20D
  8
0
  6
CONTINUOUS
 62
     7
 10
27.53170861577521
 20
388.863987916922
 30
0.0
 11
29.6064515835675
 21
361.2010321373547
 31
0.0
  0
LINE
  5
20E
  8
0
  6
CONTINUOUS
 62
     7
 10
29.6064515835675
 20
361.2010321373547
 30
0.0
 11
27.10712420597783
 21
361.2010321373547
 31
0.0
  0
LINE
  5
20F
  8
0
  6
CONTINUOUS
 62
     7
 10
72.41561905587828
 20
361.2010321373547
 30
0.0
 11
66.18497185466536
 21
361.2010321373547
 31
0.0
  0
LINE
  5
210
  8
0
  6
CONTINUOUS
 62
     7
 10
66.18497185466536
 20
361.2010321373547
 30
0.0
 11
66.18497185466536
 21
389.4229170842037
 31
0.0
  0
LINE
  5
211
  8
0
  6
CONTINUOUS
 62
     7
 10
73.32607054116686
 20
389.3574775426479
 30
0.0
 11
66.18497185466536
 21
389.4229170842037
 31
0.0
  0
LINE
  5
212
  8
0
  6
CONTINUOUS
 62
     7
 10
28.69600009827894
 20
389.3574775426479
 30
0.0
 11
35.83709878478043
 21
389.4229170842037
 31
0.0
  0
LINE
  5
213
  8
0
  6
CONTINUOUS
 62
     7
 10
35.83709878478043
 20
361.2010321373547
 30
0.0
 11
35.83709878478043
 21
389.4229170842037
 31
0.0
  0
LINE
  5
214
  8
0
  6
CONTINUOUS
 62
     7
 10
29.6064515835675
 20
361.2010321373547
 30
0.0
 11
35.83709878478043
 21
361.2010321373547
 31
0.0
  0
LINE
  5
215
  8
0
  6
CONTINUOUS
 62
     7
 10
35.83709878478042
 20
394.5288674557818
 30
0.0
 11
35.83709878478042
 21
389.4229170842037
 31
0.0
  0
LINE
  5
216
  8
0
  6
CONTINUOUS
 62
     7
 10
66.18497185466538
 20
394.5288674557818
 30
0.0
 11
66.18497185466538
 21
389.4229170842037
 31
0.0
  0
LINE
  5
217
  8
0
  6
CONTINUOUS
 62
     7
 10
66.18497185466526
 20
361.2010321373547
 30
0.0
 11
35.83709878478046
 21
361.2010321373547
 31
0.0
  0
LINE
  5
218
  8
0
  6
CONTINUOUS
 62
     7
 10
86.4505607678322
 20
389.6840817750538
 30
0.0
 11
86.83003159315938
 21
346.2010321373546
 31
0.0
  0
LINE
  5
219
  8
0
  6
CONTINUOUS
 62
     7
 10
86.83003159315939
 20
346.2010321373546
 30
0.0
 11
85.33065956903704
 21
346.2010321373546
 31
0.0
  0
LINE
  5
21A
  8
0
  6
CONTINUOUS
 62
     7
 10
15.1920390462864
 20
346.2010321373546
 30
0.0
 11
15.57150987161361
 21
389.6840817750538
 31
0.0
  0
LINE
  5
21B
  8
0
  6
CONTINUOUS
 62
     7
 10
16.69141107040876
 20
346.2010321373546
 30
0.0
 11
15.1920390462864
 21
346.2010321373546
 31
0.0
  0
LINE
  5
21C
  8
0
  6
CONTINUOUS
 62
     7
 10
83.65239051644944
 20
389.4621959686281
 30
0.0
 11
84.02992497367933
 21
346.2010321373546
 31
0.0
  0
ARC
  5
21D
  8
0
  6
CONTINUOUS
 62
     7
 10
71.65284743967939
 20
389.3574775426476
 30
0.0
 40
11.99999999999999
 50
0.4999999999999432
 51
43.5999164104
  0
LINE
  5
21E
  8
0
  6
CONTINUOUS
 62
     7
 10
68.01103531972277
 20
410.5826937991056
 30
0.0
 11
80.34292185006488
 21
397.6328993894155
 31
0.0
  0
ARC
  5
21F
  8
0
  6
CONTINUOUS
 62
     7
 10
51.01103531972289
 20
177.2010321373547
 30
0.0
 40
234.0000000000001
 50
85.83381578248022
 51
94.16618421751976
  0
LINE
  5
220
  8
0
  6
CONTINUOUS
 62
     7
 10
34.01103531972304
 20
410.5826937991056
 30
0.0
 11
21.6791487893809
 21
397.6328993894155
 31
0.0
  0
ARC
  5
221
  8
0
  6
CONTINUOUS
 62
     7
 10
30.3692231997664
 20
389.3574775426476
 30
0.0
 40
11.99999999999999
 50
136.4000835895999
 51
179.5000000000001
  0
LINE
  5
222
  8
0
  6
CONTINUOUS
 62
     7
 10
17.99214566576647
 20
346.2010321373546
 30
0.0
 11
16.69141107040876
 21
346.2010321373546
 31
0.0
  0
LINE
  5
223
  8
0
  6
CONTINUOUS
 62
     7
 10
18.36968012299635
 20
389.4621959686281
 30
0.0
 11
17.99214566576647
 21
346.2010321373546
 31
0.0
  0
LINE
  5
224
  8
0
  6
CONTINUOUS
 62
     7
 10
84.02992497367933
 20
346.2010321373546
 30
0.0
 11
85.33065956903702
 21
346.2010321373546
 31
0.0
  0
ARC
  5
225
  8
0
  6
CONTINUOUS
 62
     7
 10
29.87096537143125
 20
389.559292317427
 30
0.0
 40
14.3
 50
136.4000835895999
 51
179.5000000000001
  0
ARC
  5
226
  8
0
  6
CONTINUOUS
 62
     7
 10
72.15110526801455
 20
389.559292317427
 30
0.0
 40
14.3
 50
0.5000000000001136
 51
43.59991641040006
  0
LINE
  5
227
  8
0
  6
CONTINUOUS
 62
     7
 10
68.60677405206891
 20
411.9207088834467
 30
0.0
 11
69.29523460232356
 21
413.2940817101749
 31
0.0
  0
LINE
  5
228
  8
0
  6
CONTINUOUS
 62
     7
 10
69.29523460232356
 20
413.2940817101749
 30
0.0
 11
69.29552456006512
 21
413.2940592542515
 31
0.0
  0
LINE
  5
229
  8
0
  6
CONTINUOUS
 62
     7
 10
69.29552456006512
 20
413.2940592542515
 30
0.0
 11
82.50677727372393
 21
399.4208366848254
 31
0.0
  0
LINE
  5
22A
  8
0
  6
CONTINUOUS
 62
     7
 10
19.51529336572187
 20
399.4208366848254
 30
0.0
 11
32.72654607938068
 21
413.2940592542515
 31
0.0
  0
LINE
  5
22B
  8
0
  6
CONTINUOUS
 62
     7
 10
32.72654607938068
 20
413.2940592542515
 30
0.0
 11
32.72683603712228
 21
413.2940817101749
 31
0.0
  0
LINE
  5
22C
  8
0
  6
CONTINUOUS
 62
     7
 10
33.41529658737687
 20
411.9207088834467
 30
0.0
 11
32.72683603712228
 21
413.2940817101749
 31
0.0
  0
ARC
  5
22D
  8
0
  6
CONTINUOUS
 62
     7
 10
51.01103531972289
 20
177.2010321373547
 30
0.0
 40
236.8
 50
85.5715742496878
 51
94.42842575031216
  0
POLYLINE
  5
22E
  8
0
  6
CONTINUOUS
 62
     7
 66
     1
 10
0.0
 20
0.0
 30
0.0
  0
VERTEX
  5
534
  8
0
  6
CONTINUOUS
 62
     7
 10
18.04020581745646
 20
351.7081800445201
 30
0.0
  0
VERTEX
  5
535
  8
0
  6
CONTINUOUS
 62
     7
 10
18.04049774341938
 20
351.6861853351976
 30
0.0
  0
VERTEX
  5
536
  8
0
  6
CONTINUOUS
 62
     7
 10
18.04175677245658
 20
351.6642247499405
 30
0.0
  0
VERTEX
  5
537
  8
0
  6
CONTINUOUS
 62
     7
 10
18.04398046783088
 20
351.6423407914816
 30
0.0
  0
VERTEX
  5
538
  8
0
  6
CONTINUOUS
 62
     7
 10
18.04716452578039
 20
351.6205758142492
 30
0.0
  0
VERTEX
  5
539
  8
0
  6
CONTINUOUS
 62
     7
 10
18.05130278384803
 20
351.5989719423945
 30
0.0
  0
VERTEX
  5
53A
  8
0
  6
CONTINUOUS
 62
     7
 10
18.05638723280842
 20
351.5775709882633
 30
0.0
  0
VERTEX
  5
53B
  8
0
  6
CONTINUOUS
 62
     7
 10
18.06240803216905
 20
351.5564143714731
 30
0.0
  0
VERTEX
  5
53C
  8
0
  6
CONTINUOUS
 62
     7
 10
18.06935352921561
 20
351.5355430387479
 30
0.0
  0
VERTEX
  5
53D
  8
0
  6
CONTINUOUS
 62
     7
 10
18.07721028156481
 20
351.5149973846703
 30
0.0
  0
VERTEX
  5
53E
  8
0
  6
CONTINUOUS
 62
     7
 10
18.08596308318086
 20
351.4948171735014
 30
0.0
  0
VERTEX
  5
53F
  8
0
  6
CONTINUOUS
 62
     7
 10
18.09559499380544
 20
351.4750414622204
 30
0.0
  0
VERTEX
  5
540
  8
0
  6
CONTINUOUS
 62
     7
 10
18.10608737174397
 20
351.4557085249334
 30
0.0
  0
VERTEX
  5
541
  8
0
  6
CONTINUOUS
 62
     7
 10
18.117419909945
 20
351.4368557787972
 30
0.0
  0
VERTEX
  5
542
  8
0
  6
CONTINUOUS
 62
     7
 10
18.12957067530265
 20
351.4185197116024
 30
0.0
  0
VERTEX
  5
543
  8
0
  6
CONTINUOUS
 62
     7
 10
18.14251615110609
 20
351.4007358111535
 30
0.0
  0
VERTEX
  5
544
  8
0
  6
CONTINUOUS
 62
     7
 10
18.15623128255415
 20
351.3835384965867
 30
0.0
  0
VERTEX
  5
545
  8
0
  6
CONTINUOUS
 62
     7
 10
18.17068952524652
 20
351.3669610517534
 30
0.0
  0
VERTEX
  5
546
  8
0
  6
CONTINUOUS
 62
     7
 10
18.18586289655808
 20
351.3510355608036
 30
0.0
  0
VERTEX
  5
547
  8
0
  6
CONTINUOUS
 62
     7
 10
18.20172202979677
 20
351.3357928460891
 30
0.0
  0
VERTEX
  5
548
  8
0
  6
CONTINUOUS
 62
     7
 10
18.2182362310401
 20
351.3212624085098
 30
0.0
  0
VERTEX
  5
549
  8
0
  6
CONTINUOUS
 62
     7
 10
18.23537353854059
 20
351.3074723704176
 30
0.0
  0
VERTEX
  5
54A
  8
0
  6
CONTINUOUS
 62
     7
 10
18.25310078458472
 20
351.2944494211878
 30
0.0
  0
VERTEX
  5
54B
  8
0
  6
CONTINUOUS
 62
     7
 10
18.27138365968613
 20
351.2822187655644
 30
0.0
  0
VERTEX
  5
54C
  8
0
  6
CONTINUOUS
 62
     7
 10
18.29018677898854
 20
351.2708040748788
 30
0.0
  0
SEQEND
  5
5EC
  8
0
  6
CONTINUOUS
 62
     7
  0
POLYLINE
  5
22F
  8
0
  6
CONTINUOUS
 62
     7
 66
     1
 10
0.0
 20
0.0
 30
0.0
  0
VERTEX
  5
54D
  8
0
  6
CONTINUOUS
 62
     7
 10
83.73188386045724
 20
351.2708040748788
 30
0.0
  0
VERTEX
  5
54E
  8
0
  6
CONTINUOUS
 62
     7
 10
83.75068697975965
 20
351.2822187655644
 30
0.0
  0
VERTEX
  5
54F
  8
0
  6
CONTINUOUS
 62
     7
 10
83.76896985486107
 20
351.2944494211878
 30
0.0
  0
VERTEX
  5
550
  8
0
  6
CONTINUOUS
 62
     7
 10
83.78669710090519
 20
351.3074723704176
 30
0.0
  0
VERTEX
  5
551
  8
0
  6
CONTINUOUS
 62
     7
 10
83.80383440840569
 20
351.3212624085098
 30
0.0
  0
VERTEX
  5
552
  8
0
  6
CONTINUOUS
 62
     7
 10
83.82034860964902
 20
351.3357928460891
 30
0.0
  0
VERTEX
  5
553
  8
0
  6
CONTINUOUS
 62
     7
 10
83.83620774288771
 20
351.3510355608036
 30
0.0
  0
VERTEX
  5
554
  8
0
  6
CONTINUOUS
 62
     7
 10
83.85138111419926
 20
351.3669610517534
 30
0.0
  0
VERTEX
  5
555
  8
0
  6
CONTINUOUS
 62
     7
 10
83.86583935689166
 20
351.3835384965867
 30
0.0
  0
VERTEX
  5
556
  8
0
  6
CONTINUOUS
 62
     7
 10
83.87955448833969
 20
351.4007358111535
 30
0.0
  0
VERTEX
  5
557
  8
0
  6
CONTINUOUS
 62
     7
 10
83.89249996414314
 20
351.4185197116024
 30
0.0
  0
VERTEX
  5
558
  8
0
  6
CONTINUOUS
 62
     7
 10
83.90465072950079
 20
351.4368557787972
 30
0.0
  0
VERTEX
  5
559
  8
0
  6
CONTINUOUS
 62
     7
 10
83.9159832677018
 20
351.4557085249334
 30
0.0
  0
VERTEX
  5
55A
  8
0
  6
CONTINUOUS
 62
     7
 10
83.92647564564035
 20
351.4750414622204
 30
0.0
  0
VERTEX
  5
55B
  8
0
  6
CONTINUOUS
 62
     7
 10
83.93610755626493
 20
351.4948171735014
 30
0.0
  0
VERTEX
  5
55C
  8
0
  6
CONTINUOUS
 62
     7
 10
83.94486035788098
 20
351.5149973846703
 30
0.0
  0
VERTEX
  5
55D
  8
0
  6
CONTINUOUS
 62
     7
 10
83.95271711023018
 20
351.5355430387479
 30
0.0
  0
VERTEX
  5
55E
  8
0
  6
CONTINUOUS
 62
     7
 10
83.95966260727674
 20
351.5564143714731
 30
0.0
  0
VERTEX
  5
55F
  8
0
  6
CONTINUOUS
 62
     7
 10
83.96568340663737
 20
351.5775709882633
 30
0.0
  0
VERTEX
  5
560
  8
0
  6
CONTINUOUS
 62
     7
 10
83.97076785559776
 20
351.5989719423945
 30
0.0
  0
VERTEX
  5
561
  8
0
  6
CONTINUOUS
 62
     7
 10
83.9749061136654
 20
351.6205758142492
 30
0.0
  0
VERTEX
  5
562
  8
0
  6
CONTINUOUS
 62
     7
 10
83.97809017161491
 20
351.6423407914816
 30
0.0
  0
VERTEX
  5
563
  8
0
  6
CONTINUOUS
 62
     7
 10
83.9803138669892
 20
351.6642247499405
 30
0.0
  0
VERTEX
  5
564
  8
0
  6
CONTINUOUS
 62
     7
 10
83.98157289602642
 20
351.6861853351976
 30
0.0
  0
VERTEX
  5
565
  8
0
  6
CONTINUOUS
 62
     7
 10
83.98186482198932
 20
351.7081800445201
 30
0.0
  0
SEQEND
  5
5ED
  8
0
  6
CONTINUOUS
 62
     7
  0
LINE
  5
230
  8
0
  6
CONTINUOUS
 62
     7
 10
18.29018677898855
 20
351.2708040748788
 30
0.0
 11
20.06103531972288
 21
350.2484041931917
 31
0.0
  0
LINE
  5
231
  8
0
  6
CONTINUOUS
 62
     7
 10
81.9610353197229
 20
350.2484041931917
 30
0.0
 11
83.73188386045724
 21
351.2708040748788
 31
0.0
  0
ARC
  5
232
  8
0
  6
CONTINUOUS
 62
     7
 10
19.81103531972288
 20
349.8153914912995
 30
0.0
 40
0.500000000000002
 50
0.0
 51
60.0
  0
ARC
  5
233
  8
0
  6
CONTINUOUS
 62
     7
 10
82.2110353197229
 20
349.8153914912995
 30
0.0
 40
0.5000000000000004
 50
120.0
 51
180.0
  0
LINE
  5
234
  8
0
  6
CONTINUOUS
 62
     7
 10
81.7110353197229
 20
348.3081389185411
 30
0.0
 11
81.7110353197229
 21
349.8153914912995
 31
0.0
  0
LINE
  5
235
  8
0
  6
CONTINUOUS
 62
     7
 10
20.31103531972288
 20
349.8153914912995
 30
0.0
 11
20.31103531972288
 21
348.3081389185411
 31
0.0
  0
ARC
  5
236
  8
0
  6
CONTINUOUS
 62
     7
 10
82.2110353197229
 20
348.3081389185411
 30
0.0
 40
0.4999999999999589
 50
180.0
 51
225.0000000000001
  0
LINE
  5
237
  8
0
  6
CONTINUOUS
 62
     7
 10
20.16458871031616
 20
347.9545855279479
 30
0.0
 11
18.4110353197229
 21
346.2010321373546
 31
0.0
  0
LINE
  5
238
  8
0
  6
CONTINUOUS
 62
     7
 10
18.41103531972288
 20
346.2010321373546
 30
0.0
 11
17.99214566576607
 21
346.2010321373546
 31
0.0
  0
ARC
  5
239
  8
0
  6
CONTINUOUS
 62
     7
 10
19.81103531972288
 20
348.3081389185411
 30
0.0
 40
0.5000000000000004
 50
314.9999999999998
 51
0.0
  0
LINE
  5
23A
  8
0
  6
CONTINUOUS
 62
     7
 10
83.61103531972289
 20
346.2010321373546
 30
0.0
 11
81.85748192912965
 21
347.9545855279479
 31
0.0
  0
LINE
  5
23B
  8
0
  6
CONTINUOUS
 62
     7
 10
84.02992497367973
 20
346.2010321373546
 30
0.0
 11
83.61103531972292
 21
346.2010321373546
 31
0.0
  0
LINE
  5
23C
  8
0
  6
CONTINUOUS
 62
     7
 10
61.00676090191699
 20
410.8873292753886
 30
0.0
 11
61.01103531972288
 21
410.9872592765939
 31
0.0
  0
LINE
  5
23D
  8
0
  6
CONTINUOUS
 62
     7
 10
41.01103531972291
 20
410.9872592765939
 30
0.0
 11
41.0153097375288
 21
410.8873292753886
 31
0.0
  0
ARC
  5
23E
  8
0
  6
CONTINUOUS
 62
     7
 10
60.9068522578404
 20
410.8916027796621
 30
0.0
 40
0.1000000000000187
 50
267.5752123582683
 51
357.5507165133894
  0
ARC
  5
23F
  8
0
  6
CONTINUOUS
 62
     7
 10
51.01103531972289
 20
177.2010321373547
 30
0.0
 40
233.8
 50
87.57521235826947
 51
90.0
  0
ARC
  5
240
  8
0
  6
CONTINUOUS
 62
     7
 10
51.01103531972289
 20
177.2010321373547
 30
0.0
 40
233.8
 50
90.0
 51
92.42478764173055
  0
ARC
  5
241
  8
0
  6
CONTINUOUS
 62
     7
 10
41.11521838160539
 20
410.8916027796622
 30
0.0
 40
0.099999999999998
 50
182.4492834866503
 51
272.4247876417301
  0
POLYLINE
  5
242
  8
0
  6
CONTINUOUS
 62
     7
 66
     1
 10
0.0
 20
0.0
 30
0.0
  0
VERTEX
  5
566
  8
0
  6
CONTINUOUS
 62
     7
 10
51.01103531972291
 20
361.199286830255
 30
0.0
  0
VERTEX
  5
567
  8
0
  6
CONTINUOUS
 62
     7
 10
51.03054435192452
 20
361.1993035980483
 30
0.0
  0
VERTEX
  5
568
  8
0
  6
CONTINUOUS
 62
     7
 10
51.04930366295942
 20
361.1993532570512
 30
0.0
  0
VERTEX
  5
569
  8
0
  6
CONTINUOUS
 62
     7
 10
51.06659234302487
 20
361.1994338988961
 30
0.0
  0
VERTEX
  5
56A
  8
0
  6
CONTINUOUS
 62
     7
 10
51.08174599784157
 20
361.1995424245621
 30
0.0
  0
VERTEX
  5
56B
  8
0
  6
CONTINUOUS
 62
     7
 10
51.09418228095316
 20
361.1996746634688
 30
0.0
  0
VERTEX
  5
56C
  8
0
  6
CONTINUOUS
 62
     7
 10
51.10342327297404
 20
361.1998255337491
 30
0.0
  0
VERTEX
  5
56D
  8
0
  6
CONTINUOUS
 62
     7
 10
51.10911384776323
 20
361.1999892375428
 30
0.0
  0
VERTEX
  5
56E
  8
0
  6
CONTINUOUS
 62
     7
 10
51.11103531972291
 20
361.2001594838048
 30
0.0
  0
SEQEND
  5
5EE
  8
0
  6
CONTINUOUS
 62
     7
  0
LINE
  5
243
  8
0
  6
CONTINUOUS
 62
     7
 10
51.11103531972292
 20
361.2010321373547
 30
0.0
 11
51.11103531972292
 21
361.2001594838048
 31
0.0
  0
POLYLINE
  5
244
  8
0
  6
CONTINUOUS
 62
     7
 66
     1
 10
0.0
 20
0.0
 30
0.0
  0
VERTEX
  5
56F
  8
0
  6
CONTINUOUS
 62
     7
 10
50.91103531972292
 20
361.2001594838048
 30
0.0
  0
VERTEX
  5
570
  8
0
  6
CONTINUOUS
 62
     7
 10
50.9129567916826
 20
361.1999892375428
 30
0.0
  0
VERTEX
  5
571
  8
0
  6
CONTINUOUS
 62
     7
 10
50.91864736647179
 20
361.1998255337491
 30
0.0
  0
VERTEX
  5
572
  8
0
  6
CONTINUOUS
 62
     7
 10
50.92788835849267
 20
361.1996746634688
 30
0.0
  0
VERTEX
  5
573
  8
0
  6
CONTINUOUS
 62
     7
 10
50.94032464160426
 20
361.1995424245621
 30
0.0
  0
VERTEX
  5
574
  8
0
  6
CONTINUOUS
 62
     7
 10
50.95547829642096
 20
361.1994338988961
 30
0.0
  0
VERTEX
  5
575
  8
0
  6
CONTINUOUS
 62
     7
 10
50.9727669764864
 20
361.1993532570512
 30
0.0
  0
VERTEX
  5
576
  8
0
  6
CONTINUOUS
 62
     7
 10
50.9915262875213
 20
361.1993035980483
 30
0.0
  0
VERTEX
  5
577
  8
0
  6
CONTINUOUS
 62
     7
 10
51.01103531972291
 20
361.199286830255
 30
0.0
  0
SEQEND
  5
5EF
  8
0
  6
CONTINUOUS
 62
     7
  0
LINE
  5
245
  8
0
  6
CONTINUOUS
 62
     7
 10
50.91103531972291
 20
361.2001594838048
 30
0.0
 11
50.91103531972291
 21
361.2010321373547
 31
0.0
  0
LINE
  5
246
  8
0
  6
CONTINUOUS
 62
     7
 10
39.01107339665872
 20
346.2010321373546
 30
0.0
 11
36.01099724278707
 21
346.2010321373546
 31
0.0
  0
LINE
  5
247
  8
0
  6
CONTINUOUS
 62
     7
 10
63.01099724278706
 20
346.2010321373546
 30
0.0
 11
62.01103531972289
 21
346.2010321373546
 31
0.0
  0
LINE
  5
248
  8
0
  6
CONTINUOUS
 62
     7
 10
62.01103531972289
 20
346.2010321373546
 30
0.0
 11
62.03289056686058
 21
348.7053954051038
 31
0.0
  0
LINE
  5
249
  8
0
  6
CONTINUOUS
 62
     7
 10
63.01099724278706
 20
346.2010321373546
 30
0.0
 11
66.01107339665872
 21
346.2010321373546
 31
0.0
  0
LINE
  5
24A
  8
0
  6
CONTINUOUS
 62
     7
 10
39.01107339665872
 20
346.2010321373546
 30
0.0
 11
40.0110353197229
 21
346.2010321373546
 31
0.0
  0
LINE
  5
24B
  8
0
  6
CONTINUOUS
 62
     7
 10
40.0110353197229
 20
346.2010321373546
 30
0.0
 11
39.98918007258521
 21
348.7053954051038
 31
0.0
  0
LINE
  5
24C
  8
0
  6
CONTINUOUS
 62
     7
 10
35.03289056686057
 20
348.7053954051038
 30
0.0
 11
35.01103531972289
 21
346.2010321373546
 31
0.0
  0
LINE
  5
24D
  8
0
  6
CONTINUOUS
 62
     7
 10
35.01103531972289
 20
346.2010321373546
 30
0.0
 11
36.01099724278707
 21
346.2010321373546
 31
0.0
  0
LINE
  5
24E
  8
0
  6
CONTINUOUS
 62
     7
 10
66.98918007258523
 20
348.7053954051038
 30
0.0
 11
67.0110353197229
 21
346.2010321373546
 31
0.0
  0
LINE
  5
24F
  8
0
  6
CONTINUOUS
 62
     7
 10
67.0110353197229
 20
346.2010321373546
 30
0.0
 11
66.01107339665872
 21
346.2010321373546
 31
0.0
  0
LINE
  5
250
  8
0
  6
CONTINUOUS
 62
     7
 10
65.98921814952105
 20
349.2010321373546
 30
0.0
 11
66.48919911105314
 21
349.2010321373546
 31
0.0
  0
ARC
  5
251
  8
0
  6
CONTINUOUS
 62
     7
 10
66.48919911105314
 20
348.7010321373546
 30
0.0
 40
0.5000000000000013
 50
0.5000000000000331
 51
90.0
  0
LINE
  5
252
  8
0
  6
CONTINUOUS
 62
     7
 10
36.03285248992474
 20
349.2010321373546
 30
0.0
 11
38.98921814952104
 21
349.2010321373546
 31
0.0
  0
LINE
  5
253
  8
0
  6
CONTINUOUS
 62
     7
 10
62.53287152839267
 20
349.2010321373546
 30
0.0
 11
63.03285248992474
 21
349.2010321373546
 31
0.0
  0
ARC
  5
254
  8
0
  6
CONTINUOUS
 62
     7
 10
62.53287152839267
 20
348.7010321373546
 30
0.0
 40
0.5000000000000004
 50
89.99999999999982
 51
179.5
  0
LINE
  5
255
  8
0
  6
CONTINUOUS
 62
     7
 10
63.03285248992475
 20
349.2010321373546
 30
0.0
 11
65.98921814952105
 21
349.2010321373546
 31
0.0
  0
LINE
  5
256
  8
0
  6
CONTINUOUS
 62
     7
 10
38.98921814952104
 20
349.2010321373546
 30
0.0
 11
39.48919911105313
 21
349.2010321373546
 31
0.0
  0
ARC
  5
257
  8
0
  6
CONTINUOUS
 62
     7
 10
39.48919911105313
 20
348.7010321373546
 30
0.0
 40
0.4999999999999943
 50
0.5000000000000331
 51
90.0000000000002
  0
LINE
  5
258
  8
0
  6
CONTINUOUS
 62
     7
 10
35.53287152839266
 20
349.2010321373546
 30
0.0
 11
36.03285248992474
 21
349.2010321373546
 31
0.0
  0
ARC
  5
259
  8
0
  6
CONTINUOUS
 62
     7
 10
35.53287152839266
 20
348.7010321373546
 30
0.0
 40
0.5000000000000004
 50
90.0000000000002
 51
179.5
  0
LINE
  5
25A
  8
0
  6
CONTINUOUS
 62
     7
 10
61.01145397030799
 20
346.2010321373546
 30
0.0
 11
62.01103531972289
 21
346.2010321373546
 31
0.0
  0
LINE
  5
25B
  8
0
  6
CONTINUOUS
 62
     7
 10
40.0110353197229
 20
346.2010321373546
 30
0.0
 11
41.0106166691378
 21
346.2010321373546
 31
0.0
  0
LINE
  5
25C
  8
0
  6
CONTINUOUS
 62
     7
 10
34.011453970308
 20
346.2010321373546
 30
0.0
 11
35.01103531972289
 21
346.2010321373546
 31
0.0
  0
LINE
  5
25D
  8
0
  6
CONTINUOUS
 62
     7
 10
67.0110353197229
 20
346.2010321373546
 30
0.0
 11
68.01061666913779
 21
346.2010321373546
 31
0.0
  0
LINE
  5
25E
  8
0
  6
CONTINUOUS
 62
     7
 10
19.0110353197229
 20
350.9123570027598
 30
0.0
 11
20.51103531972291
 21
350.0463315989754
 31
0.0
  0
LINE
  5
25F
  8
0
  6
CONTINUOUS
 62
     7
 10
83.0110353197229
 20
350.9123570027598
 30
0.0
 11
81.51103531972288
 21
350.0463315989754
 31
0.0
  0
LINE
  5
260
  8
0
  6
CONTINUOUS
 62
     7
 10
81.51103531972288
 20
350.0463315989754
 30
0.0
 11
81.5110353197229
 21
346.2010321373546
 31
0.0
  0
LINE
  5
261
  8
0
  6
CONTINUOUS
 62
     7
 10
20.51103531972291
 20
350.0463315989754
 30
0.0
 11
20.5110353197229
 21
346.2010321373546
 31
0.0
  0
LINE
  5
262
  8
0
  6
CONTINUOUS
 62
     7
 10
34.011453970308
 20
346.2010321373546
 30
0.0
 11
20.5110353197229
 21
346.2010321373546
 31
0.0
  0
LINE
  5
263
  8
0
  6
CONTINUOUS
 62
     7
 10
41.0106166691378
 20
346.2010321373546
 30
0.0
 11
61.01145397030799
 21
346.2010321373546
 31
0.0
  0
LINE
  5
264
  8
0
  6
CONTINUOUS
 62
     7
 10
68.01061666913779
 20
346.2010321373546
 30
0.0
 11
81.5110353197229
 21
346.2010321373546
 31
0.0
  0
LINE
  5
265
  8
0
  6
CONTINUOUS
 62
     7
 10
51.01103531972289
 20
350.9010321373546
 30
0.0
 11
51.3110353197229
 21
351.2010321373546
 31
0.0
  0
LINE
  5
266
  8
0
  6
CONTINUOUS
 62
     7
 10
51.3110353197229
 20
351.2010321373546
 30
0.0
 11
75.52995229871523
 21
351.2010321373546
 31
0.0
  0
LINE
  5
267
  8
0
  6
CONTINUOUS
 62
     7
 10
75.52995229871523
 20
351.2010321373546
 30
0.0
 11
75.91322592546427
 21
350.7272001154761
 31
0.0
  0
LINE
  5
268
  8
0
  6
CONTINUOUS
 62
     7
 10
26.10884471398153
 20
350.7272001154761
 30
0.0
 11
26.49211834073057
 21
351.2010321373546
 31
0.0
  0
LINE
  5
269
  8
0
  6
CONTINUOUS
 62
     7
 10
26.49211834073057
 20
351.2010321373546
 30
0.0
 11
50.7110353197229
 21
351.2010321373546
 31
0.0
  0
LINE
  5
26A
  8
0
  6
CONTINUOUS
 62
     7
 10
50.7110353197229
 20
351.2010321373546
 30
0.0
 11
51.01103531972289
 21
350.9010321373546
 31
0.0
  0
LINE
  5
26B
  8
0
  6
CONTINUOUS
 62
     7
 10
75.52956243147479
 20
351.2010321373546
 30
0.0
 11
77.20660794018255
 21
357.4598511824572
 31
0.0
  0
LINE
  5
26C
  8
0
  6
CONTINUOUS
 62
     7
 10
24.81546269926325
 20
357.4598511824572
 30
0.0
 11
26.492508207971
 21
351.2010321373546
 31
0.0
  0
LINE
  5
26D
  8
0
  6
CONTINUOUS
 62
     7
 10
19.0110353197229
 20
352.1834557837132
 30
0.0
 11
18.51105596828261
 21
352.201149241156
 31
0.0
  0
LINE
  5
26E
  8
0
  6
CONTINUOUS
 62
     7
 10
18.5110353197229
 20
351.2010321373546
 30
0.0
 11
18.5110353197229
 21
352.2010321373547
 31
0.0
  0
LINE
  5
26F
  8
0
  6
CONTINUOUS
 62
     7
 10
18.5110353197229
 20
352.2010321373547
 30
0.0
 11
18.5110559682826
 21
352.2011492411559
 31
0.0
  0
LINE
  5
270
  8
0
  6
CONTINUOUS
 62
     7
 10
19.01103531972291
 20
350.9123570027598
 30
0.0
 11
18.5110353197229
 21
351.2010321373546
 31
0.0
  0
LINE
  5
271
  8
0
  6
CONTINUOUS
 62
     7
 10
83.5110146711632
 20
352.2011492411559
 30
0.0
 11
83.5110353197229
 21
352.2010321373547
 31
0.0
  0
LINE
  5
272
  8
0
  6
CONTINUOUS
 62
     7
 10
83.5110353197229
 20
352.2010321373547
 30
0.0
 11
83.5110353197229
 21
351.2010321373546
 31
0.0
  0
LINE
  5
273
  8
0
  6
CONTINUOUS
 62
     7
 10
83.5110146711632
 20
352.201149241156
 30
0.0
 11
83.0110353197229
 21
352.1834557837132
 31
0.0
  0
LINE
  5
274
  8
0
  6
CONTINUOUS
 62
     7
 10
83.5110353197229
 20
351.2010321373546
 30
0.0
 11
83.0110353197229
 21
350.9123570027598
 31
0.0
  0
LINE
  5
275
  8
0
  6
CONTINUOUS
 62
     7
 10
18.5110559682826
 20
352.2011492411559
 30
0.0
 11
19.42328908213875
 21
357.3746803150216
 31
0.0
  0
LINE
  5
276
  8
0
  6
CONTINUOUS
 62
     7
 10
82.59878155730705
 20
357.3746803150216
 30
0.0
 11
83.5110146711632
 21
352.2011492411559
 31
0.0
  0
ARC
  5
277
  8
0
  6
CONTINUOUS
 62
     7
 10
20.40809683515096
 20
357.2010321373547
 30
0.0
 40
1.000000000000001
 50
90.0
 51
170.0000000000014
  0
ARC
  5
278
  8
0
  6
CONTINUOUS
 62
     7
 10
81.61397380429483
 20
357.2010321373547
 30
0.0
 40
1.000000000000001
 50
9.999999999998638
 51
90.0
  0
ARC
  5
279
  8
0
  6
CONTINUOUS
 62
     7
 10
78.1725337664716
 20
357.2010321373547
 30
0.0
 40
1.000000000000001
 50
90.0
 51
165.000000000001
  0
ARC
  5
27A
  8
0
  6
CONTINUOUS
 62
     7
 10
23.84953687297418
 20
357.2010321373547
 30
0.0
 40
1.000000000000001
 50
14.99999999999875
 51
90.0
  0
LINE
  5
27B
  8
0
  6
CONTINUOUS
 62
     7
 10
20.40809683515096
 20
358.2010321373547
 30
0.0
 11
23.84953687297418
 21
358.2010321373547
 31
0.0
  0
LINE
  5
27C
  8
0
  6
CONTINUOUS
 62
     7
 10
78.1725337664716
 20
358.2010321373547
 30
0.0
 11
81.61397380429483
 21
358.2010321373547
 31
0.0
  0
LINE
  5
27D
  8
0
  6
CONTINUOUS
 62
     7
 10
68.1110353197229
 20
346.2010321373546
 30
0.0
 11
68.1110353197229
 21
346.1010321373547
 31
0.0
  0
ARC
  5
27E
  8
0
  6
CONTINUOUS
 62
     7
 10
68.0110353197229
 20
346.1010321373547
 30
0.0
 40
0.099999999999989
 50
270.0
 51
0.0
  0
LINE
  5
27F
  8
0
  6
CONTINUOUS
 62
     7
 10
68.0110353197229
 20
346.0010321373547
 30
0.0
 11
67.8610353197229
 21
346.0010321373547
 31
0.0
  0
LINE
  5
280
  8
0
  6
CONTINUOUS
 62
     7
 10
67.8610353197229
 20
346.0010321373547
 30
0.0
 11
34.16103531972289
 21
346.0010321373547
 31
0.0
  0
LINE
  5
281
  8
0
  6
CONTINUOUS
 62
     7
 10
34.16103531972289
 20
346.0010321373547
 30
0.0
 11
34.01103531972289
 21
346.0010321373547
 31
0.0
  0
ARC
  5
282
  8
0
  6
CONTINUOUS
 62
     7
 10
34.01103531972289
 20
346.1010321373547
 30
0.0
 40
0.099999999999989
 50
180.0
 51
270.0
  0
LINE
  5
283
  8
0
  6
CONTINUOUS
 62
     7
 10
33.91103531972289
 20
346.1010321373547
 30
0.0
 11
33.91103531972289
 21
346.2010321373546
 31
0.0
  0
LINE
  5
284
  8
0
  6
CONTINUOUS
 62
     7
 10
20.5110353197229
 20
346.2010321373546
 30
0.0
 11
18.41103531972288
 21
346.2010321373546
 31
0.0
  0
LINE
  5
285
  8
0
  6
CONTINUOUS
 62
     7
 10
81.5110353197229
 20
346.2010321373546
 30
0.0
 11
83.61103531972289
 21
346.2010321373546
 31
0.0
  0
LINE
  5
286
  8
0
  6
CONTINUOUS
 62
     7
 10
20.31103531972288
 20
349.2010321373546
 30
0.0
 11
20.51103531972291
 21
349.2010321373546
 31
0.0
  0
LINE
  5
287
  8
0
  6
CONTINUOUS
 62
     7
 10
81.51103531972288
 20
349.2010321373546
 30
0.0
 11
81.7110353197229
 21
349.2010321373546
 31
0.0
  0
LINE
  5
288
  8
0
  6
CONTINUOUS
 62
     7
 10
15.1920390462864
 20
346.2010321373546
 30
0.0
 11
8.333365790059222
 21
346.2010321373546
 31
0.0
  0
LINE
  5
289
  8
0
  6
CONTINUOUS
 62
     7
 10
86.83003159315938
 20
346.2010321373546
 30
0.0
 11
93.6887048493866
 21
346.2010321373546
 31
0.0
  0
LINE
  5
28A
  8
0
  6
CONTINUOUS
 62
     7
 10
9.403322591156234
 20
349.2010321373546
 30
0.0
 11
15.21821964965868
 21
349.2010321373546
 31
0.0
  0
LINE
  5
28B
  8
0
  6
CONTINUOUS
 62
     7
 10
86.80385098978711
 20
349.2010321373546
 30
0.0
 11
92.61874804828956
 21
349.2010321373546
 31
0.0
  0
LINE
  5
28C
  8
0
  6
CONTINUOUS
 62
     7
 10
100.9978307850544
 20
347.7141219406022
 30
0.0
 11
101.0110353197229
 21
346.2010321373546
 31
0.0
  0
LINE
  5
28D
  8
0
  6
CONTINUOUS
 62
     7
 10
93.6887048493866
 20
346.2010321373546
 30
0.0
 11
101.0110353197229
 21
346.2010321373546
 31
0.0
  0
LINE
  5
28E
  8
0
  6
CONTINUOUS
 62
     7
 10
1.024239854391408
 20
347.7141219406022
 30
0.0
 11
1.011035319722922
 21
346.2010321373546
 31
0.0
  0
LINE
  5
28F
  8
0
  6
CONTINUOUS
 62
     7
 10
8.333365790059215
 20
346.2010321373546
 30
0.0
 11
1.011035319722936
 21
346.2010321373546
 31
0.0
  0
ARC
  5
290
  8
0
  6
CONTINUOUS
 62
     7
 10
99.49788790045812
 20
347.7010321373546
 30
0.0
 40
1.500000000000001
 50
0.5
 51
89.9999999999992
  0
LINE
  5
291
  8
0
  6
CONTINUOUS
 62
     7
 10
92.61874804828956
 20
349.2010321373546
 30
0.0
 11
99.49788790045812
 21
349.2010321373546
 31
0.0
  0
ARC
  5
292
  8
0
  6
CONTINUOUS
 62
     7
 10
2.524182738987649
 20
347.7010321373546
 30
0.0
 40
1.500000000000001
 50
90.0
 51
179.5
  0
LINE
  5
293
  8
0
  6
CONTINUOUS
 62
     7
 10
2.524182738987697
 20
349.2010321373546
 30
0.0
 11
9.403322591156254
 21
349.2010321373546
 31
0.0
  0
LINE
  5
294
  8
0
  6
CONTINUOUS
 62
     7
 10
59.30548171510319
 20
353.1101356029737
 30
0.0
 11
59.31225480865854
 21
353.1103068015968
 31
0.0
  0
LINE
  5
295
  8
0
  6
CONTINUOUS
 62
     7
 10
59.31225480865849
 20
353.1103068015976
 30
0.0
 11
59.80824628999826
 21
353.0704773323023
 31
0.0
  0
LINE
  5
296
  8
0
  6
CONTINUOUS
 62
     7
 10
59.80824628999829
 20
353.0704773323015
 30
0.0
 11
59.90621976115681
 21
351.2010321373546
 31
0.0
  0
LINE
  5
297
  8
0
  6
CONTINUOUS
 62
     7
 10
42.7165889243426
 20
353.1101356029737
 30
0.0
 11
59.30548171510319
 21
353.1101356029737
 31
0.0
  0
LINE
  5
298
  8
0
  6
CONTINUOUS
 62
     7
 10
42.70981583078726
 20
353.1103068015968
 30
0.0
 11
42.7165889243426
 21
353.1101356029737
 31
0.0
  0
LINE
  5
299
  8
0
  6
CONTINUOUS
 62
     7
 10
58.94064564030548
 20
360.2010321373547
 30
0.0
 11
43.08142499914032
 21
360.2010321373547
 31
0.0
  0
LINE
  5
29A
  8
0
  6
CONTINUOUS
 62
     7
 10
42.11585087828898
 20
351.2010321373546
 30
0.0
 11
42.21382434944749
 21
353.0704773323015
 31
0.0
  0
LINE
  5
29B
  8
0
  6
CONTINUOUS
 62
     7
 10
42.70981583078726
 20
353.1103068015968
 30
0.0
 11
42.21382434944749
 21
353.0704773323015
 31
0.0
  0
LINE
  5
29C
  8
0
  6
CONTINUOUS
 62
     7
 10
58.94064564030548
 20
360.2010321373547
 30
0.0
 11
58.960067464252
 21
360.2010321373547
 31
0.0
  0
POLYLINE
  5
29D
  8
0
  6
CONTINUOUS
 62
     7
 66
     1
 10
0.0
 20
0.0
 30
0.0
  0
VERTEX
  5
578
  8
0
  6
CONTINUOUS
 62
     7
 10
58.960067464252
 20
360.2010321373547
 30
0.0
  0
VERTEX
  5
579
  8
0
  6
CONTINUOUS
 62
     7
 10
58.98378413131631
 20
360.2004693403175
 30
0.0
  0
VERTEX
  5
57A
  8
0
  6
CONTINUOUS
 62
     7
 10
59.00744740770081
 20
360.1987822161681
 30
0.0
  0
VERTEX
  5
57B
  8
0
  6
CONTINUOUS
 62
     7
 10
59.03100402291813
 20
360.1959745629403
 30
0.0
  0
VERTEX
  5
57C
  8
0
  6
CONTINUOUS
 62
     7
 10
59.05440094659528
 20
360.1920527011898
 30
0.0
  0
VERTEX
  5
57D
  8
0
  6
CONTINUOUS
 62
     7
 10
59.07758550785497
 20
360.1870254597653
 30
0.0
  0
VERTEX
  5
57E
  8
0
  6
CONTINUOUS
 62
     7
 10
59.10050551388765
 20
360.180904155933
 30
0.0
  0
VERTEX
  5
57F
  8
0
  6
CONTINUOUS
 62
     7
 10
59.12310936744738
 20
360.1737025698998
 30
0.0
  0
VERTEX
  5
580
  8
0
  6
CONTINUOUS
 62
     7
 10
59.14534618300691
 20
360.1654369137906
 30
0.0
  0
VERTEX
  5
581
  8
0
  6
CONTINUOUS
 62
     7
 10
59.16716590131062
 20
360.1561257951525
 30
0.0
  0
VERTEX
  5
582
  8
0
  6
CONTINUOUS
 62
     7
 10
59.18851940206721
 20
360.1457901750656
 30
0.0
  0
VERTEX
  5
583
  8
0
  6
CONTINUOUS
 62
     7
 10
59.20935861452888
 20
360.1344533209551
 30
0.0
  0
VERTEX
  5
584
  8
0
  6
CONTINUOUS
 62
     7
 10
59.2296366257075
 20
360.1221407542128
 30
0.0
  0
VERTEX
  5
585
  8
0
  6
CONTINUOUS
 62
     7
 10
59.24930778598463
 20
360.108880192743
 30
0.0
  0
VERTEX
  5
586
  8
0
  6
CONTINUOUS
 62
     7
 10
59.26832781187738
 20
360.0947014885643
 30
0.0
  0
VERTEX
  5
587
  8
0
  6
CONTINUOUS
 62
     7
 10
59.2866538857289
 20
360.0796365606079
 30
0.0
  0
VERTEX
  5
588
  8
0
  6
CONTINUOUS
 62
     7
 10
59.30424475209888
 20
360.0637193228608
 30
0.0
  0
VERTEX
  5
589
  8
0
  6
CONTINUOUS
 62
     7
 10
59.32106081063746
 20
360.0469856080201
 30
0.0
  0
VERTEX
  5
58A
  8
0
  6
CONTINUOUS
 62
     7
 10
59.33706420523293
 20
360.0294730868262
 30
0.0
  0
VERTEX
  5
58B
  8
0
  6
CONTINUOUS
 62
     7
 10
59.35221890923307
 20
360.0112211832594
 30
0.0
  0
VERTEX
  5
58C
  8
0
  6
CONTINUOUS
 62
     7
 10
59.36649080654781
 20
359.9922709857885
 30
0.0
  0
VERTEX
  5
58D
  8
0
  6
CONTINUOUS
 62
     7
 10
59.37984776845107
 20
359.9726651548738
 30
0.0
  0
VERTEX
  5
58E
  8
0
  6
CONTINUOUS
 62
     7
 10
59.39225972590852
 20
359.9524478269291
 30
0.0
  0
VERTEX
  5
58F
  8
0
  6
CONTINUOUS
 62
     7
 10
59.40369873726861
 20
359.9316645149638
 30
0.0
  0
VERTEX
  5
590
  8
0
  6
CONTINUOUS
 62
     7
 10
59.41413905116455
 20
359.9103620061234
 30
0.0
  0
VERTEX
  5
591
  8
0
  6
CONTINUOUS
 62
     7
 10
59.42355716448542
 20
359.8885882563632
 30
0.0
  0
VERTEX
  5
592
  8
0
  6
CONTINUOUS
 62
     7
 10
59.43193187528614
 20
359.8663922824907
 30
0.0
  0
VERTEX
  5
593
  8
0
  6
CONTINUOUS
 62
     7
 10
59.43924433051701
 20
359.8438240518192
 30
0.0
  0
VERTEX
  5
594
  8
0
  6
CONTINUOUS
 62
     7
 10
59.44547806846546
 20
359.8209343696822
 30
0.0
  0
VERTEX
  5
595
  8
0
  6
CONTINUOUS
 62
     7
 10
59.45061905581453
 20
359.7977747650607
 30
0.0
  0
VERTEX
  5
596
  8
0
  6
CONTINUOUS
 62
     7
 10
59.4546557192344
 20
359.7743973745823
 30
0.0
  0
VERTEX
  5
597
  8
0
  6
CONTINUOUS
 62
     7
 10
59.45757897143622
 20
359.7508548251514
 30
0.0
  0
VERTEX
  5
598
  8
0
  6
CONTINUOUS
 62
     7
 10
59.45938223162929
 20
359.7272001154761
 30
0.0
  0
SEQEND
  5
5F0
  8
0
  6
CONTINUOUS
 62
     7
  0
LINE
  5
29E
  8
0
  6
CONTINUOUS
 62
     7
 10
59.45938223162929
 20
359.7272001154761
 30
0.0
 11
59.80824628999829
 21
353.0704773323015
 31
0.0
  0
LINE
  5
29F
  8
0
  6
CONTINUOUS
 62
     7
 10
43.06200317519379
 20
360.2010321373547
 30
0.0
 11
43.08142499914032
 21
360.2010321373547
 31
0.0
  0
LINE
  5
2A0
  8
0
  6
CONTINUOUS
 62
     7
 10
42.21382434944749
 20
353.0704773323015
 30
0.0
 11
42.5626884078165
 21
359.7272001154761
 31
0.0
  0
POLYLINE
  5
2A1
  8
0
  6
CONTINUOUS
 62
     7
 66
     1
 10
0.0
 20
0.0
 30
0.0
  0
VERTEX
  5
599
  8
0
  6
CONTINUOUS
 62
     7
 10
43.06200317519379
 20
360.2010321373547
 30
0.0
  0
VERTEX
  5
59A
  8
0
  6
CONTINUOUS
 62
     7
 10
43.03828650812947
 20
360.2004693403175
 30
0.0
  0
VERTEX
  5
59B
  8
0
  6
CONTINUOUS
 62
     7
 10
43.01462323174498
 20
360.1987822161681
 30
0.0
  0
VERTEX
  5
59C
  8
0
  6
CONTINUOUS
 62
     7
 10
42.99106661652766
 20
360.1959745629403
 30
0.0
  0
VERTEX
  5
59D
  8
0
  6
CONTINUOUS
 62
     7
 10
42.96766969285051
 20
360.1920527011898
 30
0.0
  0
VERTEX
  5
59E
  8
0
  6
CONTINUOUS
 62
     7
 10
42.94448513159082
 20
360.1870254597653
 30
0.0
  0
VERTEX
  5
59F
  8
0
  6
CONTINUOUS
 62
     7
 10
42.92156512555814
 20
360.180904155933
 30
0.0
  0
VERTEX
  5
5A0
  8
0
  6
CONTINUOUS
 62
     7
 10
42.89896127199841
 20
360.1737025698998
 30
0.0
  0
VERTEX
  5
5A1
  8
0
  6
CONTINUOUS
 62
     7
 10
42.87672445643887
 20
360.1654369137906
 30
0.0
  0
VERTEX
  5
5A2
  8
0
  6
CONTINUOUS
 62
     7
 10
42.85490473813518
 20
360.1561257951525
 30
0.0
  0
VERTEX
  5
5A3
  8
0
  6
CONTINUOUS
 62
     7
 10
42.83355123737858
 20
360.1457901750656
 30
0.0
  0
VERTEX
  5
5A4
  8
0
  6
CONTINUOUS
 62
     7
 10
42.81271202491691
 20
360.1344533209551
 30
0.0
  0
VERTEX
  5
5A5
  8
0
  6
CONTINUOUS
 62
     7
 10
42.79243401373829
 20
360.1221407542128
 30
0.0
  0
VERTEX
  5
5A6
  8
0
  6
CONTINUOUS
 62
     7
 10
42.77276285346115
 20
360.108880192743
 30
0.0
  0
VERTEX
  5
5A7
  8
0
  6
CONTINUOUS
 62
     7
 10
42.7537428275684
 20
360.0947014885643
 30
0.0
  0
VERTEX
  5
5A8
  8
0
  6
CONTINUOUS
 62
     7
 10
42.7354167537169
 20
360.0796365606079
 30
0.0
  0
VERTEX
  5
5A9
  8
0
  6
CONTINUOUS
 62
     7
 10
42.71782588734691
 20
360.0637193228608
 30
0.0
  0
VERTEX
  5
5AA
  8
0
  6
CONTINUOUS
 62
     7
 10
42.70100982880833
 20
360.0469856080201
 30
0.0
  0
VERTEX
  5
5AB
  8
0
  6
CONTINUOUS
 62
     7
 10
42.68500643421285
 20
360.0294730868262
 30
0.0
  0
VERTEX
  5
5AC
  8
0
  6
CONTINUOUS
 62
     7
 10
42.66985173021272
 20
360.0112211832594
 30
0.0
  0
VERTEX
  5
5AD
  8
0
  6
CONTINUOUS
 62
     7
 10
42.65557983289798
 20
359.9922709857885
 30
0.0
  0
VERTEX
  5
5AE
  8
0
  6
CONTINUOUS
 62
     7
 10
42.64222287099472
 20
359.9726651548738
 30
0.0
  0
VERTEX
  5
5AF
  8
0
  6
CONTINUOUS
 62
     7
 10
42.62981091353728
 20
359.9524478269291
 30
0.0
  0
VERTEX
  5
5B0
  8
0
  6
CONTINUOUS
 62
     7
 10
42.61837190217718
 20
359.9316645149638
 30
0.0
  0
VERTEX
  5
5B1
  8
0
  6
CONTINUOUS
 62
     7
 10
42.60793158828125
 20
359.9103620061234
 30
0.0
  0
VERTEX
  5
5B2
  8
0
  6
CONTINUOUS
 62
     7
 10
42.59851347496037
 20
359.8885882563632
 30
0.0
  0
VERTEX
  5
5B3
  8
0
  6
CONTINUOUS
 62
     7
 10
42.59013876415965
 20
359.8663922824907
 30
0.0
  0
VERTEX
  5
5B4
  8
0
  6
CONTINUOUS
 62
     7
 10
42.58282630892878
 20
359.8438240518192
 30
0.0
  0
VERTEX
  5
5B5
  8
0
  6
CONTINUOUS
 62
     7
 10
42.57659257098032
 20
359.8209343696822
 30
0.0
  0
VERTEX
  5
5B6
  8
0
  6
CONTINUOUS
 62
     7
 10
42.57145158363127
 20
359.7977747650607
 30
0.0
  0
VERTEX
  5
5B7
  8
0
  6
CONTINUOUS
 62
     7
 10
42.5674149202114
 20
359.7743973745823
 30
0.0
  0
VERTEX
  5
5B8
  8
0
  6
CONTINUOUS
 62
     7
 10
42.56449166800957
 20
359.7508548251514
 30
0.0
  0
VERTEX
  5
5B9
  8
0
  6
CONTINUOUS
 62
     7
 10
42.5626884078165
 20
359.7272001154761
 30
0.0
  0
SEQEND
  5
5F1
  8
0
  6
CONTINUOUS
 62
     7
  0
ENDBLK
  8
0
  0
ENDSEC
  0
SECTION
  2
ENTITIES
  0
INSERT
  5
9C
  8
0
  6
CONTINUOUS
 62
     7
  2
D_FRAME_VIEW_1714
 10
0.0
 20
0.0
 30
0.0
  0
INSERT
  5
C7
  8
0
  6
CONTINUOUS
 62
     7
  2
D_FRAME_VIEW_2259
 10
0.0
 20
0.0
 30
0.0
  0
INSERT
  5
1DB
  8
0
  6
CONTINUOUS
 62
     7
  2
D_FRAME_VIEW_2692
 10
0.0
 20
0.0
 30
0.0
  0
INSERT
  5
2A2
  8
0
  6
CONTINUOUS
 62
     7
  2
D_FRAME_VIEW_2158
 10
0.0
 20
0.0
 30
0.0
  0
TEXT
  5
2A3
  8
0
  6
CONTINUOUS
 62
     7
 10
262.0359275354347
 20
423.5875609325593
 30
0.0
 40
3.0
  1
RMW-40
  0
POINT
  5
2A4
  8
0
 62
     7
 10
51.01103531972289
 20
380.0010321373546
 30
0.0
  0
POINT
  5
2A5
  8
0
 62
     7
 10
266.2806624836074
 20
561.2706593012392
 30
0.0
  0
POINT
  5
2A6
  8
0
 62
     7
 10
51.01103531972289
 20
534.2706593012392
 30
0.0
  0
LINE
  5
2A7
  8
0
  6
CENTER
 62
     7
 10
51.01103531972289
 20
436.2706593012392
 30
0.0
 11
51.0110353197229
 21
632.2706593012392
 31
0.0
  0
LINE
  5
2A9
  8
0
  6
CENTER
 62
     7
 10
266.2806624836074
 20
436.2706593012392
 30
0.0
 11
266.2806624836074
 21
632.2706593012392
 31
0.0
  0
LINE
  5
2AA
  8
0
  6
CENTER
 62
     7
 10
51.01103531972289
 20
343.0010321373547
 30
0.0
 11
51.01103531972289
 21
417.0010321373546
 31
0.0
  0
LINE
  5
2AB
  8
0
  6
CENTER
 62
     1
 10
232.7806624836074
 20
561.2706593012392
 30
0.0
 11
299.7806624836074
 21
561.2706593012392
 31
0.0
  0
LINE
  5
2AC
  8
0
  6
CENTER
 62
     1
 10
266.2806624836074
 20
527.7706593012392
 30
0.0
 11
266.2806624836074
 21
594.7706593012392
 31
0.0
  0
ENDSEC
  0
EOF
