  0
SECTION
  2
HEADER
  9
$ACADVER
  1
AC1004
  9
$INSBASE
 10
0.0
 20
0.0
  9
$EXTMIN
 10
-621.6590909090908
 20
0.0
  9
$EXTMAX
 10
567.7454545454545
 20
535.0
  9
$LIMMIN
 10
0.0
 20
0.0
  9
$LIMMAX
 10
12.0
 20
9.0
  9
$ORTHOMODE
 70
     0
  9
$REGENMODE
 70
     1
  9
$FILLMODE
 70
     1
  9
$QTEXTMODE
 70
     0
  9
$DRAGMODE
 70
     2
  9
$LTSCALE
 40
1.0
  9
$OSMODE
 70
    37
  9
$ATTMODE
 70
     1
  9
$TEXTSIZE
 40
0.2
  9
$TRACEWID
 40
0.05
  9
$TEXTSTYLE
  7
STANDARD
  9
$CLAYER
  8
0
  9
$CELTYPE
  6
BYLAYER
  9
$CECOLOR
 62
   256
  9
$DIMSCALE
 40
1.0
  9
$DIMASZ
 40
3.0
  9
$DIMEXO
 40
0.0625
  9
$DIMDLI
 40
0.38
  9
$DIMRND
 40
0.0
  9
$DIMDLE
 40
0.0
  9
$DIMEXE
 40
1.5
  9
$DIMTP
 40
0.0
  9
$DIMTM
 40
0.0
  9
$DIMTXT
 40
3.0
  9
$DIMCEN
 40
0.09
  9
$DIMTSZ
 40
0.0
  9
$DIMTOL
 70
     0
  9
$DIMLIM
 70
     0
  9
$DIMTIH
 70
     1
  9
$DIMTOH
 70
     1
  9
$DIMSE1
 70
     0
  9
$DIMSE2
 70
     0
  9
$DIMTAD
 70
     1
  9
$DIMZIN
 70
     0
  9
$DIMBLK
  1

  9
$DIMASO
 70
     1
  9
$DIMSHO
 70
     1
  9
$DIMPOST
  1

  9
$DIMAPOST
  1

  9
$DIMALT
 70
     0
  9
$DIMALTD
 70
     2
  9
$DIMALTF
 40
25.4
  9
$DIMLFAC
 40
1.0
  9
$DIMTOFL
 70
     0
  9
$DIMTVP
 40
0.0
  9
$DIMTIX
 70
     0
  9
$DIMSOXD
 70
     0
  9
$DIMSAH
 70
     0
  9
$DIMBLK1
  1

  9
$DIMBLK2
  1

  9
$LUNITS
 70
     2
  9
$LUPREC
 70
     4
  9
$SKETCHINC
 40
0.1
  9
$FILLETRAD
 40
0.5
  9
$AUNITS
 70
     0
  9
$AUPREC
 70
     0
  9
$MENU
  1
.
  9
$ELEVATION
 40
0.0
  9
$THICKNESS
 40
0.0
  9
$LIMCHECK
 70
     0
  9
$CHAMFERA
 40
0.0
  9
$CHAMFERB
 40
0.0
  9
$SKPOLY
 70
     0
  9
$TDCREATE
 40
2459389.358114352
  9
$TDUPDATE
 40
2459389.358128148
  9
$TDINDWG
 40
0.0000000116
  9
$TDUSRTIMER
 40
0.0000000116
  9
$USRTIMER
 70
     1
  9
$ANGBASE
 50
0.0
  9
$ANGDIR
 70
     0
  9
$PDMODE
 70
     0
  9
$PDSIZE
 40
0.0
  9
$PLINEWID
 40
0.0
  9
$COORDS
 70
     1
  9
$SPLFRAME
 70
     0
  9
$SPLINETYPE
 70
     6
  9
$SPLINESEGS
 70
     8
  9
$ATTDIA
 70
     0
  9
$ATTREQ
 70
     1
  9
$SURFTAB1
 70
     6
  9
$SURFTAB2
 70
     6
  9
$SURFTYPE
 70
     6
  9
$SURFU
 70
     6
  9
$SURFV
 70
     6
  9
$UCSNAME
  2

  9
$UCSORG
 10
0.0
 20
0.0
 30
0.0
  9
$UCSXDIR
 10
1.0
 20
0.0
 30
0.0
  9
$UCSYDIR
 10
0.0
 20
1.0
 30
0.0
  9
$USERI1
 70
     0
  9
$USERI2
 70
     0
  9
$USERI3
 70
     0
  9
$USERI4
 70
     0
  9
$USERI5
 70
     0
  9
$USERR1
 40
0.0
  9
$USERR2
 40
0.0
  9
$USERR3
 40
0.0
  9
$USERR4
 40
0.0
  9
$USERR5
 40
0.0
  9
$WORLDVIEW
 70
     1
  0
ENDSEC
  0
SECTION
  2
TABLES
  0
TABLE
  2
LTYPE
 70
     2
  0
LTYPE
  2
CONTINUOUS
 70
     0
  3
Solid line
 72
    65
 73
     0
 40
0.0
  0
LTYPE
  2
CENTER
 70
     0
  3

 72
    65
 73
     0
 40
0.0
  0
ENDTAB
  0
TABLE
  2
LAYER
 70
     2
  0
LAYER
  2
0
 70
     0
 62
     7
  6
CONTINUOUS
  0
LAYER
  2
JIS_B_0405-M_普通公差_M_中級
 70
     0
 62
     7
  6
CONTINUOUS
  0
ENDTAB
  0
TABLE
  2
STYLE
 70
     2
  0
STYLE
  2
STANDARD
 70
     0
 40
0.0
 41
1.0
 50
0.0
 71
     0
 42
0.2
  3
txt
  4

  0
STYLE
  2
ＭＳ_ゴシック
 70
     0
 40
0.0
 41
1.0
 50
0.0
 71
     0
 42
0.2
  3
ＭＳ ゴシック.shx
  4

  0
ENDTAB
  0
TABLE
  2
VIEW
 70
     0
  0
ENDTAB
  0
ENDSEC
  0
SECTION
  2
BLOCKS
  0
BLOCK
  8
0
  2
D_FRAME_VIEW_1772
 70
     0
 10
0.0
 20
0.0
  0
LINE
  8
0
  6
CONTINUOUS
 62
     7
 10
-260.8507783164506
 20
164.2
 11
-259.7842712474618
 21
164.0587278585006
  0
LINE
  8
0
  6
CONTINUOUS
 62
     7
 10
-260.8975067872897
 20
164.2
 11
-273.0342712474618
 21
164.2
  0
LINE
  8
0
  6
CONTINUOUS
 62
     7
 10
-346.9657287525382
 20
164.2
 11
-273.0342712474618
 21
164.2
  0
LINE
  8
0
  6
CONTINUOUS
 62
     7
 10
-359.1492216835494
 20
164.2
 11
-360.2157287525382
 21
164.0587278585006
  0
LINE
  8
0
  6
CONTINUOUS
 62
     7
 10
-359.1024932127103
 20
164.2
 11
-346.9657287525382
 21
164.2
  0
LINE
  8
0
  6
CONTINUOUS
 62
     7
 10
-273.0342712474618
 20
161.2
 11
-346.9657287525382
 21
161.2
  0
LINE
  8
0
  6
CONTINUOUS
 62
     7
 10
-346.9657287525382
 20
161.2
 11
-361.1078643762691
 21
161.2
  0
LINE
  8
0
  6
CONTINUOUS
 62
     7
 10
-258.8921356237308
 20
161.2
 11
-273.0342712474618
 21
161.2
  0
LINE
  8
0
  6
CONTINUOUS
 62
     7
 10
-257.9999999999999
 20
161.1999999999998
 11
-257.9999999999999
 21
162.1999999999998
  0
LINE
  8
0
  6
CONTINUOUS
 62
     7
 10
-257.9999999999999
 20
161.1999999999998
 11
-258.8921356237308
 21
161.2
  0
POLYLINE
  8
0
  6
CONTINUOUS
 62
     7
 66
     1
  0
VERTEX
  8
0
  6
CONTINUOUS
 62
     7
 10
-257.9999999999999
 20
162.1999999999998
  0
VERTEX
  8
0
  6
CONTINUOUS
 62
     7
 10
-258.0556973175816
 20
162.5949489944677
  0
VERTEX
  8
0
  6
CONTINUOUS
 62
     7
 10
-258.2205956899031
 20
162.9743433371073
  0
VERTEX
  8
0
  6
CONTINUOUS
 62
     7
 10
-258.488200767556
 20
163.3232409797351
  0
VERTEX
  8
0
  6
CONTINUOUS
 62
     7
 10
-258.8479732052863
 20
163.6279009547053
  0
VERTEX
  8
0
  6
CONTINUOUS
 62
     7
 10
-259.2857437430514
 20
163.8763245485054
  0
VERTEX
  8
0
  6
CONTINUOUS
 62
     7
 10
-259.7842712474618
 20
164.0587278585006
  0
SEQEND
  8
0
  6
CONTINUOUS
 62
     7
  0
LINE
  8
0
  6
CONTINUOUS
 62
     7
 10
-362.0000000000001
 20
161.1999999999998
 11
-362.0000000000001
 21
162.2
  0
LINE
  8
0
  6
CONTINUOUS
 62
     7
 10
-361.1078643762691
 20
161.2
 11
-362.0000000000001
 21
161.1999999999998
  0
POLYLINE
  8
0
  6
CONTINUOUS
 62
     7
 66
     1
  0
VERTEX
  8
0
  6
CONTINUOUS
 62
     7
 10
-360.2157287525382
 20
164.0587278585006
  0
VERTEX
  8
0
  6
CONTINUOUS
 62
     7
 10
-360.7142562569485
 20
163.8763245485054
  0
VERTEX
  8
0
  6
CONTINUOUS
 62
     7
 10
-361.1520267947135
 20
163.6279009547054
  0
VERTEX
  8
0
  6
CONTINUOUS
 62
     7
 10
-361.5117992324439
 20
163.3232409797352
  0
VERTEX
  8
0
  6
CONTINUOUS
 62
     7
 10
-361.7794043100968
 20
162.9743433371074
  0
VERTEX
  8
0
  6
CONTINUOUS
 62
     7
 10
-361.9443026824183
 20
162.5949489944678
  0
VERTEX
  8
0
  6
CONTINUOUS
 62
     7
 10
-362.0000000000001
 20
162.2
  0
SEQEND
  8
0
  6
CONTINUOUS
 62
     7
  0
LINE
  8
0
  6
CONTINUOUS
 62
     7
 10
-255.5176380902051
 20
161.2
 11
-257.9999999999999
 21
161.1999999999998
  0
LINE
  8
0
  6
CONTINUOUS
 62
     7
 10
-362.0000000000001
 20
161.1999999999998
 11
-364.4823619097949
 21
161.2
  0
LINE
  8
0
  6
CONTINUOUS
 62
     7
 10
-255.8038475772933
 20
164.2
 11
-255.0
 21
161.2
  0
LINE
  8
0
  6
CONTINUOUS
 62
     7
 10
-255.0
 20
161.2
 11
-255.5176380902051
 21
161.2
  0
LINE
  8
0
  6
CONTINUOUS
 62
     7
 10
-364.9999999999999
 20
161.2
 11
-364.1961524227066
 21
164.2
  0
LINE
  8
0
  6
CONTINUOUS
 62
     7
 10
-364.4823619097949
 20
161.2
 11
-365.0
 21
161.2
  0
LINE
  8
0
  6
CONTINUOUS
 62
     7
 10
-365.0
 20
161.2
 11
-365.25
 21
161.2
  0
LINE
  8
0
  6
CONTINUOUS
 62
     7
 10
-254.7499999999999
 20
161.2
 11
-255.0
 21
161.2
  0
LINE
  8
0
  6
CONTINUOUS
 62
     7
 10
-389.1
 20
161.1
 11
-389.1
 21
161.2
  0
LINE
  8
0
  6
CONTINUOUS
 62
     7
 10
-344.9
 20
161.2
 11
-344.9
 21
161.1
  0
LINE
  8
0
  6
CONTINUOUS
 62
     7
 10
-389.0
 20
161.0
 11
-345.0
 21
161.0
  0
ARC
  8
0
  6
CONTINUOUS
 62
     7
 10
-389.0
 20
161.1
 40
0.099999999999989
 50
180.0
 51
270.0
  0
LINE
  8
0
  6
CONTINUOUS
 62
     7
 10
-230.9
 20
161.2
 11
-230.9
 21
161.1
  0
ARC
  8
0
  6
CONTINUOUS
 62
     7
 10
-345.0
 20
161.1
 40
0.1000000000000167
 50
270.0
 51
0.0000000000063096
  0
ARC
  8
0
  6
CONTINUOUS
 62
     7
 10
-231.0
 20
161.1
 40
0.099999999999989
 50
270.0
 51
0.0
  0
LINE
  8
0
  6
CONTINUOUS
 62
     7
 10
-275.1
 20
161.1
 11
-275.1
 21
161.2
  0
LINE
  8
0
  6
CONTINUOUS
 62
     7
 10
-274.9999999999999
 20
161.0
 11
-231.0
 21
161.0
  0
ARC
  8
0
  6
CONTINUOUS
 62
     7
 10
-274.9999999999999
 20
161.1
 40
0.1000000000000167
 50
180.0
 51
270.0
  0
LINE
  8
0
  6
CONTINUOUS
 62
     7
 10
-432.0
 20
161.2
 11
-429.7177217226883
 21
204.748463768816
  0
LINE
  8
0
  6
CONTINUOUS
 62
     7
 10
-430.4986274885225
 20
161.2
 11
-432.0
 21
161.2
  0
LINE
  8
0
  6
CONTINUOUS
 62
     7
 10
-190.2822782773116
 20
204.748463768816
 11
-188.0
 21
161.2
  0
LINE
  8
0
  6
CONTINUOUS
 62
     7
 10
-188.0000000000001
 20
161.2
 11
-189.5013725114776
 21
161.2
  0
LINE
  8
0
  6
CONTINUOUS
 62
     7
 10
-254.75
 20
161.2
 11
-255.5538475772933
 21
164.2
  0
LINE
  8
0
  6
CONTINUOUS
 62
     7
 10
-255.5538475772933
 20
164.2
 11
-260.850778316447
 21
164.2
  0
LINE
  8
0
  6
CONTINUOUS
 62
     7
 10
-260.850778316447
 20
164.2
 11
-260.8975067872897
 21
164.2
  0
LINE
  8
0
  6
CONTINUOUS
 62
     7
 10
-359.1024932127103
 20
164.2
 11
-359.1492216835494
 21
164.2
  0
LINE
  8
0
  6
CONTINUOUS
 62
     7
 10
-359.1492216835494
 20
164.2
 11
-364.4461524227066
 21
164.2
  0
LINE
  8
0
  6
CONTINUOUS
 62
     7
 10
-364.4461524227066
 20
164.2
 11
-365.25
 21
161.2
  0
LINE
  8
0
  6
CONTINUOUS
 62
     7
 10
-254.75
 20
161.2
 11
-189.5013725114776
 21
161.2
  0
LINE
  8
0
  6
CONTINUOUS
 62
     7
 10
-430.4986274885225
 20
161.2
 11
-365.25
 21
161.2
  0
LINE
  8
0
  6
CONTINUOUS
 62
     7
 10
-429.7177217226883
 20
204.748463768816
 11
-429.260966073127
 21
213.4638807509892
  0
LINE
  8
0
  6
CONTINUOUS
 62
     7
 10
-190.739033926873
 20
213.4638807509892
 11
-190.2822782773116
 21
204.748463768816
  0
LINE
  8
0
  6
CONTINUOUS
 62
     7
 10
-427.0359569846321
 20
228.2930271168969
 11
-192.964043015368
 21
228.2930271168969
  0
ARC
  8
0
  6
CONTINUOUS
 62
     7
 10
-427.0788251840082
 20
226.8056632574142
 40
1.487503918644246
 50
89.27952142194367
 51
162.8197360123008
  0
POLYLINE
  8
0
  6
CONTINUOUS
 62
     7
 66
     1
  0
VERTEX
  8
0
  6
CONTINUOUS
 62
     7
 10
-428.4999569225985
 20
227.2450406459465
  0
VERTEX
  8
0
  6
CONTINUOUS
 62
     7
 10
-428.5366464180703
 20
227.0885501625298
  0
VERTEX
  8
0
  6
CONTINUOUS
 62
     7
 10
-428.5553045920854
 20
226.9282080323869
  0
VERTEX
  8
0
  6
CONTINUOUS
 62
     7
 10
-428.5557776865379
 20
226.919676746092
  0
SEQEND
  8
0
  6
CONTINUOUS
 62
     7
  0
LINE
  8
0
  6
CONTINUOUS
 62
     7
 10
-427.0601207266541
 20
228.2930495728202
 11
-427.0359569846321
 21
228.2930271168969
  0
LINE
  8
0
  6
CONTINUOUS
 62
     7
 10
-429.260966073127
 20
213.4638807509891
 11
-428.5557776865379
 21
226.919676746092
  0
POLYLINE
  8
0
  6
CONTINUOUS
 62
     7
 66
     1
  0
VERTEX
  8
0
  6
CONTINUOUS
 62
     7
 10
-191.444222313462
 20
226.919676746092
  0
VERTEX
  8
0
  6
CONTINUOUS
 62
     7
 10
-191.4631484148589
 20
227.0873747612658
  0
VERTEX
  8
0
  6
CONTINUOUS
 62
     7
 10
-191.4890960530583
 20
227.2059283610149
  0
SEQEND
  8
0
  6
CONTINUOUS
 62
     7
  0
ARC
  8
0
  6
CONTINUOUS
 62
     7
 10
-192.8669675533006
 20
226.8405169138041
 40
1.425501805306722
 50
14.85293086722221
 51
36.06719155528786
  0
ARC
  8
0
  6
CONTINUOUS
 62
     7
 10
-192.9300168977524
 20
226.7823209784915
 40
1.510760785887337
 50
36.44349055166551
 51
90.37403440461483
  0
LINE
  8
0
  6
CONTINUOUS
 62
     7
 10
-192.964043015368
 20
228.2930271168969
 11
-192.9398792733458
 21
228.2930495728203
  0
LINE
  8
0
  6
CONTINUOUS
 62
     7
 10
-191.444222313462
 20
226.919676746092
 11
-190.739033926873
 21
213.4638807509891
  0
LINE
  8
0
  6
CONTINUOUS
 62
     7
 10
-191.4787499833307
 20
227.5785039343648
 11
-191.4442223134621
 21
226.9196767460924
  0
LINE
  8
0
  6
CONTINUOUS
 62
     7
 10
-428.5557776865379
 20
226.9196767460924
 11
-428.5212500166692
 21
227.5785039343648
  0
ARC
  8
0
  6
CONTINUOUS
 62
     7
 10
-192.9766942854625
 20
227.5000000000001
 40
1.500000000000044
 50
2.999999999999923
 51
90.00000000000006
  0
ARC
  8
0
  6
CONTINUOUS
 62
     7
 10
-427.0233057145375
 20
227.5000000000001
 40
1.500000000000001
 50
90.00000000000001
 51
177.0000000000002
  0
LINE
  8
0
  6
CONTINUOUS
 62
     7
 10
-192.9766942854625
 20
229.0
 11
-427.0233057145375
 21
229.0
  0
ENDBLK
  8
0
  0
BLOCK
  8
0
  2
D_FRAME_VIEW_1880
 70
     0
 10
0.0
 20
0.0
  0
ARC
  8
0
  6
CONTINUOUS
 62
     7
 10
-575.0
 20
368.0342712474618
 40
20.00000000000001
 50
180.0
 51
225.0
  0
ARC
  8
0
  6
CONTINUOUS
 62
     7
 10
-530.0
 20
368.0342712474618
 40
20.00000000000001
 50
315.0
 51
0.0
  0
ARC
  8
0
  6
CONTINUOUS
 62
     7
 10
-530.0
 20
441.9657287525383
 40
20.00000000000001
 50
0.0
 51
45.0
  0
ARC
  8
0
  6
CONTINUOUS
 62
     7
 10
-575.0
 20
441.9657287525383
 40
20.00000000000001
 50
135.0
 51
180.0
  0
LINE
  8
0
  6
CONTINUOUS
 62
     7
 10
-595.0
 20
368.0342712474618
 11
-595.0
 21
441.9657287525383
  0
LINE
  8
0
  6
CONTINUOUS
 62
     7
 10
-510.0
 20
368.0342712474618
 11
-510.0
 21
441.9657287525383
  0
LINE
  8
0
  6
CONTINUOUS
 62
     7
 10
-516.7071843299358
 20
353.0428156700641
 11
-515.857864376269
 21
353.8921356237309
  0
LINE
  8
0
  6
CONTINUOUS
 62
     7
 10
-588.2928156700642
 20
353.0428156700642
 11
-589.142135623731
 21
353.8921356237309
  0
LINE
  8
0
  6
CONTINUOUS
 62
     7
 10
-516.7071843299358
 20
456.957184329936
 11
-515.857864376269
 21
456.1078643762692
  0
LINE
  8
0
  6
CONTINUOUS
 62
     7
 10
-588.2928156700642
 20
456.9571843299358
 11
-589.142135623731
 21
456.1078643762692
  0
LINE
  8
0
  6
CONTINUOUS
 62
     9
 10
-570.0957387323458
 20
523.5557776865379
 11
-534.9042612676543
 21
523.5557776865379
  0
POLYLINE
  8
0
  6
CONTINUOUS
 62
     7
 66
     1
  0
VERTEX
  8
0
  6
CONTINUOUS
 62
     7
 10
-534.9042612676542
 20
523.555777686538
  0
VERTEX
  8
0
  6
CONTINUOUS
 62
     7
 10
-534.786389265954
 20
523.5206724579093
  0
VERTEX
  8
0
  6
CONTINUOUS
 62
     7
 10
-534.6943900285545
 20
523.4614172975738
  0
VERTEX
  8
0
  6
CONTINUOUS
 62
     7
 10
-534.6143314917548
 20
523.384708949368
  0
SEQEND
  8
0
  6
CONTINUOUS
 62
     7
  0
ARC
  8
0
  6
CONTINUOUS
 62
     7
 10
-536.4261758989993
 20
522.1173293254415
 40
2.211115389844505
 50
358.517410220206
 51
34.97267129951643
  0
POLYLINE
  8
0
  6
CONTINUOUS
 62
     7
 66
     1
  0
VERTEX
  8
0
  6
CONTINUOUS
 62
     7
 10
-570.0957387323459
 20
523.555777686538
  0
VERTEX
  8
0
  6
CONTINUOUS
 62
     7
 10
-570.2135853320204
 20
523.5206848488749
  0
VERTEX
  8
0
  6
CONTINUOUS
 62
     7
 10
-570.3055361274457
 20
523.4614767724171
  0
VERTEX
  8
0
  6
CONTINUOUS
 62
     7
 10
-570.3855697383234
 20
523.3848193849244
  0
VERTEX
  8
0
  6
CONTINUOUS
 62
     7
 10
-570.4626406710823
 20
523.2853042359395
  0
SEQEND
  8
0
  6
CONTINUOUS
 62
     7
  0
ARC
  8
0
  6
CONTINUOUS
 62
     7
 10
-568.3866168701483
 20
522.0856467105148
 40
2.39771829044885
 50
149.9779681064643
 51
180.609979402775
  0
LINE
  8
0
  6
CONTINUOUS
 62
     7
 10
-534.2158007173996
 20
287.9398792733459
 11
-534.2155107596577
 21
287.9640430153679
  0
LINE
  8
0
  6
CONTINUOUS
 62
     7
 10
-570.784489240342
 20
287.9640430153679
 11
-570.7841992826008
 21
287.9398792733459
  0
LINE
  8
0
  6
CONTINUOUS
 62
     7
 10
-570.784489240342
 20
287.9640430153679
 11
-570.784489240342
 21
522.035956984632
  0
LINE
  8
0
  6
CONTINUOUS
 62
     7
 10
-570.7841992826006
 20
522.0601207266542
 11
-570.784489240342
 21
522.035956984632
  0
LINE
  8
0
  6
CONTINUOUS
 62
     7
 10
-534.2155107596577
 20
522.035956984632
 11
-534.2158007173996
 21
522.0601207266542
  0
LINE
  8
0
  6
CONTINUOUS
 62
     7
 10
-534.2155107596577
 20
287.9640430153679
 11
-534.2155107596577
 21
522.035956984632
  0
ARC
  8
0
  6
CONTINUOUS
 62
     7
 10
-536.6856393387371
 20
287.9333174740553
 40
2.46984733792606
 50
330.4357260169069
 51
0.1522214923458591
  0
POLYLINE
  8
0
  6
CONTINUOUS
 62
     7
 66
     1
  0
VERTEX
  8
0
  6
CONTINUOUS
 62
     7
 10
-534.5373593289178
 20
286.7146957640604
  0
VERTEX
  8
0
  6
CONTINUOUS
 62
     7
 10
-534.6126196163395
 20
286.617211674689
  0
VERTEX
  8
0
  6
CONTINUOUS
 62
     7
 10
-534.6929021330938
 20
286.5397853125631
  0
VERTEX
  8
0
  6
CONTINUOUS
 62
     7
 10
-534.7861356880651
 20
286.4794513530366
  0
VERTEX
  8
0
  6
CONTINUOUS
 62
     7
 10
-534.9002101222493
 20
286.4446954079147
  0
VERTEX
  8
0
  6
CONTINUOUS
 62
     7
 10
-534.9042612676543
 20
286.444222313462
  0
SEQEND
  8
0
  6
CONTINUOUS
 62
     7
  0
LINE
  8
0
  6
CONTINUOUS
 62
     9
 10
-534.9042612676544
 20
286.4442223134621
 11
-570.0957387323461
 21
286.4442223134621
  0
ARC
  8
0
  6
CONTINUOUS
 62
     7
 10
-568.3143606612612
 20
287.933317474056
 40
2.469847337928056
 50
179.8477785076716
 51
209.5642739830861
  0
POLYLINE
  8
0
  6
CONTINUOUS
 62
     7
 66
     1
  0
VERTEX
  8
0
  6
CONTINUOUS
 62
     7
 10
-570.4626406710825
 20
286.7146957640604
  0
VERTEX
  8
0
  6
CONTINUOUS
 62
     7
 10
-570.3873803836608
 20
286.617211674689
  0
VERTEX
  8
0
  6
CONTINUOUS
 62
     7
 10
-570.3070978669065
 20
286.539785312563
  0
VERTEX
  8
0
  6
CONTINUOUS
 62
     7
 10
-570.2138643119351
 20
286.4794513530366
  0
VERTEX
  8
0
  6
CONTINUOUS
 62
     7
 10
-570.0997898777528
 20
286.4446954079146
  0
VERTEX
  8
0
  6
CONTINUOUS
 62
     7
 10
-570.0957387323459
 20
286.444222313462
  0
SEQEND
  8
0
  6
CONTINUOUS
 62
     7
  0
LINE
  8
0
  6
CONTINUOUS
 62
     7
 10
-519.8586448032735
 20
285.2672215255969
 11
-519.4811103460436
 21
283.0000000000001
  0
POLYLINE
  8
0
  6
CONTINUOUS
 62
     7
 66
     1
  0
VERTEX
  8
0
  6
CONTINUOUS
 62
     7
 10
-519.8586448032735
 20
285.2672215255969
  0
VERTEX
  8
0
  6
CONTINUOUS
 62
     7
 10
-520.0897862703438
 20
285.3846933690896
  0
VERTEX
  8
0
  6
CONTINUOUS
 62
     7
 10
-520.7359054461714
 20
285.4978293969995
  0
VERTEX
  8
0
  6
CONTINUOUS
 62
     7
 10
-521.7742188581948
 20
285.6026402035263
  0
VERTEX
  8
0
  6
CONTINUOUS
 62
     7
 10
-523.168113469658
 20
285.6954299470607
  0
SEQEND
  8
0
  6
CONTINUOUS
 62
     7
  0
LINE
  8
0
  6
CONTINUOUS
 62
     7
 10
-535.5
 20
286.3740999142445
 11
-523.168113469658
 21
285.6954299470607
  0
LINE
  8
0
  6
CONTINUOUS
 62
     7
 10
-535.5
 20
286.3740999142445
 11
-569.5000000000001
 21
286.3740999142445
  0
LINE
  8
0
  6
CONTINUOUS
 62
     7
 10
-581.831886530342
 20
285.6954299470607
 11
-569.5
 21
286.3740999142445
  0
POLYLINE
  8
0
  6
CONTINUOUS
 62
     7
 66
     1
  0
VERTEX
  8
0
  6
CONTINUOUS
 62
     7
 10
-581.831886530342
 20
285.6954299470607
  0
VERTEX
  8
0
  6
CONTINUOUS
 62
     7
 10
-583.2257811418052
 20
285.6026402035263
  0
VERTEX
  8
0
  6
CONTINUOUS
 62
     7
 10
-584.2640945538286
 20
285.4978293969995
  0
VERTEX
  8
0
  6
CONTINUOUS
 62
     7
 10
-584.9102137296562
 20
285.3846933690896
  0
VERTEX
  8
0
  6
CONTINUOUS
 62
     7
 10
-585.1413551967265
 20
285.2672215255969
  0
SEQEND
  8
0
  6
CONTINUOUS
 62
     7
  0
LINE
  8
0
  6
CONTINUOUS
 62
     7
 10
-585.5188896539563
 20
283.0000000000001
 11
-585.1413551967265
 21
285.2672215255969
  0
LINE
  8
0
  6
CONTINUOUS
 62
     7
 10
-586.8196242493141
 20
283.0000000000001
 11
-585.5188896539563
 21
283.0000000000001
  0
LINE
  8
0
  6
CONTINUOUS
 62
     7
 10
-519.4811103460436
 20
283.0000000000001
 11
-518.1803757506857
 21
283.0000000000001
  0
LINE
  8
0
  6
CONTINUOUS
 62
     7
 10
-586.8196242493141
 20
527.0
 11
-585.5188896539563
 21
526.9999999999999
  0
LINE
  8
0
  6
CONTINUOUS
 62
     7
 10
-585.1413551967265
 20
524.7327784744032
 11
-585.5188896539563
 21
526.9999999999999
  0
POLYLINE
  8
0
  6
CONTINUOUS
 62
     7
 66
     1
  0
VERTEX
  8
0
  6
CONTINUOUS
 62
     7
 10
-585.1413551967265
 20
524.7327784744031
  0
VERTEX
  8
0
  6
CONTINUOUS
 62
     7
 10
-584.9102137296562
 20
524.6153066309104
  0
VERTEX
  8
0
  6
CONTINUOUS
 62
     7
 10
-584.2640945538286
 20
524.5021706030005
  0
VERTEX
  8
0
  6
CONTINUOUS
 62
     7
 10
-583.2257811418052
 20
524.3973597964737
  0
VERTEX
  8
0
  6
CONTINUOUS
 62
     7
 10
-581.831886530342
 20
524.3045700529393
  0
SEQEND
  8
0
  6
CONTINUOUS
 62
     7
  0
LINE
  8
0
  6
CONTINUOUS
 62
     7
 10
-569.5
 20
523.6259000857555
 11
-581.831886530342
 21
524.3045700529393
  0
LINE
  8
0
  6
CONTINUOUS
 62
     7
 10
-569.4999999999998
 20
523.6259000857555
 11
-535.5000000000002
 21
523.6259000857555
  0
LINE
  8
0
  6
CONTINUOUS
 62
     7
 10
-523.168113469658
 20
524.3045700529392
 11
-535.5
 21
523.6259000857555
  0
POLYLINE
  8
0
  6
CONTINUOUS
 62
     7
 66
     1
  0
VERTEX
  8
0
  6
CONTINUOUS
 62
     7
 10
-523.168113469658
 20
524.3045700529393
  0
VERTEX
  8
0
  6
CONTINUOUS
 62
     7
 10
-521.7742188581948
 20
524.3973597964737
  0
VERTEX
  8
0
  6
CONTINUOUS
 62
     7
 10
-520.7359054461714
 20
524.5021706030005
  0
VERTEX
  8
0
  6
CONTINUOUS
 62
     7
 10
-520.0897862703438
 20
524.6153066309104
  0
VERTEX
  8
0
  6
CONTINUOUS
 62
     7
 10
-519.8586448032735
 20
524.7327784744031
  0
SEQEND
  8
0
  6
CONTINUOUS
 62
     7
  0
LINE
  8
0
  6
CONTINUOUS
 62
     7
 10
-519.4811103460436
 20
526.9999999999999
 11
-519.8586448032735
 21
524.7327784744032
  0
LINE
  8
0
  6
CONTINUOUS
 62
     7
 10
-519.4811103460436
 20
526.9999999999999
 11
-518.1803757506857
 21
526.9999999999999
  0
POLYLINE
  8
0
  6
CONTINUOUS
 62
     7
 66
     1
  0
VERTEX
  8
0
  6
CONTINUOUS
 62
     7
 10
-588.3189962734366
 20
284.5013725114775
  0
VERTEX
  8
0
  6
CONTINUOUS
 62
     7
 10
-588.2901898010341
 20
284.2084327394151
  0
VERTEX
  8
0
  6
CONTINUOUS
 62
     7
 10
-588.2048767588342
 20
283.9267703018182
  0
VERTEX
  8
0
  6
CONTINUOUS
 62
     7
 10
-588.0663337791287
 20
283.6672030550743
  0
VERTEX
  8
0
  6
CONTINUOUS
 62
     7
 10
-587.8798819053297
 20
283.4397002418772
  0
VERTEX
  8
0
  6
CONTINUOUS
 62
     7
 10
-587.6526822257638
 20
283.2529996008544
  0
VERTEX
  8
0
  6
CONTINUOUS
 62
     7
 10
-587.3934608365541
 20
283.1142717747769
  0
VERTEX
  8
0
  6
CONTINUOUS
 62
     7
 10
-587.1121736969866
 20
283.0288449064822
  0
VERTEX
  8
0
  6
CONTINUOUS
 62
     7
 10
-586.8196242493142
 20
283.0000000000001
  0
SEQEND
  8
0
  6
CONTINUOUS
 62
     7
  0
POLYLINE
  8
0
  6
CONTINUOUS
 62
     7
 66
     1
  0
VERTEX
  8
0
  6
CONTINUOUS
 62
     7
 10
-586.8196242493142
 20
526.9999999999999
  0
VERTEX
  8
0
  6
CONTINUOUS
 62
     7
 10
-587.1121736969866
 20
526.9711550935178
  0
VERTEX
  8
0
  6
CONTINUOUS
 62
     7
 10
-587.3934608365541
 20
526.885728225223
  0
VERTEX
  8
0
  6
CONTINUOUS
 62
     7
 10
-587.6526822257639
 20
526.7470003991456
  0
VERTEX
  8
0
  6
CONTINUOUS
 62
     7
 10
-587.8798819053297
 20
526.5602997581228
  0
VERTEX
  8
0
  6
CONTINUOUS
 62
     7
 10
-588.0663337791287
 20
526.3327969449256
  0
VERTEX
  8
0
  6
CONTINUOUS
 62
     7
 10
-588.2048767588342
 20
526.0732296981816
  0
VERTEX
  8
0
  6
CONTINUOUS
 62
     7
 10
-588.2901898010342
 20
525.7915672605848
  0
VERTEX
  8
0
  6
CONTINUOUS
 62
     7
 10
-588.3189962734366
 20
525.4986274885224
  0
SEQEND
  8
0
  6
CONTINUOUS
 62
     7
  0
POLYLINE
  8
0
  6
CONTINUOUS
 62
     7
 66
     1
  0
VERTEX
  8
0
  6
CONTINUOUS
 62
     7
 10
-518.1803757506858
 20
283.0
  0
VERTEX
  8
0
  6
CONTINUOUS
 62
     7
 10
-517.8878263030134
 20
283.0288449064821
  0
VERTEX
  8
0
  6
CONTINUOUS
 62
     7
 10
-517.6065391634459
 20
283.1142717747769
  0
VERTEX
  8
0
  6
CONTINUOUS
 62
     7
 10
-517.3473177742362
 20
283.2529996008544
  0
VERTEX
  8
0
  6
CONTINUOUS
 62
     7
 10
-517.1201180946703
 20
283.4397002418771
  0
VERTEX
  8
0
  6
CONTINUOUS
 62
     7
 10
-516.9336662208711
 20
283.6672030550743
  0
VERTEX
  8
0
  6
CONTINUOUS
 62
     7
 10
-516.7951232411658
 20
283.9267703018182
  0
VERTEX
  8
0
  6
CONTINUOUS
 62
     7
 10
-516.7098101989659
 20
284.2084327394151
  0
VERTEX
  8
0
  6
CONTINUOUS
 62
     7
 10
-516.6810037265634
 20
284.5013725114775
  0
SEQEND
  8
0
  6
CONTINUOUS
 62
     7
  0
POLYLINE
  8
0
  6
CONTINUOUS
 62
     7
 66
     1
  0
VERTEX
  8
0
  6
CONTINUOUS
 62
     7
 10
-516.6810037265634
 20
525.4986274885224
  0
VERTEX
  8
0
  6
CONTINUOUS
 62
     7
 10
-516.7098101989658
 20
525.7915672605848
  0
VERTEX
  8
0
  6
CONTINUOUS
 62
     7
 10
-516.7951232411658
 20
526.0732296981816
  0
VERTEX
  8
0
  6
CONTINUOUS
 62
     7
 10
-516.9336662208713
 20
526.3327969449257
  0
VERTEX
  8
0
  6
CONTINUOUS
 62
     7
 10
-517.1201180946703
 20
526.5602997581228
  0
VERTEX
  8
0
  6
CONTINUOUS
 62
     7
 10
-517.3473177742362
 20
526.7470003991456
  0
VERTEX
  8
0
  6
CONTINUOUS
 62
     7
 10
-517.6065391634459
 20
526.885728225223
  0
VERTEX
  8
0
  6
CONTINUOUS
 62
     7
 10
-517.8878263030134
 20
526.9711550935178
  0
VERTEX
  8
0
  6
CONTINUOUS
 62
     7
 10
-518.1803757506858
 20
526.9999999999999
  0
SEQEND
  8
0
  6
CONTINUOUS
 62
     7
  0
LINE
  8
0
  6
CONTINUOUS
 62
     7
 10
-588.3189962734364
 20
284.5013725114775
 11
-588.3189962734364
 21
349.75
  0
LINE
  8
0
  6
CONTINUOUS
 62
     7
 10
-588.3189962734364
 20
349.75
 11
-588.2928156700642
 21
350.5538475772934
  0
LINE
  8
0
  6
CONTINUOUS
 62
     7
 10
-588.2928156700642
 20
350.5538475772934
 11
-588.2928156700642
 21
459.4461524227067
  0
LINE
  8
0
  6
CONTINUOUS
 62
     7
 10
-588.2928156700642
 20
459.4461524227067
 11
-588.3189962734364
 21
460.2500000000001
  0
LINE
  8
0
  6
CONTINUOUS
 62
     7
 10
-588.3189962734364
 20
460.2500000000001
 11
-588.3189962734364
 21
525.4986274885225
  0
LINE
  8
0
  6
CONTINUOUS
 62
     7
 10
-516.6810037265634
 20
460.2500000000001
 11
-516.7071843299358
 21
459.4461524227067
  0
LINE
  8
0
  6
CONTINUOUS
 62
     7
 10
-516.7071843299358
 20
459.4461524227067
 11
-516.7071843299358
 21
350.5538475772934
  0
LINE
  8
0
  6
CONTINUOUS
 62
     7
 10
-516.7071843299358
 20
350.5538475772934
 11
-516.6810037265634
 21
349.75
  0
LINE
  8
0
  6
CONTINUOUS
 62
     7
 10
-516.6810037265634
 20
284.5013725114775
 11
-516.6810037265634
 21
349.75
  0
LINE
  8
0
  6
CONTINUOUS
 62
     7
 10
-516.6810037265634
 20
460.2500000000001
 11
-516.6810037265634
 21
525.4986274885225
  0
ENDBLK
  8
0
  0
BLOCK
  8
0
  2
D_FRAME_VIEW_1432
 70
     0
 10
0.0
 20
0.0
  0
LINE
  8
0
  6
CONTINUOUS
 62
     7
 10
-537.5
 20
161.2
 11
-540.5
 21
161.2
  0
LINE
  8
0
  6
CONTINUOUS
 62
     7
 10
-540.5
 20
163.2
 11
-537.5
 21
163.2
  0
LINE
  8
0
  6
CONTINUOUS
 62
     7
 10
-541.5
 20
161.2
 11
-541.5
 21
163.2
  0
LINE
  8
0
  6
CONTINUOUS
 62
     7
 10
-540.5
 20
161.2
 11
-541.5
 21
161.2
  0
LINE
  8
0
  6
CONTINUOUS
 62
     7
 10
-541.5
 20
163.2
 11
-540.5
 21
163.2
  0
LINE
  8
0
  6
CONTINUOUS
 62
     7
 10
-536.5
 20
163.2
 11
-536.5
 21
161.2
  0
LINE
  8
0
  6
CONTINUOUS
 62
     7
 10
-536.5
 20
161.2
 11
-537.5
 21
161.2
  0
LINE
  8
0
  6
CONTINUOUS
 62
     7
 10
-537.5
 20
163.2
 11
-536.5
 21
163.2
  0
LINE
  8
0
  6
CONTINUOUS
 62
     7
 10
-564.5
 20
163.2
 11
-563.5
 21
163.2
  0
LINE
  8
0
  6
CONTINUOUS
 62
     7
 10
-563.5
 20
163.2
 11
-563.5
 21
161.2
  0
LINE
  8
0
  6
CONTINUOUS
 62
     7
 10
-563.5
 20
161.2
 11
-564.5
 21
161.2
  0
LINE
  8
0
  6
CONTINUOUS
 62
     7
 10
-567.5
 20
161.2
 11
-568.5
 21
161.2
  0
LINE
  8
0
  6
CONTINUOUS
 62
     7
 10
-568.5
 20
161.2
 11
-568.5
 21
163.2
  0
LINE
  8
0
  6
CONTINUOUS
 62
     7
 10
-568.5
 20
163.2
 11
-567.5
 21
163.2
  0
LINE
  8
0
  6
CONTINUOUS
 62
     7
 10
-564.5
 20
163.2
 11
-567.5
 21
163.2
  0
LINE
  8
0
  6
CONTINUOUS
 62
     7
 10
-567.5
 20
161.2
 11
-564.5
 21
161.2
  0
LINE
  8
0
  6
CONTINUOUS
 62
     7
 10
-542.5
 20
161.2
 11
-541.5
 21
161.2
  0
LINE
  8
0
  6
CONTINUOUS
 62
     7
 10
-541.5
 20
163.2
 11
-541.5013704652454
 21
163.2
  0
LINE
  8
0
  6
CONTINUOUS
 62
     7
 10
-568.5
 20
163.2
 11
-568.5013704652454
 21
163.2
  0
LINE
  8
0
  6
CONTINUOUS
 62
     7
 10
-569.5
 20
161.2
 11
-568.5
 21
161.2
  0
LINE
  8
0
  6
CONTINUOUS
 62
     7
 10
-563.4986295347546
 20
163.2
 11
-563.5
 21
163.2
  0
LINE
  8
0
  6
CONTINUOUS
 62
     7
 10
-563.5
 20
161.2
 11
-562.5
 21
161.2
  0
LINE
  8
0
  6
CONTINUOUS
 62
     7
 10
-536.5
 20
161.2
 11
-535.5
 21
161.2
  0
LINE
  8
0
  6
CONTINUOUS
 62
     7
 10
-536.4986295347545
 20
163.2
 11
-536.5
 21
163.2
  0
LINE
  8
0
  6
CONTINUOUS
 62
     7
 10
-583.0000000000001
 20
168.0452994616208
 11
-583.0
 21
161.2
  0
LINE
  8
0
  6
CONTINUOUS
 62
     7
 10
-585.0000000000001
 20
169.2
 11
-583.0000000000001
 21
168.0452994616208
  0
LINE
  8
0
  6
CONTINUOUS
 62
     7
 10
-585.0000000000001
 20
170.2
 11
-585.0000000000001
 21
169.2
  0
LINE
  8
0
  6
CONTINUOUS
 62
     7
 10
-584.0877462375842
 20
175.373648177667
 11
-585.0000000000001
 21
170.2
  0
ARC
  8
0
  6
CONTINUOUS
 62
     7
 10
-583.102938484572
 20
175.2
 40
1.0
 50
90.0
 51
170.0000000000001
  0
LINE
  8
0
  6
CONTINUOUS
 62
     7
 10
-582.0000000000001
 20
176.2
 11
-583.102938484572
 21
176.2
  0
LINE
  8
0
  6
CONTINUOUS
 62
     7
 10
-578.9832085291366
 20
164.9411809548975
 11
-582.0000000000001
 21
176.2
  0
ARC
  8
0
  6
CONTINUOUS
 62
     7
 10
-578.0172827028475
 20
165.2
 40
1.0
 50
194.9999999999998
 51
270.0
  0
LINE
  8
0
  6
CONTINUOUS
 62
     7
 10
-578.0172827028475
 20
164.2
 11
-552.8
 21
164.2
  0
LINE
  8
0
  6
CONTINUOUS
 62
     7
 10
-552.5
 20
163.9
 11
-552.8
 21
164.2
  0
LINE
  8
0
  6
CONTINUOUS
 62
     7
 10
-552.2
 20
164.2
 11
-552.5
 21
163.9
  0
LINE
  8
0
  6
CONTINUOUS
 62
     7
 10
-552.2
 20
164.2
 11
-526.9827172971524
 21
164.2
  0
ARC
  8
0
  6
CONTINUOUS
 62
     7
 10
-526.9827172971524
 20
165.2
 40
1.0
 50
269.9999999999992
 51
344.9999999999998
  0
LINE
  8
0
  6
CONTINUOUS
 62
     7
 10
-526.0167914708633
 20
164.9411809548975
 11
-522.9999999999999
 21
176.2
  0
LINE
  8
0
  6
CONTINUOUS
 62
     7
 10
-522.9999999999999
 20
176.2
 11
-521.897061515428
 21
176.2
  0
ARC
  8
0
  6
CONTINUOUS
 62
     7
 10
-521.897061515428
 20
175.2
 40
1.0
 50
9.999999999999865
 51
89.99999999999996
  0
LINE
  8
0
  6
CONTINUOUS
 62
     7
 10
-520.9122537624157
 20
175.373648177667
 11
-519.9999999999999
 21
170.2
  0
LINE
  8
0
  6
CONTINUOUS
 62
     7
 10
-519.9999999999999
 20
170.2
 11
-519.9999999999999
 21
169.2
  0
LINE
  8
0
  6
CONTINUOUS
 62
     7
 10
-519.9999999999999
 20
169.2
 11
-521.9999999999999
 21
168.0452994616208
  0
LINE
  8
0
  6
CONTINUOUS
 62
     7
 10
-521.9999999999999
 20
168.0452994616208
 11
-521.9999999999999
 21
161.2
  0
LINE
  8
0
  6
CONTINUOUS
 62
     7
 10
-583.0
 20
161.2
 11
-569.5
 21
161.2
  0
LINE
  8
0
  6
CONTINUOUS
 62
     7
 10
-562.5
 20
161.2
 11
-542.5
 21
161.2
  0
LINE
  8
0
  6
CONTINUOUS
 62
     7
 10
-535.5
 20
161.2
 11
-521.9999999999999
 21
161.2
  0
LINE
  8
0
  6
CONTINUOUS
 62
     7
 10
-557.8977240586413
 20
164.5
 11
-558.6193149677322
 21
164.5
  0
LINE
  8
0
  6
CONTINUOUS
 62
     7
 10
-558.6193149677323
 20
164.5
 11
-563.8147695131869
 21
164.5
  0
ARC
  8
0
  6
CONTINUOUS
 62
     7
 10
-574.5
 20
161.1
 40
0.0999999999999994
 50
180.0
 51
270.0
  0
LINE
  8
0
  6
CONTINUOUS
 62
     7
 10
-574.6
 20
161.1
 11
-574.6
 21
161.2
  0
ARC
  8
0
  6
CONTINUOUS
 62
     7
 10
-530.5
 20
161.1
 40
0.1000000000000029
 50
270.0
 51
0.0000000000063096
  0
LINE
  8
0
  6
CONTINUOUS
 62
     7
 10
-574.5
 20
161.0
 11
-530.5
 21
161.0
  0
LINE
  8
0
  6
CONTINUOUS
 62
     7
 10
-530.4
 20
161.2
 11
-530.4
 21
161.1
  0
LINE
  8
0
  6
CONTINUOUS
 62
     7
 10
-535.0846631534474
 20
164.5
 11
-534.7501817500435
 21
164.5
  0
LINE
  8
0
  6
CONTINUOUS
 62
     7
 10
-534.7501817500435
 20
164.5
 11
-532.5
 21
164.5
  0
LINE
  8
0
  6
CONTINUOUS
 62
     7
 10
-532.5
 20
164.2
 11
-532.5
 21
164.5
  0
LINE
  8
0
  6
CONTINUOUS
 62
     7
 10
-543.75
 20
164.2
 11
-543.75
 21
164.5
  0
LINE
  8
0
  6
CONTINUOUS
 62
     7
 10
-543.75
 20
164.5
 11
-536.3077350269189
 21
164.5
  0
LINE
  8
0
  6
CONTINUOUS
 62
     7
 10
-557.8977240586413
 20
164.2
 11
-557.8977240586413
 21
164.5
  0
LINE
  8
0
  6
CONTINUOUS
 62
     7
 10
-535.0846631534473
 20
164.5
 11
-535.3324510602085
 21
164.5
  0
LINE
  8
0
  6
CONTINUOUS
 62
     7
 10
-535.3324510602077
 20
164.5
 11
-535.6106514095674
 21
164.5
  0
LINE
  8
0
  6
CONTINUOUS
 62
     7
 10
-535.6106514095674
 20
164.5
 11
-536.0151957799126
 21
164.5
  0
LINE
  8
0
  6
CONTINUOUS
 62
     7
 10
-536.0151957799122
 20
164.5
 11
-536.1371223759022
 21
164.5
  0
LINE
  8
0
  6
CONTINUOUS
 62
     7
 10
-536.2042903605857
 20
164.5
 11
-536.1391252434096
 21
164.5
  0
LINE
  8
0
  6
CONTINUOUS
 62
     7
 10
-536.1391252434074
 20
164.5
 11
-536.1371223759022
 21
164.5
  0
LINE
  8
0
  6
CONTINUOUS
 62
     7
 10
-543.75
 20
164.5
 11
-544.125
 21
164.5
  0
LINE
  8
0
  6
CONTINUOUS
 62
     7
 10
-547.5
 20
164.2
 11
-547.5
 21
164.5
  0
LINE
  8
0
  6
CONTINUOUS
 62
     7
 10
-547.5
 20
164.5
 11
-544.125
 21
164.5
  0
LINE
  8
0
  6
CONTINUOUS
 62
     7
 10
-536.307735026919
 20
164.5
 11
-536.2866025403785
 21
164.5
  0
LINE
  8
0
  6
CONTINUOUS
 62
     7
 10
-536.25
 20
164.2
 11
-536.25
 21
164.5
  0
LINE
  8
0
  6
CONTINUOUS
 62
     7
 10
-536.25
 20
164.5
 11
-536.2042903605806
 21
164.5
  0
LINE
  8
0
  6
CONTINUOUS
 62
     7
 10
-563.8147695131869
 20
164.2
 11
-563.8147695131869
 21
164.5
  0
LINE
  8
0
  6
CONTINUOUS
 62
     7
 10
-583.0
 20
164.2
 11
-585.0999999999999
 21
164.2
  0
LINE
  8
0
  6
CONTINUOUS
 62
     7
 10
-583.0
 20
161.2
 11
-585.5188896539563
 21
161.2
  0
LINE
  8
0
  6
CONTINUOUS
 62
     7
 10
-522.0
 20
164.2
 11
-519.9
 21
164.2
  0
LINE
  8
0
  6
CONTINUOUS
 62
     7
 10
-519.4811103460436
 20
161.2
 11
-522.0
 21
161.2
  0
LINE
  8
0
  6
CONTINUOUS
 62
     7
 10
-515.857864376269
 20
161.2
 11
-516.6810037265634
 21
161.1999999999998
  0
LINE
  8
0
  6
CONTINUOUS
 62
     7
 10
-588.3189962734364
 20
161.1999999999999
 11
-589.1421356237308
 21
161.2
  0
LINE
  8
0
  6
CONTINUOUS
 62
     7
 10
-510.0
 20
162.2
 11
-510.0
 21
161.2
  0
LINE
  8
0
  6
CONTINUOUS
 62
     7
 10
-510.0
 20
161.2
 11
-515.857864376269
 21
161.2
  0
ARC
  8
0
  6
CONTINUOUS
 62
     7
 10
-512.0
 20
162.2
 40
2.000000000000002
 50
0.0
 51
90.00000000000021
  0
LINE
  8
0
  6
CONTINUOUS
 62
     7
 10
-516.7071843299358
 20
164.2
 11
-512.0
 21
164.2
  0
ARC
  8
0
  6
CONTINUOUS
 62
     7
 10
-593.0
 20
162.2
 40
2.000000000000002
 50
90.0
 51
180.0
  0
LINE
  8
0
  6
CONTINUOUS
 62
     7
 10
-588.2928156700642
 20
164.2
 11
-593.0
 21
164.2
  0
LINE
  8
0
  6
CONTINUOUS
 62
     7
 10
-595.0
 20
161.2
 11
-595.0
 21
162.2
  0
LINE
  8
0
  6
CONTINUOUS
 62
     7
 10
-589.142135623731
 20
161.2
 11
-595.0
 21
161.2
  0
LINE
  8
0
  6
CONTINUOUS
 62
     7
 10
-588.3189962734364
 20
161.2
 11
-587.9395254481092
 21
204.6830496376992
  0
LINE
  8
0
  6
CONTINUOUS
 62
     7
 10
-586.8196242493141
 20
161.2
 11
-588.3189962734364
 21
161.2
  0
LINE
  8
0
  6
CONTINUOUS
 62
     7
 10
-517.0604745518907
 20
204.6830496376992
 11
-516.6810037265635
 21
161.2
  0
LINE
  8
0
  6
CONTINUOUS
 62
     7
 10
-516.6810037265634
 20
161.2
 11
-518.1803757506857
 21
161.2
  0
ARC
  8
0
  6
CONTINUOUS
 62
     9
 10
-552.5
 20
-7.799999999999973
 40
234.0000000000001
 50
85.83381578248014
 51
94.16618421751986
  0
LINE
  8
0
  6
CONTINUOUS
 62
     7
 10
-519.4811103460436
 20
161.2
 11
-518.1803757506858
 21
161.2
  0
LINE
  8
0
  6
CONTINUOUS
 62
     9
 10
-585.5188896539563
 20
161.2000000000001
 11
-585.1413551967266
 21
204.4611638312734
  0
LINE
  8
0
  6
CONTINUOUS
 62
     9
 10
-519.8586448032735
 20
204.4611638312734
 11
-519.4811103460436
 21
161.2
  0
LINE
  8
0
  6
CONTINUOUS
 62
     7
 10
-586.8196242493141
 20
161.2
 11
-585.5188896539563
 21
161.2000000000001
  0
ARC
  8
0
  6
CONTINUOUS
 62
     7
 10
-573.6400699482916
 20
204.5582601800724
 40
14.3
 50
136.4000835896
 51
179.5
  0
ARC
  8
0
  6
CONTINUOUS
 62
     7
 10
-531.3599300517084
 20
204.5582601800724
 40
14.3
 50
0.5
 51
43.5999164104
  0
LINE
  8
0
  6
CONTINUOUS
 62
     7
 10
-534.2158007173996
 20
228.2930495728202
 11
-534.2155107596577
 21
228.2930271168969
  0
LINE
  8
0
  6
CONTINUOUS
 62
     7
 10
-534.2155107596577
 20
228.2930271168969
 11
-521.004258045999
 21
214.4198045474708
  0
LINE
  8
0
  6
CONTINUOUS
 62
     7
 10
-583.9957419540009
 20
214.4198045474708
 11
-570.784489240342
 21
228.2930271168969
  0
LINE
  8
0
  6
CONTINUOUS
 62
     7
 10
-570.784489240342
 20
228.2930271168969
 11
-570.7841992826008
 21
228.2930495728202
  0
ARC
  8
0
  6
CONTINUOUS
 62
     7
 10
-552.5
 20
-7.799999999999973
 40
236.8
 50
85.57157424968784
 51
94.42842575031227
  0
POLYLINE
  8
0
  6
CONTINUOUS
 62
     7
 66
     1
  0
VERTEX
  8
0
  6
CONTINUOUS
 62
     7
 10
-585.4447801475122
 20
169.692108305186
  0
VERTEX
  8
0
  6
CONTINUOUS
 62
     7
 10
-585.4444882215494
 20
169.6701135958635
  0
VERTEX
  8
0
  6
CONTINUOUS
 62
     7
 10
-585.4432291925121
 20
169.6481530106064
  0
VERTEX
  8
0
  6
CONTINUOUS
 62
     7
 10
-585.4410054971378
 20
169.6262690521474
  0
VERTEX
  8
0
  6
CONTINUOUS
 62
     7
 10
-585.4378214391883
 20
169.6045040749151
  0
VERTEX
  8
0
  6
CONTINUOUS
 62
     7
 10
-585.4336831811206
 20
169.5829002030603
  0
VERTEX
  8
0
  6
CONTINUOUS
 62
     7
 10
-585.4285987321603
 20
169.5614992489293
  0
VERTEX
  8
0
  6
CONTINUOUS
 62
     7
 10
-585.4225779327996
 20
169.540342632139
  0
VERTEX
  8
0
  6
CONTINUOUS
 62
     7
 10
-585.4156324357531
 20
169.5194712994138
  0
VERTEX
  8
0
  6
CONTINUOUS
 62
     7
 10
-585.407775683404
 20
169.4989256453362
  0
VERTEX
  8
0
  6
CONTINUOUS
 62
     7
 10
-585.3990228817878
 20
169.4787454341674
  0
VERTEX
  8
0
  6
CONTINUOUS
 62
     7
 10
-585.3893909711633
 20
169.4589697228863
  0
VERTEX
  8
0
  6
CONTINUOUS
 62
     7
 10
-585.3788985932248
 20
169.4396367855992
  0
VERTEX
  8
0
  6
CONTINUOUS
 62
     7
 10
-585.3675660550238
 20
169.4207840394631
  0
VERTEX
  8
0
  6
CONTINUOUS
 62
     7
 10
-585.3554152896661
 20
169.4024479722682
  0
VERTEX
  8
0
  6
CONTINUOUS
 62
     7
 10
-585.3424698138626
 20
169.3846640718194
  0
VERTEX
  8
0
  6
CONTINUOUS
 62
     7
 10
-585.3287546824145
 20
169.3674667572525
  0
VERTEX
  8
0
  6
CONTINUOUS
 62
     7
 10
-585.3142964397222
 20
169.3508893124193
  0
VERTEX
  8
0
  6
CONTINUOUS
 62
     7
 10
-585.2991230684106
 20
169.3349638214695
  0
VERTEX
  8
0
  6
CONTINUOUS
 62
     7
 10
-585.2832639351719
 20
169.3197211067549
  0
VERTEX
  8
0
  6
CONTINUOUS
 62
     7
 10
-585.2667497339286
 20
169.3051906691757
  0
VERTEX
  8
0
  6
CONTINUOUS
 62
     7
 10
-585.2496124264281
 20
169.2914006310834
  0
VERTEX
  8
0
  6
CONTINUOUS
 62
     7
 10
-585.2318851803839
 20
169.2783776818537
  0
VERTEX
  8
0
  6
CONTINUOUS
 62
     7
 10
-585.2136023052825
 20
169.2661470262303
  0
VERTEX
  8
0
  6
CONTINUOUS
 62
     7
 10
-585.1947991859802
 20
169.2547323355446
  0
SEQEND
  8
0
  6
CONTINUOUS
 62
     7
  0
ARC
  8
0
  6
CONTINUOUS
 62
     9
 10
-584.9447991859802
 20
169.6833817696876
 40
1.0
 50
239.4974808661896
 51
240.0
  0
ARC
  8
0
  6
CONTINUOUS
 62
     9
 10
-520.0552008140198
 20
169.6833817696877
 40
1.0
 50
300.0
 51
300.5025191338101
  0
POLYLINE
  8
0
  6
CONTINUOUS
 62
     7
 66
     1
  0
VERTEX
  8
0
  6
CONTINUOUS
 62
     7
 10
-519.8052008140198
 20
169.2547323355446
  0
VERTEX
  8
0
  6
CONTINUOUS
 62
     7
 10
-519.7863976947175
 20
169.2661470262303
  0
VERTEX
  8
0
  6
CONTINUOUS
 62
     7
 10
-519.768114819616
 20
169.2783776818537
  0
VERTEX
  8
0
  6
CONTINUOUS
 62
     7
 10
-519.7503875735719
 20
169.2914006310834
  0
VERTEX
  8
0
  6
CONTINUOUS
 62
     7
 10
-519.7332502660714
 20
169.3051906691757
  0
VERTEX
  8
0
  6
CONTINUOUS
 62
     7
 10
-519.7167360648281
 20
169.319721106755
  0
VERTEX
  8
0
  6
CONTINUOUS
 62
     7
 10
-519.7008769315894
 20
169.3349638214695
  0
VERTEX
  8
0
  6
CONTINUOUS
 62
     7
 10
-519.6857035602777
 20
169.3508893124193
  0
VERTEX
  8
0
  6
CONTINUOUS
 62
     7
 10
-519.6712453175854
 20
169.3674667572525
  0
VERTEX
  8
0
  6
CONTINUOUS
 62
     7
 10
-519.6575301861374
 20
169.3846640718195
  0
VERTEX
  8
0
  6
CONTINUOUS
 62
     7
 10
-519.6445847103339
 20
169.4024479722682
  0
VERTEX
  8
0
  6
CONTINUOUS
 62
     7
 10
-519.6324339449762
 20
169.4207840394631
  0
VERTEX
  8
0
  6
CONTINUOUS
 62
     7
 10
-519.6211014067752
 20
169.4396367855992
  0
VERTEX
  8
0
  6
CONTINUOUS
 62
     7
 10
-519.6106090288367
 20
169.4589697228863
  0
VERTEX
  8
0
  6
CONTINUOUS
 62
     7
 10
-519.6009771182122
 20
169.4787454341674
  0
VERTEX
  8
0
  6
CONTINUOUS
 62
     7
 10
-519.592224316596
 20
169.4989256453362
  0
VERTEX
  8
0
  6
CONTINUOUS
 62
     7
 10
-519.5843675642468
 20
169.5194712994138
  0
VERTEX
  8
0
  6
CONTINUOUS
 62
     7
 10
-519.5774220672004
 20
169.540342632139
  0
VERTEX
  8
0
  6
CONTINUOUS
 62
     7
 10
-519.5714012678397
 20
169.5614992489293
  0
VERTEX
  8
0
  6
CONTINUOUS
 62
     7
 10
-519.5663168188793
 20
169.5829002030603
  0
VERTEX
  8
0
  6
CONTINUOUS
 62
     7
 10
-519.5621785608116
 20
169.6045040749151
  0
VERTEX
  8
0
  6
CONTINUOUS
 62
     7
 10
-519.5589945028621
 20
169.6262690521474
  0
VERTEX
  8
0
  6
CONTINUOUS
 62
     7
 10
-519.5567708074879
 20
169.6481530106064
  0
VERTEX
  8
0
  6
CONTINUOUS
 62
     7
 10
-519.5555117784506
 20
169.6701135958635
  0
VERTEX
  8
0
  6
CONTINUOUS
 62
     7
 10
-519.5552198524878
 20
169.692108305186
  0
SEQEND
  8
0
  6
CONTINUOUS
 62
     7
  0
LINE
  8
0
  6
CONTINUOUS
 62
     7
 10
-585.1947991859802
 20
169.2547323355446
 11
-583.2
 21
168.1030344885397
  0
POLYLINE
  8
0
  6
CONTINUOUS
 62
     7
 10
0.0
 20
0.0
 30
0.0
 66
     1
 70
     8
  0
VERTEX
  8
0
  6
CONTINUOUS
 62
     7
 10
-583.1999999999999
 20
168.1030344885397
 30
0.0
 70
    32
  0
VERTEX
  8
0
  6
CONTINUOUS
 62
     7
 10
-583.1999999999999
 20
168.1030180008213
 30
0.0
 70
    32
  0
SEQEND
  8
0
  6
CONTINUOUS
 62
     7
  0
POLYLINE
  8
0
  6
CONTINUOUS
 62
     7
 10
0.0
 20
0.0
 30
0.0
 66
     1
 70
     8
  0
VERTEX
  8
0
  6
CONTINUOUS
 62
     7
 10
-521.8000000000001
 20
168.1030180008213
 30
0.0
 70
    32
  0
VERTEX
  8
0
  6
CONTINUOUS
 62
     7
 10
-521.8000000000001
 20
168.1030344885397
 30
0.0
 70
    32
  0
SEQEND
  8
0
  6
CONTINUOUS
 62
     7
  0
LINE
  8
0
  6
CONTINUOUS
 62
     7
 10
-521.8
 20
168.1030344885398
 11
-519.8052008140198
 21
169.2547323355446
  0
LINE
  8
0
  6
CONTINUOUS
 62
     7
 10
-583.1999999999999
 20
168.1030180008213
 11
-583.1999999999999
 21
166.1
  0
POLYLINE
  8
0
  6
CONTINUOUS
 62
     7
 10
0.0
 20
0.0
 30
0.0
 66
     1
 70
     8
  0
VERTEX
  8
0
  6
CONTINUOUS
 62
     7
 10
-583.1999999999999
 20
166.1
 30
0.0
 70
    32
  0
VERTEX
  8
0
  6
CONTINUOUS
 62
     7
 10
-583.2000095191432
 20
166.0999904808567
 30
0.0
 70
    32
  0
SEQEND
  8
0
  6
CONTINUOUS
 62
     7
  0
POLYLINE
  8
0
  6
CONTINUOUS
 62
     7
 10
0.0
 20
0.0
 30
0.0
 66
     1
 70
     8
  0
VERTEX
  8
0
  6
CONTINUOUS
 62
     7
 10
-521.7999904808566
 20
166.0999904808567
 30
0.0
 70
    32
  0
VERTEX
  8
0
  6
CONTINUOUS
 62
     7
 10
-521.8000000000001
 20
166.1
 30
0.0
 70
    32
  0
SEQEND
  8
0
  6
CONTINUOUS
 62
     7
  0
LINE
  8
0
  6
CONTINUOUS
 62
     7
 10
-521.8000000000001
 20
166.1
 11
-521.8000000000001
 21
168.1030180008213
  0
LINE
  8
0
  6
CONTINUOUS
 62
     7
 10
-583.2000095191432
 20
166.0999904808567
 11
-585.0999999999999
 21
164.2
  0
LINE
  8
0
  6
CONTINUOUS
 62
     7
 10
-585.0999999999999
 20
164.2
 11
-585.492709050584
 21
164.2
  0
LINE
  8
0
  6
CONTINUOUS
 62
     7
 10
-519.507290949416
 20
164.2
 11
-519.9
 21
164.2
  0
LINE
  8
0
  6
CONTINUOUS
 62
     7
 10
-519.9
 20
164.2
 11
-521.7999904808566
 21
166.0999904808567
  0
LINE
  8
0
  6
CONTINUOUS
 62
     7
 10
-542.5
 20
225.9862271392393
 11
-542.5
 21
225.8903934696503
  0
LINE
  8
0
  6
CONTINUOUS
 62
     7
 10
-562.5
 20
225.8903934696503
 11
-562.5
 21
225.9862271392394
  0
POLYLINE
  8
0
  6
CONTINUOUS
 62
     7
 10
0.0
 20
0.0
 30
0.0
 66
     1
 70
     8
  0
VERTEX
  8
0
  6
CONTINUOUS
 62
     7
 10
-521.7999904808566
 20
166.0999904808567
 30
0.0
 70
    32
  0
VERTEX
  8
0
  6
CONTINUOUS
 62
     7
 10
-521.8000000000001
 20
166.1
 30
0.0
 70
    32
  0
SEQEND
  8
0
  6
CONTINUOUS
 62
     7
  0
POLYLINE
  8
0
  6
CONTINUOUS
 62
     7
 10
0.0
 20
0.0
 30
0.0
 66
     1
 70
     8
  0
VERTEX
  8
0
  6
CONTINUOUS
 62
     7
 10
-583.1999999999999
 20
166.1
 30
0.0
 70
    32
  0
VERTEX
  8
0
  6
CONTINUOUS
 62
     7
 10
-583.2000095191432
 20
166.0999904808567
 30
0.0
 70
    32
  0
SEQEND
  8
0
  6
CONTINUOUS
 62
     7
  0
LINE
  8
0
  6
CONTINUOUS
 62
     7
 10
-519.6525980841446
 20
169.3912470747169
 11
-519.7381851741978
 21
179.1985561924128
  0
LINE
  8
0
  6
CONTINUOUS
 62
     7
 10
-585.3474019158554
 20
169.3912470747169
 11
-585.261814825802
 21
179.1985561924128
  0
LINE
  8
0
  6
CONTINUOUS
 62
     7
 10
-585.3613746913336
 20
179.2494269421158
 11
-585.3113765951804
 21
179.2489906153409
  0
LINE
  8
0
  6
CONTINUOUS
 62
     7
 10
-519.6386253086663
 20
179.2494269421158
 11
-519.6886234048196
 21
179.2489906153409
  0
ARC
  8
0
  6
CONTINUOUS
 62
     7
 10
-519.6881870780446
 20
179.1989925191877
 40
0.0499999999999974
 50
90.50000000000045
 51
180.5000000000004
  0
ARC
  8
0
  6
CONTINUOUS
 62
     7
 10
-585.3118129219553
 20
179.1989925191877
 40
0.0499999999999974
 50
359.4999999999995
 51
89.49999999999955
  0
POLYLINE
  8
0
  6
CONTINUOUS
 62
     7
 10
0.0
 20
0.0
 30
0.0
 66
     1
 70
     8
  0
VERTEX
  8
0
  6
CONTINUOUS
 62
     7
 10
-583.1999999999999
 20
168.1030344885397
 30
0.0
 70
    32
  0
VERTEX
  8
0
  6
CONTINUOUS
 62
     7
 10
-583.1999999999999
 20
168.1030180008213
 30
0.0
 70
    32
  0
SEQEND
  8
0
  6
CONTINUOUS
 62
     7
  0
POLYLINE
  8
0
  6
CONTINUOUS
 62
     7
 10
0.0
 20
0.0
 30
0.0
 66
     1
 70
     8
  0
VERTEX
  8
0
  6
CONTINUOUS
 62
     7
 10
-521.8000000000001
 20
168.1030180008213
 30
0.0
 70
    32
  0
VERTEX
  8
0
  6
CONTINUOUS
 62
     7
 10
-521.8000000000001
 20
168.1030344885397
 30
0.0
 70
    32
  0
SEQEND
  8
0
  6
CONTINUOUS
 62
     7
  0
POLYLINE
  8
0
  6
CONTINUOUS
 62
     7
 10
0.0
 20
0.0
 30
0.0
 66
     1
 70
     8
  0
VERTEX
  8
0
  6
CONTINUOUS
 62
     7
 10
-521.7999904808566
 20
166.0999904808567
 30
0.0
 70
    32
  0
VERTEX
  8
0
  6
CONTINUOUS
 62
     7
 10
-521.8000000000001
 20
166.1000000000001
 30
0.0
 70
    32
  0
SEQEND
  8
0
  6
CONTINUOUS
 62
     7
  0
POLYLINE
  8
0
  6
CONTINUOUS
 62
     7
 10
0.0
 20
0.0
 30
0.0
 66
     1
 70
     8
  0
VERTEX
  8
0
  6
CONTINUOUS
 62
     7
 10
-583.1999999999999
 20
166.1
 30
0.0
 70
    32
  0
VERTEX
  8
0
  6
CONTINUOUS
 62
     7
 10
-583.2000095191432
 20
166.0999904808567
 30
0.0
 70
    32
  0
SEQEND
  8
0
  6
CONTINUOUS
 62
     7
  0
POLYLINE
  8
0
  6
CONTINUOUS
 62
     7
 10
0.0
 20
0.0
 30
0.0
 66
     1
 70
     8
  0
VERTEX
  8
0
  6
CONTINUOUS
 62
     7
 10
-583.1999999999999
 20
166.1000000000001
 30
0.0
 70
    32
  0
VERTEX
  8
0
  6
CONTINUOUS
 62
     7
 10
-583.2000095191432
 20
166.0999904808567
 30
0.0
 70
    32
  0
SEQEND
  8
0
  6
CONTINUOUS
 62
     7
  0
POLYLINE
  8
0
  6
CONTINUOUS
 62
     7
 10
0.0
 20
0.0
 30
0.0
 66
     1
 70
     8
  0
VERTEX
  8
0
  6
CONTINUOUS
 62
     7
 10
-521.7999904808566
 20
166.0999904808567
 30
0.0
 70
    32
  0
VERTEX
  8
0
  6
CONTINUOUS
 62
     7
 10
-521.8000000000001
 20
166.1000000000001
 30
0.0
 70
    32
  0
SEQEND
  8
0
  6
CONTINUOUS
 62
     7
  0
LINE
  8
0
  6
CONTINUOUS
 62
     7
 10
-557.8977240586413
 20
164.2
 11
-557.8977240586413
 21
164.5
  0
LINE
  8
0
  6
CONTINUOUS
 62
     7
 10
-563.8147695131869
 20
164.5
 11
-563.8147695131869
 21
164.2
  0
LINE
  8
0
  6
CONTINUOUS
 62
     7
 10
-536.2866025403785
 20
164.2
 11
-536.2866025403785
 21
164.5
  0
ARC
  8
0
  6
CONTINUOUS
 62
     7
 10
-552.5
 20
-7.799999999999973
 40
233.8
 50
90.0
 51
92.42581323673642
  0
ARC
  8
0
  6
CONTINUOUS
 62
     7
 10
-552.5
 20
-7.799999999999973
 40
233.8
 50
87.57418676326363
 51
90.0
  0
ARC
  8
0
  6
CONTINUOUS
 62
     7
 10
-562.4
 20
225.8903934696503
 40
0.0999999999999994
 50
180.0
 51
270.0
  0
ARC
  8
0
  6
CONTINUOUS
 62
     7
 10
-562.4
 20
225.8903934696503
 40
0.1000000000000029
 50
270.0
 51
272.4258132367373
  0
ARC
  8
0
  6
CONTINUOUS
 62
     7
 10
-542.5999999999999
 20
225.8903934696503
 40
0.0999999999999997
 50
267.5741867632627
 51
270.0
  0
ARC
  8
0
  6
CONTINUOUS
 62
     7
 10
-542.5999999999999
 20
225.8903934696503
 40
0.1000000000000029
 50
270.0
 51
0.0
  0
ENDBLK
  8
0
  0
ENDSEC
  0
SECTION
  2
ENTITIES
  0
INSERT
  8
0
  6
CONTINUOUS
 62
     7
  2
D_FRAME_VIEW_1772
 10
0.0
 20
0.0
 30
0.0
  0
TEXT
  8
0
  6
CONTINUOUS
 62
     7
 10
-346.7354851819433
 20
111.0996467425285
 40
7.0
  1
RMWT-40
  0
INSERT
  8
0
  6
CONTINUOUS
 62
     7
  2
D_FRAME_VIEW_1880
 10
0.0
 20
0.0
 30
0.0
  0
INSERT
  8
0
  6
CONTINUOUS
 62
     7
  2
D_FRAME_VIEW_1432
 10
0.0
 20
0.0
 30
0.0
  0
ARC
  8
0
  6
CONTINUOUS
 62
     9
 10
-573.1418121199565
 20
204.3564454052929
 40
7.00000000000002
 50
136.4000835896001
 51
179.5
  0
ARC
  8
0
  6
CONTINUOUS
 62
     9
 10
-531.8581878800435
 20
204.3564454052929
 40
6.999999999999992
 50
0.5000000000000568
 51
43.59991641039994
  0
LINE
  8
0
  6
CONTINUOUS
 62
     7
 10
-580.3441619062125
 20
181.2
 11
-585.3443522981412
 21
181.2
  0
LINE
  8
0
  6
CONTINUOUS
 62
     7
 10
-585.3443522981412
 20
181.2
 11
-585.1413551967266
 21
204.4611638312734
  0
ARC
  8
0
  6
CONTINUOUS
 62
     7
 10
-573.1418121199565
 20
204.3564454052929
 40
12.0
 50
136.4000835895999
 51
179.5
  0
LINE
  8
0
  6
CONTINUOUS
 62
     7
 10
-581.831886530342
 20
212.6318672520608
 11
-569.4999999999999
 21
225.5816616617511
  0
ARC
  8
0
  6
CONTINUOUS
 62
     7
 10
-552.5
 20
-7.799999999999973
 40
234.0000000000001
 50
85.8338157824802
 51
94.16618421751981
  0
LINE
  8
0
  6
CONTINUOUS
 62
     7
 10
-535.5000000000001
 20
225.5816616617511
 11
-523.168113469658
 21
212.6318672520608
  0
ARC
  8
0
  6
CONTINUOUS
 62
     7
 10
-531.8581878800435
 20
204.3564454052929
 40
12.0
 50
0.4999999999999432
 51
43.5999164104
  0
LINE
  8
0
  6
CONTINUOUS
 62
     7
 10
-519.8586448032735
 20
204.4611638312734
 11
-519.6556477018588
 21
181.2
  0
LINE
  8
0
  6
CONTINUOUS
 62
     7
 10
-519.6556477018588
 20
181.2
 11
-524.6558380937875
 21
181.2
  0
LINE
  8
0
  6
CONTINUOUS
 62
     7
 10
-524.6558380937875
 20
181.2
 11
-524.8584544185943
 21
204.4175311537815
  0
ARC
  8
0
  6
CONTINUOUS
 62
     7
 10
-531.8581878800435
 20
204.3564454052929
 40
6.999999999999992
 50
0.5000000000000568
 51
43.59991641039994
  0
LINE
  8
0
  6
CONTINUOUS
 62
     7
 10
-526.7889778073186
 20
209.1837748159076
 11
-537.7809074873848
 21
220.7264718049205
  0
ARC
  8
0
  6
CONTINUOUS
 62
     7
 10
-552.5
 20
-7.799999999999973
 40
229.0000000000001
 50
86.31474388491036
 51
93.68525611508966
  0
LINE
  8
0
  6
CONTINUOUS
 62
     7
 10
-567.2190925126152
 20
220.7264718049205
 11
-578.2110221926814
 21
209.1837748159075
  0
ARC
  8
0
  6
CONTINUOUS
 62
     7
 10
-573.1418121199565
 20
204.3564454052929
 40
7.00000000000002
 50
136.4000835896001
 51
179.5
  0
LINE
  8
0
  6
CONTINUOUS
 62
     7
 10
-580.1415455814057
 20
204.4175311537815
 11
-580.3441619062125
 21
181.2
  0
LINE
  8
0
  6
CENTER
 62
     1
 10
-310.0
 20
150.0
 11
-310.0
 21
235.0
  0
LINE
  8
0
  6
CENTER
 62
     1
 10
-552.5
 20
150.0
 11
-552.5
 21
235.0
  0
LINE
  8
0
  6
CENTER
 62
     1
 10
-552.5
 20
275.0
 11
-552.5
 21
535.0
  0
ENDSEC
  0
EOF
