  0
SECTION
  2
HEADER
  9
$ACADVER
  1
AC1014
  9
$ACADMAINTVER
 70
     9
  9
$DWGCODEPAGE
  3
ANSI_932
  9
$INSBASE
 10
0.0
 20
0.0
 30
0.0
  9
$EXTMIN
 10
571.9999888285644
 20
-195.2977272727274
 30
0.0
  9
$EXTMAX
 10
718.5733879597781
 20
16.07338795977808
 30
0.0
  9
$LIMMIN
 10
0.0
 20
0.0
  9
$LIMMAX
 10
12.0
 20
9.0
  9
$ORTHOMODE
 70
     0
  9
$REGENMODE
 70
     1
  9
$FILLMODE
 70
     1
  9
$QTEXTMODE
 70
     0
  9
$MIRRTEXT
 70
     1
  9
$DRAGMODE
 70
     2
  9
$LTSCALE
 40
1.0
  9
$OSMODE
 70
    37
  9
$ATTMODE
 70
     1
  9
$TEXTSIZE
 40
0.2
  9
$TRACEWID
 40
0.05
  9
$TEXTSTYLE
  7
STANDARD
  9
$CLAYER
  8
0
  9
$CELTYPE
  6
BYLAYER
  9
$CECOLOR
 62
   256
  9
$CELTSCALE
 40
1.0
  9
$DELOBJ
 70
     1
  9
$DISPSILH
 70
     0
  9
$DIMSCALE
 40
1.0
  9
$DIMASZ
 40
3.0
  9
$DIMEXO
 40
0.0625
  9
$DIMDLI
 40
0.38
  9
$DIMRND
 40
0.0
  9
$DIMDLE
 40
0.0
  9
$DIMEXE
 40
1.5
  9
$DIMTP
 40
0.0
  9
$DIMTM
 40
0.0
  9
$DIMTXT
 40
3.0
  9
$DIMCEN
 40
0.09
  9
$DIMTSZ
 40
0.0
  9
$DIMTOL
 70
     0
  9
$DIMLIM
 70
     0
  9
$DIMTIH
 70
     1
  9
$DIMTOH
 70
     1
  9
$DIMSE1
 70
     0
  9
$DIMSE2
 70
     0
  9
$DIMTAD
 70
     1
  9
$DIMZIN
 70
     0
  9
$DIMBLK
  1

  9
$DIMASO
 70
     1
  9
$DIMSHO
 70
     1
  9
$DIMPOST
  1

  9
$DIMAPOST
  1

  9
$DIMALT
 70
     0
  9
$DIMALTD
 70
     2
  9
$DIMALTF
 40
25.4
  9
$DIMLFAC
 40
1.0
  9
$DIMTOFL
 70
     0
  9
$DIMTVP
 40
0.0
  9
$DIMTIX
 70
     0
  9
$DIMSOXD
 70
     0
  9
$DIMSAH
 70
     0
  9
$DIMBLK1
  1

  9
$DIMBLK2
  1

  9
$DIMSTYLE
  2
STANDARD
  9
$DIMCLRD
 70
     0
  9
$DIMCLRE
 70
     0
  9
$DIMCLRT
 70
     0
  9
$DIMTFAC
 40
1.0
  9
$DIMGAP
 40
1.5
  9
$DIMJUST
 70
     0
  9
$DIMSD1
 70
     0
  9
$DIMSD2
 70
     0
  9
$DIMTOLJ
 70
     1
  9
$DIMTZIN
 70
     0
  9
$DIMALTZ
 70
     0
  9
$DIMALTTZ
 70
     0
  9
$DIMFIT
 70
     3
  9
$DIMUPT
 70
     0
  9
$DIMUNIT
 70
     2
  9
$DIMDEC
 70
     2
  9
$DIMTDEC
 70
     4
  9
$DIMALTU
 70
     2
  9
$DIMALTTD
 70
     2
  9
$DIMTXSTY
  7
ＭＳ_ゴシック
  9
$DIMAUNIT
 70
     0
  9
$LUNITS
 70
     2
  9
$LUPREC
 70
     4
  9
$SKETCHINC
 40
0.1
  9
$FILLETRAD
 40
0.5
  9
$AUNITS
 70
     0
  9
$AUPREC
 70
     0
  9
$MENU
  1
.
  9
$ELEVATION
 40
0.0
  9
$PELEVATION
 40
0.0
  9
$THICKNESS
 40
0.0
  9
$LIMCHECK
 70
     0
  9
$CHAMFERA
 40
0.0
  9
$CHAMFERB
 40
0.0
  9
$CHAMFERC
 40
0.0
  9
$CHAMFERD
 40
0.0
  9
$SKPOLY
 70
     0
  9
$TDCREATE
 40
2459761.544126481
  9
$TDUPDATE
 40
2459761.544126702
  9
$TDINDWG
 40
0.0000000116
  9
$TDUSRTIMER
 40
0.0000000116
  9
$USRTIMER
 70
     1
  9
$ANGBASE
 50
0.0
  9
$ANGDIR
 70
     0
  9
$PDMODE
 70
     0
  9
$PDSIZE
 40
0.0
  9
$PLINEWID
 40
0.0
  9
$COORDS
 70
     1
  9
$SPLFRAME
 70
     0
  9
$SPLINETYPE
 70
     6
  9
$SPLINESEGS
 70
     8
  9
$ATTDIA
 70
     0
  9
$ATTREQ
 70
     1
  9
$HANDLING
 70
     1
  9
$HANDSEED
  5
159
  9
$SURFTAB1
 70
     6
  9
$SURFTAB2
 70
     6
  9
$SURFTYPE
 70
     6
  9
$SURFU
 70
     6
  9
$SURFV
 70
     6
  9
$UCSNAME
  2

  9
$UCSORG
 10
0.0
 20
0.0
 30
0.0
  9
$UCSXDIR
 10
1.0
 20
0.0
 30
0.0
  9
$UCSYDIR
 10
0.0
 20
1.0
 30
0.0
  9
$PUCSNAME
  2

  9
$PUCSORG
 10
0.0
 20
0.0
 30
0.0
  9
$PUCSXDIR
 10
1.0
 20
0.0
 30
0.0
  9
$PUCSYDIR
 10
0.0
 20
1.0
 30
0.0
  9
$USERI1
 70
     0
  9
$USERI2
 70
     0
  9
$USERI3
 70
     0
  9
$USERI4
 70
     0
  9
$USERI5
 70
     0
  9
$USERR1
 40
0.0
  9
$USERR2
 40
0.0
  9
$USERR3
 40
0.0
  9
$USERR4
 40
0.0
  9
$USERR5
 40
0.0
  9
$WORLDVIEW
 70
     1
  9
$SHADEDGE
 70
     3
  9
$SHADEDIF
 70
    70
  9
$TILEMODE
 70
     1
  9
$MAXACTVP
 70
    64
  9
$PINSBASE
 10
0.0
 20
0.0
 30
0.0
  9
$PLIMCHECK
 70
     0
  9
$PEXTMIN
 10
1.000000000000000E+20
 20
1.000000000000000E+20
 30
1.000000000000000E+20
  9
$PEXTMAX
 10
-1.000000000000000E+20
 20
-1.000000000000000E+20
 30
-1.000000000000000E+20
  9
$PLIMMIN
 10
0.0
 20
0.0
  9
$PLIMMAX
 10
12.0
 20
9.0
  9
$UNITMODE
 70
     0
  9
$VISRETAIN
 70
     1
  9
$PLINEGEN
 70
     0
  9
$PSLTSCALE
 70
     1
  9
$TREEDEPTH
 70
  3020
  9
$PICKSTYLE
 70
     1
  9
$CMLSTYLE
  2
STANDARD
  9
$CMLJUST
 70
     0
  9
$CMLSCALE
 40
1.0
  9
$PROXYGRAPHICS
 70
     1
  9
$MEASUREMENT
 70
     1
  0
ENDSEC
  0
SECTION
  2
CLASSES
  0
CLASS
  1
ACDBDICTIONARYWDFLT
  2
AcDbDictionaryWithDefault
  3
ObjectDBX Classes
 90
        0
280
     0
281
     0
  0
CLASS
  1
VISUALSTYLE
  2
AcDbVisualStyle
  3
ObjectDBX Classes
 90
     4095
280
     0
281
     0
  0
CLASS
  1
MATERIAL
  2
AcDbMaterial
  3
ObjectDBX Classes
 90
     1153
280
     0
281
     0
  0
CLASS
  1
SCALE
  2
AcDbScale
  3
ObjectDBX Classes
 90
     1153
280
     0
281
     0
  0
CLASS
  1
TABLESTYLE
  2
AcDbTableStyle
  3
ObjectDBX Classes
 90
     4095
280
     0
281
     0
  0
CLASS
  1
MLEADERSTYLE
  2
AcDbMLeaderStyle
  3
ACDB_MLEADERSTYLE_CLASS
 90
     4095
280
     0
281
     0
  0
CLASS
  1
SUN
  2
AcDbSun
  3
SCENEOE
 90
     1153
280
     0
281
     0
  0
CLASS
  1
DICTIONARYVAR
  2
AcDbDictionaryVar
  3
ObjectDBX Classes
 90
        0
280
     0
281
     0
  0
CLASS
  1
XRECORD
  2
AcDbXrecord
  3
ObjectDBX Classes
 90
        0
280
     0
281
     0
  0
CLASS
  1
LWPOLYLINE
  2
AcDbPolyline
  3
ObjectDBX Classes
 90
        0
280
     0
281
     1
  0
CLASS
  1
HATCH
  2
AcDbHatch
  3
ObjectDBX Classes
 90
        0
280
     0
281
     1
  0
CLASS
  1
ACDBPLACEHOLDER
  2
AcDbPlaceHolder
  3
ObjectDBX Classes
 90
        0
280
     0
281
     0
  0
CLASS
  1
LAYOUT
  2
AcDbLayout
  3
ObjectDBX Classes
 90
        0
280
     0
281
     0
  0
ENDSEC
  0
SECTION
  2
TABLES
  0
TABLE
  2
VPORT
  5
8
102
{ACAD_XDICTIONARY
360
14E
102
}
330
0
100
AcDbSymbolTable
 70
     1
  0
VPORT
  5
29
330
8
100
AcDbSymbolTableRecord
100
AcDbViewportTableRecord
  2
*ACTIVE
 70
     0
 10
0.0
 20
0.0
 11
1.0
 21
1.0
 12
645.2866883941713
 22
-89.61216965647466
 13
0.0
 23
0.0
 14
0.5
 24
0.5
 15
0.5
 25
0.5
 16
0.0
 26
0.0
 36
1.0
 17
0.0
 27
0.0
 37
0.0
 40
211.3711152325055
 41
1.6
 42
50.0
 43
0.0
 44
0.0
 50
0.0
 51
0.0
 71
     0
 72
   100
 73
     1
 74
     3
 75
     0
 76
     0
 77
     0
 78
     0
  0
ENDTAB
  0
TABLE
  2
LTYPE
  5
5
330
0
100
AcDbSymbolTable
 70
     2
  0
LTYPE
  5
14
330
5
100
AcDbSymbolTableRecord
100
AcDbLinetypeTableRecord
  2
BYBLOCK
 70
     0
  3

 72
    65
 73
     0
 40
0.0
  0
LTYPE
  5
15
330
5
100
AcDbSymbolTableRecord
100
AcDbLinetypeTableRecord
  2
BYLAYER
 70
     0
  3

 72
    65
 73
     0
 40
0.0
  0
LTYPE
  5
16
330
5
100
AcDbSymbolTableRecord
100
AcDbLinetypeTableRecord
  2
CONTINUOUS
 70
     0
  3
Solid line
 72
    65
 73
     0
 40
0.0
  0
LTYPE
  5
75
330
5
100
AcDbSymbolTableRecord
100
AcDbLinetypeTableRecord
  2
CENTER
 70
     0
  3

 72
    65
 73
     0
 40
0.0
  0
ENDTAB
  0
TABLE
  2
LAYER
  5
2
330
0
100
AcDbSymbolTable
 70
     1
  0
LAYER
  5
10
330
2
100
AcDbSymbolTableRecord
100
AcDbLayerTableRecord
  2
0
 70
     0
 62
     7
  6
CONTINUOUS
  0
ENDTAB
  0
TABLE
  2
STYLE
  5
3
330
0
100
AcDbSymbolTable
 70
     2
  0
STYLE
  5
11
330
3
100
AcDbSymbolTableRecord
100
AcDbTextStyleTableRecord
  2
STANDARD
 70
     0
 40
0.0
 41
1.0
 50
0.0
 71
     0
 42
0.2
  3
txt
  4

  0
STYLE
  5
6E
330
3
100
AcDbSymbolTableRecord
100
AcDbTextStyleTableRecord
  2
ＭＳ_ゴシック
 70
     0
 40
0.0
 41
1.0
 50
0.0
 71
     0
 42
0.2
  3
ＭＳ ゴシック.shx
  4

  0
ENDTAB
  0
TABLE
  2
VIEW
  5
6
330
0
100
AcDbSymbolTable
 70
     0
  0
ENDTAB
  0
TABLE
  2
UCS
  5
7
330
0
100
AcDbSymbolTable
 70
     0
  0
ENDTAB
  0
TABLE
  2
APPID
  5
9
330
0
100
AcDbSymbolTable
 70
     2
  0
APPID
  5
12
330
9
100
AcDbSymbolTableRecord
100
AcDbRegAppTableRecord
  2
ACAD
 70
     0
  0
APPID
  5
158
330
9
100
AcDbSymbolTableRecord
100
AcDbRegAppTableRecord
  2
ACAD_MLEADERVER
 70
     0
  0
ENDTAB
  0
TABLE
  2
DIMSTYLE
  5
A
330
0
100
AcDbSymbolTable
 70
     1
  0
DIMSTYLE
105
27
330
A
100
AcDbSymbolTableRecord
100
AcDbDimStyleTableRecord
  2
STANDARD
 70
     0
  3

  4

  5

  6

  7

 40
1.0
 41
0.18
 42
0.0625
 43
0.38
 44
0.18
 45
0.0
 46
0.0
 47
0.0
 48
0.0
140
0.18
141
0.09
142
0.0
143
25.4
144
1.0
145
0.0
146
1.0
147
0.09
 71
     0
 72
     0
 73
     1
 74
     1
 75
     0
 76
     0
 77
     0
 78
     0
170
     0
171
     2
172
     0
173
     0
174
     0
175
     0
176
     0
177
     0
178
     0
270
     2
271
     4
272
     4
273
     2
274
     2
340
11
275
     0
280
     0
281
     0
282
     0
283
     1
284
     0
285
     0
286
     0
287
     3
288
     0
  0
ENDTAB
  0
TABLE
  2
BLOCK_RECORD
  5
1
330
0
100
AcDbSymbolTable
 70
     0
  0
BLOCK_RECORD
  5
1F
330
1
100
AcDbSymbolTableRecord
100
AcDbBlockTableRecord
  2
*MODEL_SPACE
  0
BLOCK_RECORD
  5
1B
330
1
100
AcDbSymbolTableRecord
100
AcDbBlockTableRecord
  2
*PAPER_SPACE
  0
ENDTAB
  0
ENDSEC
  0
SECTION
  2
BLOCKS
  0
BLOCK
  5
20
330
1F
100
AcDbEntity
  8
0
100
AcDbBlockBegin
  2
*MODEL_SPACE
 70
     0
 10
0.0
 20
0.0
 30
0.0
  3
*MODEL_SPACE
  1

  0
ENDBLK
  5
21
330
1F
100
AcDbEntity
  8
0
100
AcDbBlockEnd
  0
BLOCK
  5
1C
330
1B
100
AcDbEntity
 67
     1
  8
0
100
AcDbBlockBegin
  2
*PAPER_SPACE
 70
     0
 10
0.0
 20
0.0
 30
0.0
  3
*PAPER_SPACE
  1

  0
ENDBLK
  5
1D
330
1B
100
AcDbEntity
 67
     1
  8
0
100
AcDbBlockEnd
  0
ENDSEC
  0
SECTION
  2
ENTITIES
  0
HATCH
  5
6F
330
1F
100
AcDbEntity
  8
0
 62
   253
100
AcDbHatch
 10
0.0
 20
0.0
 30
0.0
210
0.0
220
0.0
230
1.0
  2
SOLID
 70
     1
 71
     1
 91
        1
 92
        3
 72
     0
 73
     1
 93
       72
 10
595.2371708245126
 20
-156.7884875264621
 10
595.1742559198161
 20
-156.770524246867
 10
595.1100148223512
 20
-156.7581127182227
 10
595.0449364456595
 20
-156.7513473997564
 10
594.9795160754828
 20
-156.7502797796269
 10
594.9142516003403
 20
-156.7549179830678
 10
594.8496397222955
 20
-156.7652267105504
 10
594.7861721767541
 20
-156.781127506434
 10
594.7243319900603
 20
-156.8024993560607
 10
594.6645898033751
 20
-156.8291796067501
 10
594.6074002908124
 20
-156.8609652056846
 10
594.5531986990948
 20
-156.8976142452636
 10
594.5023975350631
 20
-156.9388478041667
 10
594.45538342625
 20
-156.9843520701129
 10
594.4125141784118
 20
-157.0337807281624
 10
594.3741160524095
 20
-157.0867575963814
 10
594.3404812811674
 20
-157.1428794888145
 10
594.3118658456038
 20
-157.2017192839731
 10
594.2884875264621
 20
-157.2628291754874
 10
594.270524246867
 20
-157.3257440801839
 10
594.2581127182227
 20
-157.3899851776488
 10
594.2513473997564
 20
-157.4550635543406
 10
594.2502797796268
 20
-157.5204839245172
 10
594.2549179830678
 20
-157.5857483996597
 10
594.2652267105503
 20
-157.6503602777045
 10
594.2811275064339
 20
-157.713827823246
 10
594.3024993560606
 20
-157.7756680099398
 10
594.3291796067501
 20
-157.835410196625
 10
594.3609652056846
 20
-157.8925997091877
 10
594.3976142452636
 20
-157.9468013009053
 10
594.4388478041667
 20
-157.997602464937
 10
594.484352070113
 20
-158.04461657375
 10
594.5337807281624
 20
-158.0874858215882
 10
594.5867575963813
 20
-158.1258839475906
 10
594.6428794888145
 20
-158.1595187188327
 10
594.701719283973
 20
-158.1881341543962
 10
594.7628291754874
 20
-158.2115124735379
 10
594.8257440801839
 20
-158.2294757531331
 10
594.8899851776488
 20
-158.2418872817774
 10
594.9550635543405
 20
-158.2486526002436
 10
595.0204839245172
 20
-158.2497202203732
 10
595.0857483996598
 20
-158.2450820169323
 10
595.1503602777045
 20
-158.2347732894497
 10
595.2138278232459
 20
-158.2188724935661
 10
595.2756680099397
 20
-158.1975006439394
 10
595.335410196625
 20
-158.17082039325
 10
595.3925997091876
 20
-158.1390347943154
 10
595.4468013009053
 20
-158.1023857547364
 10
595.497602464937
 20
-158.0611521958334
 10
595.54461657375
 20
-158.0156479298871
 10
595.5874858215883
 20
-157.9662192718377
 10
595.6258839475905
 20
-157.9132424036187
 10
595.6595187188326
 20
-157.8571205111855
 10
595.6881341543962
 20
-157.798280716027
 10
595.7115124735379
 20
-157.7371708245126
 10
595.7294757531331
 20
-157.6742559198161
 10
595.7418872817774
 20
-157.6100148223512
 10
595.7486526002435
 20
-157.5449364456595
 10
595.7497202203732
 20
-157.4795160754828
 10
595.7450820169322
 20
-157.4142516003403
 10
595.7347732894497
 20
-157.3496397222955
 10
595.7188724935661
 20
-157.2861721767541
 10
595.6975006439394
 20
-157.2243319900603
 10
595.6708203932499
 20
-157.1645898033751
 10
595.6390347943154
 20
-157.1074002908124
 10
595.6023857547365
 20
-157.0531986990948
 10
595.5611521958334
 20
-157.0023975350631
 10
595.5156479298871
 20
-156.9553834262501
 10
595.4662192718376
 20
-156.9125141784118
 10
595.4132424036187
 20
-156.8741160524095
 10
595.3571205111855
 20
-156.8404812811674
 10
595.298280716027
 20
-156.8118658456039
 97
        0
 75
     0
 76
     1
 98
        0
  0
MTEXT
  5
70
330
1F
100
AcDbEntity
  8
0
 62
     7
100
AcDbMText
 10
677.4585087452352
 20
-192.6113636363638
 30
0.0
 40
3.0
 41
0.0
 71
     1
 72
     1
  1
{\fＭＳ ゴシック;ＳＢ－１ＣＳ}
  0
ARC
  5
71
330
1F
100
AcDbEntity
  8
0
  6
CONTINUOUS
 62
     7
100
AcDbCircle
 10
610.0007199464212
 20
-70.74983121197239
 30
0.0
 40
1.64988792883658
100
AcDbArc
 50
271.7116066064339
 51
358.2568795530725
  0
ARC
  5
72
330
1F
100
AcDbEntity
  8
0
  6
CONTINUOUS
 62
     7
100
AcDbCircle
 10
630.3062781597589
 20
10.07300318948129
 30
0.0
 40
3.000384816765345
100
AcDbArc
 50
36.59778410430575
 51
89.98991456298674
  0
LINE
  5
73
330
1F
100
AcDbEntity
  8
0
  6
CONTINUOUS
 62
     7
100
AcDbLine
 10
677.5883516150093
 20
-73.646792198887
 30
0.0
 11
677.5823923968109
 21
-73.6196683148696
 31
0.0
  0
LINE
  5
74
330
1F
100
AcDbEntity
  8
0
  6
CENTER
 62
     1
100
AcDbLine
 10
606.0992800533664
 20
-70.75016878841441
 30
0.0
 11
613.8992800533665
 21
-70.75016878841441
 31
0.0
  0
LINE
  5
76
330
1F
100
AcDbEntity
  8
0
  6
CONTINUOUS
 62
     7
100
AcDbLine
 10
674.6733879597659
 20
-54.50017320312289
 30
0.0
 11
674.4933879597428
 21
-54.5001732031232
 31
0.0
  0
LINE
  5
77
330
1F
100
AcDbEntity
  8
0
  6
CONTINUOUS
 62
     7
100
AcDbLine
 10
608.3507577496393
 20
-70.70000000019289
 30
0.0
 11
609.9499999998873
 21
-70.70000000019289
 31
0.0
  0
LINE
  5
78
330
1F
100
AcDbEntity
  8
0
  6
CONTINUOUS
 62
     7
100
AcDbLine
 10
675.1452548734153
 20
-160.2646600280849
 30
0.0
 11
675.1427485834456
 21
-160.2268575258121
 31
0.0
  0
LINE
  5
79
330
1F
100
AcDbEntity
  8
0
  6
CENTER
 62
     1
100
AcDbLine
 10
606.2512626132872
 20
-154.2501687884144
 30
0.0
 11
613.7472974934456
 21
-154.2501687884144
 31
0.0
  0
LINE
  5
7A
330
1F
100
AcDbEntity
  8
0
  6
CONTINUOUS
 62
     7
100
AcDbLine
 10
677.573387959764
 20
-67.1295891065162
 30
0.0
 11
677.573387959764
 21
-65.33865911962472
 31
0.0
  0
LINE
  5
7B
330
1F
100
AcDbEntity
  8
0
  6
CONTINUOUS
 62
     7
100
AcDbLine
 10
585.2492341373762
 20
-17.40044406211502
 30
0.0
 11
585.2614225055769
 21
-17.39802671401902
 31
0.0
  0
LINE
  5
7C
330
1F
100
AcDbEntity
  8
0
  6
CONTINUOUS
 62
     7
100
AcDbLine
 10
685.0995559197889
 20
-74.39442894394071
 30
0.0
 11
678.0913748424559
 21
-74.0271459915614
 31
0.0
  0
LINE
  5
7D
330
1F
100
AcDbEntity
  8
0
  6
CONTINUOUS
 62
     7
100
AcDbLine
 10
584.8421601641231
 20
-25.39802674932118
 30
0.0
 11
584.8299719031123
 21
-25.40044406211508
 31
0.0
  0
LINE
  5
7E
330
1F
100
AcDbEntity
  8
0
  6
CONTINUOUS
 62
     7
100
AcDbLine
 10
677.573387959764
 20
-157.6734431644452
 30
0.0
 11
677.573387959764
 21
-159.6707022339549
 31
0.0
  0
LINE
  5
7F
330
1F
100
AcDbEntity
  8
0
  6
CONTINUOUS
 62
     7
100
AcDbLine
 10
676.0472198294698
 20
-64.7748312185171
 30
0.0
 11
675.147220022492
 21
-64.72766453625981
 31
0.0
  0
LINE
  5
80
330
1F
100
AcDbEntity
  8
0
  6
CONTINUOUS
 62
     7
100
AcDbLine
 10
585.7411241877135
 20
-16.9263842373602
 30
0.0
 11
585.7486128377335
 21
-16.92642215067638
 31
0.0
  0
LINE
  5
81
330
1F
100
AcDbEntity
  8
0
  6
CONTINUOUS
 62
     7
100
AcDbLine
 10
677.573387959764
 20
-67.32655539439989
 30
0.0
 11
677.573387959764
 21
-67.1295891065162
 31
0.0
  0
ARC
  5
82
330
1F
100
AcDbEntity
  8
0
  6
CONTINUOUS
 62
     7
100
AcDbCircle
 10
712.573387959752
 20
-144.3308734027969
 30
0.0
 40
3.000000000011993
100
AcDbArc
 50
273.0000000036823
 51
359.9999999998972
  0
LINE
  5
83
330
1F
100
AcDbEntity
  8
0
  6
CONTINUOUS
 62
     7
100
AcDbLine
 10
576.9999903202403
 20
-61.50000000019251
 30
0.0
 11
576.9999903202414
 21
-163.5000000001924
 31
0.0
  0
LINE
  5
84
330
1F
100
AcDbEntity
  8
0
  6
CONTINUOUS
 62
     7
100
AcDbLine
 10
677.573387959764
 20
-65.3389160247466
 30
0.0
 11
677.5729212820137
 21
-65.3176242578536
 31
0.0
  0
LINE
  5
85
330
1F
100
AcDbEntity
  8
0
  6
CONTINUOUS
 62
     7
100
AcDbLine
 10
634.7507658623963
 20
-17.40044406211502
 30
0.0
 11
634.7385774935872
 21
-17.39802671396259
 31
0.0
  0
LINE
  5
86
330
1F
100
AcDbEntity
  8
0
  6
CONTINUOUS
 62
     7
100
AcDbLine
 10
677.5704369397324
 20
-159.7246000164264
 30
0.0
 11
677.5711236409692
 21
-159.7179064783099
 31
0.0
  0
LINE
  5
87
330
1F
100
AcDbEntity
  8
0
  6
CONTINUOUS
 62
     7
100
AcDbLine
 10
676.0472197712571
 20
-160.2251676711488
 30
0.0
 11
675.1472199881902
 21
-160.2723348096493
 31
0.0
  0
LINE
  5
88
330
1F
100
AcDbEntity
  8
0
  6
CONTINUOUS
 62
     7
100
AcDbLine
 10
589.7176019460373
 20
13.07338795976393
 30
0.0
 11
630.306806299741
 21
13.07338795976393
 31
0.0
  0
LINE
  5
89
330
1F
100
AcDbEntity
  8
0
  6
CONTINUOUS
 62
     7
100
AcDbLine
 10
636.0000111712084
 20
-28.00661204023411
 30
0.0
 11
583.9999888285644
 21
-28.00661204023411
 31
0.0
  0
LINE
  5
8A
330
1F
100
AcDbEntity
  8
0
  6
CONTINUOUS
 62
     7
100
AcDbLine
 10
674.673387959763
 20
-170.5004202845804
 30
0.0
 11
674.673387959763
 21
-163.4999999628263
 31
0.0
  0
LINE
  5
8B
330
1F
100
AcDbEntity
  8
0
  6
CONTINUOUS
 62
     7
100
AcDbLine
 10
584.7646145955288
 20
-27.35685650288849
 30
0.0
 11
584.7276543112304
 21
-27.35278001835709
 31
0.0
  0
LINE
  5
8C
330
1F
100
AcDbEntity
  8
0
  6
CONTINUOUS
 62
     7
100
AcDbLine
 10
632.7514379428783
 20
11.81180480344524
 30
0.0
 11
632.7150989372362
 21
11.86182725496676
 31
0.0
  0
LINE
  5
8D
330
1F
100
AcDbEntity
  8
0
  6
CONTINUOUS
 62
     7
100
AcDbLine
 10
634.2420163452513
 20
-16.9266120402361
 30
0.0
 11
632.450366526503
 21
-16.9266120402361
 31
0.0
  0
LINE
  5
8E
330
1F
100
AcDbEntity
  8
0
  6
CONTINUOUS
 62
     7
100
AcDbLine
 10
674.493387959755
 20
-61.49999987387928
 30
0.0
 11
674.4933879597428
 21
-54.5001732031232
 31
0.0
  0
LINE
  5
8F
330
1F
100
AcDbEntity
  8
0
  6
CONTINUOUS
 62
     7
100
AcDbLine
 10
635.1700280966598
 20
-25.40044406211531
 30
0.0
 11
634.7507658623957
 21
-17.40044406211502
 31
0.0
  0
LINE
  5
90
330
1F
100
AcDbEntity
  8
0
  6
CONTINUOUS
 62
     7
100
AcDbLine
 10
634.2588758120581
 20
-16.92638423735637
 30
0.0
 11
634.2513871620392
 21
-16.926422150676
 31
0.0
  0
ARC
  5
91
330
1F
100
AcDbEntity
  8
0
  6
CONTINUOUS
 62
     7
100
AcDbCircle
 10
630.3105129162478
 20
10.07422907669891
 30
0.0
 40
2.996254512256935
100
AcDbArc
 50
2.98764736597286
 51
36.62724310290302
  0
LINE
  5
92
330
1F
100
AcDbEntity
  8
0
  6
CONTINUOUS
 62
     7
100
AcDbLine
 10
674.6733879597633
 20
-163.5000000001946
 30
0.0
 11
674.6733879597655
 21
-61.5000000001895
 31
0.0
  0
LINE
  5
93
330
1F
100
AcDbEntity
  8
0
  6
CONTINUOUS
 62
     7
100
AcDbLine
 10
675.1472200282419
 20
-160.2723355738728
 30
0.0
 11
675.1452548734153
 21
-160.2646600280849
 31
0.0
  0
LINE
  5
94
330
1F
100
AcDbEntity
  8
0
  6
CONTINUOUS
 62
     7
100
AcDbLine
 10
677.6733879597639
 20
-72.4999120214454
 30
0.0
 11
677.6733879597639
 21
-69.00000000019219
 31
0.0
  0
LINE
  5
95
330
1F
100
AcDbEntity
  8
0
  6
CONTINUOUS
 62
     7
100
AcDbLine
 10
609.9999999998871
 20
-24.82661204023612
 30
0.0
 11
608.2500492074647
 21
-24.82661204023612
 31
0.0
  0
LINE
  5
96
330
1F
100
AcDbEntity
  8
0
  6
CONTINUOUS
 62
     7
100
AcDbLine
 10
635.1578398349984
 20
-25.39802674926481
 30
0.0
 11
635.1700280966592
 21
-25.40044406211508
 31
0.0
  0
LINE
  5
97
330
1F
100
AcDbEntity
  8
0
  6
CONTINUOUS
 62
     7
100
AcDbLine
 10
589.6931937000307
 20
13.07338795976393
 30
0.0
 11
589.7176019460373
 21
13.07338795976393
 31
0.0
  0
ARC
  5
98
330
1F
100
AcDbEntity
  8
0
  6
CONTINUOUS
 62
     7
100
AcDbCircle
 10
589.6931895189895
 20
10.07338899253107
 30
0.0
 40
2.999995770637698
100
AcDbArc
 50
133.9039328159415
 51
177.0000155182751
  0
LINE
  5
99
330
1F
100
AcDbEntity
  8
0
  6
CONTINUOUS
 62
     7
100
AcDbLine
 10
632.8685086232841
 20
-24.9266120402361
 30
0.0
 11
632.6734542015673
 21
-24.9266120402361
 31
0.0
  0
LINE
  5
9A
330
1F
100
AcDbEntity
  8
0
  6
CONTINUOUS
 62
     7
100
AcDbLine
 10
677.7694415174282
 20
-151.0636178510895
 30
0.0
 11
678.0428117556444
 21
-150.931451177788
 31
0.0
  0
LINE
  5
9B
330
1F
100
AcDbEntity
  8
0
  6
CONTINUOUS
 62
     7
100
AcDbLine
 10
584.7746156022689
 20
-27.3573153529468
 30
0.0
 11
584.7646145955288
 21
-27.35685650288849
 31
0.0
  0
LINE
  5
9C
330
1F
100
AcDbEntity
  8
0
  6
CONTINUOUS
 62
     7
100
AcDbLine
 10
632.7150988023237
 20
11.86182743674652
 30
0.0
 11
632.7476241450632
 21
11.8171567403052
 31
0.0
  0
LINE
  5
9D
330
1F
100
AcDbEntity
  8
0
  6
CONTINUOUS
 62
     7
100
AcDbLine
 10
674.493387959763
 20
-163.5000000001924
 30
0.0
 11
674.493387959763
 21
-61.50000000019249
 31
0.0
  0
ARC
  5
9E
330
1F
100
AcDbEntity
  8
0
  6
CONTINUOUS
 62
     7
100
AcDbCircle
 10
589.8077870388494
 20
9.79021354729681
 30
0.0
 40
3.285462247242021
100
AcDbArc
 50
92.14445703106706
 51
131.9198042474576
  0
LINE
  5
9F
330
1F
100
AcDbEntity
  8
0
  6
CONTINUOUS
 62
     7
100
AcDbLine
 10
674.6733879597781
 20
-61.49999987387888
 30
0.0
 11
674.6733879597659
 21
-54.50017320312289
 31
0.0
  0
LINE
  5
A0
330
1F
100
AcDbEntity
  8
0
  6
CONTINUOUS
 62
     7
100
AcDbLine
 10
634.6613243728698
 20
-24.9266120402361
 30
0.0
 11
632.868508623284
 21
-24.9266120402361
 31
0.0
  0
LINE
  5
A1
330
1F
100
AcDbEntity
  8
0
  6
CONTINUOUS
 62
     7
100
AcDbLine
 10
677.099555660226
 20
-64.8299815429626
 30
0.0
 11
677.1019730116192
 21
-64.84216991025399
 31
0.0
  0
ARC
  5
A2
330
1F
100
AcDbEntity
  8
0
  6
CONTINUOUS
 62
     7
100
AcDbCircle
 10
609.9998312116608
 20
-154.2492800536656
 30
0.0
 40
1.649887928852345
100
AcDbArc
 50
1.711606606652998
 51
88.2568795526394
  0
LINE
  5
A3
330
1F
100
AcDbEntity
  8
0
  6
CONTINUOUS
 62
     7
100
AcDbLine
 10
583.9999888285653
 20
-170.500000000193
 30
0.0
 11
636.0000111712093
 21
-170.500000000193
 31
0.0
  0
LINE
  5
A4
330
1F
100
AcDbEntity
  8
0
  6
CONTINUOUS
 62
     7
100
AcDbLine
 10
678.0913748424559
 20
-74.0271459915614
 30
0.0
 11
678.0472199997392
 21
-74.02483193591469
 31
0.0
  0
LINE
  5
A5
330
1F
100
AcDbEntity
  8
0
  6
CONTINUOUS
 62
     7
100
AcDbLine
 10
635.225178687186
 20
-26.45278001835852
 30
0.0
 11
635.1700280966596
 21
-25.4004440621147
 31
0.0
  0
LINE
  5
A6
330
1F
100
AcDbEntity
  8
0
  6
CONTINUOUS
 62
     7
100
AcDbLine
 10
675.147220028244
 20
-64.7276644265028
 30
0.0
 11
675.1426478381115
 21
-64.77549475610039
 31
0.0
  0
LINE
  5
A7
330
1F
100
AcDbEntity
  8
0
  6
CONTINUOUS
 62
     7
100
AcDbLine
 10
676.0472197712566
 20
-160.2251676711488
 30
0.0
 11
677.0995561250475
 21
-160.1700168861351
 31
0.0
  0
LINE
  5
A8
330
1F
100
AcDbEntity
  8
0
  6
CONTINUOUS
 62
     7
100
AcDbLine
 10
608.2500492074646
 20
-24.82661204023612
 30
0.0
 11
608.2500492074666
 21
-24.926612040231
 31
0.0
  0
LINE
  5
A9
330
1F
100
AcDbEntity
  8
0
  6
CONTINUOUS
 62
     7
100
AcDbLine
 10
609.9499999998873
 20
-72.3992422504326
 30
0.0
 11
609.9499999998873
 21
-70.8000000001926
 31
0.0
  0
LINE
  5
AA
330
1F
100
AcDbEntity
  8
0
  6
CONTINUOUS
 62
     7
100
AcDbLine
 10
584.2283395797608
 20
-27.82653178959429
 30
0.0
 11
584.3225926292553
 21
-27.81760998914168
 31
0.0
  0
LINE
  5
AB
330
1F
100
AcDbEntity
  8
0
  6
CONTINUOUS
 62
     7
100
AcDbLine
 10
632.4503665265029
 20
-16.9266120402361
 30
0.0
 11
632.2541920217158
 21
-16.9266120402361
 31
0.0
  0
LINE
  5
AC
330
1F
100
AcDbEntity
  8
0
  6
CONTINUOUS
 62
     7
100
AcDbLine
 10
643.0000096795333
 20
-163.5000000001924
 30
0.0
 11
643.0000096795322
 21
-61.50000000019249
 31
0.0
  0
LINE
  5
AD
330
1F
100
AcDbEntity
  8
0
  6
CONTINUOUS
 62
     7
100
AcDbLine
 10
609.9499999998873
 20
-70.70000000019289
 30
0.0
 11
609.9499999998873
 21
-69.10101699003299
 31
0.0
  0
LINE
  5
AE
330
1F
100
AcDbEntity
  8
0
  6
CONTINUOUS
 62
     7
100
AcDbLine
 10
677.6733879597639
 20
-69.00000000019219
 30
0.0
 11
677.573387959769
 21
-69.00000000019219
 31
0.0
  0
LINE
  5
AF
330
1F
100
AcDbEntity
  8
0
  6
CONTINUOUS
 62
     7
100
AcDbLine
 10
632.2541920217162
 20
-16.92642569587119
 30
0.0
 11
587.7458079780563
 21
-16.92642569587241
 31
0.0
  0
LINE
  5
B0
330
1F
100
AcDbEntity
  8
0
  6
CONTINUOUS
 62
     7
100
AcDbLine
 10
589.6931937000313
 20
13.07338795976393
 30
0.0
 11
589.7107377505187
 21
13.07338795976393
 31
0.0
  0
LINE
  5
B1
330
1F
100
AcDbEntity
  8
0
  6
CONTINUOUS
 62
     7
100
AcDbLine
 10
635.7140799560684
 20
-27.82661204023712
 30
0.0
 11
635.6910643469523
 21
-27.82605115108061
 31
0.0
  0
LINE
  5
B2
330
1F
100
AcDbEntity
  8
0
  6
CONTINUOUS
 62
     7
100
AcDbLine
 10
677.1019736437928
 20
-160.1578268821235
 30
0.0
 11
677.1359085771719
 21
-160.1547173619247
 31
0.0
  0
LINE
  5
B3
330
1F
100
AcDbEntity
  8
0
  6
CONTINUOUS
 62
     7
100
AcDbLine
 10
678.042812252387
 20
-150.931462325372
 30
0.0
 11
678.0472199299941
 21
-150.9751680017525
 31
0.0
  0
LINE
  5
B4
330
1F
100
AcDbEntity
  8
0
  6
CONTINUOUS
 62
     7
100
AcDbLine
 10
677.573387959769
 20
-72.4999120214454
 30
0.0
 11
677.6733879597639
 21
-72.4999120214454
 31
0.0
  0
LINE
  5
B5
330
1F
100
AcDbEntity
  8
0
  6
CONTINUOUS
 62
     7
100
AcDbLine
 10
715.5733879597639
 20
-80.66912659757111
 30
0.0
 11
715.5733879597639
 21
-144.3308734028036
 31
0.0
  0
LINE
  5
B6
330
1F
100
AcDbEntity
  8
0
  6
CONTINUOUS
 62
   253
100
AcDbLine
 10
678.0472199997389
 20
-74.0248319359128
 30
0.0
 11
678.042812320788
 21
-74.06853761360479
 31
0.0
  0
LINE
  5
B7
330
1F
100
AcDbEntity
  8
0
  6
CONTINUOUS
 62
     7
100
AcDbLine
 10
712.7303958286893
 20
-77.67323799331798
 30
0.0
 11
713.009367321601
 21
-77.7010251877171
 31
0.0
  0
LINE
  5
B8
330
1F
100
AcDbEntity
  8
0
  6
CONTINUOUS
 62
   253
100
AcDbLine
 10
685.099555989533
 20
-150.6055699986325
 30
0.0
 11
685.1019733391703
 21
-150.5933816295771
 31
0.0
  0
LINE
  5
B9
330
1F
100
AcDbEntity
  8
0
  6
CONTINUOUS
 62
     7
100
AcDbLine
 10
677.1231160660606
 20
-64.84383286342421
 30
0.0
 11
677.1019731759991
 21
-64.84217164955503
 31
0.0
  0
LINE
  5
BA
330
1F
100
AcDbEntity
  8
0
  6
CONTINUOUS
 62
     7
100
AcDbLine
 10
584.8299719030978
 20
-25.40044406239059
 30
0.0
 11
585.2492341373614
 21
-17.40044406239849
 31
0.0
  0
LINE
  5
BB
330
1F
100
AcDbEntity
  8
0
  6
CONTINUOUS
 62
     7
100
AcDbLine
 10
678.0472199299945
 20
-150.9751680017469
 30
0.0
 11
685.0995559895331
 21
-150.6055699986284
 31
0.0
  0
LINE
  5
BC
330
1F
100
AcDbEntity
  8
0
  6
CONTINUOUS
 62
     7
100
AcDbLine
 10
686.0424854908489
 20
-76.3366163434191
 30
0.0
 11
686.047219981612
 21
-76.27483200133261
 31
0.0
  0
LINE
  5
BD
330
1F
100
AcDbEntity
  8
0
  6
CONTINUOUS
 62
     7
100
AcDbLine
 10
577.0001635231915
 20
-27.82661204023612
 30
0.0
 11
577.0001635231915
 21
-28.00661204023511
 31
0.0
  0
ARC
  5
BE
330
1F
100
AcDbEntity
  8
0
  6
CONTINUOUS
 62
     7
100
AcDbCircle
 10
609.9998312116572
 20
-70.74928005366121
 30
0.0
 40
1.649887928855232
100
AcDbArc
 50
1.711606606491405
 51
88.25687955249393
  0
LINE
  5
BF
330
1F
100
AcDbEntity
  8
0
  6
CONTINUOUS
 62
     7
100
AcDbLine
 10
583.9999887021613
 20
-27.82661204023612
 30
0.0
 11
577.0001635231915
 21
-27.82661204023612
 31
0.0
  0
LINE
  5
C0
330
1F
100
AcDbEntity
  8
0
  6
CONTINUOUS
 62
     7
100
AcDbLine
 10
632.7757718369993
 20
-27.81762880292229
 30
0.0
 11
632.7757718369993
 21
-27.82653178953351
 31
0.0
  0
ARC
  5
C1
330
1F
100
AcDbEntity
  8
0
  6
CONTINUOUS
 62
     7
100
AcDbCircle
 10
610.0007199464122
 20
-154.2498312119593
 30
0.0
 40
1.649887928853344
100
AcDbArc
 50
271.7116066067317
 51
358.2568795526086
  0
ARC
  5
C2
330
1F
100
AcDbEntity
  8
0
  6
CONTINUOUS
 62
     7
100
AcDbCircle
 10
631.9992800533664
 20
-156.9001687884144
 30
0.0
 40
3.000000000000003
100
AcDbArc
 50
270.0000000000001
 51
0.0
  0
ARC
  5
C3
330
1F
100
AcDbEntity
  8
0
  6
CONTINUOUS
 62
     7
100
AcDbCircle
 10
587.9992800533664
 20
-156.9001687884144
 30
0.0
 40
3.000000000000003
100
AcDbArc
 50
180.0
 51
270.0
  0
ARC
  5
C4
330
1F
100
AcDbEntity
  8
0
  6
CONTINUOUS
 62
     7
100
AcDbCircle
 10
-609.9992800533664
 20
-154.2501687884144
 30
0.0
 40
1.748017440079241
210
0.0
220
0.0
230
-1.0
100
AcDbArc
 50
90.00000000000001
 51
0.0
  0
ELLIPSE
  5
C5
330
1F
100
AcDbEntity
  8
0
  6
CONTINUOUS
 62
     7
100
AcDbEllipse
 10
590.9073768947542
 20
-80.20826562980221
 30
0.0
 11
2.127138730305233
 21
-2.127138730305206
 31
0.0
210
0.0
220
0.0
230
-1.0
 40
0.997264688634218
 41
2.357564018062738
 42
3.925621289116849
  0
LINE
  5
C6
330
1F
100
AcDbEntity
  8
0
  6
CONTINUOUS
 62
     7
100
AcDbLine
 10
629.0994116457086
 20
-77.2041485918084
 30
0.0
 11
590.8991484610241
 21
-77.2041485918084
 31
0.0
  0
LINE
  5
C7
330
1F
100
AcDbEntity
  8
0
  6
CONTINUOUS
 62
     7
100
AcDbLine
 10
609.9499999998873
 20
-154.2000000001928
 30
0.0
 11
609.9499999998873
 21
-152.6010169900361
 31
0.0
  0
LINE
  5
C8
330
1F
100
AcDbEntity
  8
0
  6
CONTINUOUS
 62
     7
100
AcDbLine
 10
587.9032598567604
 20
-80.20003719607207
 30
0.0
 11
587.9032598567604
 21
-144.8003003807567
 31
0.0
  0
LINE
  5
C9
330
1F
100
AcDbEntity
  8
0
  6
CONTINUOUS
 62
     7
100
AcDbLine
 10
590.8991484610241
 20
-147.7961889850204
 30
0.0
 11
629.0994116457086
 21
-147.7961889850204
 31
0.0
  0
ELLIPSE
  5
CA
330
1F
100
AcDbEntity
  8
0
  6
CONTINUOUS
 62
     7
100
AcDbEllipse
 10
629.0911832119788
 20
-144.7920719470267
 30
0.0
 11
-2.127138730305233
 21
2.127138730305206
 31
0.0
210
0.0
220
0.0
230
-1.0
 40
0.997264688634218
 41
2.35756401806273
 42
3.925621289116845
  0
CIRCLE
  5
CB
330
1F
100
AcDbEntity
  8
0
  6
CONTINUOUS
 62
     7
100
AcDbCircle
 10
-609.9992800533664
 20
-154.2501687884144
 30
0.0
 40
1.900000000000013
210
0.0
220
0.0
230
-1.0
  0
LINE
  5
CC
330
1F
100
AcDbEntity
  8
0
  6
CONTINUOUS
 62
     7
100
AcDbLine
 10
635.2723456885409
 20
-27.35278001835892
 30
0.0
 11
635.2251786871861
 21
-26.4527800183593
 31
0.0
  0
LINE
  5
CD
330
1F
100
AcDbEntity
  8
0
  6
CONTINUOUS
 62
     7
100
AcDbLine
 10
635.2245145917935
 20
-27.35735223082078
 30
0.0
 11
635.2353854042433
 21
-27.35685650288749
 31
0.0
  0
ARC
  5
CE
330
1F
100
AcDbEntity
  8
0
  6
CONTINUOUS
 62
     7
100
AcDbCircle
 10
609.9992800533654
 20
-154.2501687884172
 30
0.0
 40
1.649887928853011
100
AcDbArc
 50
91.71160660683522
 51
178.2568795526014
  0
LINE
  5
CF
330
1F
100
AcDbEntity
  8
0
  6
CONTINUOUS
 62
     7
100
AcDbLine
 10
587.9992800533664
 20
-159.9001687884144
 30
0.0
 11
631.9992800533664
 21
-159.9001687884144
 31
0.0
  0
LINE
  5
D0
330
1F
100
AcDbEntity
  8
0
  6
CONTINUOUS
 62
     7
100
AcDbLine
 10
611.6492422501344
 20
-70.8000000001926
 30
0.0
 11
610.0499999998874
 21
-70.8000000001926
 31
0.0
  0
LINE
  5
D1
330
1F
100
AcDbEntity
  8
0
  6
CONTINUOUS
 62
     7
100
AcDbLine
 10
608.3507577496393
 20
-154.2000000001928
 30
0.0
 11
609.9499999998873
 21
-154.2000000001928
 31
0.0
  0
ARC
  5
D2
330
1F
100
AcDbEntity
  8
0
  6
CONTINUOUS
 62
     7
100
AcDbCircle
 10
609.9992800533664
 20
-70.75016878841441
 30
0.0
 40
1.649887928853233
100
AcDbArc
 50
91.71160660686914
 51
178.2568795529811
  0
LINE
  5
D3
330
1F
100
AcDbEntity
  8
0
  6
CONTINUOUS
 62
     7
100
AcDbLine
 10
643.0000096795322
 20
-27.82661204023409
 30
0.0
 11
643.0000096795322
 21
-28.00661204023699
 31
0.0
  0
ARC
  5
D4
330
1F
100
AcDbEntity
  8
0
  6
CONTINUOUS
 62
     7
100
AcDbCircle
 10
584.0015009346564
 20
-163.497895745506
 30
0.0
 40
7.001931215032342
100
AcDbArc
 50
180.0172198423448
 51
269.9876269628814
  0
LINE
  5
D5
330
1F
100
AcDbEntity
  8
0
  6
CONTINUOUS
 62
     7
100
AcDbLine
 10
584.727654311231
 20
-27.35278001835881
 30
0.0
 11
584.7748213125858
 21
-26.4527800183578
 31
0.0
  0
LINE
  5
D6
330
1F
100
AcDbEntity
  8
0
  6
CONTINUOUS
 62
     7
100
AcDbLine
 10
584.9992800533664
 20
-68.10016878841441
 30
0.0
 11
584.9992800533664
 21
-156.9001687884144
 31
0.0
  0
LINE
  5
D7
330
1F
100
AcDbEntity
  8
0
  6
CONTINUOUS
 62
     7
100
AcDbLine
 10
685.573387959764
 20
-75.82964063271999
 30
0.0
 11
685.573387959764
 21
-74.90311482284301
 31
0.0
  0
LINE
  5
D8
330
1F
100
AcDbEntity
  8
0
  6
CONTINUOUS
 62
     7
100
AcDbLine
 10
609.9499999998873
 20
-154.3000000001926
 30
0.0
 11
608.3510169897369
 21
-154.3000000001926
 31
0.0
  0
ARC
  5
D9
330
1F
100
AcDbEntity
  8
0
  6
CONTINUOUS
 62
     7
100
AcDbCircle
 10
610.0001687881171
 20
-154.2507199467123
 30
0.0
 40
1.649887928852012
100
AcDbArc
 50
181.7116066069098
 51
268.2568795526554
  0
ARC
  5
DA
330
1F
100
AcDbEntity
  8
0
  6
CONTINUOUS
 62
     7
100
AcDbCircle
 10
631.9992800533664
 20
-68.10016878841441
 30
0.0
 40
3.000000000000003
100
AcDbArc
 50
0.0
 51
90.0
  0
LINE
  5
DB
330
1F
100
AcDbEntity
  8
0
  6
CENTER
 62
     1
100
AcDbLine
 10
648.0000111712093
 20
-112.5000000001927
 30
0.0
 11
571.9999888285644
 21
-112.5000000001927
 31
0.0
  0
LINE
  5
DC
330
1F
100
AcDbEntity
  8
0
  6
CONTINUOUS
 62
     7
100
AcDbLine
 10
631.9992800533664
 20
-65.10016878841441
 30
0.0
 11
587.9992800533664
 21
-65.10016878841441
 31
0.0
  0
LINE
  5
DD
330
1F
100
AcDbEntity
  8
0
  6
CENTER
 62
     1
100
AcDbLine
 10
610.0000000000001
 20
-31.00661204025728
 30
0.0
 11
610.0000000000001
 21
16.07338795977808
 31
0.0
  0
ELLIPSE
  5
DE
330
1F
100
AcDbEntity
  8
0
  6
CONTINUOUS
 62
     7
100
AcDbEllipse
 10
629.0911832119788
 20
-80.20826562980221
 30
0.0
 11
-2.127138730305233
 21
-2.127138730305206
 31
0.0
210
0.0
220
0.0
230
-1.0
 40
0.9972646886342443
 41
2.35756401806274
 42
3.925621289116846
  0
LINE
  5
DF
330
1F
100
AcDbEntity
  8
0
  6
CONTINUOUS
 62
     7
100
AcDbLine
 10
685.573387959764
 20
-150.0968638894598
 30
0.0
 11
685.573387959764
 21
-148.7500004830947
 31
0.0
  0
LINE
  5
E0
330
1F
100
AcDbEntity
  8
0
  6
CONTINUOUS
 62
     7
100
AcDbLine
 10
636.0000111712084
 20
-54.50000000019239
 30
0.0
 11
583.9999888285644
 21
-54.50000000019239
 31
0.0
  0
ARC
  5
E1
330
1F
100
AcDbEntity
  8
0
  6
CONTINUOUS
 62
     7
100
AcDbCircle
 10
635.9984990651401
 20
-61.50210425486488
 30
0.0
 40
7.001931215007473
100
AcDbArc
 50
0.0172198422222103
 51
89.98762696307622
  0
LINE
  5
E2
330
1F
100
AcDbEntity
  8
0
  6
CONTINUOUS
 62
     7
100
AcDbLine
 10
610.0499999998874
 20
-70.8000000001926
 30
0.0
 11
610.0499999998874
 21
-72.3989830103375
 31
0.0
  0
LINE
  5
E3
330
1F
100
AcDbEntity
  8
0
  6
CONTINUOUS
 62
     7
100
AcDbLine
 10
677.573387959764
 20
-151.4213160783217
 30
0.0
 11
677.573387959764
 21
-157.6734431644452
 31
0.0
  0
LINE
  5
E4
330
1F
100
AcDbEntity
  8
0
  6
CONTINUOUS
 62
     7
100
AcDbLine
 10
632.0953002499725
 20
-144.8003003807567
 30
0.0
 11
632.0953002499725
 21
-80.20003719607207
 31
0.0
  0
LINE
  5
E5
330
1F
100
AcDbEntity
  8
0
  6
CONTINUOUS
 62
   253
100
AcDbLine
 10
583.9999888285644
 20
-27.82661204023509
 30
0.0
 11
583.9999888285644
 21
-28.00661204023411
 31
0.0
  0
LINE
  5
E6
330
1F
100
AcDbEntity
  8
0
  6
CONTINUOUS
 62
     7
100
AcDbLine
 10
584.7748213125858
 20
-26.4527800183578
 30
0.0
 11
584.8299719031122
 21
-25.40044406211439
 31
0.0
  0
LINE
  5
E7
330
1F
100
AcDbEntity
  8
0
  6
CENTER
 62
     1
100
AcDbLine
 10
609.9999999998862
 20
-49.50000000019219
 30
0.0
 11
609.9999999998876
 21
-175.5000000001928
 31
0.0
  0
LINE
  5
E8
330
1F
100
AcDbEntity
  8
0
  6
CONTINUOUS
 62
     7
100
AcDbLine
 10
610.0499999998874
 20
-154.3000000001926
 30
0.0
 11
610.0499999998874
 21
-155.8989830103411
 31
0.0
  0
ARC
  5
E9
330
1F
100
AcDbEntity
  8
0
  6
CONTINUOUS
 62
     7
100
AcDbCircle
 10
584.0020945752262
 20
-61.50151061410649
 30
0.0
 40
7.001931214978385
100
AcDbArc
 50
90.01723205169003
 51
179.9876391728457
  0
ARC
  5
EA
330
1F
100
AcDbEntity
  8
0
  6
CONTINUOUS
 62
     7
100
AcDbCircle
 10
610.0001687881247
 20
-70.75071994670611
 30
0.0
 40
1.649887928860339
100
AcDbArc
 50
181.7116066071192
 51
268.2568795523867
  0
LINE
  5
EB
330
1F
100
AcDbEntity
  8
0
  6
CONTINUOUS
 62
     7
100
AcDbLine
 10
609.9499999998873
 20
-70.8000000001926
 30
0.0
 11
608.3510169897363
 21
-70.8000000001926
 31
0.0
  0
LINE
  5
EC
330
1F
100
AcDbEntity
  8
0
  6
CENTER
 62
     1
100
AcDbLine
 10
671.4933879597428
 20
-112.5
 30
0.0
 11
718.5733879597781
 21
-112.5
 31
0.0
  0
ELLIPSE
  5
ED
330
1F
100
AcDbEntity
  8
0
  6
CONTINUOUS
 62
     7
100
AcDbEllipse
 10
590.9073768947542
 20
-144.7920719470267
 30
0.0
 11
2.127138730305233
 21
2.127138730305206
 31
0.0
210
0.0
220
0.0
230
-1.0
 40
0.9972646886342443
 41
2.357564018062736
 42
3.925621289116857
  0
CIRCLE
  5
EE
330
1F
100
AcDbEntity
  8
0
  6
CONTINUOUS
 62
     7
100
AcDbCircle
 10
-609.9992800533664
 20
-70.75016878841441
 30
0.0
 40
1.900000000000013
210
0.0
220
0.0
230
-1.0
  0
LINE
  5
EF
330
1F
100
AcDbEntity
  8
0
  6
CONTINUOUS
 62
     7
100
AcDbLine
 10
610.0499999998874
 20
-152.600757749943
 30
0.0
 11
610.0499999998874
 21
-154.2000000001928
 31
0.0
  0
LINE
  5
F0
330
1F
100
AcDbEntity
  8
0
  6
CONTINUOUS
 62
     7
100
AcDbLine
 10
636.0000111712073
 20
-27.82661204023448
 30
0.0
 11
583.9999888285638
 21
-27.82661204023568
 31
0.0
  0
LINE
  5
F1
330
1F
100
AcDbEntity
  8
0
  6
CONTINUOUS
 62
     7
100
AcDbLine
 10
611.749950792312
 20
-24.926612040231
 30
0.0
 11
611.74995079231
 21
-24.82661204023612
 31
0.0
  0
LINE
  5
F2
330
1F
100
AcDbEntity
  8
0
  6
CONTINUOUS
 62
     7
100
AcDbLine
 10
587.326545798204
 20
-24.9266120402361
 30
0.0
 11
585.3292866704888
 21
-24.9266120402361
 31
0.0
  0
LINE
  5
F3
330
1F
100
AcDbEntity
  8
0
  6
CONTINUOUS
 62
     7
100
AcDbLine
 10
677.0995556655447
 20
-64.8299814414651
 30
0.0
 11
676.0472199987466
 21
-64.77483122738839
 31
0.0
  0
LINE
  5
F4
330
1F
100
AcDbEntity
  8
0
  6
CONTINUOUS
 62
   253
100
AcDbLine
 10
685.1019732596546
 20
-74.40661720553871
 30
0.0
 11
685.0995559197879
 21
-74.39442894394257
 31
0.0
  0
ARC
  5
F5
330
1F
100
AcDbEntity
  8
0
  6
CONTINUOUS
 62
     7
100
AcDbCircle
 10
-609.9999780670673
 20
-70.74995601081888
 30
0.0
 40
1.749956010764109
210
0.0
220
0.0
230
-1.0
100
AcDbArc
 50
90.00071810837207
 51
269.9992814700367
  0
LINE
  5
F6
330
1F
100
AcDbEntity
  8
0
  6
CONTINUOUS
 62
   253
100
AcDbLine
 10
674.673387959763
 20
-163.4999999628263
 30
0.0
 11
674.493387959763
 21
-163.4999999628263
 31
0.0
  0
LINE
  5
F7
330
1F
100
AcDbEntity
  8
0
  6
CONTINUOUS
 62
     7
100
AcDbLine
 10
611.7499507923089
 20
-24.82661204023612
 30
0.0
 11
609.9999999998871
 21
-24.82661204023612
 31
0.0
  0
ARC
  5
F8
330
1F
100
AcDbEntity
  8
0
  6
CONTINUOUS
 62
     7
100
AcDbCircle
 10
587.9992800533664
 20
-68.10016878841441
 30
0.0
 40
3.000000000000003
100
AcDbArc
 50
90.0
 51
180.0
  0
ARC
  5
F9
330
1F
100
AcDbEntity
  8
0
  6
CONTINUOUS
 62
     7
100
AcDbCircle
 10
-609.9992800533664
 20
-154.2501687884144
 30
0.0
 40
1.748017440079241
210
0.0
220
0.0
230
-1.0
100
AcDbArc
 50
0.0000000000000035
 51
90.00000000000001
  0
LINE
  5
FA
330
1F
100
AcDbEntity
  8
0
  6
CONTINUOUS
 62
     7
100
AcDbLine
 10
634.9992800533664
 20
-156.9001687884144
 30
0.0
 11
634.9992800533664
 21
-68.10016878841441
 31
0.0
  0
ARC
  5
FB
330
1F
100
AcDbEntity
  8
0
  6
CONTINUOUS
 62
     7
100
AcDbCircle
 10
635.9979054245152
 20
-163.4984893861941
 30
0.0
 40
7.001931215063317
100
AcDbArc
 50
270.0172320519532
 51
359.9876391721554
  0
LINE
  5
FC
330
1F
100
AcDbEntity
  8
0
  6
CONTINUOUS
 62
     7
100
AcDbLine
 10
610.0499999998874
 20
-69.10075774994267
 30
0.0
 11
610.0499999998874
 21
-70.70000000019289
 31
0.0
  0
LINE
  5
FD
330
1F
100
AcDbEntity
  8
0
  6
CONTINUOUS
 62
     7
100
AcDbLine
 10
643.0004299639187
 20
-27.82661204021089
 30
0.0
 11
636.0000111338038
 21
-27.8266120402218
 31
0.0
  0
LINE
  5
FE
330
1F
100
AcDbEntity
  8
0
  6
CONTINUOUS
 62
     7
100
AcDbLine
 10
686.0472199816127
 20
-76.27483200132859
 30
0.0
 11
712.7303958286742
 21
-77.67323799331707
 31
0.0
  0
LINE
  5
FF
330
1F
100
AcDbEntity
  8
0
  6
CONTINUOUS
 62
     7
100
AcDbLine
 10
677.0995561305559
 20
-160.1700169912325
 30
0.0
 11
677.1019734794365
 21
-160.1578286213354
 31
0.0
  0
LINE
  5
100
330
1F
100
AcDbEntity
  8
0
  6
CONTINUOUS
 62
     7
100
AcDbLine
 10
712.7303958286739
 20
-147.3267620070581
 30
0.0
 11
685.573387959764
 21
-148.7500004830947
 31
0.0
  0
LINE
  5
101
330
1F
100
AcDbEntity
  8
0
  6
CONTINUOUS
 62
     7
100
AcDbLine
 10
609.9499999998873
 20
-155.8992422504326
 30
0.0
 11
609.9499999998873
 21
-154.3000000001926
 31
0.0
  0
LINE
  5
102
330
1F
100
AcDbEntity
  8
0
  6
CONTINUOUS
 62
     7
100
AcDbLine
 10
632.6734542016004
 20
-24.92669229103647
 30
0.0
 11
587.3265457982042
 21
-24.9266922910372
 31
0.0
  0
LINE
  5
103
330
1F
100
AcDbEntity
  8
0
  6
CONTINUOUS
 62
     7
100
AcDbLine
 10
677.5733077090811
 20
-73.5783185928299
 30
0.0
 11
677.5733077090811
 21
-67.3265553944128
 31
0.0
  0
LINE
  5
104
330
1F
100
AcDbEntity
  8
0
  6
CONTINUOUS
 62
     7
100
AcDbLine
 10
610.0499999998874
 20
-154.2000000001928
 30
0.0
 11
611.6489830100415
 21
-154.2000000001928
 31
0.0
  0
LINE
  5
105
330
1F
100
AcDbEntity
  8
0
  6
CONTINUOUS
 62
     7
100
AcDbLine
 10
583.9999887021613
 20
-28.00661204023511
 30
0.0
 11
577.0001635231915
 21
-28.00661204023511
 31
0.0
  0
LINE
  5
106
330
1F
100
AcDbEntity
  8
0
  6
CONTINUOUS
 62
     7
100
AcDbLine
 10
610.0499999998874
 20
-70.70000000019289
 30
0.0
 11
611.648983010041
 21
-70.70000000019289
 31
0.0
  0
LINE
  5
107
330
1F
100
AcDbEntity
  8
0
  6
CONTINUOUS
 62
     7
100
AcDbLine
 10
611.6492422501344
 20
-154.3000000001926
 30
0.0
 11
610.0499999998874
 21
-154.3000000001926
 31
0.0
  0
ARC
  5
108
330
1F
100
AcDbEntity
  8
0
  6
CONTINUOUS
 62
     7
100
AcDbCircle
 10
-609.9999977506263
 20
-70.74995601081879
 30
0.0
 40
1.749956010627995
210
0.0
220
0.0
230
-1.0
100
AcDbArc
 50
269.999925934726
 51
90.00007364368281
  0
ARC
  5
109
330
1F
100
AcDbEntity
  8
0
  6
CONTINUOUS
 62
     7
100
AcDbCircle
 10
-712.5733171824733
 20
-80.66923760554162
 30
0.0
 40
3.000070779358488
210
0.0
220
0.0
230
-1.0
100
AcDbArc
 50
98.35735153300796
 51
179.997879953977
  0
LINE
  5
10A
330
1F
100
AcDbEntity
  8
0
  6
CONTINUOUS
 62
     7
100
AcDbLine
 10
634.7507658623957
 20
-17.40044406211502
 30
0.0
 11
633.3026949040044
 21
10.23039582849283
 31
0.0
  0
LINE
  5
10B
330
1F
100
AcDbEntity
  8
0
  6
CONTINUOUS
 62
     7
100
AcDbLine
 10
674.673387959763
 20
-170.500000000193
 30
0.0
 11
674.493387959762
 21
-170.500000000193
 31
0.0
  0
LINE
  5
10C
330
1F
100
AcDbEntity
  8
0
  6
CONTINUOUS
 62
   253
100
AcDbLine
 10
636.0000111338039
 20
-27.82661204023409
 30
0.0
 11
636.0000111338043
 21
-28.00661204025728
 31
0.0
  0
LINE
  5
10D
330
1F
100
AcDbEntity
  8
0
  6
CONTINUOUS
 62
     7
100
AcDbLine
 10
674.6734682104479
 20
-67.22423826096261
 30
0.0
 11
674.682371196004
 21
-67.2242382609625
 31
0.0
  0
LINE
  5
10E
330
1F
100
AcDbEntity
  8
0
  6
CONTINUOUS
 62
   253
100
AcDbLine
 10
674.6733879597659
 20
-61.50000000019251
 30
0.0
 11
674.493387959763
 21
-61.50000000019251
 31
0.0
  0
LINE
  5
10F
330
1F
100
AcDbEntity
  8
0
  6
CONTINUOUS
 62
     7
100
AcDbLine
 10
585.7486125595788
 20
-16.9266120402361
 30
0.0
 11
587.7458079780557
 21
-16.9266120402361
 31
0.0
  0
LINE
  5
110
330
1F
100
AcDbEntity
  8
0
  6
CONTINUOUS
 62
     7
100
AcDbLine
 10
674.493387959763
 20
-170.5004202845804
 30
0.0
 11
674.493387959763
 21
-163.4999999628263
 31
0.0
  0
LINE
  5
111
330
1F
100
AcDbEntity
  8
0
  6
CONTINUOUS
 62
     7
100
AcDbLine
 10
585.2492341373762
 20
-17.4004440621145
 30
0.0
 11
586.6973050957673
 21
10.23039582849283
 31
0.0
  0
LINE
  5
112
330
1F
100
AcDbEntity
  8
0
  6
CONTINUOUS
 62
     7
100
AcDbLine
 10
643.000429963919
 20
-28.00661204023411
 30
0.0
 11
636.0000111338042
 21
-28.0066120402451
 31
0.0
  0
LINE
  5
113
330
1F
100
AcDbEntity
  8
0
  6
CONTINUOUS
 62
     7
100
AcDbLine
 10
635.2353854042433
 20
-27.35685650288749
 30
0.0
 11
635.2723456885394
 21
-27.35278001835609
 31
0.0
  0
LWPOLYLINE
  5
114
330
1F
100
AcDbEntity
  8
0
  6
CONTINUOUS
 62
     7
100
AcDbPolyline
 90
       33
 70
     0
 43
0.0
 10
685.0995518252798
 20
-150.6054898560763
 10
685.1232108637006
 20
-150.6036967557644
 10
685.1467581888487
 20
-150.600783203622
 10
685.1701407682044
 20
-150.5967557614564
 10
685.1933059402828
 20
-150.5916234997419
 10
685.2162015332364
 20
-150.5853979771914
 10
685.2387759823553
 20
-150.5780932147245
 10
685.2609784461995
 20
-150.5697256638897
 10
685.2827589211016
 20
-150.5603141698127
 10
685.3040683537844
 20
-150.5498799287545
 10
685.3248587518366
 20
-150.5384464403737
 10
685.3450832917996
 20
-150.5260394548008
 10
685.3646964246224
 20
-150.5126869146454
 10
685.3836539782446
 20
-150.4984188920641
 10
685.4019132570808
 20
-150.4832675210336
 10
685.4194331381768
 20
-150.4672669249789
 10
685.4361741638262
 20
-150.4504531399223
 10
685.4520986304352
 20
-150.4328640333235
 10
685.4671706734381
 20
-150.4145392187967
 10
685.4813563480695
 20
-150.3955199668931
 10
685.4946237058147
 20
-150.3758491121535
 10
685.5069428663616
 20
-150.3555709566373
 10
685.5182860848977
 20
-150.3347311701469
 10
685.5286278145949
 20
-150.3133766873718
 10
685.5379447641459
 20
-150.2915556021836
 10
685.5462159502198
 20
-150.269317059321
 10
685.5534227447205
 20
-150.246711143707
 10
685.5595489167397
 20
-150.2237887676497
 10
685.5645806691118
 20
-150.2006015561789
 10
685.5685066694879
 20
-150.1772017307785
 10
685.5713180758576
 20
-150.1536419917743
 10
685.5730085564627
 20
-150.1299753996443
 10
685.5735743040581
 20
-150.1062552555178
  0
LWPOLYLINE
  5
115
330
1F
100
AcDbEntity
  8
0
  6
CONTINUOUS
 62
     7
100
AcDbPolyline
 90
       45
 70
     0
 43
0.0
 10
677.1019736438036
 20
-160.1578268821749
 10
677.123466525916
 20
-160.1561304878976
 10
677.1442062003662
 20
-160.1535989409679
 10
677.1641571209849
 20
-160.1503301075896
 10
677.1832917923447
 20
-160.1464170525847
 10
677.2015900612566
 20
-160.1419481928002
 10
677.2190384331416
 20
-160.1370074451285
 10
677.235629413275
 20
-160.131674369142
 10
677.25389933879
 20
-160.1250568701213
 10
677.2710042750147
 20
-160.1181203683178
 10
677.2869565044116
 20
-160.1109701886551
 10
677.3017765178821
 20
-160.1037062650936
 10
677.3154935415633
 20
-160.0964248710226
 10
677.3281395427334
 20
-160.0892144438246
 10
677.3435071893192
 20
-160.0797754341132
 10
677.3570825344514
 20
-160.0707828716897
 10
677.3689473561082
 20
-160.062388026074
 10
677.3791807006771
 20
-160.0547212765987
 10
677.3879072880851
 20
-160.0478556230435
 10
677.3926570754999
 20
-160.0440105842796
 10
677.3975227859954
 20
-160.0399988420755
 10
677.4024983952803
 20
-160.0358143495114
 10
677.4075775325085
 20
-160.0314508431121
 10
677.4127534656614
 20
-160.0269018538477
 10
677.4180190864062
 20
-160.022160718622
 10
677.4233668944285
 20
-160.017220592265
 10
677.4314421415777
 20
-160.0095030786156
 10
677.4396534365951
 20
-160.0013077552123
 10
677.4479715658558
 20
-159.9926109510911
 10
677.4563661120153
 20
-159.9833894943438
 10
677.4648046716795
 20
-159.9736202187848
 10
677.4732526818029
 20
-159.9632800556066
 10
677.4831711541874
 20
-159.9503295313736
 10
677.4929869185029
 20
-159.9365178375043
 10
677.5026305361695
 20
-159.9218097034487
 10
677.5120274104913
 20
-159.9061715597269
 10
677.5212588466304
 20
-159.8892611121803
 10
677.5300608202839
 20
-159.8713236762859
 10
677.5383361113694
 20
-159.8523323708625
 10
677.5459836541562
 20
-159.8322674068447
 10
677.5529066908925
 20
-159.8111251888488
 10
677.5589048405193
 20
-159.7893185711587
 10
677.5640098740745
 20
-159.7664948175507
 10
677.5681187359135
 20
-159.7426789347238
 10
677.5711236409692
 20
-159.717906478305
  0
LWPOLYLINE
  5
116
330
1F
100
AcDbEntity
  8
0
  6
CONTINUOUS
 62
     7
100
AcDbPolyline
 90
       22
 70
     0
 43
0.0
 10
-677.5823923951541
 20
-151.3803316276639
 10
-677.5883516122849
 20
-151.3532077459469
 10
-677.5957833997833
 20
-151.3262795578367
 10
-677.6046698980292
 20
-151.2996497118311
 10
-677.6149923783321
 20
-151.2734193759517
 10
-677.6267159039056
 20
-151.2476729884592
 10
-677.6397921829316
 20
-151.2224810594827
 10
-677.6572011056362
 20
-151.1930805934948
 10
-677.6764048273667
 20
-151.1646979962183
 10
-677.6973204251274
 20
-151.1374513172734
 10
-677.7198649991267
 20
-151.1114569357516
 10
-677.7439425990235
 20
-151.0868171908746
 10
-677.7694415174194
 20
-151.063617851098
 10
-677.7962495983778
 20
-151.0419425154292
 10
-677.824255192107
 20
-151.0218734621372
 10
-677.8533471406361
 20
-151.0034915846102
 10
-677.8834113656433
 20
-150.9868733148698
 10
-677.914300903927
 20
-150.9720640947717
 10
-677.9458504163787
 20
-150.9590914743938
 10
-677.9778949227507
 20
-150.9479817830575
 10
-678.0102699988338
 20
-150.9387602911
 10
-678.0428117556557
 20
-150.9314511780439
210
0.0
220
0.0
230
-1.0
  0
LWPOLYLINE
  5
117
330
1F
100
AcDbEntity
  8
0
  6
CONTINUOUS
 62
     7
100
AcDbPolyline
 90
       21
 70
     0
 43
0.0
 10
-584.7754688981775
 20
-27.3573515348326
 10
-584.7677641996983
 20
-27.38987841671808
 10
-584.7581689031215
 20
-27.42223865133939
 10
-584.7467064360955
 20
-27.4542685606193
 10
-584.7334014301224
 20
-27.485803910311
 10
-584.7182796880652
 20
-27.51667988845779
 10
-584.7013683448541
 20
-27.5467313017598
 10
-584.6827125165536
 20
-27.5758113024141
 10
-584.6623883957737
 20
-27.60380589361369
 10
-584.6404767669844
 20
-27.63060397848718
 10
-584.6170599295314
 20
-27.65609394914881
 10
-584.592221628137
 20
-27.68016367222212
 10
-584.5660478956221
 20
-27.70270144312931
 10
-584.538641442698
 20
-27.72361129129031
 10
-584.5101191290247
 20
-27.74281027678621
 10
-584.4805995949537
 20
-27.76021542056961
 10
-584.4502027817723
 20
-27.77574328668209
 10
-584.4190498352119
 20
-27.78930997280241
 10
-584.3872686381424
 20
-27.80083677985648
 10
-584.3550229057852
 20
-27.81027964130378
 10
-584.3224907468046
 20
-27.81760759126439
210
0.0
220
0.0
230
-1.0
  0
LWPOLYLINE
  5
118
330
1F
100
AcDbEntity
  8
0
  6
CONTINUOUS
 62
     7
100
AcDbPolyline
 90
       33
 70
     0
 43
0.0
 10
635.1578379885303
 20
-25.39802652915099
 10
635.1561577031332
 20
-25.37669353018909
 10
635.1536461445339
 20
-25.3560462381858
 10
635.1503923122475
 20
-25.33612034870639
 10
635.1464811244115
 20
-25.3169442852304
 10
635.1419935433651
 20
-25.29853977914101
 10
635.137006697233
 20
-25.28092243125538
 10
635.1304665604464
 20
-25.2608343991863
 10
635.1234330315853
 20
-25.2419018029206
 10
635.1160189378047
 20
-25.22412317216899
 10
635.1083303346713
 20
-25.20748880145207
 10
635.100470154467
 20
-25.1919780952777
 10
635.0905531946256
 20
-25.17412562656981
 10
635.0806966051446
 20
-25.15792168852618
 10
635.0710564263828
 20
-25.1433004299588
 10
635.0617712719876
 20
-25.1301938980713
 10
635.0529636435376
 20
-25.11853373269929
 10
635.0447411366561
 20
-25.1082527206834
 10
635.036905722803
 20
-25.09894774758498
 10
635.0280541137157
 20
-25.0889637223477
 10
635.0190363425156
 20
-25.0793211484687
 10
635.0089266663181
 20
-25.0690942069858
 10
634.9976598902912
 20
-25.05836470074582
 10
634.9851703865377
 20
-25.0472237006574
 10
634.9713940929296
 20
-25.03577126139211
 10
634.9565507115444
 20
-25.02432764415741
 10
634.9403488463137
 20
-25.01280727697241
 10
634.922735223537
 20
-25.00133865135417
 10
634.9036614053588
 20
-24.99006309770602
 10
634.8882132775929
 20
-24.98174391641239
 10
634.8718871209267
 20
-24.97369725645621
 10
634.8546702094837
 20
-24.96600122341952
 10
634.8396754249178
 20
-24.95993113177328
  0
LWPOLYLINE
  5
119
330
1F
100
AcDbEntity
  8
0
  6
CONTINUOUS
 62
     7
100
AcDbPolyline
 90
       33
 70
     0
 43
0.0
 10
-635.7140799560589
 20
-27.82661204023509
 10
-635.6910643468909
 20
-27.826051151074
 10
-635.6680507221687
 20
-27.82437498860552
 10
-635.6450991335894
 20
-27.82159322287128
 10
-635.6222696324455
 20
-27.81771552388718
 10
-635.5996222696244
 20
-27.81275156164381
 10
-635.5772170956085
 20
-27.80671100610549
 10
-635.5551141604751
 20
-27.7996035272117
 10
-635.5333735138967
 20
-27.79143879487581
 10
-635.5120520731361
 20
-27.78222969872787
 10
-635.4911942267631
 20
-27.77200200765009
 10
-635.470841230904
 20
-27.76078471036
 10
-635.4510343414173
 20
-27.74860679550098
 10
-635.4318148138926
 20
-27.7354972516424
 10
-635.4132239036514
 20
-27.72148506727931
 10
-635.3953028657465
 20
-27.7065992308331
 10
-635.3780929549624
 20
-27.69086873065049
 10
-635.3616337012284
 20
-27.6743244245555
 10
-635.3459577356535
 20
-27.6570046487459
 10
-635.3310959644509
 20
-27.63894960900001
 10
-635.3170792936482
 20
-27.62019951099751
 10
-635.303938629087
 20
-27.60079456031869
 10
-635.2917048764234
 20
-27.58077496244548
 10
-635.2804089411273
 20
-27.56018092276058
 10
-635.2700817284833
 20
-27.5390526465479
 10
-635.2607511836239
 20
-27.51743372371509
 10
-635.25243341138
 20
-27.49538128329351
 10
-635.2451415564177
 20
-27.47295583908041
 10
-635.2388887633666
 20
-27.45021790474109
 10
-635.2336881768198
 20
-27.42722799380978
 10
-635.2295529413341
 20
-27.40404661968901
 10
-635.2264962014299
 20
-27.3807342956498
 10
-635.2245311015914
 20
-27.35735153483179
210
0.0
220
0.0
230
-1.0
  0
LWPOLYLINE
  5
11A
330
1F
100
AcDbEntity
  8
0
  6
CONTINUOUS
 62
   253
100
AcDbPolyline
 90
       33
 70
     0
 43
0.0
 10
685.0995518252798
 20
-150.605489856078
 10
685.1232108637006
 20
-150.6036967557661
 10
685.1467581888487
 20
-150.6007832036236
 10
685.1701407682044
 20
-150.596755761458
 10
685.1933059402827
 20
-150.5916234997435
 10
685.2162015332364
 20
-150.5853979771931
 10
685.2387759823553
 20
-150.5780932147262
 10
685.2609784461995
 20
-150.5697256638913
 10
685.2827589211016
 20
-150.5603141698144
 10
685.3040683537843
 20
-150.5498799287562
 10
685.3248587518366
 20
-150.5384464403754
 10
685.3450832917995
 20
-150.5260394548025
 10
685.3646964246223
 20
-150.512686914647
 10
685.3836539782446
 20
-150.4984188920658
 10
685.4019132570808
 20
-150.4832675210353
 10
685.4194331381768
 20
-150.4672669249806
 10
685.4361741638262
 20
-150.450453139924
 10
685.4520986304351
 20
-150.4328640333253
 10
685.4671706734381
 20
-150.4145392187984
 10
685.4813563480695
 20
-150.3955199668949
 10
685.4946237058145
 20
-150.3758491121553
 10
685.5069428663616
 20
-150.355570956639
 10
685.5182860848976
 20
-150.3347311701486
 10
685.5286278145949
 20
-150.3133766873735
 10
685.5379447641459
 20
-150.2915556021854
 10
685.5462159502198
 20
-150.2693170593228
 10
685.5534227447205
 20
-150.2467111437088
 10
685.5595489167397
 20
-150.2237887676514
 10
685.5645806691117
 20
-150.2006015561807
 10
685.5685066694879
 20
-150.1772017307803
 10
685.5713180758576
 20
-150.153641991776
 10
685.5730085564627
 20
-150.1299753996461
 10
685.5735743040581
 20
-150.1062552555196
  0
LWPOLYLINE
  5
11B
330
1F
100
AcDbEntity
  8
0
  6
CONTINUOUS
 62
     7
100
AcDbPolyline
 90
       22
 70
     0
 43
0.0
 10
-678.0428118240497
 20
-74.0685487610869
 10
-678.0102700639874
 20
-74.0612396519649
 10
-677.9778949843882
 20
-74.0520181635572
 10
-677.9458504742735
 20
-74.04090847537131
 10
-677.9143009579022
 20
-74.02793585772999
 10
-677.8834114155712
 20
-74.01312663994092
 10
-677.8533471864403
 20
-73.99650837206862
 10
-677.8242552337567
 20
-73.97812649596408
 10
-677.7962496358822
 20
-73.9580574436588
 10
-677.769441550826
 20
-73.93638210855241
 10
-677.7439426284187
 20
-73.91318276892511
 10
-677.7198650246364
 20
-73.88854302379572
 10
-677.6973204469167
 20
-73.8625486416313
 10
-677.6764048456349
 20
-73.83530196167101
 10
-677.6572011206127
 20
-73.8069193630285
 10
-677.639792194876
 20
-73.77751889534731
 10
-677.6267159135432
 20
-73.752326964728
 10
-677.6149923858811
 20
-73.7265805753988
 10
-677.604669903726
 20
-73.70035023750678
 10
-677.5957834038761
 20
-73.67372038933858
 10
-677.5883516150287
 20
-73.6467921989492
 10
-677.5823923968107
 20
-73.6196683148691
210
0.0
220
0.0
230
-1.0
  0
LWPOLYLINE
  5
11C
330
1F
100
AcDbEntity
  8
0
  6
CONTINUOUS
 62
     7
100
AcDbPolyline
 90
       48
 70
     0
 43
0.0
 10
585.7013446485358
 20
-16.92887636018841
 10
585.6775541199688
 20
-16.93174996585009
 10
585.6548886130229
 20
-16.93563359046221
 10
585.6333387570273
 20
-16.94041866522
 10
585.6128866699398
 20
-16.9460018609178
 10
585.5935072312337
 20
-16.9522848613349
 10
585.5751693083989
 20
-16.95917415186651
 10
585.557836519774
 20
-16.96658040790419
 10
585.5462774425156
 20
-16.97202389057281
 10
585.5351708907353
 20
-16.97764523613632
 10
585.5244992882803
 20
-16.98341500242231
 10
585.5142452401278
 20
-16.98930521175049
 10
585.5043916477258
 20
-16.99528929026431
 10
585.4977234457914
 20
-16.9995204353281
 10
585.4912376954691
 20
-17.00377691281802
 10
585.4849289539992
 20
-17.0080507485626
 10
585.4787919333036
 20
-17.01233426026491
 10
585.474087115428
 20
-17.01570183509091
 10
585.4694827421009
 20
-17.0190673408189
 10
585.4649764844131
 20
-17.02242741048368
 10
585.4605660920022
 20
-17.02577877719802
 10
585.454317670882
 20
-17.03063146453598
 10
585.4482611598241
 20
-17.03544965928711
 10
585.4423372434868
 20
-17.04027138407552
 10
585.4359198295289
 20
-17.0456576172737
 10
585.4288572240649
 20
-17.05180333929432
 10
585.4211884808318
 20
-17.05874872276392
 10
585.4129583549723
 20
-17.0665370205883
 10
585.4033170404933
 20
-17.07613186176268
 10
585.3931322748093
 20
-17.08686346456051
 10
585.3824883694679
 20
-17.0987952616137
 10
585.3714799440097
 20
-17.1119912503879
 10
585.3602127435968
 20
-17.12651493947082
 10
585.3509577509191
 20
-17.13932258667159
 10
585.3416787969301
 20
-17.1530775817644
 10
585.3324510429826
 20
-17.16781002777889
 10
585.323355985573
 20
-17.18354787485338
 10
585.3144818415973
 20
-17.2003164237389
 10
585.305923946221
 20
-17.21813780149259
 10
585.2977822785223
 20
-17.23702718602871
 10
585.2903027421722
 20
-17.25657596373198
 10
585.2834154171187
 20
-17.27714360151869
 10
585.277222883809
 20
-17.29871394289659
 10
585.271833167702
 20
-17.32126164839268
 10
585.2682354318171
 20
-17.33964066277949
 10
585.2652610177155
 20
-17.35857951654948
 10
585.2629698611199
 20
-17.37805185109512
 10
585.2614242454181
 20
-17.3980265495875
  0
LWPOLYLINE
  5
11D
330
1F
100
AcDbEntity
  8
0
  6
CONTINUOUS
 62
     7
100
AcDbPolyline
 90
       42
 70
     0
 43
0.0
 10
634.7385757543524
 20
-17.39802654958839
 10
634.7368954697434
 20
-17.3766935499951
 10
634.7343839118643
 20
-17.35604625734521
 10
634.731130080233
 20
-17.3361203672108
 10
634.72721889299
 20
-17.31694430307709
 10
634.7227313124775
 20
-17.29853979633239
 10
634.7177444668233
 20
-17.28092244779819
 10
634.7112043305407
 20
-17.2608344149654
 10
634.7041708021128
 20
-17.24190181795732
 10
634.6967567087001
 20
-17.224123186489
 10
634.689068105875
 20
-17.20748881508521
 10
634.6812079259246
 20
-17.19197810825598
 10
634.6712909663341
 20
-17.17412563877779
 10
634.6614343770406
 20
-17.15792170001928
 10
634.651794198413
 20
-17.1433004407941
 10
634.6425090441076
 20
-17.13019390830642
 10
634.6337014157114
 20
-17.11853374239161
 10
634.6254789088551
 20
-17.10825272988981
 10
634.6176434950135
 20
-17.09894775635537
 10
634.6087918859233
 20
-17.08896373065211
 10
634.5997741146982
 20
-17.07932115631669
 10
634.5896644384494
 20
-17.0690942143438
 10
634.5783976623399
 20
-17.05836470758351
 10
634.5659081584673
 20
-17.04722370694831
 10
634.5521318646985
 20
-17.03577126711431
 10
634.5372884831102
 20
-17.02432764930509
 10
634.5210866176263
 20
-17.01280728153501
 10
634.5034729945422
 20
-17.0013386553283
 10
634.4843991759979
 20
-16.99006310109538
 10
634.4689510479127
 20
-16.98174391936669
 10
634.4526248908896
 20
-16.97369725898679
 10
634.4354079790505
 20
-16.96600122554251
 10
634.417290982902
 20
-16.95873910587742
 10
634.3982735351525
 20
-16.95199439343228
 10
634.3783666558962
 20
-16.94584901875371
 10
634.360609309297
 20
-16.94112315525451
 10
634.3422276123852
 20
-16.93695619146371
 10
634.3232417779709
 20
-16.9334061619292
 10
634.3036766883736
 20
-16.93053324136379
 10
634.283562209043
 20
-16.92839979457269
 10
634.2629335099792
 20
-16.92707042761948
 10
634.2418313949489
 20
-16.9266120402361
  0
LWPOLYLINE
  5
11E
330
1F
100
AcDbEntity
  8
0
  6
CONTINUOUS
 62
     7
100
AcDbPolyline
 90
       33
 70
     0
 43
0.0
 10
-675.1426485017926
 20
-64.77547901281031
 10
-675.1192657397058
 20
-64.77351391453249
 10
-675.095953414323
 20
-64.7704571760766
 10
-675.0727720387936
 20
-64.7663219419245
 10
-675.049782126398
 20
-64.7611213565942
 10
-675.0270441905488
 20
-64.75486856464049
 10
-675.0046187447896
 20
-64.74757671065443
 10
-674.9825663027956
 20
-64.739258939263
 10
-674.9609473783739
 20
-64.72992839513009
 10
-674.939819100565
 20
-64.7196011830857
 10
-674.9192250592846
 20
-64.7083052482644
 10
-674.8992054598235
 20
-64.6960714959543
 10
-674.8798005075719
 20
-64.68293083162891
 10
-674.861050408019
 20
-64.6689141609477
 10
-674.8429953667526
 20
-64.65405238975569
 10
-674.8256755894595
 20
-64.6383764240839
 10
-674.8091312819254
 20
-64.62191717014889
 10
-674.7934007803552
 20
-64.6047072590633
 10
-674.7785149425785
 20
-64.586786220761
 10
-674.7645027569476
 20
-64.568195310031
 10
-674.7513932118893
 20
-64.54897578193061
 10
-674.7392152959042
 20
-64.52916889178597
 10
-674.7279979975672
 20
-64.5088158951913
 10
-674.7177703055271
 20
-64.48795804800942
 10
-674.7085612085069
 20
-64.4666366063717
 10
-674.7003964753937
 20
-64.4448959588528
 10
-674.6932889958201
 20
-64.42279302272458
 10
-674.6872484397014
 20
-64.40038784766868
 10
-674.6822844769788
 20
-64.37774048377209
 10
-674.6784067776185
 20
-64.35491098152637
 10
-674.6756250116134
 20
-64.33195939182848
 10
-674.6739488489812
 20
-64.3089457659802
 10
-674.6733879597649
 20
-64.28593015568839
210
0.0
220
0.0
230
-1.0
  0
LWPOLYLINE
  5
11F
330
1F
100
AcDbEntity
  8
0
  6
CONTINUOUS
 62
     7
100
AcDbPolyline
 90
       42
 70
     0
 43
0.0
 10
677.573387959764
 20
-65.3389160248694
 10
677.5729212820077
 20
-65.31762425780971
 10
677.5715813379725
 20
-65.29696640302951
 10
677.5694554021441
 20
-65.27698301419169
 10
677.5666270678744
 20
-65.2577071835875
 10
677.5631763403347
 20
-65.2391651259733
 10
677.5591797265078
 20
-65.22137674380949
 10
677.5537659037898
 20
-65.20104506690357
 10
677.547791088093
 20
-65.18183333314379
 10
677.5413685819643
 20
-65.16374651202678
 10
677.5346053626258
 20
-65.1467810016835
 10
677.5276058962373
 20
-65.13092219741482
 10
677.5186769236103
 20
-65.11261955811578
 10
677.5097145141161
 20
-65.09595834369489
 10
677.5008789951885
 20
-65.08088200995287
 10
677.4923133258895
 20
-65.06733093207659
 10
677.484144319595
 20
-65.05524416368019
 10
677.4764837657045
 20
-65.04456105057388
 10
677.4691547562707
 20
-65.03486816578688
 10
677.4608440469386
 20
-65.0244414491129
 10
677.4523471844209
 20
-65.01434483222648
 10
677.4427882501363
 20
-65.0036054245273
 10
677.4320971816051
 20
-64.99230077538509
 10
677.4202029572484
 20
-64.980517613766
 10
677.4070356144734
 20
-64.9683516825221
 10
677.392797305909
 20
-64.9561337214021
 10
677.3772005925897
 20
-64.9437620447939
 10
677.360184714113
 20
-64.9313612580951
 10
677.3416930289519
 20
-64.9190689957185
 10
677.3266700589863
 20
-64.90992117823119
 10
677.3107507602789
 20
-64.90099400802107
 10
677.2939179154242
 20
-64.89236434767051
 10
677.2761574186814
 20
-64.88411439939689
 10
677.2574641464133
 20
-64.8763270772309
 10
677.2378444824608
 20
-64.86908439468431
 10
677.2203002624577
 20
-64.86337479288598
 10
677.2020978649044
 20
-64.85818477580521
 10
677.1832542536501
 20
-64.85357314448689
 10
677.1637909533864
 20
-64.8496010920683
 10
677.1437343612535
 20
-64.84633227124809
 10
677.1231160661854
 20
-64.84383286343149
 10
677.1019731759997
 20
-64.84217164955189
  0
LWPOLYLINE
  5
120
330
1F
100
AcDbEntity
  8
0
  6
CONTINUOUS
 62
     7
100
AcDbPolyline
 90
       48
 70
     0
 43
0.0
 10
585.2820824142718
 20
-24.92887636018839
 10
585.2582918853187
 20
-24.93174996592568
 10
585.2356263778495
 20
-24.93563359068929
 10
585.2140765212332
 20
-24.94041866568428
 10
585.19362443346
 20
-24.94600186170889
 10
585.1742449940307
 20
-24.95228486254139
 10
585.1559070704586
 20
-24.95917415357141
 10
585.1385742811028
 20
-24.96658041018118
 10
585.1270152033466
 20
-24.9720238932872
 10
585.1159086510868
 20
-24.97764523931239
 10
585.105237048176
 20
-24.98341500607879
 10
585.0949829995972
 20
-24.9893052158999
 10
585.0851294068019
 20
-24.9952892949129
 10
585.0784612046141
 20
-24.9995204403263
 10
585.0719754540575
 20
-25.0037769181633
 10
585.0656667123737
 20
-25.0080507542505
 10
585.0595296914852
 20
-25.01233426628829
 10
585.0548248734734
 20
-25.0157018413715
 10
585.0502205000239
 20
-25.01906734734999
 10
585.0457142422274
 20
-25.0224274172573
 10
585.0413038497221
 20
-25.02577878420531
 10
585.0350554284905
 20
-25.03063147186502
 10
585.0289989173523
 20
-25.0354496669136
 10
585.0230750008815
 20
-25.04027139204898
 10
585.0166575866621
 20
-25.04565762574898
 10
585.0095949809653
 20
-25.05180334830562
 10
585.0019262375322
 20
-25.05874873234668
 10
584.9936961115096
 20
-25.0665370307791
 10
584.9840547968989
 20
-25.07613187266488
 10
584.973870031139
 20
-25.08686347621888
 10
584.9632261257831
 20
-25.0987952740723
 10
584.9522177003786
 20
-25.11199126368971
 10
584.940950500094
 20
-25.12651495365678
 10
584.9316955075797
 20
-25.13932260160351
 10
584.9224165538118
 20
-25.1530775974651
 10
584.9131888001465
 20
-25.16781004426907
 10
584.9040937430841
 20
-25.18354789215102
 10
584.8952195995244
 20
-25.2003164418583
 10
584.886661704637
 20
-25.21813782044421
 10
584.8785200375039
 20
-25.23702720581761
 10
584.8710405017879
 20
-25.25657598434019
 10
584.8641531774542
 20
-25.27714362293848
 10
584.8579606449565
 20
-25.29871396511352
 10
584.8525709297618
 20
-25.32126167138429
 10
584.8489731946694
 20
-25.33964068635838
 10
584.8459987814317
 20
-25.35857954069201
 10
584.843707625776
 20
-25.37805187577272
 10
584.8421620110947
 20
-25.39802657476639
  0
LWPOLYLINE
  5
121
330
1F
100
AcDbEntity
  8
0
  6
CONTINUOUS
 62
     7
100
AcDbPolyline
 90
       42
 70
     0
 43
0.0
 10
685.573387959764
 20
-74.9033634122921
 10
685.5729212823276
 20
-74.8820716524064
 10
685.5715813392081
 20
-74.8614138045855
 10
685.5694554048275
 20
-74.84143042245277
 10
685.5666270724771
 20
-74.8221545982678
 10
685.5631763472716
 20
-74.8036125467614
 10
685.5591797361388
 20
-74.7858241703748
 10
685.553765917058
 20
-74.7654924999466
 10
685.5477911053605
 20
-74.7462807721555
 10
685.5413686035157
 20
-74.7281939564938
 10
685.5346053886733
 20
-74.7112284510964
 10
685.5276059269208
 20
-74.69536965127948
 10
685.5186769601789
 20
-74.67706701688643
 10
685.5097145565566
 20
-74.66040580668847
 10
685.5008790433825
 20
-74.64532947654331
 10
685.4923133796277
 20
-74.63177840169668
 10
685.4841443785906
 20
-74.6196916358231
 10
685.4764838296048
 20
-74.6090085247923
 10
685.4691548248124
 20
-74.59931564171471
 10
685.4608441206897
 20
-74.588888926689
 10
685.4523472634648
 20
-74.5787923112251
 10
685.442788335093
 20
-74.56805290482899
 10
685.4320972731219
 20
-74.556748256795
 10
685.4202030559958
 20
-74.54496509600719
 10
685.4070357211386
 20
-74.53279916522959
 10
685.3927974210303
 20
-74.5205812041192
 10
685.3772007168437
 20
-74.50820952697548
 10
685.3601848481709
 20
-74.49580873908663
 10
685.3416931734698
 20
-74.48351647474699
 10
685.3266702118489
 20
-74.474368655179
 10
685.3107509218306
 20
-74.4654414823105
 10
685.2939180859879
 20
-74.45681181865959
 10
685.2761575985529
 20
-74.44856186637611
 10
685.2574643358508
 20
-74.44077453942752
 10
685.2378446816724
 20
-74.43353185126999
 10
685.2203004701674
 20
-74.4278222439608
 10
685.2020980811784
 20
-74.4226322206844
 10
685.1832544785048
 20
-74.41802058245031
 10
685.1637911867845
 20
-74.41404852236019
 10
685.143734603096
 20
-74.41077969307739
 10
685.1231163163063
 20
-74.40828027597188
 10
685.1019734341578
 20
-74.40661905194159
  0
LWPOLYLINE
  5
122
330
1F
100
AcDbEntity
  8
0
  6
CONTINUOUS
 62
     7
100
AcDbPolyline
 90
       21
 70
     0
 43
0.0
 10
-674.6823924098413
 20
-160.6774991350466
 10
-674.6897203606756
 20
-160.6449669742601
 10
-674.6991632232249
 20
-160.6127212402346
 10
-674.7106900315948
 20
-160.5809400416591
 10
-674.7242567192274
 20
-160.549787093777
 10
-674.739784587024
 20
-160.5193902794723
 10
-674.7571897326378
 20
-160.4898707444893
 10
-674.776388720086
 20
-160.4613484301279
 10
-674.7972985702971
 20
-160.4339419767519
 10
-674.819836343329
 20
-160.407768244032
 10
-674.8439060685769
 20
-160.3829299426867
 10
-674.869396041436
 20
-160.3595131055385
 10
-674.8961941285039
 20
-160.3376014773103
 10
-674.9241887218698
 20
-160.3172773573477
 10
-674.9532687246386
 20
-160.298621530119
 10
-674.9833201399807
 20
-160.2817101882311
 10
-675.0141961200673
 20
-160.2665884477264
 10
-675.0457314715716
 20
-160.2532834435043
 10
-675.0777613825121
 20
-160.2418209783973
 10
-675.1101216186183
 20
-160.2322256838788
 10
-675.1426485017918
 20
-160.2245209875707
210
0.0
220
0.0
230
-1.0
  0
LWPOLYLINE
  5
123
330
1F
100
AcDbEntity
  8
0
  6
CONTINUOUS
 62
     7
100
AcDbPolyline
 90
       42
 70
     0
 43
0.0
 10
635.1578379886604
 20
-25.39802657476989
 10
635.156157705065
 20
-25.37669357438238
 10
635.1536461481069
 20
-25.35604628092139
 10
635.1503923173086
 20
-25.3361203899668
 10
635.1464811308152
 20
-25.316944325011
 10
635.1419935509738
 20
-25.2985398174487
 10
635.1370067059165
 20
-25.28092246810681
 10
635.1304665702587
 20
-25.2608344343247
 10
635.1234330423637
 20
-25.2419018363953
 10
635.1160189493996
 20
-25.22412320403969
 10
635.1083303469462
 20
-25.20748883178669
 10
635.1004701672992
 20
-25.19197812415008
 10
635.0905532080052
 20
-25.17412565372398
 10
635.0806966189303
 20
-25.1579217140884
 10
635.0710564404574
 20
-25.14330045405838
 10
635.061771286255
 20
-25.13019392083871
 10
635.0529636579212
 20
-25.11853375426429
 10
635.0447411510962
 20
-25.10825274117459
 10
635.0369057372627
 20
-25.0989477671032
 10
635.0280541281551
 20
-25.08896374081851
 10
635.0190363568862
 20
-25.07932116591641
 10
635.0089266805611
 20
-25.06909422333681
 10
634.9976599043365
 20
-25.05836471593409
 10
634.9851704003044
 20
-25.04722371462567
 10
634.9713941063255
 20
-25.03577127409282
 10
634.9565507244764
 20
-25.02432765557869
 10
634.940348858673
 20
-25.01280728709229
 10
634.9227352352056
 20
-25.00133866016568
 10
634.9036614162104
 20
-24.9900631052187
 10
634.8882132877367
 20
-24.98174392295932
 10
634.8718871302832
 20
-24.973697262063
 10
634.8546702179707
 20
-24.96600122812212
 10
634.8365532213055
 20
-24.95873910798638
 10
634.8175357729949
 20
-24.95199439510251
 10
634.7976288931312
 20
-24.9458490200227
 10
634.7798715459735
 20
-24.9411231562138
 10
634.7614898484667
 20
-24.93695619214908
 10
634.7425040134204
 20
-24.93340616238029
 10
634.722938923153
 20
-24.93053324162489
 10
634.7028244431134
 20
-24.92839979469188
 10
634.6821957433007
 20
-24.9270704276501
 10
634.661093627481
 20
-24.9266120402361
  0
LWPOLYLINE
  5
124
330
1F
100
AcDbEntity
  8
0
  6
CONTINUOUS
 62
     7
100
AcDbPolyline
 90
       42
 70
     0
 43
0.0
 10
685.1019735035444
 20
-150.5933798903423
 10
685.1233065014887
 20
-150.5916996035886
 10
685.1439537924504
 20
-150.589188043768
 10
685.1638796808747
 20
-150.5859342103866
 10
685.1830557432918
 20
-150.5820230215729
 10
685.2014602483266
 20
-150.5775354396578
 10
685.2190775951696
 20
-150.572548592758
 10
685.2391656260116
 20
-150.5660084551724
 10
685.2580982210852
 20
-150.558974925634
 10
685.2758768506877
 20
-150.5515608312855
 10
685.2925112203038
 20
-150.5438722276823
 10
685.3080219254306
 20
-150.5360120470947
 10
685.3258743929078
 20
-150.5260950868799
 10
685.3420783298117
 20
-150.5162384971252
 10
685.3566995873322
 20
-150.5065983181718
 10
685.3698061182666
 20
-150.4973131636513
 10
685.3814662827795
 20
-150.4885055351286
 10
685.391747294029
 20
-150.4802830282146
 10
685.4010522664289
 20
-150.4724476143563
 10
685.4110362909114
 20
-150.4635960052903
 10
685.4206788640544
 20
-150.4545782341412
 10
685.4309058047489
 20
-150.4444685580328
 10
685.441635310154
 20
-150.4332017821414
 10
685.4527763093668
 20
-150.4207122785782
 10
685.4642287477227
 20
-150.4069359852228
 10
685.4756723640395
 20
-150.3920926041541
 10
685.4871927302912
 20
-150.3758907393141
 10
685.498661354971
 20
-150.3582771170092
 10
685.5099369076878
 20
-150.3392032993893
 10
685.5182560882884
 20
-150.3237551721068
 10
685.5263027475701
 20
-150.3074290159784
 10
685.5339987799579
 20
-150.2902121051288
 10
685.5412608986209
 20
-150.2720951100668
 10
685.5480056101316
 20
-150.2530776635009
 10
685.5541509839549
 20
-150.2331707855218
 10
685.5588768467936
 20
-150.2154134400887
 10
685.56304381
 20
-150.1970317444042
 10
685.5665938390346
 20
-150.178045911274
 10
685.5694667591938
 20
-150.158480823011
 10
685.5716002056823
 20
-150.138366345058
 10
685.572929572446
 20
-150.1177376474064
 10
685.5733879597639
 20
-150.0966355338134
  0
LWPOLYLINE
  5
125
330
1F
100
AcDbEntity
  8
0
  6
CONTINUOUS
 62
     7
100
AcDbPolyline
 90
       20
 70
     0
 43
0.0
 10
-686.0424849848208
 20
-76.3366314781376
 10
-686.0018617115373
 20
-76.325001765908
 10
-685.9615633544806
 20
-76.3105424191765
 10
-685.9219095735074
 20
-76.29329844493529
 10
-685.8832214336849
 20
-76.27331795810538
 10
-685.8531826646363
 20
-76.25539772097709
 10
-685.8241147668028
 20
-76.2358035052319
 10
-685.7961315972923
 20
-76.21461096269952
 10
-685.7693441306747
 20
-76.19190042842688
 10
-685.7438638708962
 20
-76.16775384489341
 10
-685.7198028681856
 20
-76.1422546873413
 10
-685.6972727675
 20
-76.1154888005193
 10
-685.6763695110976
 20
-76.08755877238279
 10
-685.6571760396828
 20
-76.0585814112803
 10
-685.6397753568391
 20
-76.0286753868275
 10
-685.6242509481041
 20
-75.997960744202
 10
-685.6106867918803
 20
-75.9665588011911
 10
-685.5991616918101
 20
-75.9345976734418
 10
-685.589719848842
 20
-75.90224136143247
 10
-685.582392382944
 20
-75.8696683160685
210
0.0
220
0.0
230
-1.0
  0
ENDSEC
  0
SECTION
  2
OBJECTS
  0
DICTIONARY
  5
C
330
0
100
AcDbDictionary
  3
ACAD_GROUP
350
D
  3
ACAD_LAYOUT
350
1A
  3
ACAD_MATERIAL
350
43
  3
ACAD_MLEADERSTYLE
350
6B
  3
ACAD_MLINESTYLE
350
17
  3
ACAD_PLOTSETTINGS
350
19
  3
ACAD_SCALELIST
350
47
  3
ACAD_VISUALSTYLE
350
2A
  3
ACDBHEADERROUNDTRIPXREC
350
126
  3
ACDBVARIABLEDICTIONARY
350
147
  0
DICTIONARY
  5
14E
330
8
100
AcDbDictionary
280
     1
  3
ACAD_XREC_ROUNDTRIP
360
14F
  0
DICTIONARY
  5
D
102
{ACAD_REACTORS
330
C
102
}
330
C
100
AcDbDictionary
  0
DICTIONARY
  5
1A
102
{ACAD_REACTORS
330
C
102
}
330
C
100
AcDbDictionary
  0
DICTIONARY
  5
43
102
{ACAD_REACTORS
330
C
102
}
330
C
100
AcDbDictionary
  3
BYBLOCK
350
45
  3
BYLAYER
350
44
  3
GLOBAL
350
46
  0
DICTIONARY
  5
6B
102
{ACAD_REACTORS
330
C
102
}
330
C
100
AcDbDictionary
  3
STANDARD
350
6C
  0
DICTIONARY
  5
17
102
{ACAD_REACTORS
330
C
102
}
330
C
100
AcDbDictionary
  3
STANDARD
350
18
  0
DICTIONARY
  5
19
102
{ACAD_REACTORS
330
C
102
}
330
C
100
AcDbDictionary
  0
DICTIONARY
  5
47
102
{ACAD_REACTORS
330
C
102
}
330
C
100
AcDbDictionary
  3
A0
350
48
  3
A1
350
49
  3
A2
350
4A
  3
A3
350
4B
  3
A4
350
4C
  3
A5
350
4D
  3
A6
350
4E
  3
A7
350
4F
  3
A8
350
50
  3
A9
350
51
  3
B0
350
52
  3
B1
350
53
  3
B2
350
54
  3
B3
350
55
  3
B4
350
56
  3
B5
350
57
  3
B6
350
58
  3
B7
350
59
  3
B8
350
5A
  3
B9
350
5B
  3
C0
350
5C
  3
C1
350
5D
  3
C2
350
5E
  3
C3
350
5F
  3
C4
350
60
  3
C5
350
61
  3
C6
350
62
  3
C7
350
63
  3
C8
350
64
  3
C9
350
65
  3
D0
350
66
  3
D1
350
67
  3
D2
350
68
  0
DICTIONARY
  5
2A
102
{ACAD_REACTORS
330
C
102
}
330
C
100
AcDbDictionary
  3
2DWIREFRAME
350
2F
  3
BASIC
350
32
  3
BRIGHTEN
350
36
  3
COLORCHANGE
350
3A
  3
CONCEPTUAL
350
34
  3
DIM
350
35
  3
EDGECOLOROFF
350
3D
  3
FACEPATTERN
350
39
  3
FLAT
350
2B
  3
FLATWITHEDGES
350
2C
  3
GOURAUD
350
2D
  3
GOURAUDWITHEDGES
350
2E
  3
HIDDEN
350
31
  3
JITTEROFF
350
3B
  3
LINEPATTERN
350
38
  3
OVERHANGOFF
350
3C
  3
REALISTIC
350
33
  3
SHADED
350
42
  3
SHADED_WITH_EDGES
350
41
  3
SHADES_OF_GRAY
350
3E
  3
SKETCHY
350
3F
  3
THICKEN
350
37
  3
WIREFRAME
350
30
  3
X-RAY
350
40
  0
DICTIONARY
  5
126
102
{ACAD_REACTORS
330
C
102
}
330
C
100
AcDbDictionary
  3
CEPSNID
350
130
  3
CEPSNTYPE
350
12F
  3
DIMSTYLEDATA
350
146
  3
FINGERPRINTGUID
350
131
  3
HYPERLINKBASE
350
129
  3
INSUNITS
350
12E
  3
LAYOUTDICT
350
12B
  3
LWETCUNION
350
12D
  3
PLOTSETDICT
350
12C
  3
PSVPSCALE
350
133
  3
PUCSBASE
350
136
  3
PUCSORGBACK
350
13C
  3
PUCSORGBOTTOM
350
138
  3
PUCSORGFRONT
350
13B
  3
PUCSORGLEFT
350
139
  3
PUCSORGRIGHT
350
13A
  3
PUCSORGTOP
350
137
  3
PUCSORTHOREF
350
134
  3
PUCSORTHOVIEW
350
135
  3
STYLESHEET
350
12A
  3
TSTACKALIGN
350
127
  3
TSTACKSIZE
350
128
  3
UCSBASE
350
13F
  3
UCSORGBACK
350
145
  3
UCSORGBOTTOM
350
141
  3
UCSORGFRONT
350
144
  3
UCSORGLEFT
350
142
  3
UCSORGRIGHT
350
143
  3
UCSORGTOP
350
140
  3
UCSORTHOREF
350
13D
  3
UCSORTHOVIEW
350
13E
  3
VERSIONGUID
350
132
  0
DICTIONARY
  5
147
102
{ACAD_REACTORS
330
C
102
}
330
C
100
AcDbDictionary
  3
CANNOSCALE
350
150
  3
CMLEADERSTYLE
350
149
  3
CTABLESTYLE
350
148
  3
DIMASSOC
350
14C
  3
HIDETEXT
350
14D
  3
MSLTSCALE
350
151
  0
XRECORD
  5
14F
102
{ACAD_REACTORS
330
14E
102
}
330
14E
100
AcDbXrecord
102
VTR_0.000_0.000_1.000_1.000_VISUALSTYLE
340
2F
102
VTR_0.000_0.000_1.000_1.000_GRIDDISPLAY
 70
     3
102
VTR_0.000_0.000_1.000_1.000_GRIDMAJOR
 70
     5
102
VTR_0.000_0.000_1.000_1.000_DEFAULTLIGHTING
280
     1
102
VTR_0.000_0.000_1.000_1.000_DEFAULTLIGHTINGTYPE
 70
     1
102
VTR_0.000_0.000_1.000_1.000_BRIGHTNESS
141
0.0
102
VTR_0.000_0.000_1.000_1.000_CONTRAST
142
0.0
  0
MATERIAL
  5
45
102
{ACAD_REACTORS
330
43
102
}
102
{ACAD_XDICTIONARY
360
154
102
}
330
43
100
AcDbMaterial
  1
BYBLOCK
  0
MATERIAL
  5
44
102
{ACAD_REACTORS
330
43
102
}
102
{ACAD_XDICTIONARY
360
152
102
}
330
43
100
AcDbMaterial
  1
BYLAYER
  0
MATERIAL
  5
46
102
{ACAD_REACTORS
330
43
102
}
102
{ACAD_XDICTIONARY
360
156
102
}
330
43
100
AcDbMaterial
  1
GLOBAL
  0
ACAD_PROXY_OBJECT
  5
6C
102
{ACAD_REACTORS
330
6B
102
}
330
6B
100
AcDbProxyObject
 90
      499
 91
      505
 93
      610
310
40901902A4063FBFFFFFE056BD1B81E855B9FC0AD7A3703D0AD73F4214DD185B99185C9900AD7A3703D0AC73F90141901A02B5E8DC0F42B1CFC02B5E8DC0F42B1CFE5764000000000000300FC0
340
14
340
0
340
11
340
0
 94
        0
1001
ACAD_MLEADERVER
1070
     2
  0
MLINESTYLE
  5
18
102
{ACAD_REACTORS
330
17
102
}
330
17
100
AcDbMlineStyle
  2
Standard
 70
     0
  3

 62
   256
 51
90.0
 52
90.0
 71
     2
 49
0.5
 62
   256
  6
BYLAYER
 49
-0.5
 62
   256
  6
BYLAYER
  0
ACAD_PROXY_OBJECT
  5
48
102
{ACAD_REACTORS
330
47
102
}
330
47
100
AcDbProxyObject
 90
      499
 91
      503
 93
       41
310
903313A31580
  0
ACAD_PROXY_OBJECT
  5
49
102
{ACAD_REACTORS
330
47
102
}
330
47
100
AcDbProxyObject
 90
      499
 91
      503
 93
      105
310
903313A324000000000000004000
  0
ACAD_PROXY_OBJECT
  5
4A
102
{ACAD_REACTORS
330
47
102
}
330
47
100
AcDbProxyObject
 90
      499
 91
      503
 93
      105
310
903313A344000000000000104000
  0
ACAD_PROXY_OBJECT
  5
4B
102
{ACAD_REACTORS
330
47
102
}
330
47
100
AcDbProxyObject
 90
      499
 91
      503
 93
      105
310
903313A354000000000000144000
  0
ACAD_PROXY_OBJECT
  5
4C
102
{ACAD_REACTORS
330
47
102
}
330
47
100
AcDbProxyObject
 90
      499
 91
      503
 93
      105
310
903313A384000000000000204000
  0
ACAD_PROXY_OBJECT
  5
4D
102
{ACAD_REACTORS
330
47
102
}
330
47
100
AcDbProxyObject
 90
      499
 91
      503
 93
      113
310
904313A31304000000000000244000
  0
ACAD_PROXY_OBJECT
  5
4E
102
{ACAD_REACTORS
330
47
102
}
330
47
100
AcDbProxyObject
 90
      499
 91
      503
 93
      113
310
904313A31364000000000000304000
  0
ACAD_PROXY_OBJECT
  5
4F
102
{ACAD_REACTORS
330
47
102
}
330
47
100
AcDbProxyObject
 90
      499
 91
      503
 93
      113
310
904313A32304000000000000344000
  0
ACAD_PROXY_OBJECT
  5
50
102
{ACAD_REACTORS
330
47
102
}
330
47
100
AcDbProxyObject
 90
      499
 91
      503
 93
      113
310
904313A333040000000000003E4000
  0
ACAD_PROXY_OBJECT
  5
51
102
{ACAD_REACTORS
330
47
102
}
330
47
100
AcDbProxyObject
 90
      499
 91
      503
 93
      113
310
904313A34304000000000000444000
  0
ACAD_PROXY_OBJECT
  5
52
102
{ACAD_REACTORS
330
47
102
}
330
47
100
AcDbProxyObject
 90
      499
 91
      503
 93
      113
310
904313A35304000000000000494000
  0
ACAD_PROXY_OBJECT
  5
53
102
{ACAD_REACTORS
330
47
102
}
330
47
100
AcDbProxyObject
 90
      499
 91
      503
 93
      121
310
905313A3130304000000000000594000
  0
ACAD_PROXY_OBJECT
  5
54
102
{ACAD_REACTORS
330
47
102
}
330
47
100
AcDbProxyObject
 90
      499
 91
      503
 93
      105
310
903323A310000000000000010100
  0
ACAD_PROXY_OBJECT
  5
55
102
{ACAD_REACTORS
330
47
102
}
330
47
100
AcDbProxyObject
 90
      499
 91
      503
 93
      105
310
903343A310000000000000410100
  0
ACAD_PROXY_OBJECT
  5
56
102
{ACAD_REACTORS
330
47
102
}
330
47
100
AcDbProxyObject
 90
      499
 91
      503
 93
      105
310
903383A310000000000000810100
  0
ACAD_PROXY_OBJECT
  5
57
102
{ACAD_REACTORS
330
47
102
}
330
47
100
AcDbProxyObject
 90
      499
 91
      503
 93
      113
310
90431303A310000000000000910100
  0
ACAD_PROXY_OBJECT
  5
58
102
{ACAD_REACTORS
330
47
102
}
330
47
100
AcDbProxyObject
 90
      499
 91
      503
 93
      121
310
9053130303A310000000000001650100
  0
ACAD_PROXY_OBJECT
  5
59
102
{ACAD_REACTORS
330
47
102
}
330
47
100
AcDbProxyObject
 90
      499
 91
      503
 93
      257
310
90E312F31323822203D2031272D3022000000000000200FC000000000000284000
  0
ACAD_PROXY_OBJECT
  5
5A
102
{ACAD_REACTORS
330
47
102
}
330
47
100
AcDbProxyObject
 90
      499
 91
      503
 93
      249
310
90D312F363422203D2031272D3022000000000000240FC000000000000284000
  0
ACAD_PROXY_OBJECT
  5
5B
102
{ACAD_REACTORS
330
47
102
}
330
47
100
AcDbProxyObject
 90
      499
 91
      503
 93
      249
310
90D312F333222203D2031272D3022000000000000280FC000000000000284000
  0
ACAD_PROXY_OBJECT
  5
5C
102
{ACAD_REACTORS
330
47
102
}
330
47
100
AcDbProxyObject
 90
      499
 91
      503
 93
      249
310
90D312F313622203D2031272D30220000000000002C0FC000000000000284000
  0
ACAD_PROXY_OBJECT
  5
5D
102
{ACAD_REACTORS
330
47
102
}
330
47
100
AcDbProxyObject
 90
      499
 91
      503
 93
      249
310
90D332F333222203D2031272D30220000000000002E0FC000000000000284000
  0
ACAD_PROXY_OBJECT
  5
5E
102
{ACAD_REACTORS
330
47
102
}
330
47
100
AcDbProxyObject
 90
      499
 91
      503
 93
      241
310
90C312F3822203D2031272D3022000000000000300FC000000000000284000
  0
ACAD_PROXY_OBJECT
  5
5F
102
{ACAD_REACTORS
330
47
102
}
330
47
100
AcDbProxyObject
 90
      499
 91
      503
 93
      249
310
90D332F313622203D2031272D3022000000000000320FC000000000000284000
  0
ACAD_PROXY_OBJECT
  5
60
102
{ACAD_REACTORS
330
47
102
}
330
47
100
AcDbProxyObject
 90
      499
 91
      503
 93
      241
310
90C312F3422203D2031272D3022000000000000340FC000000000000284000
  0
ACAD_PROXY_OBJECT
  5
61
102
{ACAD_REACTORS
330
47
102
}
330
47
100
AcDbProxyObject
 90
      499
 91
      503
 93
      241
310
90C332F3822203D2031272D3022000000000000360FC000000000000284000
  0
ACAD_PROXY_OBJECT
  5
62
102
{ACAD_REACTORS
330
47
102
}
330
47
100
AcDbProxyObject
 90
      499
 91
      503
 93
      241
310
90C312F3222203D2031272D3022000000000000380FC000000000000284000
  0
ACAD_PROXY_OBJECT
  5
63
102
{ACAD_REACTORS
330
47
102
}
330
47
100
AcDbProxyObject
 90
      499
 91
      503
 93
      241
310
90C332F3422203D2031272D30220000000000003A0FC000000000000284000
  0
ACAD_PROXY_OBJECT
  5
64
102
{ACAD_REACTORS
330
47
102
}
330
47
100
AcDbProxyObject
 90
      499
 91
      503
 93
      161
310
90A3122203D2031272D30224000000000000284000
  0
ACAD_PROXY_OBJECT
  5
65
102
{ACAD_REACTORS
330
47
102
}
330
47
100
AcDbProxyObject
 90
      499
 91
      503
 93
      257
310
90E312D312F3222203D2031272D30220000000000003E0FC000000000000284000
  0
ACAD_PROXY_OBJECT
  5
66
102
{ACAD_REACTORS
330
47
102
}
330
47
100
AcDbProxyObject
 90
      499
 91
      503
 93
      225
310
90A3322203D2031272D302200000000000002100000000000000284000
  0
ACAD_PROXY_OBJECT
  5
67
102
{ACAD_REACTORS
330
47
102
}
330
47
100
AcDbProxyObject
 90
      499
 91
      503
 93
      225
310
90A3622203D2031272D302200000000000006100000000000000284000
  0
ACAD_PROXY_OBJECT
  5
68
102
{ACAD_REACTORS
330
47
102
}
330
47
100
AcDbProxyObject
 90
      499
 91
      503
 93
      249
310
90D31272D3022203D2031272D30220000000000000A100000000000000284000
  0
ACAD_PROXY_OBJECT
  5
2F
102
{ACAD_REACTORS
330
2A
102
}
330
2A
100
AcDbProxyObject
 90
      499
 91
      501
 93
      436
310
42CC9915DA5C99599C985B595049028333333333333E33F0000000000000F90107901411070040501600405405064090741402480A0340
1001
ACAD
1000
AcDbSavedByObjectVersion
1070
     0
  0
ACAD_PROXY_OBJECT
  5
32
102
{ACAD_REACTORS
330
2A
102
}
330
2A
100
AcDbProxyObject
 90
      499
 91
      501
 93
      388
310
4150985CDA58D07406404333333333333E33F0000000000000F90107A41107004050150841D405064090741402480A0350
1001
ACAD
1000
AcDbSavedByObjectVersion
1070
     0
  0
ACAD_PROXY_OBJECT
  5
36
102
{ACAD_REACTORS
330
2A
102
}
330
2A
100
AcDbProxyObject
 90
      499
 91
      501
 93
      428
310
42109C9A59DA1D195B90C409028333333333333E33F0000000000000F9010790141107004050150841D405064090741402480A029950
1001
ACAD
1000
AcDbSavedByObjectVersion
1070
     0
  0
ACAD_PROXY_OBJECT
  5
3A
102
{ACAD_REACTORS
330
2A
102
}
330
2A
100
AcDbProxyObject
 90
      499
 91
      501
 93
      452
310
42D0DBDB1BDC90DA185B99D95104090240C333333333333E33F0000000000000F90108901411070040501508421405064090741402480A0350
1001
ACAD
1000
AcDbSavedByObjectVersion
1070
     0
  0
ACAD_PROXY_OBJECT
  5
34
102
{ACAD_REACTORS
330
2A
102
}
330
2A
100
AcDbProxyObject
 90
      499
 91
      501
 93
      500
310
4290DBDB98D95C1D1D585B10940D028333333333333E33F0000000000000F90107902409070040501000000000018199010841D405064090740C02480A0340
1001
ACAD
1000
AcDbSavedByObjectVersion
1070
     0
  0
ACAD_PROXY_OBJECT
  5
35
102
{ACAD_REACTORS
330
2A
102
}
330
2A
100
AcDbProxyObject
 90
      499
 91
      501
 93
      412
310
40D11A5B50B409028333333333333E33F0000000000000F9010790141107004050150841D405064090741402480A02677FFFFFD0
1001
ACAD
1000
AcDbSavedByObjectVersion
1070
     0
  0
ACAD_PROXY_OBJECT
  5
3D
102
{ACAD_REACTORS
330
2A
102
}
330
2A
100
AcDbProxyObject
 90
      499
 91
      501
 93
      452
310
43115919D950DBDB1BDC93D999916409028333333333333E33F0000000000000F9010790141107004050150841D405064090741402480A0350
1001
ACAD
1000
AcDbSavedByObjectVersion
1070
     0
  0
ACAD_PROXY_OBJECT
  5
39
102
{ACAD_REACTORS
330
2A
102
}
330
2A
100
AcDbProxyObject
 90
      499
 91
      501
 93
      444
310
42D19858D95C185D1D195C9B90F409028333333333333E33F0000000000000F9010790141107004050150841D405064090741402480A0350
1001
ACAD
1000
AcDbSavedByObjectVersion
1070
     0
  0
ACAD_PROXY_OBJECT
  5
2B
102
{ACAD_REACTORS
330
2A
102
}
330
2A
100
AcDbProxyObject
 90
      499
 91
      501
 93
      380
310
41119B185D240901404333333333333E33F0000000000000F9010740A907004050150841D405064090741402480A1B50
1001
ACAD
1000
AcDbSavedByObjectVersion
1070
     0
  0
ACAD_PROXY_OBJECT
  5
2C
102
{ACAD_REACTORS
330
2A
102
}
330
2A
100
AcDbProxyObject
 90
      499
 91
      501
 93
      468
310
43519B185D15DA5D1A115919D95CD0140901404333333333333E33F0000000000000F90107409019070040501600405405064090741402480A1B50
1001
ACAD
1000
AcDbSavedByObjectVersion
1070
     0
  0
ACAD_PROXY_OBJECT
  5
2D
102
{ACAD_REACTORS
330
2A
102
}
330
2A
100
AcDbProxyObject
 90
      499
 91
      501
 93
      404
310
41D1DBDD5C985D5910240902404333333333333E33F0000000000000F9010740A9070040501641D405064090741402480A1B50
1001
ACAD
1000
AcDbSavedByObjectVersion
1070
     0
  0
ACAD_PROXY_OBJECT
  5
2E
102
{ACAD_REACTORS
330
2A
102
}
330
2A
100
AcDbProxyObject
 90
      499
 91
      501
 93
      492
310
4411DBDD5C985D5915DA5D1A115919D95CD0340902404333333333333E33F0000000000000F90107409019070040501600405405064090741402480A1B50
1001
ACAD
1000
AcDbSavedByObjectVersion
1070
     0
  0
ACAD_PROXY_OBJECT
  5
31
102
{ACAD_REACTORS
330
2A
102
}
330
2A
100
AcDbProxyObject
 90
      499
 91
      501
 93
      476
310
41921A5919195B90640502408333333333333E33F0000000000000F901079024090700405020000000000001110200405405064090740C02480A0340
1001
ACAD
1000
AcDbSavedByObjectVersion
1070
     0
  0
ACAD_PROXY_OBJECT
  5
3B
102
{ACAD_REACTORS
330
2A
102
}
330
2A
100
AcDbProxyObject
 90
      499
 91
      501
 93
      428
310
42529A5D1D195C93D999914409028333333333333E33F0000000000000F9010790141107004050150A41D405064090741402480A0350
1001
ACAD
1000
AcDbSavedByObjectVersion
1070
     0
  0
ACAD_PROXY_OBJECT
  5
38
102
{ACAD_REACTORS
330
2A
102
}
330
2A
100
AcDbProxyObject
 90
      499
 91
      501
 93
      444
310
42D31A5B995C185D1D195C9B90E409028333333333333E33F0000000000000F9010790141107004050750841D405064090741402483A0350
1001
ACAD
1000
AcDbSavedByObjectVersion
1070
     0
  0
ACAD_PROXY_OBJECT
  5
3C
102
{ACAD_REACTORS
330
2A
102
}
330
2A
100
AcDbProxyObject
 90
      499
 91
      501
 93
      444
310
42D3DD995C9A185B99D3D999915409028333333333333E33F0000000000000F9010790141107004050150941D405064090741402480A0350
1001
ACAD
1000
AcDbSavedByObjectVersion
1070
     0
  0
ACAD_PROXY_OBJECT
  5
33
102
{ACAD_REACTORS
330
2A
102
}
330
2A
100
AcDbProxyObject
 90
      499
 91
      501
 93
      428
310
425499585B1A5CDD1A58D08409038333333333333E33F0000000000000F9010740A907004050150800405405064090740C02480A1B40
1001
ACAD
1000
AcDbSavedByObjectVersion
1070
     0
  0
ACAD_PROXY_OBJECT
  5
42
102
{ACAD_REACTORS
330
2A
102
}
330
2A
100
AcDbProxyObject
 90
      499
 91
      501
 93
      420
310
4194DA1859195911B40902404333333333333E33F0000000000000F9010740A41107004050150800405405064090840C02480A0B40
1001
ACAD
1000
AcDbSavedByObjectVersion
1070
     0
  0
ACAD_PROXY_OBJECT
  5
41
102
{ACAD_REACTORS
330
2A
102
}
330
2A
100
AcDbProxyObject
 90
      499
 91
      501
 93
      516
310
4454DA18591959081DDA5D1A08195919D95CD1A40902404333333333333E33F0000000000000F901074090142907004050250800405405064090740C02480A0B40
1001
ACAD
1000
AcDbSavedByObjectVersion
1070
     0
  0
ACAD_PROXY_OBJECT
  5
3E
102
{ACAD_REACTORS
330
2A
102
}
330
2A
100
AcDbProxyObject
 90
      499
 91
      501
 93
      532
310
4394DA1859195CC81BD98811DC985E5174090240C333333333333E33F0000000000000F901079024090741D01000000000000111010841D405064090740C02480A0340
1001
ACAD
1000
AcDbSavedByObjectVersion
1070
     0
  0
ACAD_PROXY_OBJECT
  5
3F
102
{ACAD_REACTORS
330
2A
102
}
330
2A
100
AcDbProxyObject
 90
      499
 91
      501
 93
      476
310
41D4DAD95D18DA1E51840502408333333333333E33F0000000000000F901079024090741D01000000000000111010B41D405064090741802480A0340
1001
ACAD
1000
AcDbSavedByObjectVersion
1070
     0
  0
ACAD_PROXY_OBJECT
  5
37
102
{ACAD_REACTORS
330
2A
102
}
330
2A
100
AcDbProxyObject
 90
      499
 91
      501
 93
      412
310
41D51A1A58DAD95B90D409028333333333333E33F0000000000000F9010790141107004050150C41D405064090741402480A0350
1001
ACAD
1000
AcDbSavedByObjectVersion
1070
     0
  0
ACAD_PROXY_OBJECT
  5
30
102
{ACAD_REACTORS
330
2A
102
}
330
2A
100
AcDbProxyObject
 90
      499
 91
      501
 93
      420
310
4255DA5C99599C985B595059028333333333333E33F0000000000000F90107901411070040501600405405064090740C02480A0340
1001
ACAD
1000
AcDbSavedByObjectVersion
1070
     0
  0
ACAD_PROXY_OBJECT
  5
40
102
{ACAD_REACTORS
330
2A
102
}
330
2A
100
AcDbProxyObject
 90
      499
 91
      501
 93
      404
310
41560B54985E51940902404000000000000E03F0000000000000F9010740501907004050150841D405064090740C02480A1B40
1001
ACAD
1000
AcDbSavedByObjectVersion
1070
     0
  0
XRECORD
  5
130
102
{ACAD_REACTORS
330
126
102
}
330
126
100
AcDbXrecord
340
0
  0
XRECORD
  5
12F
102
{ACAD_REACTORS
330
126
102
}
330
126
100
AcDbXrecord
 90
        0
  0
XRECORD
  5
146
102
{ACAD_REACTORS
330
126
102
}
330
126
100
AcDbXrecord
1000
DSTYLE
1002
{
1070
   179
 70
     2
1070
   171
 70
     2
1070
   143
 40
25.4
1070
   274
 70
     2
1070
    41
 40
3.0
1070
   141
 40
0.09
1070
    43
 40
0.38
1070
   278
 70
    46
1070
    44
 40
1.5
1070
    42
 40
0.0625
1070
   147
 40
1.5
1070
   272
 70
     4
1070
    73
 70
     1
1070
   172
 70
     0
1070
    74
 70
     1
1070
   283
 70
     1
1070
   340
340
6E
1070
   140
 40
3.0
1070
   284
 70
     0
1070
    78
 70
     0
1002
}
  0
XRECORD
  5
131
102
{ACAD_REACTORS
330
126
102
}
330
126
100
AcDbXrecord
  1
{6B5F972E-5BEB-469F-BBC9-DB36CB290C9C}
  0
XRECORD
  5
129
102
{ACAD_REACTORS
330
126
102
}
330
126
100
AcDbXrecord
  1

  0
XRECORD
  5
12E
102
{ACAD_REACTORS
330
126
102
}
330
126
100
AcDbXrecord
 90
        4
  0
XRECORD
  5
12B
102
{ACAD_REACTORS
330
126
102
}
330
126
100
AcDbXrecord
340
1A
  0
XRECORD
  5
12D
102
{ACAD_REACTORS
330
126
102
}
330
126
100
AcDbXrecord
 90
    10269
  0
XRECORD
  5
12C
102
{ACAD_REACTORS
330
126
102
}
330
126
100
AcDbXrecord
340
19
  0
XRECORD
  5
133
102
{ACAD_REACTORS
330
126
102
}
330
126
100
AcDbXrecord
 40
0.0
  0
XRECORD
  5
136
102
{ACAD_REACTORS
330
126
102
}
330
126
100
AcDbXrecord
340
0
  0
XRECORD
  5
13C
102
{ACAD_REACTORS
330
126
102
}
330
126
100
AcDbXrecord
 10
0.0
 20
0.0
 30
0.0
  0
XRECORD
  5
138
102
{ACAD_REACTORS
330
126
102
}
330
126
100
AcDbXrecord
 10
0.0
 20
0.0
 30
0.0
  0
XRECORD
  5
13B
102
{ACAD_REACTORS
330
126
102
}
330
126
100
AcDbXrecord
 10
0.0
 20
0.0
 30
0.0
  0
XRECORD
  5
139
102
{ACAD_REACTORS
330
126
102
}
330
126
100
AcDbXrecord
 10
0.0
 20
0.0
 30
0.0
  0
XRECORD
  5
13A
102
{ACAD_REACTORS
330
126
102
}
330
126
100
AcDbXrecord
 10
0.0
 20
0.0
 30
0.0
  0
XRECORD
  5
137
102
{ACAD_REACTORS
330
126
102
}
330
126
100
AcDbXrecord
 10
0.0
 20
0.0
 30
0.0
  0
XRECORD
  5
134
102
{ACAD_REACTORS
330
126
102
}
330
126
100
AcDbXrecord
340
0
  0
XRECORD
  5
135
102
{ACAD_REACTORS
330
126
102
}
330
126
100
AcDbXrecord
 70
     0
  0
XRECORD
  5
12A
102
{ACAD_REACTORS
330
126
102
}
330
126
100
AcDbXrecord
  1

  0
XRECORD
  5
127
102
{ACAD_REACTORS
330
126
102
}
330
126
100
AcDbXrecord
 90
        1
  0
XRECORD
  5
128
102
{ACAD_REACTORS
330
126
102
}
330
126
100
AcDbXrecord
 90
       70
  0
XRECORD
  5
13F
102
{ACAD_REACTORS
330
126
102
}
330
126
100
AcDbXrecord
340
0
  0
XRECORD
  5
145
102
{ACAD_REACTORS
330
126
102
}
330
126
100
AcDbXrecord
 10
0.0
 20
0.0
 30
0.0
  0
XRECORD
  5
141
102
{ACAD_REACTORS
330
126
102
}
330
126
100
AcDbXrecord
 10
0.0
 20
0.0
 30
0.0
  0
XRECORD
  5
144
102
{ACAD_REACTORS
330
126
102
}
330
126
100
AcDbXrecord
 10
0.0
 20
0.0
 30
0.0
  0
XRECORD
  5
142
102
{ACAD_REACTORS
330
126
102
}
330
126
100
AcDbXrecord
 10
0.0
 20
0.0
 30
0.0
  0
XRECORD
  5
143
102
{ACAD_REACTORS
330
126
102
}
330
126
100
AcDbXrecord
 10
0.0
 20
0.0
 30
0.0
  0
XRECORD
  5
140
102
{ACAD_REACTORS
330
126
102
}
330
126
100
AcDbXrecord
 10
0.0
 20
0.0
 30
0.0
  0
XRECORD
  5
13D
102
{ACAD_REACTORS
330
126
102
}
330
126
100
AcDbXrecord
340
0
  0
XRECORD
  5
13E
102
{ACAD_REACTORS
330
126
102
}
330
126
100
AcDbXrecord
 70
     0
  0
XRECORD
  5
132
102
{ACAD_REACTORS
330
126
102
}
330
126
100
AcDbXrecord
  1
{FAEB1C32-E019-11D5-929B-00C0DF256EC4}
  0
DICTIONARYVAR
  5
150
102
{ACAD_REACTORS
330
147
102
}
330
147
100
DictionaryVariables
280
     0
  1
1:1
  0
DICTIONARYVAR
  5
149
102
{ACAD_REACTORS
330
147
102
}
330
147
100
DictionaryVariables
280
     0
  1
Standard
  0
DICTIONARYVAR
  5
148
102
{ACAD_REACTORS
330
147
102
}
330
147
100
DictionaryVariables
280
     0
  1
Standard
  0
DICTIONARYVAR
  5
14C
102
{ACAD_REACTORS
330
147
102
}
330
147
100
DictionaryVariables
280
     0
  1
2
  0
DICTIONARYVAR
  5
14D
102
{ACAD_REACTORS
330
147
102
}
330
147
100
DictionaryVariables
280
     0
  1
1
  0
DICTIONARYVAR
  5
151
102
{ACAD_REACTORS
330
147
102
}
330
147
100
DictionaryVariables
280
     0
  1
1
  0
DICTIONARY
  5
154
330
45
100
AcDbDictionary
280
     1
  3
ACAD_XREC_ROUNDTRIP
360
155
  0
DICTIONARY
  5
152
330
44
100
AcDbDictionary
280
     1
  3
ACAD_XREC_ROUNDTRIP
360
153
  0
DICTIONARY
  5
156
330
46
100
AcDbDictionary
280
     1
  3
ACAD_XREC_ROUNDTRIP
360
157
  0
XRECORD
  5
155
102
{ACAD_REACTORS
330
154
102
}
330
154
100
AcDbXrecord
102
MATERIAL
148
0.0
149
0.0
149
0.0
 93
        0
 94
      127
282
     0
 72
     1
 77
     1
171
     1
175
     1
179
     1
273
     0
  0
XRECORD
  5
153
102
{ACAD_REACTORS
330
152
102
}
330
152
100
AcDbXrecord
102
MATERIAL
148
0.0
149
0.0
149
0.0
 93
        0
 94
      127
282
     0
 72
     1
 77
     1
171
     1
175
     1
179
     1
273
     0
  0
XRECORD
  5
157
102
{ACAD_REACTORS
330
156
102
}
330
156
100
AcDbXrecord
102
MATERIAL
148
0.0
149
0.0
149
0.0
 93
        0
 94
      127
282
     0
 72
     1
 77
     1
171
     1
175
     1
179
     1
273
     0
  0
ENDSEC
  0
EOF
