  0
SECTION
  2
HEADER
  9
$ACADVER
  1
AC1006
  9
$DWGCODEPAGE
  3
ansi_932
  9
$INSBASE
 10
0.0
 20
0.0
 30
0.0
  9
$EXTMIN
 10
-566.0039849517541
 20
-103.4560591247723
  9
$EXTMAX
 10
-399.416133218902
 20
276.1653924082764
  9
$LIMMIN
 10
0.0
 20
0.0
  9
$LIMMAX
 10
12.0
 20
9.0
  9
$ORTHOMODE
 70
     0
  9
$REGENMODE
 70
     1
  9
$FILLMODE
 70
     1
  9
$QTEXTMODE
 70
     0
  9
$MIRRTEXT
 70
     1
  9
$DRAGMODE
 70
     2
  9
$LTSCALE
 40
1.0
  9
$OSMODE
 70
    37
  9
$ATTMODE
 70
     1
  9
$TEXTSIZE
 40
0.2
  9
$TRACEWID
 40
0.05
  9
$TEXTSTYLE
  7
STANDARD
  9
$CLAYER
  8
0
  9
$CELTYPE
  6
BYLAYER
  9
$CECOLOR
 62
   256
  9
$DIMSCALE
 40
1.0
  9
$DIMASZ
 40
3.0
  9
$DIMEXO
 40
0.0625
  9
$DIMDLI
 40
0.38
  9
$DIMRND
 40
0.0
  9
$DIMDLE
 40
0.0
  9
$DIMEXE
 40
1.5
  9
$DIMTP
 40
0.0
  9
$DIMTM
 40
0.0
  9
$DIMTXT
 40
3.0
  9
$DIMCEN
 40
0.09
  9
$DIMTSZ
 40
0.0
  9
$DIMTOL
 70
     0
  9
$DIMLIM
 70
     0
  9
$DIMTIH
 70
     1
  9
$DIMTOH
 70
     1
  9
$DIMSE1
 70
     0
  9
$DIMSE2
 70
     0
  9
$DIMTAD
 70
     1
  9
$DIMZIN
 70
     0
  9
$DIMBLK
  1

  9
$DIMASO
 70
     1
  9
$DIMSHO
 70
     1
  9
$DIMPOST
  1

  9
$DIMAPOST
  1

  9
$DIMALT
 70
     0
  9
$DIMALTD
 70
     2
  9
$DIMALTF
 40
25.4
  9
$DIMLFAC
 40
1.0
  9
$DIMTOFL
 70
     0
  9
$DIMTVP
 40
0.0
  9
$DIMTIX
 70
     0
  9
$DIMSOXD
 70
     0
  9
$DIMSAH
 70
     0
  9
$DIMBLK1
  1

  9
$DIMBLK2
  1

  9
$LUNITS
 70
     2
  9
$LUPREC
 70
     4
  9
$SKETCHINC
 40
0.1
  9
$FILLETRAD
 40
0.5
  9
$AUNITS
 70
     0
  9
$AUPREC
 70
     0
  9
$MENU
  1
.
  9
$ELEVATION
 40
0.0
  9
$THICKNESS
 40
0.0
  9
$LIMCHECK
 70
     0
  9
$CHAMFERA
 40
0.0
  9
$CHAMFERB
 40
0.0
  9
$SKPOLY
 70
     0
  9
$TDCREATE
 40
2459996.487163588
  9
$TDUPDATE
 40
2459996.487163912
  9
$TDINDWG
 40
0.0000000116
  9
$TDUSRTIMER
 40
0.0000000116
  9
$USRTIMER
 70
     1
  9
$ANGBASE
 50
0.0
  9
$ANGDIR
 70
     0
  9
$PDMODE
 70
     0
  9
$PDSIZE
 40
0.0
  9
$PLINEWID
 40
0.0
  9
$COORDS
 70
     1
  9
$SPLFRAME
 70
     0
  9
$SPLINETYPE
 70
     6
  9
$SPLINESEGS
 70
     8
  9
$ATTDIA
 70
     0
  9
$ATTREQ
 70
     1
  9
$HANDLING
 70
     1
  9
$HANDSEED
  5
A7D
  9
$SURFTAB1
 70
     6
  9
$SURFTAB2
 70
     6
  9
$SURFTYPE
 70
     6
  9
$SURFU
 70
     6
  9
$SURFV
 70
     6
  9
$UCSNAME
  2

  9
$UCSORG
 10
0.0
 20
0.0
 30
0.0
  9
$UCSXDIR
 10
1.0
 20
0.0
 30
0.0
  9
$UCSYDIR
 10
0.0
 20
1.0
 30
0.0
  9
$USERI1
 70
     0
  9
$USERI2
 70
     0
  9
$USERI3
 70
     0
  9
$USERI4
 70
     0
  9
$USERI5
 70
     0
  9
$USERR1
 40
0.0
  9
$USERR2
 40
0.0
  9
$USERR3
 40
0.0
  9
$USERR4
 40
0.0
  9
$USERR5
 40
0.0
  9
$WORLDVIEW
 70
     1
  0
ENDSEC
  0
SECTION
  2
TABLES
  0
TABLE
  2
VPORT
 70
     1
  0
VPORT
  2
*ACTIVE
 70
     0
 10
0.0
 20
0.0
 11
1.0
 21
1.0
 12
-482.7100590853281
 22
86.35466664175206
 13
0.0
 23
0.0
 14
0.5
 24
0.5
 15
0.5
 25
0.5
 16
0.0
 26
0.0
 36
1.0
 17
0.0
 27
0.0
 37
0.0
 40
379.6214515330487
 41
1.6
 42
50.0
 43
0.0
 44
0.0
 50
0.0
 51
0.0
 71
     0
 72
   100
 73
     1
 74
     3
 75
     0
 76
     0
 77
     0
 78
     0
  0
ENDTAB
  0
TABLE
  2
LTYPE
 70
     3
  0
LTYPE
  2
CONTINUOUS
 70
     0
  3
Solid line
 72
    65
 73
     0
 40
0.0
  0
LTYPE
  2
DOT
 70
     0
  3

 72
    65
 73
     0
 40
0.0
  0
LTYPE
  2
CENTER
 70
     0
  3

 72
    65
 73
     0
 40
0.0
  0
ENDTAB
  0
TABLE
  2
LAYER
 70
     1
  0
LAYER
  2
0
 70
     0
 62
     7
  6
CONTINUOUS
  0
ENDTAB
  0
TABLE
  2
STYLE
 70
     2
  0
STYLE
  2
STANDARD
 70
     0
 40
0.0
 41
1.0
 50
0.0
 71
     0
 42
0.2
  3
txt
  4

  0
STYLE
  2
ＭＳ_ゴシック
 70
     0
 40
0.0
 41
1.0
 50
0.0
 71
     0
 42
0.2
  3
ＭＳ ゴシック.shx
  4

  0
ENDTAB
  0
TABLE
  2
VIEW
 70
     0
  0
ENDTAB
  0
TABLE
  2
UCS
 70
     0
  0
ENDTAB
  0
ENDSEC
  0
SECTION
  2
BLOCKS
  0
BLOCK
  8
0
  2
D_FRAME_VIEW_1330
 70
     0
 10
0.0
 20
0.0
 30
0.0
  0
LINE
  5
70
  8
0
  6
CONTINUOUS
 62
     9
 10
-498.2060287784278
 20
227.7167165335941
 30
0.0
 11
-505.8019411250801
 21
227.7167165335941
 31
0.0
  0
POLYLINE
  5
71
  8
0
  6
CONTINUOUS
 62
     9
 66
     1
 10
0.0
 20
0.0
 30
0.0
  0
VERTEX
  5
379
  8
0
  6
CONTINUOUS
 62
     9
 10
-506.741633745866
 20
228.7129112316858
 30
0.0
  0
VERTEX
  5
37A
  8
0
  6
CONTINUOUS
 62
     9
 10
-506.7188899079246
 20
228.5221210073211
 30
0.0
  0
VERTEX
  5
37B
  8
0
  6
CONTINUOUS
 62
     9
 10
-506.6622290646406
 20
228.3383879198217
 30
0.0
  0
VERTEX
  5
37C
  8
0
  6
CONTINUOUS
 62
     9
 10
-506.5737470431314
 20
228.1685080697191
 30
0.0
  0
VERTEX
  5
37D
  8
0
  6
CONTINUOUS
 62
     9
 10
-506.4567167036183
 20
228.0187651403457
 30
0.0
  0
VERTEX
  5
37E
  8
0
  6
CONTINUOUS
 62
     9
 10
-506.3154668796466
 20
227.8946979707629
 30
0.0
  0
VERTEX
  5
37F
  8
0
  6
CONTINUOUS
 62
     9
 10
-506.155222258924
 20
227.8008956797221
 30
0.0
  0
VERTEX
  5
380
  8
0
  6
CONTINUOUS
 62
     9
 10
-505.9819101274219
 20
227.7408279188177
 30
0.0
  0
VERTEX
  5
381
  8
0
  6
CONTINUOUS
 62
     9
 10
-505.8019411250802
 20
227.7167165335941
 30
0.0
  0
SEQEND
  5
A02
  8
0
  6
CONTINUOUS
 62
     9
  0
LINE
  5
72
  8
0
  6
CONTINUOUS
 62
     9
 10
-498.2060287784278
 20
173.366716533594
 30
0.0
 11
-505.8019411250801
 21
173.366716533594
 31
0.0
  0
LINE
  5
73
  8
0
  6
CONTINUOUS
 62
     9
 10
-543.8019411250801
 20
241.0140682829576
 30
0.0
 11
-536.2060287784278
 21
241.0140682829576
 31
0.0
  0
LINE
  5
74
  8
0
  6
CONTINUOUS
 62
     9
 10
-536.2060287784278
 20
173.366716533594
 30
0.0
 11
-543.8019411250801
 21
173.366716533594
 31
0.0
  0
POLYLINE
  5
75
  8
0
  6
CONTINUOUS
 62
     9
 66
     1
 10
0.0
 20
0.0
 30
0.0
  0
VERTEX
  5
382
  8
0
  6
CONTINUOUS
 62
     9
 10
-544.741633745866
 20
174.3629112316857
 30
0.0
  0
VERTEX
  5
383
  8
0
  6
CONTINUOUS
 62
     9
 10
-544.7188899079246
 20
174.172121007321
 30
0.0
  0
VERTEX
  5
384
  8
0
  6
CONTINUOUS
 62
     9
 10
-544.6622290646405
 20
173.9883879198216
 30
0.0
  0
VERTEX
  5
385
  8
0
  6
CONTINUOUS
 62
     9
 10
-544.5737470431314
 20
173.818508069719
 30
0.0
  0
VERTEX
  5
386
  8
0
  6
CONTINUOUS
 62
     9
 10
-544.4567167036183
 20
173.6687651403456
 30
0.0
  0
VERTEX
  5
387
  8
0
  6
CONTINUOUS
 62
     9
 10
-544.3154668796467
 20
173.5446979707628
 30
0.0
  0
VERTEX
  5
388
  8
0
  6
CONTINUOUS
 62
     9
 10
-544.155222258924
 20
173.4508956797219
 30
0.0
  0
VERTEX
  5
389
  8
0
  6
CONTINUOUS
 62
     9
 10
-543.9819101274219
 20
173.3908279188176
 30
0.0
  0
VERTEX
  5
38A
  8
0
  6
CONTINUOUS
 62
     9
 10
-543.8019411250802
 20
173.3667165335939
 30
0.0
  0
SEQEND
  5
A03
  8
0
  6
CONTINUOUS
 62
     9
  0
POLYLINE
  5
76
  8
0
  6
CONTINUOUS
 62
     9
 66
     1
 10
0.0
 20
0.0
 30
0.0
  0
VERTEX
  5
38B
  8
0
  6
CONTINUOUS
 62
     9
 10
-535.266336157642
 20
240.0178735848658
 30
0.0
  0
VERTEX
  5
38C
  8
0
  6
CONTINUOUS
 62
     9
 10
-535.2890799955834
 20
240.2086638092306
 30
0.0
  0
VERTEX
  5
38D
  8
0
  6
CONTINUOUS
 62
     9
 10
-535.3457408388674
 20
240.39239689673
 30
0.0
  0
VERTEX
  5
38E
  8
0
  6
CONTINUOUS
 62
     9
 10
-535.4342228603766
 20
240.5622767468326
 30
0.0
  0
VERTEX
  5
38F
  8
0
  6
CONTINUOUS
 62
     9
 10
-535.5512531998896
 20
240.7120196762059
 30
0.0
  0
VERTEX
  5
390
  8
0
  6
CONTINUOUS
 62
     9
 10
-535.6925030238613
 20
240.8360868457888
 30
0.0
  0
VERTEX
  5
391
  8
0
  6
CONTINUOUS
 62
     9
 10
-535.8527476445839
 20
240.9298891368296
 30
0.0
  0
VERTEX
  5
392
  8
0
  6
CONTINUOUS
 62
     9
 10
-536.0260597760861
 20
240.9899568977339
 30
0.0
  0
VERTEX
  5
393
  8
0
  6
CONTINUOUS
 62
     9
 10
-536.2060287784277
 20
241.0140682829576
 30
0.0
  0
SEQEND
  5
A04
  8
0
  6
CONTINUOUS
 62
     9
  0
POLYLINE
  5
77
  8
0
  6
CONTINUOUS
 62
     9
 66
     1
 10
0.0
 20
0.0
 30
0.0
  0
VERTEX
  5
394
  8
0
  6
CONTINUOUS
 62
     9
 10
-506.7416337458661
 20
174.3629112316857
 30
0.0
  0
VERTEX
  5
395
  8
0
  6
CONTINUOUS
 62
     9
 10
-506.7188899079246
 20
174.172121007321
 30
0.0
  0
VERTEX
  5
396
  8
0
  6
CONTINUOUS
 62
     9
 10
-506.6622290646406
 20
173.9883879198216
 30
0.0
  0
VERTEX
  5
397
  8
0
  6
CONTINUOUS
 62
     9
 10
-506.5737470431314
 20
173.818508069719
 30
0.0
  0
VERTEX
  5
398
  8
0
  6
CONTINUOUS
 62
     9
 10
-506.4567167036184
 20
173.6687651403456
 30
0.0
  0
VERTEX
  5
399
  8
0
  6
CONTINUOUS
 62
     9
 10
-506.3154668796466
 20
173.5446979707627
 30
0.0
  0
VERTEX
  5
39A
  8
0
  6
CONTINUOUS
 62
     9
 10
-506.155222258924
 20
173.4508956797219
 30
0.0
  0
VERTEX
  5
39B
  8
0
  6
CONTINUOUS
 62
     9
 10
-505.9819101274219
 20
173.3908279188176
 30
0.0
  0
VERTEX
  5
39C
  8
0
  6
CONTINUOUS
 62
     9
 10
-505.8019411250802
 20
173.366716533594
 30
0.0
  0
SEQEND
  5
A05
  8
0
  6
CONTINUOUS
 62
     9
  0
LINE
  5
78
  8
0
  6
CONTINUOUS
 62
     9
 10
-506.741633745866
 20
228.7129112316858
 30
0.0
 11
-506.741633745866
 21
240.0178735848658
 31
0.0
  0
POLYLINE
  5
79
  8
0
  6
CONTINUOUS
 62
     9
 66
     1
 10
0.0
 20
0.0
 30
0.0
  0
VERTEX
  5
39D
  8
0
  6
CONTINUOUS
 62
     9
 10
-543.8019411250802
 20
206.7640682829575
 30
0.0
  0
VERTEX
  5
39E
  8
0
  6
CONTINUOUS
 62
     9
 10
-543.9819101274219
 20
206.7399568977339
 30
0.0
  0
VERTEX
  5
39F
  8
0
  6
CONTINUOUS
 62
     9
 10
-544.155222258924
 20
206.6798891368295
 30
0.0
  0
VERTEX
  5
3A0
  8
0
  6
CONTINUOUS
 62
     9
 10
-544.3154668796467
 20
206.5860868457887
 30
0.0
  0
VERTEX
  5
3A1
  8
0
  6
CONTINUOUS
 62
     9
 10
-544.4567167036183
 20
206.4620196762059
 30
0.0
  0
VERTEX
  5
3A2
  8
0
  6
CONTINUOUS
 62
     9
 10
-544.5737470431313
 20
206.3122767468325
 30
0.0
  0
VERTEX
  5
3A3
  8
0
  6
CONTINUOUS
 62
     9
 10
-544.6622290646405
 20
206.1423968967299
 30
0.0
  0
VERTEX
  5
3A4
  8
0
  6
CONTINUOUS
 62
     9
 10
-544.7188899079246
 20
205.9586638092305
 30
0.0
  0
VERTEX
  5
3A5
  8
0
  6
CONTINUOUS
 62
     9
 10
-544.741633745866
 20
205.7678735848658
 30
0.0
  0
SEQEND
  5
A06
  8
0
  6
CONTINUOUS
 62
     9
  0
LINE
  5
7A
  8
0
  6
CONTINUOUS
 62
     9
 10
-544.741633745866
 20
174.3629112316857
 30
0.0
 11
-544.741633745866
 21
205.7678735848658
 31
0.0
  0
LINE
  5
7B
  8
0
  6
CONTINUOUS
 62
     9
 10
-536.2060287784278
 20
227.7167165335941
 30
0.0
 11
-543.8019411250801
 21
227.7167165335941
 31
0.0
  0
LINE
  5
7C
  8
0
  6
CONTINUOUS
 62
     9
 10
-535.2663361576418
 20
240.0178735848658
 30
0.0
 11
-535.2663361576418
 21
228.7129112316858
 31
0.0
  0
POLYLINE
  5
7D
  8
0
  6
CONTINUOUS
 62
     9
 66
     1
 10
0.0
 20
0.0
 30
0.0
  0
VERTEX
  5
3A6
  8
0
  6
CONTINUOUS
 62
     9
 10
-543.8019411250802
 20
241.0140682829576
 30
0.0
  0
VERTEX
  5
3A7
  8
0
  6
CONTINUOUS
 62
     9
 10
-543.981910127422
 20
240.9899568977339
 30
0.0
  0
VERTEX
  5
3A8
  8
0
  6
CONTINUOUS
 62
     9
 10
-544.155222258924
 20
240.9298891368296
 30
0.0
  0
VERTEX
  5
3A9
  8
0
  6
CONTINUOUS
 62
     9
 10
-544.3154668796467
 20
240.8360868457888
 30
0.0
  0
VERTEX
  5
3AA
  8
0
  6
CONTINUOUS
 62
     9
 10
-544.4567167036184
 20
240.7120196762059
 30
0.0
  0
VERTEX
  5
3AB
  8
0
  6
CONTINUOUS
 62
     9
 10
-544.5737470431314
 20
240.5622767468325
 30
0.0
  0
VERTEX
  5
3AC
  8
0
  6
CONTINUOUS
 62
     9
 10
-544.6622290646407
 20
240.3923968967299
 30
0.0
  0
VERTEX
  5
3AD
  8
0
  6
CONTINUOUS
 62
     9
 10
-544.7188899079246
 20
240.2086638092305
 30
0.0
  0
VERTEX
  5
3AE
  8
0
  6
CONTINUOUS
 62
     9
 10
-544.741633745866
 20
240.0178735848658
 30
0.0
  0
SEQEND
  5
A07
  8
0
  6
CONTINUOUS
 62
     9
  0
POLYLINE
  5
7E
  8
0
  6
CONTINUOUS
 62
     9
 66
     1
 10
0.0
 20
0.0
 30
0.0
  0
VERTEX
  5
3AF
  8
0
  6
CONTINUOUS
 62
     9
 10
-498.2060287784278
 20
173.366716533594
 30
0.0
  0
VERTEX
  5
3B0
  8
0
  6
CONTINUOUS
 62
     9
 10
-498.0260597760861
 20
173.3908279188176
 30
0.0
  0
VERTEX
  5
3B1
  8
0
  6
CONTINUOUS
 62
     9
 10
-497.852747644584
 20
173.4508956797219
 30
0.0
  0
VERTEX
  5
3B2
  8
0
  6
CONTINUOUS
 62
     9
 10
-497.6925030238613
 20
173.5446979707627
 30
0.0
  0
VERTEX
  5
3B3
  8
0
  6
CONTINUOUS
 62
     9
 10
-497.5512531998896
 20
173.6687651403456
 30
0.0
  0
VERTEX
  5
3B4
  8
0
  6
CONTINUOUS
 62
     9
 10
-497.4342228603765
 20
173.8185080697189
 30
0.0
  0
VERTEX
  5
3B5
  8
0
  6
CONTINUOUS
 62
     9
 10
-497.3457408388673
 20
173.9883879198216
 30
0.0
  0
VERTEX
  5
3B6
  8
0
  6
CONTINUOUS
 62
     9
 10
-497.2890799955833
 20
174.172121007321
 30
0.0
  0
VERTEX
  5
3B7
  8
0
  6
CONTINUOUS
 62
     9
 10
-497.2663361576419
 20
174.3629112316857
 30
0.0
  0
SEQEND
  5
A08
  8
0
  6
CONTINUOUS
 62
     9
  0
LINE
  5
7F
  8
0
  6
CONTINUOUS
 62
     9
 10
-497.2663361576419
 20
205.7678735848658
 30
0.0
 11
-497.2663361576419
 21
174.3629112316857
 31
0.0
  0
POLYLINE
  5
80
  8
0
  6
CONTINUOUS
 62
     9
 66
     1
 10
0.0
 20
0.0
 30
0.0
  0
VERTEX
  5
3B8
  8
0
  6
CONTINUOUS
 62
     9
 10
-536.2060287784277
 20
227.7167165335941
 30
0.0
  0
VERTEX
  5
3B9
  8
0
  6
CONTINUOUS
 62
     9
 10
-536.0260597760861
 20
227.7408279188177
 30
0.0
  0
VERTEX
  5
3BA
  8
0
  6
CONTINUOUS
 62
     9
 10
-535.8527476445839
 20
227.8008956797221
 30
0.0
  0
VERTEX
  5
3BB
  8
0
  6
CONTINUOUS
 62
     9
 10
-535.6925030238613
 20
227.8946979707629
 30
0.0
  0
VERTEX
  5
3BC
  8
0
  6
CONTINUOUS
 62
     9
 10
-535.5512531998896
 20
228.0187651403457
 30
0.0
  0
VERTEX
  5
3BD
  8
0
  6
CONTINUOUS
 62
     9
 10
-535.4342228603766
 20
228.1685080697191
 30
0.0
  0
VERTEX
  5
3BE
  8
0
  6
CONTINUOUS
 62
     9
 10
-535.3457408388674
 20
228.3383879198217
 30
0.0
  0
VERTEX
  5
3BF
  8
0
  6
CONTINUOUS
 62
     9
 10
-535.2890799955834
 20
228.5221210073211
 30
0.0
  0
VERTEX
  5
3C0
  8
0
  6
CONTINUOUS
 62
     9
 10
-535.266336157642
 20
228.7129112316858
 30
0.0
  0
SEQEND
  5
A09
  8
0
  6
CONTINUOUS
 62
     9
  0
LINE
  5
81
  8
0
  6
CONTINUOUS
 62
     9
 10
-505.8019411250801
 20
206.7640682829575
 30
0.0
 11
-498.2060287784277
 21
206.7640682829575
 31
0.0
  0
POLYLINE
  5
82
  8
0
  6
CONTINUOUS
 62
     9
 66
     1
 10
0.0
 20
0.0
 30
0.0
  0
VERTEX
  5
3C1
  8
0
  6
CONTINUOUS
 62
     9
 10
-544.741633745866
 20
228.7129112316858
 30
0.0
  0
VERTEX
  5
3C2
  8
0
  6
CONTINUOUS
 62
     9
 10
-544.7188899079246
 20
228.5221210073211
 30
0.0
  0
VERTEX
  5
3C3
  8
0
  6
CONTINUOUS
 62
     9
 10
-544.6622290646405
 20
228.3383879198217
 30
0.0
  0
VERTEX
  5
3C4
  8
0
  6
CONTINUOUS
 62
     9
 10
-544.5737470431313
 20
228.1685080697191
 30
0.0
  0
VERTEX
  5
3C5
  8
0
  6
CONTINUOUS
 62
     9
 10
-544.4567167036183
 20
228.0187651403457
 30
0.0
  0
VERTEX
  5
3C6
  8
0
  6
CONTINUOUS
 62
     9
 10
-544.3154668796467
 20
227.8946979707629
 30
0.0
  0
VERTEX
  5
3C7
  8
0
  6
CONTINUOUS
 62
     9
 10
-544.155222258924
 20
227.8008956797221
 30
0.0
  0
VERTEX
  5
3C8
  8
0
  6
CONTINUOUS
 62
     9
 10
-543.9819101274219
 20
227.7408279188177
 30
0.0
  0
VERTEX
  5
3C9
  8
0
  6
CONTINUOUS
 62
     9
 10
-543.8019411250802
 20
227.7167165335941
 30
0.0
  0
SEQEND
  5
A0A
  8
0
  6
CONTINUOUS
 62
     9
  0
LINE
  5
83
  8
0
  6
CONTINUOUS
 62
     9
 10
-497.2663361576419
 20
240.0178735848658
 30
0.0
 11
-497.2663361576419
 21
228.7129112316859
 31
0.0
  0
POLYLINE
  5
84
  8
0
  6
CONTINUOUS
 62
     9
 66
     1
 10
0.0
 20
0.0
 30
0.0
  0
VERTEX
  5
3CA
  8
0
  6
CONTINUOUS
 62
     9
 10
-498.2060287784278
 20
227.7167165335941
 30
0.0
  0
VERTEX
  5
3CB
  8
0
  6
CONTINUOUS
 62
     9
 10
-498.0260597760861
 20
227.7408279188177
 30
0.0
  0
VERTEX
  5
3CC
  8
0
  6
CONTINUOUS
 62
     9
 10
-497.852747644584
 20
227.800895679722
 30
0.0
  0
VERTEX
  5
3CD
  8
0
  6
CONTINUOUS
 62
     9
 10
-497.6925030238613
 20
227.8946979707628
 30
0.0
  0
VERTEX
  5
3CE
  8
0
  6
CONTINUOUS
 62
     9
 10
-497.5512531998896
 20
228.0187651403457
 30
0.0
  0
VERTEX
  5
3CF
  8
0
  6
CONTINUOUS
 62
     9
 10
-497.4342228603765
 20
228.1685080697191
 30
0.0
  0
VERTEX
  5
3D0
  8
0
  6
CONTINUOUS
 62
     9
 10
-497.3457408388673
 20
228.3383879198217
 30
0.0
  0
VERTEX
  5
3D1
  8
0
  6
CONTINUOUS
 62
     9
 10
-497.2890799955833
 20
228.5221210073211
 30
0.0
  0
VERTEX
  5
3D2
  8
0
  6
CONTINUOUS
 62
     9
 10
-497.2663361576419
 20
228.7129112316859
 30
0.0
  0
SEQEND
  5
A0B
  8
0
  6
CONTINUOUS
 62
     9
  0
POLYLINE
  5
85
  8
0
  6
CONTINUOUS
 62
     9
 66
     1
 10
0.0
 20
0.0
 30
0.0
  0
VERTEX
  5
3D3
  8
0
  6
CONTINUOUS
 62
     9
 10
-497.2663361576418
 20
240.0178735848658
 30
0.0
  0
VERTEX
  5
3D4
  8
0
  6
CONTINUOUS
 62
     9
 10
-497.2890799955833
 20
240.2086638092306
 30
0.0
  0
VERTEX
  5
3D5
  8
0
  6
CONTINUOUS
 62
     9
 10
-497.3457408388672
 20
240.39239689673
 30
0.0
  0
VERTEX
  5
3D6
  8
0
  6
CONTINUOUS
 62
     9
 10
-497.4342228603764
 20
240.5622767468326
 30
0.0
  0
VERTEX
  5
3D7
  8
0
  6
CONTINUOUS
 62
     9
 10
-497.5512531998895
 20
240.712019676206
 30
0.0
  0
VERTEX
  5
3D8
  8
0
  6
CONTINUOUS
 62
     9
 10
-497.6925030238613
 20
240.8360868457888
 30
0.0
  0
VERTEX
  5
3D9
  8
0
  6
CONTINUOUS
 62
     9
 10
-497.8527476445839
 20
240.9298891368296
 30
0.0
  0
VERTEX
  5
3DA
  8
0
  6
CONTINUOUS
 62
     9
 10
-498.0260597760861
 20
240.989956897734
 30
0.0
  0
VERTEX
  5
3DB
  8
0
  6
CONTINUOUS
 62
     9
 10
-498.2060287784278
 20
241.0140682829576
 30
0.0
  0
SEQEND
  5
A0C
  8
0
  6
CONTINUOUS
 62
     9
  0
LINE
  5
86
  8
0
  6
CONTINUOUS
 62
     9
 10
-535.2663361576418
 20
205.7678735848658
 30
0.0
 11
-535.2663361576418
 21
174.3629112316857
 31
0.0
  0
LINE
  5
87
  8
0
  6
CONTINUOUS
 62
     9
 10
-505.8019411250801
 20
241.0140682829576
 30
0.0
 11
-498.2060287784277
 21
241.0140682829576
 31
0.0
  0
POLYLINE
  5
88
  8
0
  6
CONTINUOUS
 62
     9
 66
     1
 10
0.0
 20
0.0
 30
0.0
  0
VERTEX
  5
3DC
  8
0
  6
CONTINUOUS
 62
     9
 10
-536.2060287784277
 20
173.366716533594
 30
0.0
  0
VERTEX
  5
3DD
  8
0
  6
CONTINUOUS
 62
     9
 10
-536.0260597760861
 20
173.3908279188176
 30
0.0
  0
VERTEX
  5
3DE
  8
0
  6
CONTINUOUS
 62
     9
 10
-535.8527476445839
 20
173.450895679722
 30
0.0
  0
VERTEX
  5
3DF
  8
0
  6
CONTINUOUS
 62
     9
 10
-535.6925030238613
 20
173.5446979707628
 30
0.0
  0
VERTEX
  5
3E0
  8
0
  6
CONTINUOUS
 62
     9
 10
-535.5512531998896
 20
173.6687651403456
 30
0.0
  0
VERTEX
  5
3E1
  8
0
  6
CONTINUOUS
 62
     9
 10
-535.4342228603766
 20
173.818508069719
 30
0.0
  0
VERTEX
  5
3E2
  8
0
  6
CONTINUOUS
 62
     9
 10
-535.3457408388674
 20
173.9883879198216
 30
0.0
  0
VERTEX
  5
3E3
  8
0
  6
CONTINUOUS
 62
     9
 10
-535.2890799955834
 20
174.172121007321
 30
0.0
  0
VERTEX
  5
3E4
  8
0
  6
CONTINUOUS
 62
     9
 10
-535.266336157642
 20
174.3629112316857
 30
0.0
  0
SEQEND
  5
A0D
  8
0
  6
CONTINUOUS
 62
     9
  0
POLYLINE
  5
89
  8
0
  6
CONTINUOUS
 62
     9
 66
     1
 10
0.0
 20
0.0
 30
0.0
  0
VERTEX
  5
3E5
  8
0
  6
CONTINUOUS
 62
     9
 10
-505.8019411250802
 20
241.0140682829576
 30
0.0
  0
VERTEX
  5
3E6
  8
0
  6
CONTINUOUS
 62
     9
 10
-505.9819101274219
 20
240.9899568977339
 30
0.0
  0
VERTEX
  5
3E7
  8
0
  6
CONTINUOUS
 62
     9
 10
-506.155222258924
 20
240.9298891368296
 30
0.0
  0
VERTEX
  5
3E8
  8
0
  6
CONTINUOUS
 62
     9
 10
-506.3154668796466
 20
240.8360868457887
 30
0.0
  0
VERTEX
  5
3E9
  8
0
  6
CONTINUOUS
 62
     9
 10
-506.4567167036184
 20
240.7120196762059
 30
0.0
  0
VERTEX
  5
3EA
  8
0
  6
CONTINUOUS
 62
     9
 10
-506.5737470431314
 20
240.5622767468325
 30
0.0
  0
VERTEX
  5
3EB
  8
0
  6
CONTINUOUS
 62
     9
 10
-506.6622290646406
 20
240.3923968967299
 30
0.0
  0
VERTEX
  5
3EC
  8
0
  6
CONTINUOUS
 62
     9
 10
-506.7188899079246
 20
240.2086638092305
 30
0.0
  0
VERTEX
  5
3ED
  8
0
  6
CONTINUOUS
 62
     9
 10
-506.741633745866
 20
240.0178735848658
 30
0.0
  0
SEQEND
  5
A0E
  8
0
  6
CONTINUOUS
 62
     9
  0
LINE
  5
8A
  8
0
  6
CONTINUOUS
 62
     9
 10
-544.741633745866
 20
228.7129112316858
 30
0.0
 11
-544.741633745866
 21
240.0178735848658
 31
0.0
  0
LINE
  5
8B
  8
0
  6
CONTINUOUS
 62
     9
 10
-543.8019411250801
 20
206.7640682829575
 30
0.0
 11
-536.2060287784278
 21
206.7640682829575
 31
0.0
  0
POLYLINE
  5
8C
  8
0
  6
CONTINUOUS
 62
     9
 66
     1
 10
0.0
 20
0.0
 30
0.0
  0
VERTEX
  5
3EE
  8
0
  6
CONTINUOUS
 62
     9
 10
-505.8019411250802
 20
206.7640682829575
 30
0.0
  0
VERTEX
  5
3EF
  8
0
  6
CONTINUOUS
 62
     9
 10
-505.9819101274219
 20
206.7399568977339
 30
0.0
  0
VERTEX
  5
3F0
  8
0
  6
CONTINUOUS
 62
     9
 10
-506.155222258924
 20
206.6798891368295
 30
0.0
  0
VERTEX
  5
3F1
  8
0
  6
CONTINUOUS
 62
     9
 10
-506.3154668796466
 20
206.5860868457887
 30
0.0
  0
VERTEX
  5
3F2
  8
0
  6
CONTINUOUS
 62
     9
 10
-506.4567167036183
 20
206.4620196762058
 30
0.0
  0
VERTEX
  5
3F3
  8
0
  6
CONTINUOUS
 62
     9
 10
-506.5737470431314
 20
206.3122767468325
 30
0.0
  0
VERTEX
  5
3F4
  8
0
  6
CONTINUOUS
 62
     9
 10
-506.6622290646406
 20
206.1423968967299
 30
0.0
  0
VERTEX
  5
3F5
  8
0
  6
CONTINUOUS
 62
     9
 10
-506.7188899079246
 20
205.9586638092305
 30
0.0
  0
VERTEX
  5
3F6
  8
0
  6
CONTINUOUS
 62
     9
 10
-506.741633745866
 20
205.7678735848658
 30
0.0
  0
SEQEND
  5
A0F
  8
0
  6
CONTINUOUS
 62
     9
  0
POLYLINE
  5
8D
  8
0
  6
CONTINUOUS
 62
     9
 66
     1
 10
0.0
 20
0.0
 30
0.0
  0
VERTEX
  5
3F7
  8
0
  6
CONTINUOUS
 62
     9
 10
-535.266336157642
 20
205.7678735848658
 30
0.0
  0
VERTEX
  5
3F8
  8
0
  6
CONTINUOUS
 62
     9
 10
-535.2890799955834
 20
205.9586638092305
 30
0.0
  0
VERTEX
  5
3F9
  8
0
  6
CONTINUOUS
 62
     9
 10
-535.3457408388674
 20
206.1423968967299
 30
0.0
  0
VERTEX
  5
3FA
  8
0
  6
CONTINUOUS
 62
     9
 10
-535.4342228603766
 20
206.3122767468325
 30
0.0
  0
VERTEX
  5
3FB
  8
0
  6
CONTINUOUS
 62
     9
 10
-535.5512531998896
 20
206.4620196762059
 30
0.0
  0
VERTEX
  5
3FC
  8
0
  6
CONTINUOUS
 62
     9
 10
-535.6925030238613
 20
206.5860868457887
 30
0.0
  0
VERTEX
  5
3FD
  8
0
  6
CONTINUOUS
 62
     9
 10
-535.8527476445839
 20
206.6798891368296
 30
0.0
  0
VERTEX
  5
3FE
  8
0
  6
CONTINUOUS
 62
     9
 10
-536.0260597760861
 20
206.7399568977339
 30
0.0
  0
VERTEX
  5
3FF
  8
0
  6
CONTINUOUS
 62
     9
 10
-536.2060287784277
 20
206.7640682829575
 30
0.0
  0
SEQEND
  5
A10
  8
0
  6
CONTINUOUS
 62
     9
  0
POLYLINE
  5
8E
  8
0
  6
CONTINUOUS
 62
     9
 66
     1
 10
0.0
 20
0.0
 30
0.0
  0
VERTEX
  5
400
  8
0
  6
CONTINUOUS
 62
     9
 10
-497.2663361576419
 20
205.7678735848658
 30
0.0
  0
VERTEX
  5
401
  8
0
  6
CONTINUOUS
 62
     9
 10
-497.2890799955833
 20
205.9586638092306
 30
0.0
  0
VERTEX
  5
402
  8
0
  6
CONTINUOUS
 62
     9
 10
-497.3457408388674
 20
206.1423968967299
 30
0.0
  0
VERTEX
  5
403
  8
0
  6
CONTINUOUS
 62
     9
 10
-497.4342228603765
 20
206.3122767468325
 30
0.0
  0
VERTEX
  5
404
  8
0
  6
CONTINUOUS
 62
     9
 10
-497.5512531998896
 20
206.4620196762059
 30
0.0
  0
VERTEX
  5
405
  8
0
  6
CONTINUOUS
 62
     9
 10
-497.6925030238613
 20
206.5860868457887
 30
0.0
  0
VERTEX
  5
406
  8
0
  6
CONTINUOUS
 62
     9
 10
-497.8527476445839
 20
206.6798891368296
 30
0.0
  0
VERTEX
  5
407
  8
0
  6
CONTINUOUS
 62
     9
 10
-498.0260597760861
 20
206.7399568977339
 30
0.0
  0
VERTEX
  5
408
  8
0
  6
CONTINUOUS
 62
     9
 10
-498.2060287784277
 20
206.7640682829575
 30
0.0
  0
SEQEND
  5
A11
  8
0
  6
CONTINUOUS
 62
     9
  0
LINE
  5
8F
  8
0
  6
CONTINUOUS
 62
     9
 10
-506.741633745866
 20
174.3629112316857
 30
0.0
 11
-506.741633745866
 21
205.7678735848658
 31
0.0
  0
CIRCLE
  5
90
  8
0
  6
CONTINUOUS
 62
     7
 10
-551.0039849517541
 20
146.2903924082762
 30
0.0
 40
3.500000000000059
  0
CIRCLE
  5
91
  8
0
  6
CONTINUOUS
 62
     7
 10
-491.0039849517539
 20
268.0403924082761
 30
0.0
 40
3.500000000000003
  0
CIRCLE
  5
92
  8
0
  6
CONTINUOUS
 62
     7
 10
-551.0039849517541
 20
268.0403924082761
 30
0.0
 40
3.500000000000059
  0
CIRCLE
  5
93
  8
0
  6
CONTINUOUS
 62
     7
 10
-491.0039849517539
 20
146.2903924082762
 30
0.0
 40
3.500000000000003
  0
POLYLINE
  5
94
  8
0
  6
CONTINUOUS
 62
     9
 66
     1
 10
0.0
 20
0.0
 30
0.0
  0
VERTEX
  5
409
  8
0
  6
CONTINUOUS
 62
     9
 10
-506.9572960200898
 20
241.2917845524385
 30
0.0
  0
VERTEX
  5
40A
  8
0
  6
CONTINUOUS
 62
     9
 10
-507.1834119982902
 20
241.2787656601265
 30
0.0
  0
VERTEX
  5
40B
  8
0
  6
CONTINUOUS
 62
     9
 10
-507.3988174395113
 20
241.228815999726
 30
0.0
  0
VERTEX
  5
40C
  8
0
  6
CONTINUOUS
 62
     9
 10
-507.5955447149852
 20
241.1437831585071
 30
0.0
  0
VERTEX
  5
40D
  8
0
  6
CONTINUOUS
 62
     9
 10
-507.7663170823487
 20
241.0268124150109
 30
0.0
  0
VERTEX
  5
40E
  8
0
  6
CONTINUOUS
 62
     9
 10
-507.9048178449609
 20
240.8822303983866
 30
0.0
  0
VERTEX
  5
40F
  8
0
  6
CONTINUOUS
 62
     9
 10
-508.0059240001053
 20
240.7153850507678
 30
0.0
  0
VERTEX
  5
410
  8
0
  6
CONTINUOUS
 62
     9
 10
-508.0658957336633
 20
240.5324478123183
 30
0.0
  0
VERTEX
  5
411
  8
0
  6
CONTINUOUS
 62
     9
 10
-508.0825147520446
 20
240.3401853459206
 30
0.0
  0
SEQEND
  5
A12
  8
0
  6
CONTINUOUS
 62
     9
  0
POLYLINE
  5
95
  8
0
  6
CONTINUOUS
 62
     9
 66
     1
 10
0.0
 20
0.0
 30
0.0
  0
VERTEX
  5
412
  8
0
  6
CONTINUOUS
 62
     9
 10
-546.0825147520446
 20
228.390599470631
 30
0.0
  0
VERTEX
  5
413
  8
0
  6
CONTINUOUS
 62
     9
 10
-546.0658957336633
 20
228.1983370042333
 30
0.0
  0
VERTEX
  5
414
  8
0
  6
CONTINUOUS
 62
     9
 10
-546.0059240001053
 20
228.0153997657838
 30
0.0
  0
VERTEX
  5
415
  8
0
  6
CONTINUOUS
 62
     9
 10
-545.9048178449608
 20
227.848554418165
 30
0.0
  0
VERTEX
  5
416
  8
0
  6
CONTINUOUS
 62
     9
 10
-545.7663170823486
 20
227.7039724015407
 30
0.0
  0
VERTEX
  5
417
  8
0
  6
CONTINUOUS
 62
     9
 10
-545.5955447149853
 20
227.5870016580445
 30
0.0
  0
VERTEX
  5
418
  8
0
  6
CONTINUOUS
 62
     9
 10
-545.3988174395113
 20
227.5019688168256
 30
0.0
  0
VERTEX
  5
419
  8
0
  6
CONTINUOUS
 62
     9
 10
-545.1834119982902
 20
227.4520191564251
 30
0.0
  0
VERTEX
  5
41A
  8
0
  6
CONTINUOUS
 62
     9
 10
-544.9572960200898
 20
227.4390002641131
 30
0.0
  0
SEQEND
  5
A13
  8
0
  6
CONTINUOUS
 62
     9
  0
POLYLINE
  5
96
  8
0
  6
CONTINUOUS
 62
     9
 66
     1
 10
0.0
 20
0.0
 30
0.0
  0
VERTEX
  5
41B
  8
0
  6
CONTINUOUS
 62
     9
 10
-508.0825147520446
 20
228.390599470631
 30
0.0
  0
VERTEX
  5
41C
  8
0
  6
CONTINUOUS
 62
     9
 10
-508.0658957336633
 20
228.1983370042333
 30
0.0
  0
VERTEX
  5
41D
  8
0
  6
CONTINUOUS
 62
     9
 10
-508.0059240001053
 20
228.0153997657838
 30
0.0
  0
VERTEX
  5
41E
  8
0
  6
CONTINUOUS
 62
     9
 10
-507.9048178449609
 20
227.848554418165
 30
0.0
  0
VERTEX
  5
41F
  8
0
  6
CONTINUOUS
 62
     9
 10
-507.7663170823487
 20
227.7039724015407
 30
0.0
  0
VERTEX
  5
420
  8
0
  6
CONTINUOUS
 62
     9
 10
-507.5955447149852
 20
227.5870016580445
 30
0.0
  0
VERTEX
  5
421
  8
0
  6
CONTINUOUS
 62
     9
 10
-507.3988174395113
 20
227.5019688168256
 30
0.0
  0
VERTEX
  5
422
  8
0
  6
CONTINUOUS
 62
     9
 10
-507.1834119982901
 20
227.4520191564251
 30
0.0
  0
VERTEX
  5
423
  8
0
  6
CONTINUOUS
 62
     9
 10
-506.9572960200898
 20
227.4390002641131
 30
0.0
  0
SEQEND
  5
A14
  8
0
  6
CONTINUOUS
 62
     9
  0
POLYLINE
  5
97
  8
0
  6
CONTINUOUS
 62
     9
 66
     1
 10
0.0
 20
0.0
 30
0.0
  0
VERTEX
  5
424
  8
0
  6
CONTINUOUS
 62
     9
 10
-535.0506738834181
 20
227.4390002641131
 30
0.0
  0
VERTEX
  5
425
  8
0
  6
CONTINUOUS
 62
     9
 10
-534.8245579052176
 20
227.4520191564251
 30
0.0
  0
VERTEX
  5
426
  8
0
  6
CONTINUOUS
 62
     9
 10
-534.6091524639966
 20
227.5019688168256
 30
0.0
  0
VERTEX
  5
427
  8
0
  6
CONTINUOUS
 62
     9
 10
-534.4124251885225
 20
227.5870016580445
 30
0.0
  0
VERTEX
  5
428
  8
0
  6
CONTINUOUS
 62
     9
 10
-534.2416528211593
 20
227.7039724015407
 30
0.0
  0
VERTEX
  5
429
  8
0
  6
CONTINUOUS
 62
     9
 10
-534.103152058547
 20
227.848554418165
 30
0.0
  0
VERTEX
  5
42A
  8
0
  6
CONTINUOUS
 62
     9
 10
-534.0020459034025
 20
228.0153997657838
 30
0.0
  0
VERTEX
  5
42B
  8
0
  6
CONTINUOUS
 62
     9
 10
-533.9420741698445
 20
228.1983370042333
 30
0.0
  0
VERTEX
  5
42C
  8
0
  6
CONTINUOUS
 62
     9
 10
-533.9254551514632
 20
228.390599470631
 30
0.0
  0
SEQEND
  5
A15
  8
0
  6
CONTINUOUS
 62
     9
  0
POLYLINE
  5
98
  8
0
  6
CONTINUOUS
 62
     9
 66
     1
 10
0.0
 20
0.0
 30
0.0
  0
VERTEX
  5
42D
  8
0
  6
CONTINUOUS
 62
     9
 10
-546.0825147520446
 20
174.040599470631
 30
0.0
  0
VERTEX
  5
42E
  8
0
  6
CONTINUOUS
 62
     9
 10
-546.0658957336633
 20
173.8483370042332
 30
0.0
  0
VERTEX
  5
42F
  8
0
  6
CONTINUOUS
 62
     9
 10
-546.0059240001053
 20
173.6653997657837
 30
0.0
  0
VERTEX
  5
430
  8
0
  6
CONTINUOUS
 62
     9
 10
-545.9048178449608
 20
173.498554418165
 30
0.0
  0
VERTEX
  5
431
  8
0
  6
CONTINUOUS
 62
     9
 10
-545.7663170823486
 20
173.3539724015406
 30
0.0
  0
VERTEX
  5
432
  8
0
  6
CONTINUOUS
 62
     9
 10
-545.5955447149853
 20
173.2370016580444
 30
0.0
  0
VERTEX
  5
433
  8
0
  6
CONTINUOUS
 62
     9
 10
-545.3988174395113
 20
173.1519688168256
 30
0.0
  0
VERTEX
  5
434
  8
0
  6
CONTINUOUS
 62
     9
 10
-545.1834119982902
 20
173.102019156425
 30
0.0
  0
VERTEX
  5
435
  8
0
  6
CONTINUOUS
 62
     9
 10
-544.9572960200898
 20
173.089000264113
 30
0.0
  0
SEQEND
  5
A16
  8
0
  6
CONTINUOUS
 62
     9
  0
POLYLINE
  5
99
  8
0
  6
CONTINUOUS
 62
     9
 66
     1
 10
0.0
 20
0.0
 30
0.0
  0
VERTEX
  5
436
  8
0
  6
CONTINUOUS
 62
     9
 10
-535.0506738834181
 20
173.089000264113
 30
0.0
  0
VERTEX
  5
437
  8
0
  6
CONTINUOUS
 62
     9
 10
-534.8245579052176
 20
173.102019156425
 30
0.0
  0
VERTEX
  5
438
  8
0
  6
CONTINUOUS
 62
     9
 10
-534.6091524639966
 20
173.1519688168256
 30
0.0
  0
VERTEX
  5
439
  8
0
  6
CONTINUOUS
 62
     9
 10
-534.4124251885225
 20
173.2370016580444
 30
0.0
  0
VERTEX
  5
43A
  8
0
  6
CONTINUOUS
 62
     9
 10
-534.2416528211593
 20
173.3539724015406
 30
0.0
  0
VERTEX
  5
43B
  8
0
  6
CONTINUOUS
 62
     9
 10
-534.103152058547
 20
173.498554418165
 30
0.0
  0
VERTEX
  5
43C
  8
0
  6
CONTINUOUS
 62
     9
 10
-534.0020459034025
 20
173.6653997657837
 30
0.0
  0
VERTEX
  5
43D
  8
0
  6
CONTINUOUS
 62
     9
 10
-533.9420741698445
 20
173.8483370042332
 30
0.0
  0
VERTEX
  5
43E
  8
0
  6
CONTINUOUS
 62
     9
 10
-533.9254551514632
 20
174.040599470631
 30
0.0
  0
SEQEND
  5
A17
  8
0
  6
CONTINUOUS
 62
     9
  0
POLYLINE
  5
9A
  8
0
  6
CONTINUOUS
 62
     9
 66
     1
 10
0.0
 20
0.0
 30
0.0
  0
VERTEX
  5
43F
  8
0
  6
CONTINUOUS
 62
     9
 10
-533.9254551514632
 20
240.3401853459206
 30
0.0
  0
VERTEX
  5
440
  8
0
  6
CONTINUOUS
 62
     9
 10
-533.9420741698445
 20
240.5324478123184
 30
0.0
  0
VERTEX
  5
441
  8
0
  6
CONTINUOUS
 62
     9
 10
-534.0020459034025
 20
240.7153850507678
 30
0.0
  0
VERTEX
  5
442
  8
0
  6
CONTINUOUS
 62
     9
 10
-534.103152058547
 20
240.8822303983866
 30
0.0
  0
VERTEX
  5
443
  8
0
  6
CONTINUOUS
 62
     9
 10
-534.2416528211593
 20
241.026812415011
 30
0.0
  0
VERTEX
  5
444
  8
0
  6
CONTINUOUS
 62
     9
 10
-534.4124251885225
 20
241.1437831585071
 30
0.0
  0
VERTEX
  5
445
  8
0
  6
CONTINUOUS
 62
     9
 10
-534.6091524639966
 20
241.228815999726
 30
0.0
  0
VERTEX
  5
446
  8
0
  6
CONTINUOUS
 62
     9
 10
-534.8245579052176
 20
241.2787656601266
 30
0.0
  0
VERTEX
  5
447
  8
0
  6
CONTINUOUS
 62
     9
 10
-535.0506738834181
 20
241.2917845524385
 30
0.0
  0
SEQEND
  5
A18
  8
0
  6
CONTINUOUS
 62
     9
  0
POLYLINE
  5
9B
  8
0
  6
CONTINUOUS
 62
     9
 66
     1
 10
0.0
 20
0.0
 30
0.0
  0
VERTEX
  5
448
  8
0
  6
CONTINUOUS
 62
     9
 10
-495.9254551514633
 20
240.3401853459206
 30
0.0
  0
VERTEX
  5
449
  8
0
  6
CONTINUOUS
 62
     9
 10
-495.9420741698446
 20
240.5324478123184
 30
0.0
  0
VERTEX
  5
44A
  8
0
  6
CONTINUOUS
 62
     9
 10
-496.0020459034026
 20
240.7153850507678
 30
0.0
  0
VERTEX
  5
44B
  8
0
  6
CONTINUOUS
 62
     9
 10
-496.103152058547
 20
240.8822303983866
 30
0.0
  0
VERTEX
  5
44C
  8
0
  6
CONTINUOUS
 62
     9
 10
-496.2416528211592
 20
241.026812415011
 30
0.0
  0
VERTEX
  5
44D
  8
0
  6
CONTINUOUS
 62
     9
 10
-496.4124251885227
 20
241.1437831585071
 30
0.0
  0
VERTEX
  5
44E
  8
0
  6
CONTINUOUS
 62
     9
 10
-496.6091524639966
 20
241.228815999726
 30
0.0
  0
VERTEX
  5
44F
  8
0
  6
CONTINUOUS
 62
     9
 10
-496.8245579052177
 20
241.2787656601266
 30
0.0
  0
VERTEX
  5
450
  8
0
  6
CONTINUOUS
 62
     9
 10
-497.0506738834181
 20
241.2917845524385
 30
0.0
  0
SEQEND
  5
A19
  8
0
  6
CONTINUOUS
 62
     9
  0
POLYLINE
  5
9C
  8
0
  6
CONTINUOUS
 62
     9
 66
     1
 10
0.0
 20
0.0
 30
0.0
  0
VERTEX
  5
451
  8
0
  6
CONTINUOUS
 62
     9
 10
-495.9254551514633
 20
206.0901853459205
 30
0.0
  0
VERTEX
  5
452
  8
0
  6
CONTINUOUS
 62
     9
 10
-495.9420741698446
 20
206.2824478123183
 30
0.0
  0
VERTEX
  5
453
  8
0
  6
CONTINUOUS
 62
     9
 10
-496.0020459034026
 20
206.4653850507677
 30
0.0
  0
VERTEX
  5
454
  8
0
  6
CONTINUOUS
 62
     9
 10
-496.103152058547
 20
206.6322303983865
 30
0.0
  0
VERTEX
  5
455
  8
0
  6
CONTINUOUS
 62
     9
 10
-496.2416528211592
 20
206.7768124150109
 30
0.0
  0
VERTEX
  5
456
  8
0
  6
CONTINUOUS
 62
     9
 10
-496.4124251885227
 20
206.893783158507
 30
0.0
  0
VERTEX
  5
457
  8
0
  6
CONTINUOUS
 62
     9
 10
-496.6091524639966
 20
206.978815999726
 30
0.0
  0
VERTEX
  5
458
  8
0
  6
CONTINUOUS
 62
     9
 10
-496.8245579052177
 20
207.0287656601265
 30
0.0
  0
VERTEX
  5
459
  8
0
  6
CONTINUOUS
 62
     9
 10
-497.0506738834181
 20
207.0417845524385
 30
0.0
  0
SEQEND
  5
A1A
  8
0
  6
CONTINUOUS
 62
     9
  0
POLYLINE
  5
9D
  8
0
  6
CONTINUOUS
 62
     9
 66
     1
 10
0.0
 20
0.0
 30
0.0
  0
VERTEX
  5
45A
  8
0
  6
CONTINUOUS
 62
     9
 10
-544.9572960200898
 20
207.0417845524385
 30
0.0
  0
VERTEX
  5
45B
  8
0
  6
CONTINUOUS
 62
     9
 10
-545.1834119982902
 20
207.0287656601265
 30
0.0
  0
VERTEX
  5
45C
  8
0
  6
CONTINUOUS
 62
     9
 10
-545.3988174395113
 20
206.9788159997259
 30
0.0
  0
VERTEX
  5
45D
  8
0
  6
CONTINUOUS
 62
     9
 10
-545.5955447149853
 20
206.8937831585071
 30
0.0
  0
VERTEX
  5
45E
  8
0
  6
CONTINUOUS
 62
     9
 10
-545.7663170823486
 20
206.7768124150109
 30
0.0
  0
VERTEX
  5
45F
  8
0
  6
CONTINUOUS
 62
     9
 10
-545.9048178449608
 20
206.6322303983865
 30
0.0
  0
VERTEX
  5
460
  8
0
  6
CONTINUOUS
 62
     9
 10
-546.0059240001053
 20
206.4653850507677
 30
0.0
  0
VERTEX
  5
461
  8
0
  6
CONTINUOUS
 62
     9
 10
-546.0658957336633
 20
206.2824478123183
 30
0.0
  0
VERTEX
  5
462
  8
0
  6
CONTINUOUS
 62
     9
 10
-546.0825147520446
 20
206.0901853459205
 30
0.0
  0
SEQEND
  5
A1B
  8
0
  6
CONTINUOUS
 62
     9
  0
POLYLINE
  5
9E
  8
0
  6
CONTINUOUS
 62
     9
 66
     1
 10
0.0
 20
0.0
 30
0.0
  0
VERTEX
  5
463
  8
0
  6
CONTINUOUS
 62
     9
 10
-508.0825147520446
 20
174.040599470631
 30
0.0
  0
VERTEX
  5
464
  8
0
  6
CONTINUOUS
 62
     9
 10
-508.0658957336633
 20
173.8483370042332
 30
0.0
  0
VERTEX
  5
465
  8
0
  6
CONTINUOUS
 62
     9
 10
-508.0059240001053
 20
173.6653997657837
 30
0.0
  0
VERTEX
  5
466
  8
0
  6
CONTINUOUS
 62
     9
 10
-507.9048178449609
 20
173.498554418165
 30
0.0
  0
VERTEX
  5
467
  8
0
  6
CONTINUOUS
 62
     9
 10
-507.7663170823487
 20
173.3539724015406
 30
0.0
  0
VERTEX
  5
468
  8
0
  6
CONTINUOUS
 62
     9
 10
-507.5955447149852
 20
173.2370016580444
 30
0.0
  0
VERTEX
  5
469
  8
0
  6
CONTINUOUS
 62
     9
 10
-507.3988174395113
 20
173.1519688168255
 30
0.0
  0
VERTEX
  5
46A
  8
0
  6
CONTINUOUS
 62
     9
 10
-507.1834119982902
 20
173.102019156425
 30
0.0
  0
VERTEX
  5
46B
  8
0
  6
CONTINUOUS
 62
     9
 10
-506.9572960200898
 20
173.089000264113
 30
0.0
  0
SEQEND
  5
A1C
  8
0
  6
CONTINUOUS
 62
     9
  0
POLYLINE
  5
9F
  8
0
  6
CONTINUOUS
 62
     9
 66
     1
 10
0.0
 20
0.0
 30
0.0
  0
VERTEX
  5
46C
  8
0
  6
CONTINUOUS
 62
     9
 10
-533.9254551514632
 20
206.0901853459205
 30
0.0
  0
VERTEX
  5
46D
  8
0
  6
CONTINUOUS
 62
     9
 10
-533.9420741698445
 20
206.2824478123183
 30
0.0
  0
VERTEX
  5
46E
  8
0
  6
CONTINUOUS
 62
     9
 10
-534.0020459034025
 20
206.4653850507677
 30
0.0
  0
VERTEX
  5
46F
  8
0
  6
CONTINUOUS
 62
     9
 10
-534.103152058547
 20
206.6322303983865
 30
0.0
  0
VERTEX
  5
470
  8
0
  6
CONTINUOUS
 62
     9
 10
-534.2416528211593
 20
206.7768124150109
 30
0.0
  0
VERTEX
  5
471
  8
0
  6
CONTINUOUS
 62
     9
 10
-534.4124251885225
 20
206.893783158507
 30
0.0
  0
VERTEX
  5
472
  8
0
  6
CONTINUOUS
 62
     9
 10
-534.6091524639966
 20
206.9788159997259
 30
0.0
  0
VERTEX
  5
473
  8
0
  6
CONTINUOUS
 62
     9
 10
-534.8245579052176
 20
207.0287656601265
 30
0.0
  0
VERTEX
  5
474
  8
0
  6
CONTINUOUS
 62
     9
 10
-535.0506738834181
 20
207.0417845524385
 30
0.0
  0
SEQEND
  5
A1D
  8
0
  6
CONTINUOUS
 62
     9
  0
POLYLINE
  5
A0
  8
0
  6
CONTINUOUS
 62
     9
 66
     1
 10
0.0
 20
0.0
 30
0.0
  0
VERTEX
  5
475
  8
0
  6
CONTINUOUS
 62
     9
 10
-497.0506738834181
 20
173.089000264113
 30
0.0
  0
VERTEX
  5
476
  8
0
  6
CONTINUOUS
 62
     9
 10
-496.8245579052177
 20
173.102019156425
 30
0.0
  0
VERTEX
  5
477
  8
0
  6
CONTINUOUS
 62
     9
 10
-496.6091524639966
 20
173.1519688168256
 30
0.0
  0
VERTEX
  5
478
  8
0
  6
CONTINUOUS
 62
     9
 10
-496.4124251885227
 20
173.2370016580444
 30
0.0
  0
VERTEX
  5
479
  8
0
  6
CONTINUOUS
 62
     9
 10
-496.2416528211592
 20
173.3539724015406
 30
0.0
  0
VERTEX
  5
47A
  8
0
  6
CONTINUOUS
 62
     9
 10
-496.103152058547
 20
173.498554418165
 30
0.0
  0
VERTEX
  5
47B
  8
0
  6
CONTINUOUS
 62
     9
 10
-496.0020459034026
 20
173.6653997657837
 30
0.0
  0
VERTEX
  5
47C
  8
0
  6
CONTINUOUS
 62
     9
 10
-495.9420741698446
 20
173.8483370042332
 30
0.0
  0
VERTEX
  5
47D
  8
0
  6
CONTINUOUS
 62
     9
 10
-495.9254551514633
 20
174.040599470631
 30
0.0
  0
SEQEND
  5
A1E
  8
0
  6
CONTINUOUS
 62
     9
  0
POLYLINE
  5
A1
  8
0
  6
CONTINUOUS
 62
     9
 66
     1
 10
0.0
 20
0.0
 30
0.0
  0
VERTEX
  5
47E
  8
0
  6
CONTINUOUS
 62
     9
 10
-506.9572960200898
 20
207.0417845524385
 30
0.0
  0
VERTEX
  5
47F
  8
0
  6
CONTINUOUS
 62
     9
 10
-507.1834119982902
 20
207.0287656601265
 30
0.0
  0
VERTEX
  5
480
  8
0
  6
CONTINUOUS
 62
     9
 10
-507.3988174395113
 20
206.9788159997259
 30
0.0
  0
VERTEX
  5
481
  8
0
  6
CONTINUOUS
 62
     9
 10
-507.5955447149852
 20
206.8937831585071
 30
0.0
  0
VERTEX
  5
482
  8
0
  6
CONTINUOUS
 62
     9
 10
-507.7663170823487
 20
206.7768124150109
 30
0.0
  0
VERTEX
  5
483
  8
0
  6
CONTINUOUS
 62
     9
 10
-507.9048178449609
 20
206.6322303983865
 30
0.0
  0
VERTEX
  5
484
  8
0
  6
CONTINUOUS
 62
     9
 10
-508.0059240001053
 20
206.4653850507677
 30
0.0
  0
VERTEX
  5
485
  8
0
  6
CONTINUOUS
 62
     9
 10
-508.0658957336633
 20
206.2824478123183
 30
0.0
  0
VERTEX
  5
486
  8
0
  6
CONTINUOUS
 62
     9
 10
-508.0825147520446
 20
206.0901853459205
 30
0.0
  0
SEQEND
  5
A1F
  8
0
  6
CONTINUOUS
 62
     9
  0
POLYLINE
  5
A2
  8
0
  6
CONTINUOUS
 62
     9
 66
     1
 10
0.0
 20
0.0
 30
0.0
  0
VERTEX
  5
487
  8
0
  6
CONTINUOUS
 62
     9
 10
-497.0506738834181
 20
227.4390002641131
 30
0.0
  0
VERTEX
  5
488
  8
0
  6
CONTINUOUS
 62
     9
 10
-496.8245579052177
 20
227.4520191564251
 30
0.0
  0
VERTEX
  5
489
  8
0
  6
CONTINUOUS
 62
     9
 10
-496.6091524639966
 20
227.5019688168256
 30
0.0
  0
VERTEX
  5
48A
  8
0
  6
CONTINUOUS
 62
     9
 10
-496.4124251885227
 20
227.5870016580445
 30
0.0
  0
VERTEX
  5
48B
  8
0
  6
CONTINUOUS
 62
     9
 10
-496.2416528211592
 20
227.7039724015407
 30
0.0
  0
VERTEX
  5
48C
  8
0
  6
CONTINUOUS
 62
     9
 10
-496.103152058547
 20
227.8485544181651
 30
0.0
  0
VERTEX
  5
48D
  8
0
  6
CONTINUOUS
 62
     9
 10
-496.0020459034026
 20
228.0153997657838
 30
0.0
  0
VERTEX
  5
48E
  8
0
  6
CONTINUOUS
 62
     9
 10
-495.9420741698446
 20
228.1983370042333
 30
0.0
  0
VERTEX
  5
48F
  8
0
  6
CONTINUOUS
 62
     9
 10
-495.9254551514633
 20
228.3905994706311
 30
0.0
  0
SEQEND
  5
A20
  8
0
  6
CONTINUOUS
 62
     9
  0
POLYLINE
  5
A3
  8
0
  6
CONTINUOUS
 62
     9
 66
     1
 10
0.0
 20
0.0
 30
0.0
  0
VERTEX
  5
490
  8
0
  6
CONTINUOUS
 62
     9
 10
-544.9572960200898
 20
241.2917845524385
 30
0.0
  0
VERTEX
  5
491
  8
0
  6
CONTINUOUS
 62
     9
 10
-545.1834119982902
 20
241.2787656601265
 30
0.0
  0
VERTEX
  5
492
  8
0
  6
CONTINUOUS
 62
     9
 10
-545.3988174395113
 20
241.228815999726
 30
0.0
  0
VERTEX
  5
493
  8
0
  6
CONTINUOUS
 62
     9
 10
-545.5955447149853
 20
241.1437831585071
 30
0.0
  0
VERTEX
  5
494
  8
0
  6
CONTINUOUS
 62
     9
 10
-545.7663170823486
 20
241.0268124150109
 30
0.0
  0
VERTEX
  5
495
  8
0
  6
CONTINUOUS
 62
     9
 10
-545.9048178449608
 20
240.8822303983866
 30
0.0
  0
VERTEX
  5
496
  8
0
  6
CONTINUOUS
 62
     9
 10
-546.0059240001053
 20
240.7153850507678
 30
0.0
  0
VERTEX
  5
497
  8
0
  6
CONTINUOUS
 62
     9
 10
-546.0658957336633
 20
240.5324478123183
 30
0.0
  0
VERTEX
  5
498
  8
0
  6
CONTINUOUS
 62
     9
 10
-546.0825147520446
 20
240.3401853459206
 30
0.0
  0
SEQEND
  5
A21
  8
0
  6
CONTINUOUS
 62
     9
  0
LINE
  5
A4
  8
0
  6
CONTINUOUS
 62
     9
 10
-546.0825147520447
 20
240.3401853459206
 30
0.0
 11
-546.0825147520447
 21
228.390599470631
 31
0.0
  0
LINE
  5
A5
  8
0
  6
CONTINUOUS
 62
     9
 10
-508.0825147520447
 20
240.3401853459206
 30
0.0
 11
-508.0825147520447
 21
228.390599470631
 31
0.0
  0
LINE
  5
A6
  8
0
  6
CONTINUOUS
 62
     9
 10
-533.9254551514633
 20
228.390599470631
 30
0.0
 11
-533.9254551514633
 21
240.3401853459206
 31
0.0
  0
LINE
  5
A7
  8
0
  6
CONTINUOUS
 62
     9
 10
-533.9254551514633
 20
174.040599470631
 30
0.0
 11
-533.9254551514633
 21
206.0901853459205
 31
0.0
  0
LINE
  5
A8
  8
0
  6
CONTINUOUS
 62
     9
 10
-508.0825147520447
 20
206.0901853459205
 30
0.0
 11
-508.0825147520447
 21
174.040599470631
 31
0.0
  0
LINE
  5
A9
  8
0
  6
CONTINUOUS
 62
     9
 10
-495.9254551514632
 20
228.3905994706311
 30
0.0
 11
-495.9254551514632
 21
240.3401853459206
 31
0.0
  0
LINE
  5
AA
  8
0
  6
CONTINUOUS
 62
     9
 10
-546.0825147520447
 20
206.0901853459205
 30
0.0
 11
-546.0825147520447
 21
174.040599470631
 31
0.0
  0
LINE
  5
AB
  8
0
  6
CONTINUOUS
 62
     9
 10
-495.9254551514632
 20
174.040599470631
 30
0.0
 11
-495.9254551514632
 21
206.0901853459205
 31
0.0
  0
LINE
  5
AC
  8
0
  6
CONTINUOUS
 62
     9
 10
-535.0506738834182
 20
207.0417845524385
 30
0.0
 11
-544.9572960200898
 21
207.0417845524385
 31
0.0
  0
LINE
  5
AD
  8
0
  6
CONTINUOUS
 62
     9
 10
-506.9572960200898
 20
227.4390002641131
 30
0.0
 11
-497.0506738834181
 21
227.4390002641131
 31
0.0
  0
LINE
  5
AE
  8
0
  6
CONTINUOUS
 62
     9
 10
-506.9572960200898
 20
173.089000264113
 30
0.0
 11
-497.0506738834181
 21
173.089000264113
 31
0.0
  0
LINE
  5
AF
  8
0
  6
CONTINUOUS
 62
     9
 10
-535.0506738834182
 20
241.2917845524385
 30
0.0
 11
-544.9572960200898
 21
241.2917845524385
 31
0.0
  0
LINE
  5
B0
  8
0
  6
CONTINUOUS
 62
     9
 10
-544.9572960200898
 20
227.4390002641131
 30
0.0
 11
-535.0506738834182
 21
227.4390002641131
 31
0.0
  0
LINE
  5
B1
  8
0
  6
CONTINUOUS
 62
     9
 10
-544.9572960200898
 20
173.089000264113
 30
0.0
 11
-535.0506738834182
 21
173.089000264113
 31
0.0
  0
LINE
  5
B2
  8
0
  6
CONTINUOUS
 62
     9
 10
-497.0506738834181
 20
241.2917845524385
 30
0.0
 11
-506.9572960200898
 21
241.2917845524385
 31
0.0
  0
LINE
  5
B3
  8
0
  6
CONTINUOUS
 62
     9
 10
-497.0506738834181
 20
207.0417845524385
 30
0.0
 11
-506.9572960200898
 21
207.0417845524385
 31
0.0
  0
LINE
  5
B4
  8
0
  6
CONTINUOUS
 62
     9
 10
-557.4900640358285
 20
102.3314833619665
 30
0.0
 11
-557.350557536755
 21
102.390598671963
 31
0.0
  0
ARC
  5
B5
  8
0
  6
CONTINUOUS
 62
     9
 10
-558.0233644588911
 20
103.7781918232664
 30
0.0
 40
1.542103728034633
 50
295.8675096999457
 51
359.8354424021431
  0
POLYLINE
  5
B6
  8
0
  6
CONTINUOUS
 62
     9
 66
     1
 10
0.0
 20
0.0
 30
0.0
  0
VERTEX
  5
499
  8
0
  6
CONTINUOUS
 62
     9
 10
-557.8269932929944
 20
101.8547087454424
 30
0.0
  0
VERTEX
  5
49A
  8
0
  6
CONTINUOUS
 62
     9
 10
-557.8265334498392
 20
101.8770516029848
 30
0.0
  0
VERTEX
  5
49B
  8
0
  6
CONTINUOUS
 62
     9
 10
-557.8250941783268
 20
101.8993488725747
 30
0.0
  0
VERTEX
  5
49C
  8
0
  6
CONTINUOUS
 62
     9
 10
-557.8226782996263
 20
101.9215568485098
 30
0.0
  0
VERTEX
  5
49D
  8
0
  6
CONTINUOUS
 62
     9
 10
-557.8192905491909
 20
101.9436320001156
 30
0.0
  0
VERTEX
  5
49E
  8
0
  6
CONTINUOUS
 62
     9
 10
-557.8149375674755
 20
101.9655310570716
 30
0.0
  0
VERTEX
  5
49F
  8
0
  6
CONTINUOUS
 62
     9
 10
-557.8096278869205
 20
101.9872110942267
 30
0.0
  0
VERTEX
  5
4A0
  8
0
  6
CONTINUOUS
 62
     9
 10
-557.8033719152269
 20
102.0086296157387
 30
0.0
  0
VERTEX
  5
4A1
  8
0
  6
CONTINUOUS
 62
     9
 10
-557.796181914956
 20
102.029744638372
 30
0.0
  0
VERTEX
  5
4A2
  8
0
  6
CONTINUOUS
 62
     9
 10
-557.7880719794933
 20
102.0505147737903
 30
0.0
  0
VERTEX
  5
4A3
  8
0
  6
CONTINUOUS
 62
     9
 10
-557.7790580054229
 20
102.0708993096834
 30
0.0
  0
VERTEX
  5
4A4
  8
0
  6
CONTINUOUS
 62
     9
 10
-557.7691576613687
 20
102.090858289569
 30
0.0
  0
VERTEX
  5
4A5
  8
0
  6
CONTINUOUS
 62
     9
 10
-557.7583903533608
 20
102.1103525911129
 30
0.0
  0
VERTEX
  5
4A6
  8
0
  6
CONTINUOUS
 62
     9
 10
-557.7467771867979
 20
102.1293440028142
 30
0.0
  0
VERTEX
  5
4A7
  8
0
  6
CONTINUOUS
 62
     9
 10
-557.7343409250767
 20
102.1477952989047
 30
0.0
  0
VERTEX
  5
4A8
  8
0
  6
CONTINUOUS
 62
     9
 10
-557.7211059449737
 20
102.1656703123171
 30
0.0
  0
VERTEX
  5
4A9
  8
0
  6
CONTINUOUS
 62
     9
 10
-557.7070981888626
 20
102.1829340055768
 30
0.0
  0
VERTEX
  5
4AA
  8
0
  6
CONTINUOUS
 62
     9
 10
-557.6923451138638
 20
102.1995525394805
 30
0.0
  0
VERTEX
  5
4AB
  8
0
  6
CONTINUOUS
 62
     9
 10
-557.6768756380249
 20
102.2154933394258
 30
0.0
  0
VERTEX
  5
4AC
  8
0
  6
CONTINUOUS
 62
     9
 10
-557.6607200836373
 20
102.2307251592613
 30
0.0
  0
VERTEX
  5
4AD
  8
0
  6
CONTINUOUS
 62
     9
 10
-557.6439101178005
 20
102.2452181425341
 30
0.0
  0
VERTEX
  5
4AE
  8
0
  6
CONTINUOUS
 62
     9
 10
-557.6264786903495
 20
102.258943881012
 30
0.0
  0
VERTEX
  5
4AF
  8
0
  6
CONTINUOUS
 62
     9
 10
-557.60845996927
 20
102.2718754703676
 30
0.0
  0
VERTEX
  5
4B0
  8
0
  6
CONTINUOUS
 62
     9
 10
-557.5898892737227
 20
102.2839875629146
 30
0.0
  0
VERTEX
  5
4B1
  8
0
  6
CONTINUOUS
 62
     9
 10
-557.5708030048148
 20
102.2952564172927
 30
0.0
  0
VERTEX
  5
4B2
  8
0
  6
CONTINUOUS
 62
     9
 10
-557.5512385742472
 20
102.3056599450041
 30
0.0
  0
VERTEX
  5
4B3
  8
0
  6
CONTINUOUS
 62
     9
 10
-557.5312343309836
 20
102.3151777537094
 30
0.0
  0
VERTEX
  5
4B4
  8
0
  6
CONTINUOUS
 62
     9
 10
-557.5108294860804
 20
102.3237911872
 30
0.0
  0
VERTEX
  5
4B5
  8
0
  6
CONTINUOUS
 62
     9
 10
-557.4900640358285
 20
102.3314833619665
 30
0.0
  0
SEQEND
  5
A22
  8
0
  6
CONTINUOUS
 62
     9
  0
LINE
  5
B7
  8
0
  6
CONTINUOUS
 62
     9
 10
-557.4900640358285
 20
35.9993014545859
 30
0.0
 11
-557.3505575367544
 21
35.94018614458911
 31
0.0
  0
ARC
  5
B8
  8
0
  6
CONTINUOUS
 62
     9
 10
-558.0233644588914
 20
34.55259299328583
 30
0.0
 40
1.542103728034885
 50
0.1645575978639044
 51
64.1324903000268
  0
POLYLINE
  5
B9
  8
0
  6
CONTINUOUS
 62
     9
 66
     1
 10
0.0
 20
0.0
 30
0.0
  0
VERTEX
  5
4B6
  8
0
  6
CONTINUOUS
 62
     9
 10
-557.4900640358285
 20
35.9993014545859
 30
0.0
  0
VERTEX
  5
4B7
  8
0
  6
CONTINUOUS
 62
     9
 10
-557.5108294860804
 20
36.00699362935245
 30
0.0
  0
VERTEX
  5
4B8
  8
0
  6
CONTINUOUS
 62
     9
 10
-557.5312343309836
 20
36.01560706284305
 30
0.0
  0
VERTEX
  5
4B9
  8
0
  6
CONTINUOUS
 62
     9
 10
-557.5512385742472
 20
36.02512487154833
 30
0.0
  0
VERTEX
  5
4BA
  8
0
  6
CONTINUOUS
 62
     9
 10
-557.5708030048148
 20
36.03552839925965
 30
0.0
  0
VERTEX
  5
4BB
  8
0
  6
CONTINUOUS
 62
     9
 10
-557.5898892737227
 20
36.04679725363783
 30
0.0
  0
VERTEX
  5
4BC
  8
0
  6
CONTINUOUS
 62
     9
 10
-557.60845996927
 20
36.05890934618484
 30
0.0
  0
VERTEX
  5
4BD
  8
0
  6
CONTINUOUS
 62
     9
 10
-557.6264786903495
 20
36.07184093554041
 30
0.0
  0
VERTEX
  5
4BE
  8
0
  6
CONTINUOUS
 62
     9
 10
-557.6439101178005
 20
36.08556667401827
 30
0.0
  0
VERTEX
  5
4BF
  8
0
  6
CONTINUOUS
 62
     9
 10
-557.6607200836373
 20
36.10005965729108
 30
0.0
  0
VERTEX
  5
4C0
  8
0
  6
CONTINUOUS
 62
     9
 10
-557.6768756380249
 20
36.11529147712665
 30
0.0
  0
VERTEX
  5
4C1
  8
0
  6
CONTINUOUS
 62
     9
 10
-557.6923451138638
 20
36.13123227707188
 30
0.0
  0
VERTEX
  5
4C2
  8
0
  6
CONTINUOUS
 62
     9
 10
-557.7070981888626
 20
36.14785081097563
 30
0.0
  0
VERTEX
  5
4C3
  8
0
  6
CONTINUOUS
 62
     9
 10
-557.7211059449737
 20
36.16511450423532
 30
0.0
  0
VERTEX
  5
4C4
  8
0
  6
CONTINUOUS
 62
     9
 10
-557.7343409250767
 20
36.18298951764768
 30
0.0
  0
VERTEX
  5
4C5
  8
0
  6
CONTINUOUS
 62
     9
 10
-557.7467771867979
 20
36.20144081373824
 30
0.0
  0
VERTEX
  5
4C6
  8
0
  6
CONTINUOUS
 62
     9
 10
-557.7583903533608
 20
36.22043222543951
 30
0.0
  0
VERTEX
  5
4C7
  8
0
  6
CONTINUOUS
 62
     9
 10
-557.7691576613687
 20
36.23992652698345
 30
0.0
  0
VERTEX
  5
4C8
  8
0
  6
CONTINUOUS
 62
     9
 10
-557.7790580054229
 20
36.25988550686906
 30
0.0
  0
VERTEX
  5
4C9
  8
0
  6
CONTINUOUS
 62
     9
 10
-557.7880719794933
 20
36.28027004276213
 30
0.0
  0
VERTEX
  5
4CA
  8
0
  6
CONTINUOUS
 62
     9
 10
-557.796181914956
 20
36.3010401781804
 30
0.0
  0
VERTEX
  5
4CB
  8
0
  6
CONTINUOUS
 62
     9
 10
-557.8033719152269
 20
36.32215520081371
 30
0.0
  0
VERTEX
  5
4CC
  8
0
  6
CONTINUOUS
 62
     9
 10
-557.8096278869205
 20
36.34357372232576
 30
0.0
  0
VERTEX
  5
4CD
  8
0
  6
CONTINUOUS
 62
     9
 10
-557.8149375674755
 20
36.36525375948084
 30
0.0
  0
VERTEX
  5
4CE
  8
0
  6
CONTINUOUS
 62
     9
 10
-557.8192905491909
 20
36.3871528164368
 30
0.0
  0
VERTEX
  5
4CF
  8
0
  6
CONTINUOUS
 62
     9
 10
-557.8226782996263
 20
36.40922796804264
 30
0.0
  0
VERTEX
  5
4D0
  8
0
  6
CONTINUOUS
 62
     9
 10
-557.8250941783268
 20
36.43143594397775
 30
0.0
  0
VERTEX
  5
4D1
  8
0
  6
CONTINUOUS
 62
     9
 10
-557.8265334498392
 20
36.45373321356764
 30
0.0
  0
VERTEX
  5
4D2
  8
0
  6
CONTINUOUS
 62
     9
 10
-557.8269932929944
 20
36.47607607111004
 30
0.0
  0
SEQEND
  5
A23
  8
0
  6
CONTINUOUS
 62
     9
  0
POLYLINE
  5
BA
  8
0
  6
CONTINUOUS
 62
     9
 66
     1
 10
0.0
 20
0.0
 30
0.0
  0
VERTEX
  5
4D3
  8
0
  6
CONTINUOUS
 62
     9
 10
-484.1809766105136
 20
36.47607607111006
 30
0.0
  0
VERTEX
  5
4D4
  8
0
  6
CONTINUOUS
 62
     9
 10
-484.1814364536688
 20
36.45373321356766
 30
0.0
  0
VERTEX
  5
4D5
  8
0
  6
CONTINUOUS
 62
     9
 10
-484.1828757251813
 20
36.43143594397775
 30
0.0
  0
VERTEX
  5
4D6
  8
0
  6
CONTINUOUS
 62
     9
 10
-484.1852916038818
 20
36.40922796804265
 30
0.0
  0
VERTEX
  5
4D7
  8
0
  6
CONTINUOUS
 62
     9
 10
-484.1886793543171
 20
36.38715281643681
 30
0.0
  0
VERTEX
  5
4D8
  8
0
  6
CONTINUOUS
 62
     9
 10
-484.1930323360326
 20
36.36525375948086
 30
0.0
  0
VERTEX
  5
4D9
  8
0
  6
CONTINUOUS
 62
     9
 10
-484.1983420165876
 20
36.34357372232577
 30
0.0
  0
VERTEX
  5
4DA
  8
0
  6
CONTINUOUS
 62
     9
 10
-484.2045979882812
 20
36.32215520081372
 30
0.0
  0
VERTEX
  5
4DB
  8
0
  6
CONTINUOUS
 62
     9
 10
-484.211787988552
 20
36.3010401781804
 30
0.0
  0
VERTEX
  5
4DC
  8
0
  6
CONTINUOUS
 62
     9
 10
-484.2198979240147
 20
36.28027004276213
 30
0.0
  0
VERTEX
  5
4DD
  8
0
  6
CONTINUOUS
 62
     9
 10
-484.2289118980851
 20
36.25988550686907
 30
0.0
  0
VERTEX
  5
4DE
  8
0
  6
CONTINUOUS
 62
     9
 10
-484.2388122421394
 20
36.23992652698345
 30
0.0
  0
VERTEX
  5
4DF
  8
0
  6
CONTINUOUS
 62
     9
 10
-484.2495795501472
 20
36.22043222543951
 30
0.0
  0
VERTEX
  5
4E0
  8
0
  6
CONTINUOUS
 62
     9
 10
-484.2611927167102
 20
36.20144081373824
 30
0.0
  0
VERTEX
  5
4E1
  8
0
  6
CONTINUOUS
 62
     9
 10
-484.2736289784314
 20
36.18298951764769
 30
0.0
  0
VERTEX
  5
4E2
  8
0
  6
CONTINUOUS
 62
     9
 10
-484.2868639585344
 20
36.16511450423533
 30
0.0
  0
VERTEX
  5
4E3
  8
0
  6
CONTINUOUS
 62
     9
 10
-484.3008717146455
 20
36.14785081097563
 30
0.0
  0
VERTEX
  5
4E4
  8
0
  6
CONTINUOUS
 62
     9
 10
-484.3156247896443
 20
36.13123227707189
 30
0.0
  0
VERTEX
  5
4E5
  8
0
  6
CONTINUOUS
 62
     9
 10
-484.3310942654832
 20
36.11529147712665
 30
0.0
  0
VERTEX
  5
4E6
  8
0
  6
CONTINUOUS
 62
     9
 10
-484.3472498198707
 20
36.10005965729108
 30
0.0
  0
VERTEX
  5
4E7
  8
0
  6
CONTINUOUS
 62
     9
 10
-484.3640597857076
 20
36.08556667401827
 30
0.0
  0
VERTEX
  5
4E8
  8
0
  6
CONTINUOUS
 62
     9
 10
-484.3814912131585
 20
36.07184093554041
 30
0.0
  0
VERTEX
  5
4E9
  8
0
  6
CONTINUOUS
 62
     9
 10
-484.3995099342382
 20
36.05890934618484
 30
0.0
  0
VERTEX
  5
4EA
  8
0
  6
CONTINUOUS
 62
     9
 10
-484.4180806297853
 20
36.04679725363783
 30
0.0
  0
VERTEX
  5
4EB
  8
0
  6
CONTINUOUS
 62
     9
 10
-484.4371668986932
 20
36.03552839925965
 30
0.0
  0
VERTEX
  5
4EC
  8
0
  6
CONTINUOUS
 62
     9
 10
-484.4567313292608
 20
36.02512487154833
 30
0.0
  0
VERTEX
  5
4ED
  8
0
  6
CONTINUOUS
 62
     9
 10
-484.4767355725244
 20
36.01560706284305
 30
0.0
  0
VERTEX
  5
4EE
  8
0
  6
CONTINUOUS
 62
     9
 10
-484.4971404174277
 20
36.00699362935245
 30
0.0
  0
VERTEX
  5
4EF
  8
0
  6
CONTINUOUS
 62
     9
 10
-484.5179058676796
 20
35.9993014545859
 30
0.0
  0
SEQEND
  5
A24
  8
0
  6
CONTINUOUS
 62
     9
  0
ARC
  5
BB
  8
0
  6
CONTINUOUS
 62
     9
 10
-483.984841456077
 20
34.55251221160876
 30
0.0
 40
1.541867951710402
 50
110.2261424558361
 51
179.8324153806009
  0
LINE
  5
BC
  8
0
  6
CONTINUOUS
 62
     9
 10
-557.4900640358285
 20
45.83148336196652
 30
0.0
 11
-557.3505575367535
 21
45.89059867196374
 31
0.0
  0
ARC
  5
BD
  8
0
  6
CONTINUOUS
 62
     9
 10
-558.0233644588911
 20
47.27819182326646
 30
0.0
 40
1.54210372803467
 50
295.8675097000046
 51
359.8354424021412
  0
POLYLINE
  5
BE
  8
0
  6
CONTINUOUS
 62
     9
 66
     1
 10
0.0
 20
0.0
 30
0.0
  0
VERTEX
  5
4F0
  8
0
  6
CONTINUOUS
 62
     9
 10
-557.8269932929944
 20
45.35470874544237
 30
0.0
  0
VERTEX
  5
4F1
  8
0
  6
CONTINUOUS
 62
     9
 10
-557.8265334498392
 20
45.37705160298477
 30
0.0
  0
VERTEX
  5
4F2
  8
0
  6
CONTINUOUS
 62
     9
 10
-557.8250941783268
 20
45.39934887257467
 30
0.0
  0
VERTEX
  5
4F3
  8
0
  6
CONTINUOUS
 62
     9
 10
-557.8226782996263
 20
45.42155684850979
 30
0.0
  0
VERTEX
  5
4F4
  8
0
  6
CONTINUOUS
 62
     9
 10
-557.8192905491909
 20
45.44363200011563
 30
0.0
  0
VERTEX
  5
4F5
  8
0
  6
CONTINUOUS
 62
     9
 10
-557.8149375674755
 20
45.46553105707157
 30
0.0
  0
VERTEX
  5
4F6
  8
0
  6
CONTINUOUS
 62
     9
 10
-557.8096278869205
 20
45.48721109422665
 30
0.0
  0
VERTEX
  5
4F7
  8
0
  6
CONTINUOUS
 62
     9
 10
-557.8033719152269
 20
45.50862961573871
 30
0.0
  0
VERTEX
  5
4F8
  8
0
  6
CONTINUOUS
 62
     9
 10
-557.796181914956
 20
45.52974463837203
 30
0.0
  0
VERTEX
  5
4F9
  8
0
  6
CONTINUOUS
 62
     9
 10
-557.7880719794933
 20
45.5505147737903
 30
0.0
  0
VERTEX
  5
4FA
  8
0
  6
CONTINUOUS
 62
     9
 10
-557.7790580054229
 20
45.57089930968336
 30
0.0
  0
VERTEX
  5
4FB
  8
0
  6
CONTINUOUS
 62
     9
 10
-557.7691576613687
 20
45.59085828956897
 30
0.0
  0
VERTEX
  5
4FC
  8
0
  6
CONTINUOUS
 62
     9
 10
-557.7583903533608
 20
45.61035259111291
 30
0.0
  0
VERTEX
  5
4FD
  8
0
  6
CONTINUOUS
 62
     9
 10
-557.7467771867979
 20
45.62934400281418
 30
0.0
  0
VERTEX
  5
4FE
  8
0
  6
CONTINUOUS
 62
     9
 10
-557.7343409250767
 20
45.64779529890473
 30
0.0
  0
VERTEX
  5
4FF
  8
0
  6
CONTINUOUS
 62
     9
 10
-557.7211059449737
 20
45.6656703123171
 30
0.0
  0
VERTEX
  5
500
  8
0
  6
CONTINUOUS
 62
     9
 10
-557.7070981888626
 20
45.68293400557679
 30
0.0
  0
VERTEX
  5
501
  8
0
  6
CONTINUOUS
 62
     9
 10
-557.6923451138638
 20
45.69955253948054
 30
0.0
  0
VERTEX
  5
502
  8
0
  6
CONTINUOUS
 62
     9
 10
-557.676875638025
 20
45.71549333942578
 30
0.0
  0
VERTEX
  5
503
  8
0
  6
CONTINUOUS
 62
     9
 10
-557.6607200836373
 20
45.73072515926134
 30
0.0
  0
VERTEX
  5
504
  8
0
  6
CONTINUOUS
 62
     9
 10
-557.6439101178005
 20
45.74521814253416
 30
0.0
  0
VERTEX
  5
505
  8
0
  6
CONTINUOUS
 62
     9
 10
-557.6264786903495
 20
45.758943881012
 30
0.0
  0
VERTEX
  5
506
  8
0
  6
CONTINUOUS
 62
     9
 10
-557.60845996927
 20
45.77187547036758
 30
0.0
  0
VERTEX
  5
507
  8
0
  6
CONTINUOUS
 62
     9
 10
-557.5898892737227
 20
45.78398756291459
 30
0.0
  0
VERTEX
  5
508
  8
0
  6
CONTINUOUS
 62
     9
 10
-557.5708030048148
 20
45.79525641729276
 30
0.0
  0
VERTEX
  5
509
  8
0
  6
CONTINUOUS
 62
     9
 10
-557.5512385742472
 20
45.80565994500409
 30
0.0
  0
VERTEX
  5
50A
  8
0
  6
CONTINUOUS
 62
     9
 10
-557.5312343309836
 20
45.81517775370937
 30
0.0
  0
VERTEX
  5
50B
  8
0
  6
CONTINUOUS
 62
     9
 10
-557.5108294860804
 20
45.82379118719997
 30
0.0
  0
VERTEX
  5
50C
  8
0
  6
CONTINUOUS
 62
     9
 10
-557.4900640358285
 20
45.83148336196652
 30
0.0
  0
SEQEND
  5
A25
  8
0
  6
CONTINUOUS
 62
     9
  0
POLYLINE
  5
BF
  8
0
  6
CONTINUOUS
 62
     9
 66
     1
 10
0.0
 20
0.0
 30
0.0
  0
VERTEX
  5
50D
  8
0
  6
CONTINUOUS
 62
     9
 10
-484.1809766105136
 20
64.72607607111003
 30
0.0
  0
VERTEX
  5
50E
  8
0
  6
CONTINUOUS
 62
     9
 10
-484.1814364536688
 20
64.70373321356762
 30
0.0
  0
VERTEX
  5
50F
  8
0
  6
CONTINUOUS
 62
     9
 10
-484.1828757251813
 20
64.68143594397772
 30
0.0
  0
VERTEX
  5
510
  8
0
  6
CONTINUOUS
 62
     9
 10
-484.1852916038818
 20
64.65922796804261
 30
0.0
  0
VERTEX
  5
511
  8
0
  6
CONTINUOUS
 62
     9
 10
-484.1886793543171
 20
64.63715281643678
 30
0.0
  0
VERTEX
  5
512
  8
0
  6
CONTINUOUS
 62
     9
 10
-484.1930323360326
 20
64.61525375948082
 30
0.0
  0
VERTEX
  5
513
  8
0
  6
CONTINUOUS
 62
     9
 10
-484.1983420165876
 20
64.59357372232574
 30
0.0
  0
VERTEX
  5
514
  8
0
  6
CONTINUOUS
 62
     9
 10
-484.2045979882812
 20
64.5721552008137
 30
0.0
  0
VERTEX
  5
515
  8
0
  6
CONTINUOUS
 62
     9
 10
-484.211787988552
 20
64.55104017818037
 30
0.0
  0
VERTEX
  5
516
  8
0
  6
CONTINUOUS
 62
     9
 10
-484.2198979240147
 20
64.53027004276211
 30
0.0
  0
VERTEX
  5
517
  8
0
  6
CONTINUOUS
 62
     9
 10
-484.2289118980851
 20
64.50988550686904
 30
0.0
  0
VERTEX
  5
518
  8
0
  6
CONTINUOUS
 62
     9
 10
-484.2388122421394
 20
64.48992652698342
 30
0.0
  0
VERTEX
  5
519
  8
0
  6
CONTINUOUS
 62
     9
 10
-484.2495795501472
 20
64.4704322254395
 30
0.0
  0
VERTEX
  5
51A
  8
0
  6
CONTINUOUS
 62
     9
 10
-484.2611927167102
 20
64.45144081373822
 30
0.0
  0
VERTEX
  5
51B
  8
0
  6
CONTINUOUS
 62
     9
 10
-484.2736289784314
 20
64.43298951764767
 30
0.0
  0
VERTEX
  5
51C
  8
0
  6
CONTINUOUS
 62
     9
 10
-484.2868639585344
 20
64.4151145042353
 30
0.0
  0
VERTEX
  5
51D
  8
0
  6
CONTINUOUS
 62
     9
 10
-484.3008717146455
 20
64.39785081097561
 30
0.0
  0
VERTEX
  5
51E
  8
0
  6
CONTINUOUS
 62
     9
 10
-484.3156247896443
 20
64.38123227707186
 30
0.0
  0
VERTEX
  5
51F
  8
0
  6
CONTINUOUS
 62
     9
 10
-484.3310942654832
 20
64.36529147712662
 30
0.0
  0
VERTEX
  5
520
  8
0
  6
CONTINUOUS
 62
     9
 10
-484.3472498198707
 20
64.35005965729107
 30
0.0
  0
VERTEX
  5
521
  8
0
  6
CONTINUOUS
 62
     9
 10
-484.3640597857076
 20
64.33556667401825
 30
0.0
  0
VERTEX
  5
522
  8
0
  6
CONTINUOUS
 62
     9
 10
-484.3814912131585
 20
64.3218409355404
 30
0.0
  0
VERTEX
  5
523
  8
0
  6
CONTINUOUS
 62
     9
 10
-484.3995099342382
 20
64.30890934618483
 30
0.0
  0
VERTEX
  5
524
  8
0
  6
CONTINUOUS
 62
     9
 10
-484.4180806297853
 20
64.2967972536378
 30
0.0
  0
VERTEX
  5
525
  8
0
  6
CONTINUOUS
 62
     9
 10
-484.4371668986932
 20
64.28552839925965
 30
0.0
  0
VERTEX
  5
526
  8
0
  6
CONTINUOUS
 62
     9
 10
-484.4567313292608
 20
64.27512487154831
 30
0.0
  0
VERTEX
  5
527
  8
0
  6
CONTINUOUS
 62
     9
 10
-484.4767355725244
 20
64.26560706284303
 30
0.0
  0
VERTEX
  5
528
  8
0
  6
CONTINUOUS
 62
     9
 10
-484.4971404174277
 20
64.25699362935244
 30
0.0
  0
VERTEX
  5
529
  8
0
  6
CONTINUOUS
 62
     9
 10
-484.5179058676796
 20
64.24930145458589
 30
0.0
  0
SEQEND
  5
A26
  8
0
  6
CONTINUOUS
 62
     9
  0
ARC
  5
C0
  8
0
  6
CONTINUOUS
 62
     9
 10
-483.9848414560769
 20
62.80251221160866
 30
0.0
 40
1.541867951710513
 50
110.2261424558388
 51
179.8324153805978
  0
POLYLINE
  5
C1
  8
0
  6
CONTINUOUS
 62
     9
 66
     1
 10
0.0
 20
0.0
 30
0.0
  0
VERTEX
  5
52A
  8
0
  6
CONTINUOUS
 62
     9
 10
-557.8269932929944
 20
73.6047087454424
 30
0.0
  0
VERTEX
  5
52B
  8
0
  6
CONTINUOUS
 62
     9
 10
-557.8265334498392
 20
73.62705160298479
 30
0.0
  0
VERTEX
  5
52C
  8
0
  6
CONTINUOUS
 62
     9
 10
-557.8250941783268
 20
73.64934887257469
 30
0.0
  0
VERTEX
  5
52D
  8
0
  6
CONTINUOUS
 62
     9
 10
-557.8226782996263
 20
73.6715568485098
 30
0.0
  0
VERTEX
  5
52E
  8
0
  6
CONTINUOUS
 62
     9
 10
-557.8192905491909
 20
73.69363200011564
 30
0.0
  0
VERTEX
  5
52F
  8
0
  6
CONTINUOUS
 62
     9
 10
-557.8149375674755
 20
73.71553105707159
 30
0.0
  0
VERTEX
  5
530
  8
0
  6
CONTINUOUS
 62
     9
 10
-557.8096278869205
 20
73.73721109422668
 30
0.0
  0
VERTEX
  5
531
  8
0
  6
CONTINUOUS
 62
     9
 10
-557.8033719152269
 20
73.75862961573871
 30
0.0
  0
VERTEX
  5
532
  8
0
  6
CONTINUOUS
 62
     9
 10
-557.796181914956
 20
73.77974463837204
 30
0.0
  0
VERTEX
  5
533
  8
0
  6
CONTINUOUS
 62
     9
 10
-557.7880719794933
 20
73.80051477379031
 30
0.0
  0
VERTEX
  5
534
  8
0
  6
CONTINUOUS
 62
     9
 10
-557.7790580054229
 20
73.82089930968337
 30
0.0
  0
VERTEX
  5
535
  8
0
  6
CONTINUOUS
 62
     9
 10
-557.7691576613687
 20
73.84085828956898
 30
0.0
  0
VERTEX
  5
536
  8
0
  6
CONTINUOUS
 62
     9
 10
-557.7583903533608
 20
73.86035259111293
 30
0.0
  0
VERTEX
  5
537
  8
0
  6
CONTINUOUS
 62
     9
 10
-557.7467771867979
 20
73.8793440028142
 30
0.0
  0
VERTEX
  5
538
  8
0
  6
CONTINUOUS
 62
     9
 10
-557.7343409250767
 20
73.89779529890475
 30
0.0
  0
VERTEX
  5
539
  8
0
  6
CONTINUOUS
 62
     9
 10
-557.7211059449737
 20
73.9156703123171
 30
0.0
  0
VERTEX
  5
53A
  8
0
  6
CONTINUOUS
 62
     9
 10
-557.7070981888626
 20
73.9329340055768
 30
0.0
  0
VERTEX
  5
53B
  8
0
  6
CONTINUOUS
 62
     9
 10
-557.6923451138638
 20
73.94955253948055
 30
0.0
  0
VERTEX
  5
53C
  8
0
  6
CONTINUOUS
 62
     9
 10
-557.676875638025
 20
73.96549333942579
 30
0.0
  0
VERTEX
  5
53D
  8
0
  6
CONTINUOUS
 62
     9
 10
-557.6607200836373
 20
73.98072515926135
 30
0.0
  0
VERTEX
  5
53E
  8
0
  6
CONTINUOUS
 62
     9
 10
-557.6439101178005
 20
73.99521814253416
 30
0.0
  0
VERTEX
  5
53F
  8
0
  6
CONTINUOUS
 62
     9
 10
-557.6264786903495
 20
74.008943881012
 30
0.0
  0
VERTEX
  5
540
  8
0
  6
CONTINUOUS
 62
     9
 10
-557.60845996927
 20
74.02187547036758
 30
0.0
  0
VERTEX
  5
541
  8
0
  6
CONTINUOUS
 62
     9
 10
-557.5898892737227
 20
74.0339875629146
 30
0.0
  0
VERTEX
  5
542
  8
0
  6
CONTINUOUS
 62
     9
 10
-557.5708030048148
 20
74.04525641729276
 30
0.0
  0
VERTEX
  5
543
  8
0
  6
CONTINUOUS
 62
     9
 10
-557.5512385742472
 20
74.0556599450041
 30
0.0
  0
VERTEX
  5
544
  8
0
  6
CONTINUOUS
 62
     9
 10
-557.5312343309836
 20
74.06517775370938
 30
0.0
  0
VERTEX
  5
545
  8
0
  6
CONTINUOUS
 62
     9
 10
-557.5108294860804
 20
74.07379118719997
 30
0.0
  0
VERTEX
  5
546
  8
0
  6
CONTINUOUS
 62
     9
 10
-557.4900640358285
 20
74.08148336196653
 30
0.0
  0
SEQEND
  5
A27
  8
0
  6
CONTINUOUS
 62
     9
  0
LINE
  5
C2
  8
0
  6
CONTINUOUS
 62
     9
 10
-557.4900640358285
 20
74.08148336196653
 30
0.0
 11
-557.3505575367528
 21
74.14059867196407
 31
0.0
  0
ARC
  5
C3
  8
0
  6
CONTINUOUS
 62
     9
 10
-558.0233644588911
 20
75.52819182326644
 30
0.0
 40
1.542103728034642
 50
295.8675097000326
 51
359.8354424021426
  0
LINE
  5
C4
  8
0
  6
CONTINUOUS
 62
     9
 10
-557.4900640358285
 20
92.4993014545859
 30
0.0
 11
-557.3505575367528
 21
92.44018614458834
 31
0.0
  0
ARC
  5
C5
  8
0
  6
CONTINUOUS
 62
     9
 10
-558.0233644588913
 20
91.05259299328587
 30
0.0
 40
1.542103728034778
 50
0.1645575978626539
 51
64.1324902999653
  0
POLYLINE
  5
C6
  8
0
  6
CONTINUOUS
 62
     9
 66
     1
 10
0.0
 20
0.0
 30
0.0
  0
VERTEX
  5
547
  8
0
  6
CONTINUOUS
 62
     9
 10
-557.4900640358285
 20
92.4993014545859
 30
0.0
  0
VERTEX
  5
548
  8
0
  6
CONTINUOUS
 62
     9
 10
-557.5108294860804
 20
92.50699362935245
 30
0.0
  0
VERTEX
  5
549
  8
0
  6
CONTINUOUS
 62
     9
 10
-557.5312343309836
 20
92.51560706284305
 30
0.0
  0
VERTEX
  5
54A
  8
0
  6
CONTINUOUS
 62
     9
 10
-557.5512385742472
 20
92.52512487154833
 30
0.0
  0
VERTEX
  5
54B
  8
0
  6
CONTINUOUS
 62
     9
 10
-557.5708030048148
 20
92.53552839925966
 30
0.0
  0
VERTEX
  5
54C
  8
0
  6
CONTINUOUS
 62
     9
 10
-557.5898892737227
 20
92.54679725363783
 30
0.0
  0
VERTEX
  5
54D
  8
0
  6
CONTINUOUS
 62
     9
 10
-557.60845996927
 20
92.55890934618485
 30
0.0
  0
VERTEX
  5
54E
  8
0
  6
CONTINUOUS
 62
     9
 10
-557.6264786903495
 20
92.57184093554041
 30
0.0
  0
VERTEX
  5
54F
  8
0
  6
CONTINUOUS
 62
     9
 10
-557.6439101178005
 20
92.58556667401827
 30
0.0
  0
VERTEX
  5
550
  8
0
  6
CONTINUOUS
 62
     9
 10
-557.6607200836373
 20
92.60005965729108
 30
0.0
  0
VERTEX
  5
551
  8
0
  6
CONTINUOUS
 62
     9
 10
-557.6768756380249
 20
92.61529147712665
 30
0.0
  0
VERTEX
  5
552
  8
0
  6
CONTINUOUS
 62
     9
 10
-557.6923451138638
 20
92.63123227707189
 30
0.0
  0
VERTEX
  5
553
  8
0
  6
CONTINUOUS
 62
     9
 10
-557.7070981888626
 20
92.64785081097564
 30
0.0
  0
VERTEX
  5
554
  8
0
  6
CONTINUOUS
 62
     9
 10
-557.7211059449737
 20
92.66511450423532
 30
0.0
  0
VERTEX
  5
555
  8
0
  6
CONTINUOUS
 62
     9
 10
-557.7343409250767
 20
92.6829895176477
 30
0.0
  0
VERTEX
  5
556
  8
0
  6
CONTINUOUS
 62
     9
 10
-557.7467771867979
 20
92.70144081373824
 30
0.0
  0
VERTEX
  5
557
  8
0
  6
CONTINUOUS
 62
     9
 10
-557.7583903533608
 20
92.72043222543951
 30
0.0
  0
VERTEX
  5
558
  8
0
  6
CONTINUOUS
 62
     9
 10
-557.7691576613687
 20
92.73992652698345
 30
0.0
  0
VERTEX
  5
559
  8
0
  6
CONTINUOUS
 62
     9
 10
-557.7790580054229
 20
92.75988550686905
 30
0.0
  0
VERTEX
  5
55A
  8
0
  6
CONTINUOUS
 62
     9
 10
-557.7880719794933
 20
92.78027004276213
 30
0.0
  0
VERTEX
  5
55B
  8
0
  6
CONTINUOUS
 62
     9
 10
-557.796181914956
 20
92.80104017818039
 30
0.0
  0
VERTEX
  5
55C
  8
0
  6
CONTINUOUS
 62
     9
 10
-557.8033719152269
 20
92.82215520081371
 30
0.0
  0
VERTEX
  5
55D
  8
0
  6
CONTINUOUS
 62
     9
 10
-557.8096278869205
 20
92.84357372232577
 30
0.0
  0
VERTEX
  5
55E
  8
0
  6
CONTINUOUS
 62
     9
 10
-557.8149375674755
 20
92.86525375948085
 30
0.0
  0
VERTEX
  5
55F
  8
0
  6
CONTINUOUS
 62
     9
 10
-557.8192905491909
 20
92.8871528164368
 30
0.0
  0
VERTEX
  5
560
  8
0
  6
CONTINUOUS
 62
     9
 10
-557.8226782996263
 20
92.90922796804263
 30
0.0
  0
VERTEX
  5
561
  8
0
  6
CONTINUOUS
 62
     9
 10
-557.8250941783268
 20
92.93143594397773
 30
0.0
  0
VERTEX
  5
562
  8
0
  6
CONTINUOUS
 62
     9
 10
-557.8265334498392
 20
92.95373321356765
 30
0.0
  0
VERTEX
  5
563
  8
0
  6
CONTINUOUS
 62
     9
 10
-557.8269932929944
 20
92.97607607111004
 30
0.0
  0
SEQEND
  5
A28
  8
0
  6
CONTINUOUS
 62
     9
  0
POLYLINE
  5
C7
  8
0
  6
CONTINUOUS
 62
     9
 66
     1
 10
0.0
 20
0.0
 30
0.0
  0
VERTEX
  5
564
  8
0
  6
CONTINUOUS
 62
     9
 10
-484.5179058676796
 20
74.08148336196653
 30
0.0
  0
VERTEX
  5
565
  8
0
  6
CONTINUOUS
 62
     9
 10
-484.4971404174277
 20
74.07379118719997
 30
0.0
  0
VERTEX
  5
566
  8
0
  6
CONTINUOUS
 62
     9
 10
-484.4767355725245
 20
74.06517775370938
 30
0.0
  0
VERTEX
  5
567
  8
0
  6
CONTINUOUS
 62
     9
 10
-484.4567313292608
 20
74.0556599450041
 30
0.0
  0
VERTEX
  5
568
  8
0
  6
CONTINUOUS
 62
     9
 10
-484.4371668986932
 20
74.04525641729278
 30
0.0
  0
VERTEX
  5
569
  8
0
  6
CONTINUOUS
 62
     9
 10
-484.4180806297853
 20
74.0339875629146
 30
0.0
  0
VERTEX
  5
56A
  8
0
  6
CONTINUOUS
 62
     9
 10
-484.3995099342382
 20
74.02187547036759
 30
0.0
  0
VERTEX
  5
56B
  8
0
  6
CONTINUOUS
 62
     9
 10
-484.3814912131585
 20
74.00894388101202
 30
0.0
  0
VERTEX
  5
56C
  8
0
  6
CONTINUOUS
 62
     9
 10
-484.3640597857076
 20
73.99521814253417
 30
0.0
  0
VERTEX
  5
56D
  8
0
  6
CONTINUOUS
 62
     9
 10
-484.3472498198707
 20
73.98072515926135
 30
0.0
  0
VERTEX
  5
56E
  8
0
  6
CONTINUOUS
 62
     9
 10
-484.3310942654832
 20
73.9654933394258
 30
0.0
  0
VERTEX
  5
56F
  8
0
  6
CONTINUOUS
 62
     9
 10
-484.3156247896443
 20
73.94955253948055
 30
0.0
  0
VERTEX
  5
570
  8
0
  6
CONTINUOUS
 62
     9
 10
-484.3008717146455
 20
73.93293400557681
 30
0.0
  0
VERTEX
  5
571
  8
0
  6
CONTINUOUS
 62
     9
 10
-484.2868639585344
 20
73.91567031231712
 30
0.0
  0
VERTEX
  5
572
  8
0
  6
CONTINUOUS
 62
     9
 10
-484.2736289784314
 20
73.89779529890475
 30
0.0
  0
VERTEX
  5
573
  8
0
  6
CONTINUOUS
 62
     9
 10
-484.2611927167102
 20
73.8793440028142
 30
0.0
  0
VERTEX
  5
574
  8
0
  6
CONTINUOUS
 62
     9
 10
-484.2495795501472
 20
73.86035259111293
 30
0.0
  0
VERTEX
  5
575
  8
0
  6
CONTINUOUS
 62
     9
 10
-484.2388122421394
 20
73.84085828956898
 30
0.0
  0
VERTEX
  5
576
  8
0
  6
CONTINUOUS
 62
     9
 10
-484.2289118980851
 20
73.82089930968337
 30
0.0
  0
VERTEX
  5
577
  8
0
  6
CONTINUOUS
 62
     9
 10
-484.2198979240147
 20
73.80051477379031
 30
0.0
  0
VERTEX
  5
578
  8
0
  6
CONTINUOUS
 62
     9
 10
-484.2117879885521
 20
73.77974463837204
 30
0.0
  0
VERTEX
  5
579
  8
0
  6
CONTINUOUS
 62
     9
 10
-484.2045979882813
 20
73.75862961573871
 30
0.0
  0
VERTEX
  5
57A
  8
0
  6
CONTINUOUS
 62
     9
 10
-484.1983420165876
 20
73.73721109422667
 30
0.0
  0
VERTEX
  5
57B
  8
0
  6
CONTINUOUS
 62
     9
 10
-484.1930323360326
 20
73.71553105707159
 30
0.0
  0
VERTEX
  5
57C
  8
0
  6
CONTINUOUS
 62
     9
 10
-484.1886793543172
 20
73.69363200011564
 30
0.0
  0
VERTEX
  5
57D
  8
0
  6
CONTINUOUS
 62
     9
 10
-484.1852916038818
 20
73.6715568485098
 30
0.0
  0
VERTEX
  5
57E
  8
0
  6
CONTINUOUS
 62
     9
 10
-484.1828757251813
 20
73.64934887257468
 30
0.0
  0
VERTEX
  5
57F
  8
0
  6
CONTINUOUS
 62
     9
 10
-484.1814364536688
 20
73.62705160298478
 30
0.0
  0
VERTEX
  5
580
  8
0
  6
CONTINUOUS
 62
     9
 10
-484.1809766105136
 20
73.60470874544238
 30
0.0
  0
SEQEND
  5
A29
  8
0
  6
CONTINUOUS
 62
     9
  0
ARC
  5
C8
  8
0
  6
CONTINUOUS
 62
     9
 10
-483.9848414560769
 20
75.52827260494372
 30
0.0
 40
1.541867951710457
 50
180.1675846194011
 51
249.7738575441628
  0
LINE
  5
C9
  8
0
  6
CONTINUOUS
 62
     9
 10
-557.4900640358285
 20
64.2493014545859
 30
0.0
 11
-557.3505575367521
 21
64.19018614458794
 31
0.0
  0
ARC
  5
CA
  8
0
  6
CONTINUOUS
 62
     9
 10
-558.0233644588909
 20
62.80259299328605
 30
0.0
 40
1.542103728034447
 50
0.1645575978554348
 51
64.13249029994097
  0
POLYLINE
  5
CB
  8
0
  6
CONTINUOUS
 62
     9
 66
     1
 10
0.0
 20
0.0
 30
0.0
  0
VERTEX
  5
581
  8
0
  6
CONTINUOUS
 62
     9
 10
-557.4900640358285
 20
64.2493014545859
 30
0.0
  0
VERTEX
  5
582
  8
0
  6
CONTINUOUS
 62
     9
 10
-557.5108294860804
 20
64.25699362935245
 30
0.0
  0
VERTEX
  5
583
  8
0
  6
CONTINUOUS
 62
     9
 10
-557.5312343309836
 20
64.26560706284305
 30
0.0
  0
VERTEX
  5
584
  8
0
  6
CONTINUOUS
 62
     9
 10
-557.5512385742472
 20
64.27512487154833
 30
0.0
  0
VERTEX
  5
585
  8
0
  6
CONTINUOUS
 62
     9
 10
-557.5708030048148
 20
64.28552839925966
 30
0.0
  0
VERTEX
  5
586
  8
0
  6
CONTINUOUS
 62
     9
 10
-557.5898892737227
 20
64.29679725363783
 30
0.0
  0
VERTEX
  5
587
  8
0
  6
CONTINUOUS
 62
     9
 10
-557.60845996927
 20
64.30890934618485
 30
0.0
  0
VERTEX
  5
588
  8
0
  6
CONTINUOUS
 62
     9
 10
-557.6264786903495
 20
64.32184093554041
 30
0.0
  0
VERTEX
  5
589
  8
0
  6
CONTINUOUS
 62
     9
 10
-557.6439101178005
 20
64.33556667401827
 30
0.0
  0
VERTEX
  5
58A
  8
0
  6
CONTINUOUS
 62
     9
 10
-557.6607200836373
 20
64.35005965729108
 30
0.0
  0
VERTEX
  5
58B
  8
0
  6
CONTINUOUS
 62
     9
 10
-557.676875638025
 20
64.36529147712663
 30
0.0
  0
VERTEX
  5
58C
  8
0
  6
CONTINUOUS
 62
     9
 10
-557.6923451138638
 20
64.38123227707189
 30
0.0
  0
VERTEX
  5
58D
  8
0
  6
CONTINUOUS
 62
     9
 10
-557.7070981888626
 20
64.39785081097563
 30
0.0
  0
VERTEX
  5
58E
  8
0
  6
CONTINUOUS
 62
     9
 10
-557.7211059449737
 20
64.41511450423532
 30
0.0
  0
VERTEX
  5
58F
  8
0
  6
CONTINUOUS
 62
     9
 10
-557.7343409250768
 20
64.43298951764768
 30
0.0
  0
VERTEX
  5
590
  8
0
  6
CONTINUOUS
 62
     9
 10
-557.7467771867979
 20
64.45144081373824
 30
0.0
  0
VERTEX
  5
591
  8
0
  6
CONTINUOUS
 62
     9
 10
-557.7583903533608
 20
64.47043222543951
 30
0.0
  0
VERTEX
  5
592
  8
0
  6
CONTINUOUS
 62
     9
 10
-557.7691576613687
 20
64.48992652698344
 30
0.0
  0
VERTEX
  5
593
  8
0
  6
CONTINUOUS
 62
     9
 10
-557.7790580054229
 20
64.50988550686907
 30
0.0
  0
VERTEX
  5
594
  8
0
  6
CONTINUOUS
 62
     9
 10
-557.7880719794933
 20
64.53027004276213
 30
0.0
  0
VERTEX
  5
595
  8
0
  6
CONTINUOUS
 62
     9
 10
-557.796181914956
 20
64.55104017818039
 30
0.0
  0
VERTEX
  5
596
  8
0
  6
CONTINUOUS
 62
     9
 10
-557.8033719152269
 20
64.5721552008137
 30
0.0
  0
VERTEX
  5
597
  8
0
  6
CONTINUOUS
 62
     9
 10
-557.8096278869205
 20
64.59357372232576
 30
0.0
  0
VERTEX
  5
598
  8
0
  6
CONTINUOUS
 62
     9
 10
-557.8149375674755
 20
64.61525375948085
 30
0.0
  0
VERTEX
  5
599
  8
0
  6
CONTINUOUS
 62
     9
 10
-557.8192905491909
 20
64.6371528164368
 30
0.0
  0
VERTEX
  5
59A
  8
0
  6
CONTINUOUS
 62
     9
 10
-557.8226782996263
 20
64.65922796804263
 30
0.0
  0
VERTEX
  5
59B
  8
0
  6
CONTINUOUS
 62
     9
 10
-557.8250941783268
 20
64.68143594397773
 30
0.0
  0
VERTEX
  5
59C
  8
0
  6
CONTINUOUS
 62
     9
 10
-557.8265334498392
 20
64.70373321356763
 30
0.0
  0
VERTEX
  5
59D
  8
0
  6
CONTINUOUS
 62
     9
 10
-557.8269932929944
 20
64.72607607111004
 30
0.0
  0
SEQEND
  5
A2A
  8
0
  6
CONTINUOUS
 62
     9
  0
ARC
  5
CC
  8
0
  6
CONTINUOUS
 62
     9
 10
-483.984841456077
 20
47.27827260494363
 30
0.0
 40
1.541867951710346
 50
180.1675846193983
 51
249.7738575441655
  0
POLYLINE
  5
CD
  8
0
  6
CONTINUOUS
 62
     9
 66
     1
 10
0.0
 20
0.0
 30
0.0
  0
VERTEX
  5
59E
  8
0
  6
CONTINUOUS
 62
     9
 10
-484.5179058676796
 20
45.83148336196652
 30
0.0
  0
VERTEX
  5
59F
  8
0
  6
CONTINUOUS
 62
     9
 10
-484.4971404174277
 20
45.82379118719997
 30
0.0
  0
VERTEX
  5
5A0
  8
0
  6
CONTINUOUS
 62
     9
 10
-484.4767355725245
 20
45.81517775370937
 30
0.0
  0
VERTEX
  5
5A1
  8
0
  6
CONTINUOUS
 62
     9
 10
-484.4567313292608
 20
45.80565994500409
 30
0.0
  0
VERTEX
  5
5A2
  8
0
  6
CONTINUOUS
 62
     9
 10
-484.4371668986932
 20
45.79525641729276
 30
0.0
  0
VERTEX
  5
5A3
  8
0
  6
CONTINUOUS
 62
     9
 10
-484.4180806297853
 20
45.7839875629146
 30
0.0
  0
VERTEX
  5
5A4
  8
0
  6
CONTINUOUS
 62
     9
 10
-484.3995099342382
 20
45.77187547036758
 30
0.0
  0
VERTEX
  5
5A5
  8
0
  6
CONTINUOUS
 62
     9
 10
-484.3814912131585
 20
45.75894388101201
 30
0.0
  0
VERTEX
  5
5A6
  8
0
  6
CONTINUOUS
 62
     9
 10
-484.3640597857076
 20
45.74521814253416
 30
0.0
  0
VERTEX
  5
5A7
  8
0
  6
CONTINUOUS
 62
     9
 10
-484.3472498198707
 20
45.73072515926134
 30
0.0
  0
VERTEX
  5
5A8
  8
0
  6
CONTINUOUS
 62
     9
 10
-484.3310942654832
 20
45.71549333942579
 30
0.0
  0
VERTEX
  5
5A9
  8
0
  6
CONTINUOUS
 62
     9
 10
-484.3156247896443
 20
45.69955253948055
 30
0.0
  0
VERTEX
  5
5AA
  8
0
  6
CONTINUOUS
 62
     9
 10
-484.3008717146455
 20
45.6829340055768
 30
0.0
  0
VERTEX
  5
5AB
  8
0
  6
CONTINUOUS
 62
     9
 10
-484.2868639585344
 20
45.6656703123171
 30
0.0
  0
VERTEX
  5
5AC
  8
0
  6
CONTINUOUS
 62
     9
 10
-484.2736289784314
 20
45.64779529890474
 30
0.0
  0
VERTEX
  5
5AD
  8
0
  6
CONTINUOUS
 62
     9
 10
-484.2611927167102
 20
45.62934400281418
 30
0.0
  0
VERTEX
  5
5AE
  8
0
  6
CONTINUOUS
 62
     9
 10
-484.2495795501472
 20
45.61035259111291
 30
0.0
  0
VERTEX
  5
5AF
  8
0
  6
CONTINUOUS
 62
     9
 10
-484.2388122421394
 20
45.59085828956898
 30
0.0
  0
VERTEX
  5
5B0
  8
0
  6
CONTINUOUS
 62
     9
 10
-484.2289118980851
 20
45.57089930968337
 30
0.0
  0
VERTEX
  5
5B1
  8
0
  6
CONTINUOUS
 62
     9
 10
-484.2198979240147
 20
45.5505147737903
 30
0.0
  0
VERTEX
  5
5B2
  8
0
  6
CONTINUOUS
 62
     9
 10
-484.2117879885521
 20
45.52974463837203
 30
0.0
  0
VERTEX
  5
5B3
  8
0
  6
CONTINUOUS
 62
     9
 10
-484.2045979882813
 20
45.50862961573871
 30
0.0
  0
VERTEX
  5
5B4
  8
0
  6
CONTINUOUS
 62
     9
 10
-484.1983420165876
 20
45.48721109422666
 30
0.0
  0
VERTEX
  5
5B5
  8
0
  6
CONTINUOUS
 62
     9
 10
-484.1930323360326
 20
45.46553105707157
 30
0.0
  0
VERTEX
  5
5B6
  8
0
  6
CONTINUOUS
 62
     9
 10
-484.1886793543172
 20
45.44363200011563
 30
0.0
  0
VERTEX
  5
5B7
  8
0
  6
CONTINUOUS
 62
     9
 10
-484.1852916038818
 20
45.42155684850979
 30
0.0
  0
VERTEX
  5
5B8
  8
0
  6
CONTINUOUS
 62
     9
 10
-484.1828757251813
 20
45.39934887257467
 30
0.0
  0
VERTEX
  5
5B9
  8
0
  6
CONTINUOUS
 62
     9
 10
-484.1814364536688
 20
45.37705160298477
 30
0.0
  0
VERTEX
  5
5BA
  8
0
  6
CONTINUOUS
 62
     9
 10
-484.1809766105136
 20
45.35470874544237
 30
0.0
  0
SEQEND
  5
A2B
  8
0
  6
CONTINUOUS
 62
     9
  0
ARC
  5
CE
  8
0
  6
CONTINUOUS
 62
     9
 10
-483.9848414560769
 20
103.7782726049437
 30
0.0
 40
1.541867951710457
 50
180.1675846194001
 51
249.7738575441624
  0
POLYLINE
  5
CF
  8
0
  6
CONTINUOUS
 62
     9
 66
     1
 10
0.0
 20
0.0
 30
0.0
  0
VERTEX
  5
5BB
  8
0
  6
CONTINUOUS
 62
     9
 10
-484.5179058676796
 20
102.3314833619665
 30
0.0
  0
VERTEX
  5
5BC
  8
0
  6
CONTINUOUS
 62
     9
 10
-484.4971404174277
 20
102.3237911872
 30
0.0
  0
VERTEX
  5
5BD
  8
0
  6
CONTINUOUS
 62
     9
 10
-484.4767355725244
 20
102.3151777537094
 30
0.0
  0
VERTEX
  5
5BE
  8
0
  6
CONTINUOUS
 62
     9
 10
-484.4567313292608
 20
102.3056599450041
 30
0.0
  0
VERTEX
  5
5BF
  8
0
  6
CONTINUOUS
 62
     9
 10
-484.4371668986932
 20
102.2952564172928
 30
0.0
  0
VERTEX
  5
5C0
  8
0
  6
CONTINUOUS
 62
     9
 10
-484.4180806297853
 20
102.2839875629146
 30
0.0
  0
VERTEX
  5
5C1
  8
0
  6
CONTINUOUS
 62
     9
 10
-484.3995099342382
 20
102.2718754703676
 30
0.0
  0
VERTEX
  5
5C2
  8
0
  6
CONTINUOUS
 62
     9
 10
-484.3814912131585
 20
102.258943881012
 30
0.0
  0
VERTEX
  5
5C3
  8
0
  6
CONTINUOUS
 62
     9
 10
-484.3640597857076
 20
102.2452181425342
 30
0.0
  0
VERTEX
  5
5C4
  8
0
  6
CONTINUOUS
 62
     9
 10
-484.3472498198707
 20
102.2307251592613
 30
0.0
  0
VERTEX
  5
5C5
  8
0
  6
CONTINUOUS
 62
     9
 10
-484.3310942654832
 20
102.2154933394258
 30
0.0
  0
VERTEX
  5
5C6
  8
0
  6
CONTINUOUS
 62
     9
 10
-484.3156247896443
 20
102.1995525394805
 30
0.0
  0
VERTEX
  5
5C7
  8
0
  6
CONTINUOUS
 62
     9
 10
-484.3008717146455
 20
102.1829340055768
 30
0.0
  0
VERTEX
  5
5C8
  8
0
  6
CONTINUOUS
 62
     9
 10
-484.2868639585344
 20
102.1656703123171
 30
0.0
  0
VERTEX
  5
5C9
  8
0
  6
CONTINUOUS
 62
     9
 10
-484.2736289784314
 20
102.1477952989047
 30
0.0
  0
VERTEX
  5
5CA
  8
0
  6
CONTINUOUS
 62
     9
 10
-484.2611927167102
 20
102.1293440028142
 30
0.0
  0
VERTEX
  5
5CB
  8
0
  6
CONTINUOUS
 62
     9
 10
-484.2495795501472
 20
102.1103525911129
 30
0.0
  0
VERTEX
  5
5CC
  8
0
  6
CONTINUOUS
 62
     9
 10
-484.2388122421394
 20
102.090858289569
 30
0.0
  0
VERTEX
  5
5CD
  8
0
  6
CONTINUOUS
 62
     9
 10
-484.2289118980851
 20
102.0708993096834
 30
0.0
  0
VERTEX
  5
5CE
  8
0
  6
CONTINUOUS
 62
     9
 10
-484.2198979240147
 20
102.0505147737903
 30
0.0
  0
VERTEX
  5
5CF
  8
0
  6
CONTINUOUS
 62
     9
 10
-484.211787988552
 20
102.029744638372
 30
0.0
  0
VERTEX
  5
5D0
  8
0
  6
CONTINUOUS
 62
     9
 10
-484.2045979882813
 20
102.0086296157387
 30
0.0
  0
VERTEX
  5
5D1
  8
0
  6
CONTINUOUS
 62
     9
 10
-484.1983420165876
 20
101.9872110942267
 30
0.0
  0
VERTEX
  5
5D2
  8
0
  6
CONTINUOUS
 62
     9
 10
-484.1930323360326
 20
101.9655310570716
 30
0.0
  0
VERTEX
  5
5D3
  8
0
  6
CONTINUOUS
 62
     9
 10
-484.1886793543172
 20
101.9436320001156
 30
0.0
  0
VERTEX
  5
5D4
  8
0
  6
CONTINUOUS
 62
     9
 10
-484.1852916038818
 20
101.9215568485098
 30
0.0
  0
VERTEX
  5
5D5
  8
0
  6
CONTINUOUS
 62
     9
 10
-484.1828757251813
 20
101.8993488725747
 30
0.0
  0
VERTEX
  5
5D6
  8
0
  6
CONTINUOUS
 62
     9
 10
-484.1814364536688
 20
101.8770516029848
 30
0.0
  0
VERTEX
  5
5D7
  8
0
  6
CONTINUOUS
 62
     9
 10
-484.1809766105136
 20
101.8547087454424
 30
0.0
  0
SEQEND
  5
A2C
  8
0
  6
CONTINUOUS
 62
     9
  0
ARC
  5
D0
  8
0
  6
CONTINUOUS
 62
     9
 10
-483.984841456077
 20
91.05251221160876
 30
0.0
 40
1.541867951710402
 50
110.2261424558361
 51
179.8324153806009
  0
POLYLINE
  5
D1
  8
0
  6
CONTINUOUS
 62
     9
 66
     1
 10
0.0
 20
0.0
 30
0.0
  0
VERTEX
  5
5D8
  8
0
  6
CONTINUOUS
 62
     9
 10
-484.1809766105136
 20
92.97607607111006
 30
0.0
  0
VERTEX
  5
5D9
  8
0
  6
CONTINUOUS
 62
     9
 10
-484.1814364536688
 20
92.95373321356765
 30
0.0
  0
VERTEX
  5
5DA
  8
0
  6
CONTINUOUS
 62
     9
 10
-484.1828757251813
 20
92.93143594397773
 30
0.0
  0
VERTEX
  5
5DB
  8
0
  6
CONTINUOUS
 62
     9
 10
-484.1852916038818
 20
92.90922796804263
 30
0.0
  0
VERTEX
  5
5DC
  8
0
  6
CONTINUOUS
 62
     9
 10
-484.1886793543172
 20
92.8871528164368
 30
0.0
  0
VERTEX
  5
5DD
  8
0
  6
CONTINUOUS
 62
     9
 10
-484.1930323360326
 20
92.86525375948085
 30
0.0
  0
VERTEX
  5
5DE
  8
0
  6
CONTINUOUS
 62
     9
 10
-484.1983420165876
 20
92.84357372232577
 30
0.0
  0
VERTEX
  5
5DF
  8
0
  6
CONTINUOUS
 62
     9
 10
-484.2045979882813
 20
92.82215520081371
 30
0.0
  0
VERTEX
  5
5E0
  8
0
  6
CONTINUOUS
 62
     9
 10
-484.211787988552
 20
92.80104017818039
 30
0.0
  0
VERTEX
  5
5E1
  8
0
  6
CONTINUOUS
 62
     9
 10
-484.2198979240147
 20
92.78027004276213
 30
0.0
  0
VERTEX
  5
5E2
  8
0
  6
CONTINUOUS
 62
     9
 10
-484.2289118980851
 20
92.75988550686904
 30
0.0
  0
VERTEX
  5
5E3
  8
0
  6
CONTINUOUS
 62
     9
 10
-484.2388122421394
 20
92.73992652698344
 30
0.0
  0
VERTEX
  5
5E4
  8
0
  6
CONTINUOUS
 62
     9
 10
-484.2495795501472
 20
92.7204322254395
 30
0.0
  0
VERTEX
  5
5E5
  8
0
  6
CONTINUOUS
 62
     9
 10
-484.2611927167102
 20
92.70144081373824
 30
0.0
  0
VERTEX
  5
5E6
  8
0
  6
CONTINUOUS
 62
     9
 10
-484.2736289784314
 20
92.68298951764768
 30
0.0
  0
VERTEX
  5
5E7
  8
0
  6
CONTINUOUS
 62
     9
 10
-484.2868639585344
 20
92.6651145042353
 30
0.0
  0
VERTEX
  5
5E8
  8
0
  6
CONTINUOUS
 62
     9
 10
-484.3008717146455
 20
92.64785081097563
 30
0.0
  0
VERTEX
  5
5E9
  8
0
  6
CONTINUOUS
 62
     9
 10
-484.3156247896443
 20
92.63123227707187
 30
0.0
  0
VERTEX
  5
5EA
  8
0
  6
CONTINUOUS
 62
     9
 10
-484.3310942654832
 20
92.61529147712663
 30
0.0
  0
VERTEX
  5
5EB
  8
0
  6
CONTINUOUS
 62
     9
 10
-484.3472498198707
 20
92.60005965729107
 30
0.0
  0
VERTEX
  5
5EC
  8
0
  6
CONTINUOUS
 62
     9
 10
-484.3640597857076
 20
92.58556667401827
 30
0.0
  0
VERTEX
  5
5ED
  8
0
  6
CONTINUOUS
 62
     9
 10
-484.3814912131585
 20
92.57184093554041
 30
0.0
  0
VERTEX
  5
5EE
  8
0
  6
CONTINUOUS
 62
     9
 10
-484.3995099342382
 20
92.55890934618483
 30
0.0
  0
VERTEX
  5
5EF
  8
0
  6
CONTINUOUS
 62
     9
 10
-484.4180806297853
 20
92.54679725363782
 30
0.0
  0
VERTEX
  5
5F0
  8
0
  6
CONTINUOUS
 62
     9
 10
-484.4371668986932
 20
92.53552839925966
 30
0.0
  0
VERTEX
  5
5F1
  8
0
  6
CONTINUOUS
 62
     9
 10
-484.4567313292608
 20
92.52512487154831
 30
0.0
  0
VERTEX
  5
5F2
  8
0
  6
CONTINUOUS
 62
     9
 10
-484.4767355725244
 20
92.51560706284305
 30
0.0
  0
VERTEX
  5
5F3
  8
0
  6
CONTINUOUS
 62
     9
 10
-484.4971404174277
 20
92.50699362935245
 30
0.0
  0
VERTEX
  5
5F4
  8
0
  6
CONTINUOUS
 62
     9
 10
-484.5179058676796
 20
92.4993014545859
 30
0.0
  0
SEQEND
  5
A2D
  8
0
  6
CONTINUOUS
 62
     9
  0
ARC
  5
D2
  8
0
  6
CONTINUOUS
 62
     7
 10
-549.0039849517541
 20
6.290392408276224
 30
0.0
 40
1.500000000000028
 50
238.6330222253664
 51
31.3669777746336
  0
ARC
  5
D3
  8
0
  6
CONTINUOUS
 62
     7
 10
-491.003984951754
 20
130.0403924082762
 30
0.0
 40
3.499999999999971
 50
69.61359765297846
 51
110.3864023470214
  0
ARC
  5
D4
  8
0
  6
CONTINUOUS
 62
     7
 10
-551.0039849517541
 20
130.0403924082762
 30
0.0
 40
3.499999999999951
 50
69.61359765297863
 51
110.3864023470215
  0
LINE
  5
D5
  8
0
  6
CONTINUOUS
 62
     7
 10
-552.2232085453495
 20
133.3211688146806
 30
0.0
 11
-552.2228097172701
 21
133.3253257375604
 31
0.0
  0
LINE
  5
D6
  8
0
  6
CONTINUOUS
 62
     7
 10
-552.2228097172701
 20
133.3253257375604
 30
0.0
 11
-552.1631798001665
 21
134.1811975598637
 31
0.0
  0
ARC
  5
D7
  8
0
  6
CONTINUOUS
 62
     7
 10
-491.003984951754
 20
8.290392408276226
 30
0.0
 40
3.500000000000003
 50
249.6135976529786
 51
290.3864023470215
  0
ARC
  5
D8
  8
0
  6
CONTINUOUS
 62
     7
 10
-549.0039849517541
 20
132.0403924082762
 30
0.0
 40
1.499999999999994
 50
328.6330222253665
 51
121.3669777746336
  0
ARC
  5
D9
  8
0
  6
CONTINUOUS
 62
     7
 10
-493.003984951754
 20
6.290392408276224
 30
0.0
 40
1.500000000000001
 50
148.6330222253664
 51
180.0
  0
ARC
  5
DA
  8
0
  6
CONTINUOUS
 62
     7
 10
-493.003984951754
 20
6.290392408276224
 30
0.0
 40
1.499999999999994
 50
180.0
 51
301.3669777746337
  0
ARC
  5
DB
  8
0
  6
CONTINUOUS
 62
     7
 10
-551.0039849517541
 20
8.290392408276226
 30
0.0
 40
3.500000000000003
 50
249.6135976529786
 51
290.3864023470214
  0
ARC
  5
DC
  8
0
  6
CONTINUOUS
 62
     7
 10
-493.003984951754
 20
132.0403924082762
 30
0.0
 40
1.500000000000001
 50
58.6330222253664
 51
180.0
  0
ARC
  5
DD
  8
0
  6
CONTINUOUS
 62
     7
 10
-493.003984951754
 20
132.0403924082762
 30
0.0
 40
1.500000000000032
 50
180.0
 51
211.3669777746336
  0
ARC
  5
DE
  8
0
  6
CONTINUOUS
 62
     7
 10
-491.003984951754
 20
8.290392408276226
 30
0.0
 40
3.499999999999984
 50
69.61359765297863
 51
110.3864023470215
  0
ARC
  5
DF
  8
0
  6
CONTINUOUS
 62
     7
 10
-553.0039849517541
 20
10.29039240827623
 30
0.0
 40
1.499999999999946
 50
58.63302222536606
 51
180.0
  0
ARC
  5
E0
  8
0
  6
CONTINUOUS
 62
     7
 10
-553.0039849517541
 20
10.29039240827623
 30
0.0
 40
1.49999999999993
 50
180.0
 51
211.3669777746333
  0
ARC
  5
E1
  8
0
  6
CONTINUOUS
 62
     7
 10
-553.0039849517541
 20
128.0403924082762
 30
0.0
 40
1.499999999999946
 50
148.6330222253667
 51
180.0
  0
ARC
  5
E2
  8
0
  6
CONTINUOUS
 62
     7
 10
-553.0039849517541
 20
128.0403924082762
 30
0.0
 40
1.500000000000028
 50
180.0
 51
301.3669777746338
  0
ARC
  5
E3
  8
0
  6
CONTINUOUS
 62
     7
 10
-491.003984951754
 20
130.0403924082762
 30
0.0
 40
3.49999999999999
 50
249.6135976529786
 51
290.3864023470214
  0
ARC
  5
E4
  8
0
  6
CONTINUOUS
 62
     7
 10
-489.003984951754
 20
10.29039240827623
 30
0.0
 40
1.500000000000011
 50
328.6330222253666
 51
121.3669777746339
  0
ARC
  5
E5
  8
0
  6
CONTINUOUS
 62
     7
 10
-551.0039849517541
 20
8.290392408276226
 30
0.0
 40
3.499999999999964
 50
69.61359765297857
 51
110.3864023470214
  0
ARC
  5
E6
  8
0
  6
CONTINUOUS
 62
     7
 10
-551.0039849517541
 20
130.0403924082762
 30
0.0
 40
3.49999999999999
 50
249.6135976529786
 51
290.3864023470214
  0
ARC
  5
E7
  8
0
  6
CONTINUOUS
 62
     7
 10
-489.003984951754
 20
128.0403924082762
 30
0.0
 40
1.49999999999997
 50
238.633022225366
 51
31.36697777463331
  0
ARC
  5
E8
  8
0
  6
CONTINUOUS
 62
     7
 10
-491.003984951754
 20
8.290392408276226
 30
0.0
 40
3.500000000000003
 50
159.6135976529786
 51
180.0
  0
ARC
  5
E9
  8
0
  6
CONTINUOUS
 62
     7
 10
-491.003984951754
 20
8.290392408276226
 30
0.0
 40
3.499999999999983
 50
180.0
 51
200.3864023470216
  0
ARC
  5
EA
  8
0
  6
CONTINUOUS
 62
     7
 10
-551.0039849517541
 20
130.0403924082762
 30
0.0
 40
3.500000000000032
 50
339.6135976529786
 51
20.38640234702154
  0
ARC
  5
EB
  8
0
  6
CONTINUOUS
 62
     7
 10
-551.0039849517541
 20
8.290392408276226
 30
0.0
 40
3.500000000000032
 50
339.6135976529785
 51
20.38640234702137
  0
ARC
  5
EC
  8
0
  6
CONTINUOUS
 62
     7
 10
-491.003984951754
 20
130.0403924082762
 30
0.0
 40
3.500000000000003
 50
159.6135976529785
 51
180.0
  0
ARC
  5
ED
  8
0
  6
CONTINUOUS
 62
     7
 10
-491.003984951754
 20
130.0403924082762
 30
0.0
 40
3.49999999999998
 50
180.0
 51
200.3864023470214
  0
ARC
  5
EE
  8
0
  6
CONTINUOUS
 62
     7
 10
-489.003984951754
 20
132.0403924082762
 30
0.0
 40
1.500000000000023
 50
328.6330222253657
 51
121.3669777746337
  0
ARC
  5
EF
  8
0
  6
CONTINUOUS
 62
     7
 10
-553.0039849517541
 20
132.0403924082762
 30
0.0
 40
1.499999999999946
 50
58.63302222536634
 51
180.0
  0
ARC
  5
F0
  8
0
  6
CONTINUOUS
 62
     7
 10
-553.0039849517541
 20
132.0403924082762
 30
0.0
 40
1.499999999999952
 50
180.0
 51
211.3669777746343
  0
ARC
  5
F1
  8
0
  6
CONTINUOUS
 62
     7
 10
-553.0039849517541
 20
6.290392408276224
 30
0.0
 40
1.499999999999946
 50
148.6330222253657
 51
180.0
  0
ARC
  5
F2
  8
0
  6
CONTINUOUS
 62
     7
 10
-553.0039849517541
 20
6.290392408276224
 30
0.0
 40
1.499999999999994
 50
180.0
 51
301.3669777746337
  0
ARC
  5
F3
  8
0
  6
CONTINUOUS
 62
     7
 10
-489.003984951754
 20
6.290392408276224
 30
0.0
 40
1.499999999999992
 50
238.6330222253664
 51
31.36697777463428
  0
ARC
  5
F4
  8
0
  6
CONTINUOUS
 62
     7
 10
-549.0039849517541
 20
128.0403924082762
 30
0.0
 40
1.500000000000032
 50
238.6330222253667
 51
31.36697777463326
  0
ARC
  5
F5
  8
0
  6
CONTINUOUS
 62
     7
 10
-549.0039849517541
 20
10.29039240827621
 30
0.0
 40
1.499999999999994
 50
328.6330222253667
 51
121.3669777746333
  0
ARC
  5
F6
  8
0
  6
CONTINUOUS
 62
     7
 10
-493.003984951754
 20
10.29039240827621
 30
0.0
 40
1.500000000000057
 50
58.63302222536668
 51
180.0
  0
ARC
  5
F7
  8
0
  6
CONTINUOUS
 62
     7
 10
-493.003984951754
 20
10.29039240827621
 30
0.0
 40
1.500000000000025
 50
180.0
 51
211.3669777746333
  0
ARC
  5
F8
  8
0
  6
CONTINUOUS
 62
     7
 10
-493.003984951754
 20
128.0403924082762
 30
0.0
 40
1.500000000000057
 50
148.6330222253667
 51
180.0
  0
ARC
  5
F9
  8
0
  6
CONTINUOUS
 62
     7
 10
-493.003984951754
 20
128.0403924082762
 30
0.0
 40
1.49999999999997
 50
180.0
 51
301.3669777746334
  0
ARC
  5
FA
  8
0
  6
CONTINUOUS
 62
     7
 10
-551.0039849517541
 20
8.290392408276226
 30
0.0
 40
3.499999999999948
 50
159.6135976529785
 51
180.0
  0
ARC
  5
FB
  8
0
  6
CONTINUOUS
 62
     7
 10
-551.0039849517541
 20
8.290392408276226
 30
0.0
 40
3.499999999999925
 50
180.0
 51
200.3864023470213
  0
ARC
  5
FC
  8
0
  6
CONTINUOUS
 62
     7
 10
-551.0039849517541
 20
130.0403924082762
 30
0.0
 40
3.499999999999948
 50
159.6135976529787
 51
180.0
  0
ARC
  5
FD
  8
0
  6
CONTINUOUS
 62
     7
 10
-551.0039849517541
 20
130.0403924082762
 30
0.0
 40
3.499999999999928
 50
180.0
 51
200.3864023470216
  0
ARC
  5
FE
  8
0
  6
CONTINUOUS
 62
     7
 10
-491.003984951754
 20
130.0403924082762
 30
0.0
 40
3.500000000000032
 50
339.6135976529785
 51
20.38640234702126
  0
ARC
  5
FF
  8
0
  6
CONTINUOUS
 62
     7
 10
-491.003984951754
 20
8.290392408276226
 30
0.0
 40
3.500000000000035
 50
339.6135976529787
 51
20.38640234702154
  0
LINE
  5
100
  8
0
  6
CONTINUOUS
 62
     9
 10
-556.4813186492291
 20
34.48015371962577
 30
0.0
 11
-556.4812670911024
 21
34.55702201996846
 31
0.0
  0
LINE
  5
101
  8
0
  6
CONTINUOUS
 62
     9
 10
-556.4812670911024
 20
47.27376279658396
 30
0.0
 11
-556.4813186492291
 21
47.35063109692665
 31
0.0
  0
LINE
  5
102
  8
0
  6
CONTINUOUS
 62
     9
 10
-556.4813186492291
 20
90.98015371962576
 30
0.0
 11
-556.4812670911024
 21
91.05702201996847
 31
0.0
  0
LINE
  5
103
  8
0
  6
CONTINUOUS
 62
     9
 10
-556.4813186492291
 20
62.73015371962575
 30
0.0
 11
-556.4812670911024
 21
62.80702201996846
 31
0.0
  0
LINE
  5
104
  8
0
  6
CONTINUOUS
 62
     9
 10
-556.4812670911024
 20
103.773762796584
 30
0.0
 11
-556.4813186492291
 21
103.8506310969267
 31
0.0
  0
LINE
  5
105
  8
0
  6
CONTINUOUS
 62
     9
 10
-556.4812670911024
 20
75.52376279658395
 30
0.0
 11
-556.4813186492291
 21
75.60063109692666
 31
0.0
  0
LINE
  5
106
  8
0
  6
CONTINUOUS
 62
     9
 10
-485.526651254279
 20
103.8506310969267
 30
0.0
 11
-485.5267028124059
 21
103.773762796584
 31
0.0
  0
LINE
  5
107
  8
0
  6
CONTINUOUS
 62
     9
 10
-485.526651254279
 20
75.60063109692666
 30
0.0
 11
-485.5267028124059
 21
75.52376279658398
 31
0.0
  0
LINE
  5
108
  8
0
  6
CONTINUOUS
 62
     9
 10
-485.5267028124059
 20
91.05702201996843
 30
0.0
 11
-485.526651254279
 21
90.98015371962576
 31
0.0
  0
LINE
  5
109
  8
0
  6
CONTINUOUS
 62
     9
 10
-485.526651254279
 20
47.35063109692665
 30
0.0
 11
-485.5267028124059
 21
47.27376279658398
 31
0.0
  0
LINE
  5
10A
  8
0
  6
CONTINUOUS
 62
     9
 10
-485.5267028124059
 20
34.55702201996844
 30
0.0
 11
-485.526651254279
 21
34.48015371962578
 31
0.0
  0
LINE
  5
10B
  8
0
  6
CONTINUOUS
 62
     9
 10
-485.5267028124059
 20
62.80702201996842
 30
0.0
 11
-485.526651254279
 21
62.73015371962575
 31
0.0
  0
ARC
  5
10C
  8
0
  6
CONTINUOUS
 62
     7
 10
-555.8499254990876
 20
56.54386411704861
 30
0.0
 40
1.981745006478854
 50
214.5944659016492
 51
251.4214397280089
  0
LINE
  5
10D
  8
0
  6
CONTINUOUS
 62
     7
 10
-556.4813186492291
 20
47.35063109692665
 30
0.0
 11
-556.4813186492291
 21
54.66539240827621
 31
0.0
  0
LINE
  5
10E
  8
0
  6
CONTINUOUS
 62
     9
 10
-556.4813186492291
 20
16.21825785686472
 30
0.0
 11
-556.4813186492291
 21
34.48015371962578
 31
0.0
  0
LINE
  5
10F
  8
0
  6
CONTINUOUS
 62
     9
 10
-556.4813186492291
 20
103.8506310969267
 30
0.0
 11
-556.4813186492291
 21
122.1125269596879
 31
0.0
  0
LINE
  5
110
  8
0
  6
CONTINUOUS
 62
     7
 10
-556.4813186492291
 20
58.66539240827621
 30
0.0
 11
-556.4813186492291
 21
62.73015371962575
 31
0.0
  0
ARC
  5
111
  8
0
  6
CONTINUOUS
 62
     7
 10
-555.84935360657
 20
56.78616155328672
 30
0.0
 40
1.982646822176768
 50
108.587236287759
 51
145.3968580825838
  0
LINE
  5
112
  8
0
  6
CONTINUOUS
 62
     9
 10
-485.526651254279
 20
122.1125269596879
 30
0.0
 11
-485.526651254279
 21
103.8506310969267
 31
0.0
  0
LINE
  5
113
  8
0
  6
CONTINUOUS
 62
     7
 10
-556.4813186492291
 20
83.6653924082762
 30
0.0
 11
-556.4813186492291
 21
90.98015371962576
 31
0.0
  0
ARC
  5
114
  8
0
  6
CONTINUOUS
 62
     7
 10
-555.8493536065702
 20
81.78616155328682
 30
0.0
 40
1.982646822176629
 50
108.5872362877568
 51
145.3968580825839
  0
ARC
  5
115
  8
0
  6
CONTINUOUS
 62
     7
 10
-486.1580444044206
 20
81.78692069950357
 30
0.0
 40
1.981745006479109
 50
34.59446590165686
 51
71.4214397280097
  0
LINE
  5
116
  8
0
  6
CONTINUOUS
 62
     7
 10
-485.526651254279
 20
90.98015371962575
 30
0.0
 11
-485.526651254279
 21
83.6653924082762
 31
0.0
  0
POLYLINE
  5
117
  8
0
  6
CONTINUOUS
 62
     7
 66
     1
 10
0.0
 20
0.0
 30
0.0
  0
VERTEX
  5
5F5
  8
0
  6
CONTINUOUS
 62
     7
 10
-484.5266893312149
 20
55.41870017529152
 30
0.0
  0
VERTEX
  5
5F6
  8
0
  6
CONTINUOUS
 62
     7
 10
-484.332508961336
 20
55.77102066282702
 30
0.0
  0
VERTEX
  5
5F7
  8
0
  6
CONTINUOUS
 62
     7
 10
-484.212766616355
 20
56.15507239539502
 30
0.0
  0
VERTEX
  5
5F8
  8
0
  6
CONTINUOUS
 62
     7
 10
-484.1723068581266
 20
56.55531732441244
 30
0.0
  0
SEQEND
  5
A2E
  8
0
  6
CONTINUOUS
 62
     7
  0
LINE
  5
118
  8
0
  6
CONTINUOUS
 62
     7
 10
-484.1723068581266
 20
56.77546749213997
 30
0.0
 11
-484.1723068581266
 21
56.55531732441244
 31
0.0
  0
POLYLINE
  5
119
  8
0
  6
CONTINUOUS
 62
     7
 66
     1
 10
0.0
 20
0.0
 30
0.0
  0
VERTEX
  5
5F9
  8
0
  6
CONTINUOUS
 62
     7
 10
-484.1723068581266
 20
56.77546749213997
 30
0.0
  0
VERTEX
  5
5FA
  8
0
  6
CONTINUOUS
 62
     7
 10
-484.212766616355
 20
57.17571242115739
 30
0.0
  0
VERTEX
  5
5FB
  8
0
  6
CONTINUOUS
 62
     7
 10
-484.332508961336
 20
57.55976415372539
 30
0.0
  0
VERTEX
  5
5FC
  8
0
  6
CONTINUOUS
 62
     7
 10
-484.5266893312149
 20
57.91208464126089
 30
0.0
  0
SEQEND
  5
A2F
  8
0
  6
CONTINUOUS
 62
     7
  0
POLYLINE
  5
11A
  8
0
  6
CONTINUOUS
 62
     7
 66
     1
 10
0.0
 20
0.0
 30
0.0
  0
VERTEX
  5
5FD
  8
0
  6
CONTINUOUS
 62
     7
 10
-484.5266893312149
 20
80.41870017529152
 30
0.0
  0
VERTEX
  5
5FE
  8
0
  6
CONTINUOUS
 62
     7
 10
-484.3325089613359
 20
80.77102066282703
 30
0.0
  0
VERTEX
  5
5FF
  8
0
  6
CONTINUOUS
 62
     7
 10
-484.2127666163549
 20
81.15507239539502
 30
0.0
  0
VERTEX
  5
600
  8
0
  6
CONTINUOUS
 62
     7
 10
-484.1723068581265
 20
81.55531732441243
 30
0.0
  0
SEQEND
  5
A30
  8
0
  6
CONTINUOUS
 62
     7
  0
LINE
  5
11B
  8
0
  6
CONTINUOUS
 62
     7
 10
-484.1723068581266
 20
81.55531732441243
 30
0.0
 11
-484.1723068581266
 21
81.77546749213998
 31
0.0
  0
POLYLINE
  5
11C
  8
0
  6
CONTINUOUS
 62
     7
 66
     1
 10
0.0
 20
0.0
 30
0.0
  0
VERTEX
  5
601
  8
0
  6
CONTINUOUS
 62
     7
 10
-484.1723068581265
 20
81.77546749213998
 30
0.0
  0
VERTEX
  5
602
  8
0
  6
CONTINUOUS
 62
     7
 10
-484.2127666163549
 20
82.17571242115739
 30
0.0
  0
VERTEX
  5
603
  8
0
  6
CONTINUOUS
 62
     7
 10
-484.3325089613359
 20
82.55976415372538
 30
0.0
  0
VERTEX
  5
604
  8
0
  6
CONTINUOUS
 62
     7
 10
-484.5266893312149
 20
82.91208464126089
 30
0.0
  0
SEQEND
  5
A31
  8
0
  6
CONTINUOUS
 62
     7
  0
POLYLINE
  5
11D
  8
0
  6
CONTINUOUS
 62
     7
 66
     1
 10
0.0
 20
0.0
 30
0.0
  0
VERTEX
  5
605
  8
0
  6
CONTINUOUS
 62
     7
 10
-557.4812805722933
 20
82.91208464126078
 30
0.0
  0
VERTEX
  5
606
  8
0
  6
CONTINUOUS
 62
     7
 10
-557.6754609421721
 20
82.55976415372531
 30
0.0
  0
VERTEX
  5
607
  8
0
  6
CONTINUOUS
 62
     7
 10
-557.7952032871531
 20
82.17571242115736
 30
0.0
  0
VERTEX
  5
608
  8
0
  6
CONTINUOUS
 62
     7
 10
-557.8356630453815
 20
81.77546749214001
 30
0.0
  0
SEQEND
  5
A32
  8
0
  6
CONTINUOUS
 62
     7
  0
LINE
  5
11E
  8
0
  6
CONTINUOUS
 62
     7
 10
-557.8356630453815
 20
81.5553173244124
 30
0.0
 11
-557.8356630453815
 21
81.77546749214001
 31
0.0
  0
POLYLINE
  5
11F
  8
0
  6
CONTINUOUS
 62
     7
 66
     1
 10
0.0
 20
0.0
 30
0.0
  0
VERTEX
  5
609
  8
0
  6
CONTINUOUS
 62
     7
 10
-557.8356630453815
 20
81.5553173244124
 30
0.0
  0
VERTEX
  5
60A
  8
0
  6
CONTINUOUS
 62
     7
 10
-557.7952032871531
 20
81.15507239539505
 30
0.0
  0
VERTEX
  5
60B
  8
0
  6
CONTINUOUS
 62
     7
 10
-557.6754609421721
 20
80.7710206628271
 30
0.0
  0
VERTEX
  5
60C
  8
0
  6
CONTINUOUS
 62
     7
 10
-557.4812805722933
 20
80.41870017529163
 30
0.0
  0
SEQEND
  5
A33
  8
0
  6
CONTINUOUS
 62
     7
  0
POLYLINE
  5
120
  8
0
  6
CONTINUOUS
 62
     7
 66
     1
 10
0.0
 20
0.0
 30
0.0
  0
VERTEX
  5
60D
  8
0
  6
CONTINUOUS
 62
     7
 10
-557.4812805722933
 20
57.91208464126077
 30
0.0
  0
VERTEX
  5
60E
  8
0
  6
CONTINUOUS
 62
     7
 10
-557.6754609421722
 20
57.55976415372531
 30
0.0
  0
VERTEX
  5
60F
  8
0
  6
CONTINUOUS
 62
     7
 10
-557.7952032871531
 20
57.17571242115736
 30
0.0
  0
VERTEX
  5
610
  8
0
  6
CONTINUOUS
 62
     7
 10
-557.8356630453815
 20
56.77546749214002
 30
0.0
  0
SEQEND
  5
A34
  8
0
  6
CONTINUOUS
 62
     7
  0
LINE
  5
121
  8
0
  6
CONTINUOUS
 62
     7
 10
-557.8356630453815
 20
56.77546749214002
 30
0.0
 11
-557.8356630453815
 21
56.5553173244124
 31
0.0
  0
POLYLINE
  5
122
  8
0
  6
CONTINUOUS
 62
     7
 66
     1
 10
0.0
 20
0.0
 30
0.0
  0
VERTEX
  5
611
  8
0
  6
CONTINUOUS
 62
     7
 10
-557.8356630453815
 20
56.5553173244124
 30
0.0
  0
VERTEX
  5
612
  8
0
  6
CONTINUOUS
 62
     7
 10
-557.7952032871531
 20
56.15507239539505
 30
0.0
  0
VERTEX
  5
613
  8
0
  6
CONTINUOUS
 62
     7
 10
-557.6754609421722
 20
55.77102066282711
 30
0.0
  0
VERTEX
  5
614
  8
0
  6
CONTINUOUS
 62
     7
 10
-557.4812805722933
 20
55.41870017529165
 30
0.0
  0
SEQEND
  5
A35
  8
0
  6
CONTINUOUS
 62
     7
  0
ARC
  5
123
  8
0
  6
CONTINUOUS
 62
     7
 10
-482.003984951754
 20
132.1653924082762
 30
0.0
 40
6.000000000000005
 50
0.0
 51
90.0
  0
LINE
  5
124
  8
0
  6
CONTINUOUS
 62
     7
 10
-476.003984951754
 20
132.1653924082762
 30
0.0
 11
-476.003984951754
 21
6.16539240827621
 31
0.0
  0
ARC
  5
125
  8
0
  6
CONTINUOUS
 62
     7
 10
-482.003984951754
 20
6.16539240827621
 30
0.0
 40
6.000000000000005
 50
270.0
 51
0.0
  0
LINE
  5
126
  8
0
  6
CONTINUOUS
 62
     7
 10
-482.003984951754
 20
0.1653924082762048
 30
0.0
 11
-560.0039849517541
 21
0.1653924082762048
 31
0.0
  0
ARC
  5
127
  8
0
  6
CONTINUOUS
 62
     7
 10
-560.0039849517541
 20
6.16539240827621
 30
0.0
 40
6.000000000000005
 50
180.0
 51
270.0
  0
LINE
  5
128
  8
0
  6
CONTINUOUS
 62
     7
 10
-566.0039849517541
 20
6.16539240827621
 30
0.0
 11
-566.0039849517541
 21
132.1653924082762
 31
0.0
  0
ARC
  5
129
  8
0
  6
CONTINUOUS
 62
     7
 10
-560.0039849517541
 20
132.1653924082762
 30
0.0
 40
6.000000000000005
 50
90.0
 51
180.0
  0
LINE
  5
12A
  8
0
  6
DOT
 62
     9
 10
-560.0039849517541
 20
138.1653924082762
 30
0.0
 11
-482.003984951754
 21
138.1653924082762
 31
0.0
  0
ARC
  5
12C
  8
0
  6
CONTINUOUS
 62
     7
 10
-555.8499254990877
 20
81.54386411704859
 30
0.0
 40
1.981745006478793
 50
214.5944659016506
 51
251.4214397280118
  0
LINE
  5
12D
  8
0
  6
CONTINUOUS
 62
     7
 10
-556.4813186492291
 20
75.60063109692666
 30
0.0
 11
-556.4813186492291
 21
79.66539240827622
 31
0.0
  0
ARC
  5
12E
  8
0
  6
CONTINUOUS
 62
     7
 10
-486.1580444044206
 20
56.78692069950353
 30
0.0
 40
1.981745006479135
 50
34.59446590165771
 51
71.42143972801
  0
LINE
  5
12F
  8
0
  6
CONTINUOUS
 62
     7
 10
-485.526651254279
 20
62.73015371962575
 30
0.0
 11
-485.526651254279
 21
58.6653924082762
 31
0.0
  0
LINE
  5
130
  8
0
  6
CONTINUOUS
 62
     7
 10
-485.526651254279
 20
79.66539240827622
 30
0.0
 11
-485.526651254279
 21
75.60063109692666
 31
0.0
  0
ARC
  5
131
  8
0
  6
CONTINUOUS
 62
     7
 10
-486.1586162969377
 20
81.54462326326532
 30
0.0
 40
1.982646822176253
 50
288.5872362877503
 51
325.3968580825827
  0
LINE
  5
132
  8
0
  6
CONTINUOUS
 62
     9
 10
-485.526651254279
 20
34.48015371962577
 30
0.0
 11
-485.526651254279
 21
16.21825785686471
 31
0.0
  0
LINE
  5
133
  8
0
  6
CONTINUOUS
 62
     7
 10
-485.526651254279
 20
54.6653924082762
 30
0.0
 11
-485.526651254279
 21
47.35063109692664
 31
0.0
  0
ARC
  5
134
  8
0
  6
CONTINUOUS
 62
     7
 10
-486.1586162969377
 20
56.54462326326539
 30
0.0
 40
1.98264682217635
 50
288.587236287751
 51
325.3968580825815
  0
POLYLINE
  5
135
  8
0
  6
CONTINUOUS
 62
     9
 66
     1
 10
0.0
 20
0.0
 30
0.0
  0
VERTEX
  5
615
  8
0
  6
CONTINUOUS
 62
     9
 10
-500.0550203850391
 20
15.21505737631603
 30
0.0
  0
VERTEX
  5
616
  8
0
  6
CONTINUOUS
 62
     9
 10
-500.2495087177159
 20
15.19540292256518
 30
0.0
  0
VERTEX
  5
617
  8
0
  6
CONTINUOUS
 62
     9
 10
-500.436548932332
 20
15.13825767498922
 30
0.0
  0
VERTEX
  5
618
  8
0
  6
CONTINUOUS
 62
     9
 10
-500.608978143683
 20
15.04581006589508
 30
0.0
  0
VERTEX
  5
619
  8
0
  6
CONTINUOUS
 62
     9
 10
-500.7601930090102
 20
14.92160046553266
 30
0.0
  0
VERTEX
  5
61A
  8
0
  6
CONTINUOUS
 62
     9
 10
-500.8844026093727
 20
14.77038560020545
 30
0.0
  0
VERTEX
  5
61B
  8
0
  6
CONTINUOUS
 62
     9
 10
-500.9768502184668
 20
14.5979563888544
 30
0.0
  0
VERTEX
  5
61C
  8
0
  6
CONTINUOUS
 62
     9
 10
-501.0339954660429
 20
14.41091617423829
 30
0.0
  0
VERTEX
  5
61D
  8
0
  6
CONTINUOUS
 62
     9
 10
-501.0536499197937
 20
14.2164278415615
 30
0.0
  0
SEQEND
  5
A36
  8
0
  6
CONTINUOUS
 62
     9
  0
LINE
  5
136
  8
0
  6
CONTINUOUS
 62
     9
 10
-501.0536499197937
 20
14.21642784156148
 30
0.0
 11
-501.0536499197937
 21
11.21368691107047
 31
0.0
  0
LINE
  5
137
  8
0
  6
CONTINUOUS
 62
     9
 10
-540.9543199837143
 20
124.1143569749912
 30
0.0
 11
-540.9543199837143
 21
127.1170979054819
 31
0.0
  0
ARC
  5
138
  8
0
  6
DOT
 62
     9
 10
-496.003984951754
 20
253.1653924082762
 30
0.0
 40
4.999999999999948
 50
0.0
 51
90.00000000000064
  0
LINE
  5
139
  8
0
  6
DOT
 62
     9
 10
-491.0039849517541
 20
161.1653924082761
 30
0.0
 11
-491.003984951754
 21
253.1653924082762
 31
0.0
  0
ARC
  5
13A
  8
0
  6
DOT
 62
     9
 10
-496.003984951754
 20
161.1653924082761
 30
0.0
 40
4.999999999999977
 50
269.9999999999994
 51
0.0000000000003411
  0
LINE
  5
13B
  8
0
  6
DOT
 62
     9
 10
-546.0039849517541
 20
156.1653924082761
 30
0.0
 11
-496.0039849517541
 21
156.1653924082761
 31
0.0
  0
ARC
  5
13C
  8
0
  6
DOT
 62
     9
 10
-546.0039849517541
 20
161.1653924082761
 30
0.0
 40
5.000000000000004
 50
180.0
 51
270.0
  0
LINE
  5
13D
  8
0
  6
DOT
 62
     9
 10
-551.0039849517541
 20
253.1653924082762
 30
0.0
 11
-551.0039849517541
 21
161.1653924082761
 31
0.0
  0
ARC
  5
13E
  8
0
  6
DOT
 62
     9
 10
-546.0039849517541
 20
253.1653924082762
 30
0.0
 40
5.00000000000006
 50
90.0
 51
179.9999999999994
  0
LINE
  5
13F
  8
0
  6
DOT
 62
     9
 10
-496.003984951754
 20
258.1653924082762
 30
0.0
 11
-546.0039849517541
 21
258.1653924082763
 31
0.0
  0
POLYLINE
  5
140
  8
0
  6
CONTINUOUS
 62
     9
 66
     1
 10
0.0
 20
0.0
 30
0.0
  0
VERTEX
  5
61E
  8
0
  6
CONTINUOUS
 62
     9
 10
-541.9529495184689
 20
123.1157274402366
 30
0.0
  0
VERTEX
  5
61F
  8
0
  6
CONTINUOUS
 62
     9
 10
-541.7584611857922
 20
123.1353818939874
 30
0.0
  0
VERTEX
  5
620
  8
0
  6
CONTINUOUS
 62
     9
 10
-541.5714209711759
 20
123.1925271415634
 30
0.0
  0
VERTEX
  5
621
  8
0
  6
CONTINUOUS
 62
     9
 10
-541.398991759825
 20
123.2849747506575
 30
0.0
  0
VERTEX
  5
622
  8
0
  6
CONTINUOUS
 62
     9
 10
-541.2477768944977
 20
123.40918435102
 30
0.0
  0
VERTEX
  5
623
  8
0
  6
CONTINUOUS
 62
     9
 10
-541.1235672941353
 20
123.5603992163472
 30
0.0
  0
VERTEX
  5
624
  8
0
  6
CONTINUOUS
 62
     9
 10
-541.0311196850412
 20
123.7328284276983
 30
0.0
  0
VERTEX
  5
625
  8
0
  6
CONTINUOUS
 62
     9
 10
-540.9739744374651
 20
123.9198686423144
 30
0.0
  0
VERTEX
  5
626
  8
0
  6
CONTINUOUS
 62
     9
 10
-540.9543199837143
 20
124.1143569749912
 30
0.0
  0
SEQEND
  5
A37
  8
0
  6
CONTINUOUS
 62
     9
  0
LINE
  5
141
  8
0
  6
CONTINUOUS
 62
     9
 10
-555.4821178734635
 20
123.1157274402366
 30
0.0
 11
-541.9529495184689
 21
123.1157274402366
 31
0.0
  0
LINE
  5
142
  8
0
  6
CONTINUOUS
 62
     9
 10
-486.5258520300447
 20
15.21505737631605
 30
0.0
 11
-500.0550203850391
 21
15.21505737631605
 31
0.0
  0
LINE
  5
143
  8
0
  6
CONTINUOUS
 62
     9
 10
-484.1809766105136
 20
45.35470874544237
 30
0.0
 11
-484.1809766105136
 21
36.47607607111006
 31
0.0
  0
POLYLINE
  5
144
  8
0
  6
CONTINUOUS
 62
     9
 66
     1
 10
0.0
 20
0.0
 30
0.0
  0
VERTEX
  5
627
  8
0
  6
CONTINUOUS
 62
     9
 10
-485.5266512542791
 20
122.1125269596879
 30
0.0
  0
VERTEX
  5
628
  8
0
  6
CONTINUOUS
 62
     9
 10
-485.5457679606147
 20
122.3083462601986
 30
0.0
  0
VERTEX
  5
629
  8
0
  6
CONTINUOUS
 62
     9
 10
-485.6025620031903
 20
122.4966095659161
 30
0.0
  0
VERTEX
  5
62A
  8
0
  6
CONTINUOUS
 62
     9
 10
-485.6948520837061
 20
122.670086216545
 30
0.0
  0
VERTEX
  5
62B
  8
0
  6
CONTINUOUS
 62
     9
 10
-485.8190936015915
 20
122.8221134653268
 30
0.0
  0
VERTEX
  5
62C
  8
0
  6
CONTINUOUS
 62
     9
 10
-485.9705147920728
 20
122.94685237627
 30
0.0
  0
VERTEX
  5
62D
  8
0
  6
CONTINUOUS
 62
     9
 10
-486.1432999961413
 20
123.0395120811426
 30
0.0
  0
VERTEX
  5
62E
  8
0
  6
CONTINUOUS
 62
     9
 10
-486.3308130235421
 20
123.0965337831493
 30
0.0
  0
VERTEX
  5
62F
  8
0
  6
CONTINUOUS
 62
     9
 10
-486.5258520300447
 20
123.1157274402366
 30
0.0
  0
SEQEND
  5
A38
  8
0
  6
CONTINUOUS
 62
     9
  0
LINE
  5
145
  8
0
  6
CONTINUOUS
 62
     9
 10
-502.0522794545483
 20
10.21505737631589
 30
0.0
 11
-539.9556904489598
 21
10.21505737631589
 31
0.0
  0
LINE
  5
146
  8
0
  6
CONTINUOUS
 62
     9
 10
-539.9556904489598
 20
128.1157274402365
 30
0.0
 11
-502.0522794545483
 21
128.1157274402365
 31
0.0
  0
POLYLINE
  5
147
  8
0
  6
CONTINUOUS
 62
     9
 66
     1
 10
0.0
 20
0.0
 30
0.0
  0
VERTEX
  5
630
  8
0
  6
CONTINUOUS
 62
     9
 10
-540.9543199837143
 20
14.21642784156145
 30
0.0
  0
VERTEX
  5
631
  8
0
  6
CONTINUOUS
 62
     9
 10
-540.9739744374651
 20
14.41091617423825
 30
0.0
  0
VERTEX
  5
632
  8
0
  6
CONTINUOUS
 62
     9
 10
-541.0311196850412
 20
14.59795638885437
 30
0.0
  0
VERTEX
  5
633
  8
0
  6
CONTINUOUS
 62
     9
 10
-541.1235672941353
 20
14.77038560020544
 30
0.0
  0
VERTEX
  5
634
  8
0
  6
CONTINUOUS
 62
     9
 10
-541.2477768944977
 20
14.92160046553265
 30
0.0
  0
VERTEX
  5
635
  8
0
  6
CONTINUOUS
 62
     9
 10
-541.398991759825
 20
15.04581006589509
 30
0.0
  0
VERTEX
  5
636
  8
0
  6
CONTINUOUS
 62
     9
 10
-541.5714209711759
 20
15.13825767498924
 30
0.0
  0
VERTEX
  5
637
  8
0
  6
CONTINUOUS
 62
     9
 10
-541.7584611857922
 20
15.19540292256521
 30
0.0
  0
VERTEX
  5
638
  8
0
  6
CONTINUOUS
 62
     9
 10
-541.9529495184689
 20
15.21505737631607
 30
0.0
  0
SEQEND
  5
A39
  8
0
  6
CONTINUOUS
 62
     9
  0
POLYLINE
  5
148
  8
0
  6
CONTINUOUS
 62
     9
 66
     1
 10
0.0
 20
0.0
 30
0.0
  0
VERTEX
  5
639
  8
0
  6
CONTINUOUS
 62
     9
 10
-556.481318649229
 20
16.21825785686471
 30
0.0
  0
VERTEX
  5
63A
  8
0
  6
CONTINUOUS
 62
     9
 10
-556.4622019428936
 20
16.02243855635401
 30
0.0
  0
VERTEX
  5
63B
  8
0
  6
CONTINUOUS
 62
     9
 10
-556.4054079003179
 20
15.83417525063647
 30
0.0
  0
VERTEX
  5
63C
  8
0
  6
CONTINUOUS
 62
     9
 10
-556.3131178198022
 20
15.66069860000761
 30
0.0
  0
VERTEX
  5
63D
  8
0
  6
CONTINUOUS
 62
     9
 10
-556.1888763019166
 20
15.50867135122587
 30
0.0
  0
VERTEX
  5
63E
  8
0
  6
CONTINUOUS
 62
     9
 10
-556.0374551114354
 20
15.3839324402826
 30
0.0
  0
VERTEX
  5
63F
  8
0
  6
CONTINUOUS
 62
     9
 10
-555.864669907367
 20
15.29127273541005
 30
0.0
  0
VERTEX
  5
640
  8
0
  6
CONTINUOUS
 62
     9
 10
-555.6771568799661
 20
15.23425103340331
 30
0.0
  0
VERTEX
  5
641
  8
0
  6
CONTINUOUS
 62
     9
 10
-555.4821178734635
 20
15.21505737631605
 30
0.0
  0
SEQEND
  5
A3A
  8
0
  6
CONTINUOUS
 62
     9
  0
POLYLINE
  5
149
  8
0
  6
CONTINUOUS
 62
     9
 66
     1
 10
0.0
 20
0.0
 30
0.0
  0
VERTEX
  5
642
  8
0
  6
CONTINUOUS
 62
     9
 10
-555.4821178734635
 20
123.1157274402366
 30
0.0
  0
VERTEX
  5
643
  8
0
  6
CONTINUOUS
 62
     9
 10
-555.6771568799661
 20
123.0965337831493
 30
0.0
  0
VERTEX
  5
644
  8
0
  6
CONTINUOUS
 62
     9
 10
-555.864669907367
 20
123.0395120811426
 30
0.0
  0
VERTEX
  5
645
  8
0
  6
CONTINUOUS
 62
     9
 10
-556.0374551114354
 20
122.94685237627
 30
0.0
  0
VERTEX
  5
646
  8
0
  6
CONTINUOUS
 62
     9
 10
-556.1888763019166
 20
122.8221134653268
 30
0.0
  0
VERTEX
  5
647
  8
0
  6
CONTINUOUS
 62
     9
 10
-556.3131178198022
 20
122.670086216545
 30
0.0
  0
VERTEX
  5
648
  8
0
  6
CONTINUOUS
 62
     9
 10
-556.4054079003179
 20
122.4966095659161
 30
0.0
  0
VERTEX
  5
649
  8
0
  6
CONTINUOUS
 62
     9
 10
-556.4622019428936
 20
122.3083462601986
 30
0.0
  0
VERTEX
  5
64A
  8
0
  6
CONTINUOUS
 62
     9
 10
-556.481318649229
 20
122.1125269596879
 30
0.0
  0
SEQEND
  5
A3B
  8
0
  6
CONTINUOUS
 62
     9
  0
POLYLINE
  5
14A
  8
0
  6
CONTINUOUS
 62
     9
 66
     1
 10
0.0
 20
0.0
 30
0.0
  0
VERTEX
  5
64B
  8
0
  6
CONTINUOUS
 62
     9
 10
-486.5258520300447
 20
15.21505737631605
 30
0.0
  0
VERTEX
  5
64C
  8
0
  6
CONTINUOUS
 62
     9
 10
-486.3308130235421
 20
15.23425103340332
 30
0.0
  0
VERTEX
  5
64D
  8
0
  6
CONTINUOUS
 62
     9
 10
-486.1432999961413
 20
15.29127273541005
 30
0.0
  0
VERTEX
  5
64E
  8
0
  6
CONTINUOUS
 62
     9
 10
-485.9705147920728
 20
15.38393244028259
 30
0.0
  0
VERTEX
  5
64F
  8
0
  6
CONTINUOUS
 62
     9
 10
-485.8190936015915
 20
15.50867135122586
 30
0.0
  0
VERTEX
  5
650
  8
0
  6
CONTINUOUS
 62
     9
 10
-485.6948520837061
 20
15.6606986000076
 30
0.0
  0
VERTEX
  5
651
  8
0
  6
CONTINUOUS
 62
     9
 10
-485.6025620031903
 20
15.83417525063646
 30
0.0
  0
VERTEX
  5
652
  8
0
  6
CONTINUOUS
 62
     9
 10
-485.5457679606147
 20
16.022438556354
 30
0.0
  0
VERTEX
  5
653
  8
0
  6
CONTINUOUS
 62
     9
 10
-485.5266512542791
 20
16.2182578568647
 30
0.0
  0
SEQEND
  5
A3C
  8
0
  6
CONTINUOUS
 62
     9
  0
LINE
  5
14B
  8
0
  6
CONTINUOUS
 62
     9
 10
-557.8269932929944
 20
64.72607607111004
 30
0.0
 11
-557.8269932929944
 21
73.6047087454424
 31
0.0
  0
POLYLINE
  5
14C
  8
0
  6
CONTINUOUS
 62
     9
 66
     1
 10
0.0
 20
0.0
 30
0.0
  0
VERTEX
  5
654
  8
0
  6
CONTINUOUS
 62
     9
 10
-540.9543199837143
 20
11.21368691107048
 30
0.0
  0
VERTEX
  5
655
  8
0
  6
CONTINUOUS
 62
     9
 10
-540.9356259188007
 20
11.0182381895565
 30
0.0
  0
VERTEX
  5
656
  8
0
  6
CONTINUOUS
 62
     9
 10
-540.8791942038484
 20
10.83048444231662
 30
0.0
  0
VERTEX
  5
657
  8
0
  6
CONTINUOUS
 62
     9
 10
-540.7871859457455
 20
10.65761587997444
 30
0.0
  0
VERTEX
  5
658
  8
0
  6
CONTINUOUS
 62
     9
 10
-540.663124689372
 20
10.5062526706582
 30
0.0
  0
VERTEX
  5
659
  8
0
  6
CONTINUOUS
 62
     9
 10
-540.5117614800558
 20
10.3821914142848
 30
0.0
  0
VERTEX
  5
65A
  8
0
  6
CONTINUOUS
 62
     9
 10
-540.3388929177137
 20
10.29018315618177
 30
0.0
  0
VERTEX
  5
65B
  8
0
  6
CONTINUOUS
 62
     9
 10
-540.1511391704737
 20
10.23375144122956
 30
0.0
  0
VERTEX
  5
65C
  8
0
  6
CONTINUOUS
 62
     9
 10
-539.9556904489597
 20
10.2150573763159
 30
0.0
  0
SEQEND
  5
A3D
  8
0
  6
CONTINUOUS
 62
     9
  0
POLYLINE
  5
14D
  8
0
  6
CONTINUOUS
 62
     9
 66
     1
 10
0.0
 20
0.0
 30
0.0
  0
VERTEX
  5
65D
  8
0
  6
CONTINUOUS
 62
     9
 10
-539.9556904489597
 20
128.1157274402365
 30
0.0
  0
VERTEX
  5
65E
  8
0
  6
CONTINUOUS
 62
     9
 10
-540.1511391704737
 20
128.0970333753229
 30
0.0
  0
VERTEX
  5
65F
  8
0
  6
CONTINUOUS
 62
     9
 10
-540.3388929177137
 20
128.0406016603706
 30
0.0
  0
VERTEX
  5
660
  8
0
  6
CONTINUOUS
 62
     9
 10
-540.5117614800558
 20
127.9485934022676
 30
0.0
  0
VERTEX
  5
661
  8
0
  6
CONTINUOUS
 62
     9
 10
-540.663124689372
 20
127.8245321458942
 30
0.0
  0
VERTEX
  5
662
  8
0
  6
CONTINUOUS
 62
     9
 10
-540.7871859457455
 20
127.673168936578
 30
0.0
  0
VERTEX
  5
663
  8
0
  6
CONTINUOUS
 62
     9
 10
-540.8791942038484
 20
127.5003003742358
 30
0.0
  0
VERTEX
  5
664
  8
0
  6
CONTINUOUS
 62
     9
 10
-540.9356259188007
 20
127.3125466269959
 30
0.0
  0
VERTEX
  5
665
  8
0
  6
CONTINUOUS
 62
     9
 10
-540.9543199837143
 20
127.1170979054819
 30
0.0
  0
SEQEND
  5
A3E
  8
0
  6
CONTINUOUS
 62
     9
  0
POLYLINE
  5
14E
  8
0
  6
CONTINUOUS
 62
     9
 66
     1
 10
0.0
 20
0.0
 30
0.0
  0
VERTEX
  5
666
  8
0
  6
CONTINUOUS
 62
     9
 10
-502.0522794545483
 20
10.2150573763159
 30
0.0
  0
VERTEX
  5
667
  8
0
  6
CONTINUOUS
 62
     9
 10
-501.8568307330343
 20
10.23375144122956
 30
0.0
  0
VERTEX
  5
668
  8
0
  6
CONTINUOUS
 62
     9
 10
-501.6690769857945
 20
10.29018315618177
 30
0.0
  0
VERTEX
  5
669
  8
0
  6
CONTINUOUS
 62
     9
 10
-501.4962084234523
 20
10.38219141428479
 30
0.0
  0
VERTEX
  5
66A
  8
0
  6
CONTINUOUS
 62
     9
 10
-501.3448452141361
 20
10.50625267065819
 30
0.0
  0
VERTEX
  5
66B
  8
0
  6
CONTINUOUS
 62
     9
 10
-501.2207839577626
 20
10.65761587997442
 30
0.0
  0
VERTEX
  5
66C
  8
0
  6
CONTINUOUS
 62
     9
 10
-501.1287756996596
 20
10.83048444231661
 30
0.0
  0
VERTEX
  5
66D
  8
0
  6
CONTINUOUS
 62
     9
 10
-501.0723439847074
 20
11.01823818955648
 30
0.0
  0
VERTEX
  5
66E
  8
0
  6
CONTINUOUS
 62
     9
 10
-501.0536499197937
 20
11.21368691107047
 30
0.0
  0
SEQEND
  5
A3F
  8
0
  6
CONTINUOUS
 62
     9
  0
LINE
  5
14F
  8
0
  6
CONTINUOUS
 62
     9
 10
-541.9529495184689
 20
15.21505737631605
 30
0.0
 11
-555.4821178734635
 21
15.21505737631605
 31
0.0
  0
LINE
  5
150
  8
0
  6
CONTINUOUS
 62
     9
 10
-540.9543199837143
 20
11.21368691107048
 30
0.0
 11
-540.9543199837143
 21
14.21642784156148
 31
0.0
  0
LINE
  5
151
  8
0
  6
CONTINUOUS
 62
     9
 10
-557.8269932929944
 20
92.97607607111004
 30
0.0
 11
-557.8269932929944
 21
101.8547087454424
 31
0.0
  0
LINE
  5
152
  8
0
  6
CONTINUOUS
 62
     9
 10
-484.1809766105136
 20
73.60470874544238
 30
0.0
 11
-484.1809766105136
 21
64.72607607111003
 31
0.0
  0
LINE
  5
153
  8
0
  6
CONTINUOUS
 62
     9
 10
-557.8269932929944
 20
36.47607607111004
 30
0.0
 11
-557.8269932929944
 21
45.35470874544237
 31
0.0
  0
POLYLINE
  5
154
  8
0
  6
CONTINUOUS
 62
     9
 66
     1
 10
0.0
 20
0.0
 30
0.0
  0
VERTEX
  5
66F
  8
0
  6
CONTINUOUS
 62
     9
 10
-501.0536499197938
 20
124.1143569749912
 30
0.0
  0
VERTEX
  5
670
  8
0
  6
CONTINUOUS
 62
     9
 10
-501.0339954660429
 20
123.9198686423144
 30
0.0
  0
VERTEX
  5
671
  8
0
  6
CONTINUOUS
 62
     9
 10
-500.9768502184669
 20
123.7328284276982
 30
0.0
  0
VERTEX
  5
672
  8
0
  6
CONTINUOUS
 62
     9
 10
-500.8844026093727
 20
123.5603992163472
 30
0.0
  0
VERTEX
  5
673
  8
0
  6
CONTINUOUS
 62
     9
 10
-500.7601930090103
 20
123.40918435102
 30
0.0
  0
VERTEX
  5
674
  8
0
  6
CONTINUOUS
 62
     9
 10
-500.6089781436831
 20
123.2849747506575
 30
0.0
  0
VERTEX
  5
675
  8
0
  6
CONTINUOUS
 62
     9
 10
-500.436548932332
 20
123.1925271415634
 30
0.0
  0
VERTEX
  5
676
  8
0
  6
CONTINUOUS
 62
     9
 10
-500.2495087177159
 20
123.1353818939874
 30
0.0
  0
VERTEX
  5
677
  8
0
  6
CONTINUOUS
 62
     9
 10
-500.0550203850391
 20
123.1157274402366
 30
0.0
  0
SEQEND
  5
A40
  8
0
  6
CONTINUOUS
 62
     9
  0
ARC
  5
155
  8
0
  6
CONTINUOUS
 62
     7
 10
-560.0039849517541
 20
270.1653924082764
 30
0.0
 40
6.000000000000005
 50
90.0
 51
180.0000000000021
  0
ARC
  5
156
  8
0
  6
CONTINUOUS
 62
     7
 10
-482.0039849517541
 20
270.1653924082764
 30
0.0
 40
6.000000000000005
 50
0.0
 51
90.00000000000028
  0
LINE
  5
157
  8
0
  6
CONTINUOUS
 62
     7
 10
-476.0039849517541
 20
270.1653924082764
 30
0.0
 11
-476.0039849517541
 21
144.1653924082767
 31
0.0
  0
ARC
  5
158
  8
0
  6
CONTINUOUS
 62
     7
 10
-482.0039849517541
 20
144.1653924082765
 30
0.0
 40
6.000000000000005
 50
270.0000000000007
 51
0.0000000000021032
  0
ARC
  5
159
  8
0
  6
CONTINUOUS
 62
     7
 10
-560.0039849517541
 20
144.1653924082765
 30
0.0
 40
6.000000000000005
 50
180.0000000000002
 51
270.0000000000004
  0
LINE
  5
15A
  8
0
  6
CONTINUOUS
 62
     7
 10
-560.0039849517541
 20
276.1653924082764
 30
0.0
 11
-482.0039849517541
 21
276.1653924082764
 31
0.0
  0
LINE
  5
15B
  8
0
  6
CONTINUOUS
 62
     7
 10
-566.0039849517541
 20
144.1653924082765
 30
0.0
 11
-566.0039849517541
 21
270.1653924082762
 31
0.0
  0
LINE
  5
15C
  8
0
  6
CONTINUOUS
 62
     9
 10
-501.0536499197937
 20
127.117097905482
 30
0.0
 11
-501.0536499197937
 21
124.1143569749912
 31
0.0
  0
LINE
  5
15D
  8
0
  6
CONTINUOUS
 62
     9
 10
-500.0550203850391
 20
123.1157274402366
 30
0.0
 11
-486.5258520300447
 21
123.1157274402366
 31
0.0
  0
POLYLINE
  5
15E
  8
0
  6
CONTINUOUS
 62
     9
 66
     1
 10
0.0
 20
0.0
 30
0.0
  0
VERTEX
  5
678
  8
0
  6
CONTINUOUS
 62
     9
 10
-501.0536499197937
 20
127.117097905482
 30
0.0
  0
VERTEX
  5
679
  8
0
  6
CONTINUOUS
 62
     9
 10
-501.0723439847074
 20
127.3125466269959
 30
0.0
  0
VERTEX
  5
67A
  8
0
  6
CONTINUOUS
 62
     9
 10
-501.1287756996596
 20
127.5003003742358
 30
0.0
  0
VERTEX
  5
67B
  8
0
  6
CONTINUOUS
 62
     9
 10
-501.2207839577626
 20
127.673168936578
 30
0.0
  0
VERTEX
  5
67C
  8
0
  6
CONTINUOUS
 62
     9
 10
-501.3448452141361
 20
127.8245321458942
 30
0.0
  0
VERTEX
  5
67D
  8
0
  6
CONTINUOUS
 62
     9
 10
-501.4962084234523
 20
127.9485934022676
 30
0.0
  0
VERTEX
  5
67E
  8
0
  6
CONTINUOUS
 62
     9
 10
-501.6690769857945
 20
128.0406016603706
 30
0.0
  0
VERTEX
  5
67F
  8
0
  6
CONTINUOUS
 62
     9
 10
-501.8568307330343
 20
128.0970333753229
 30
0.0
  0
VERTEX
  5
680
  8
0
  6
CONTINUOUS
 62
     9
 10
-502.0522794545483
 20
128.1157274402365
 30
0.0
  0
SEQEND
  5
A41
  8
0
  6
CONTINUOUS
 62
     9
  0
LINE
  5
15F
  8
0
  6
CONTINUOUS
 62
     9
 10
-484.1809766105136
 20
101.8547087454424
 30
0.0
 11
-484.1809766105136
 21
92.97607607111006
 31
0.0
  0
LINE
  5
160
  8
0
  6
CONTINUOUS
 62
     7
 10
-515.503984951754
 20
15.47709627273126
 30
0.0
 11
-515.5039868299298
 21
16.62747576964998
 31
0.0
  0
POLYLINE
  5
161
  8
0
  6
CONTINUOUS
 62
     7
 66
     1
 10
0.0
 20
0.0
 30
0.0
  0
VERTEX
  5
681
  8
0
  6
CONTINUOUS
 62
     7
 10
-515.5039868299298
 20
16.62747576964998
 30
0.0
  0
VERTEX
  5
682
  8
0
  6
CONTINUOUS
 62
     7
 10
-515.5424162330347
 20
16.64789622758628
 30
0.0
  0
VERTEX
  5
683
  8
0
  6
CONTINUOUS
 62
     7
 10
-515.6562276219396
 20
16.667531938776
 30
0.0
  0
VERTEX
  5
684
  8
0
  6
CONTINUOUS
 62
     7
 10
-515.841047288795
 20
16.68562831384997
 30
0.0
  0
VERTEX
  5
685
  8
0
  6
CONTINUOUS
 62
     7
 10
-516.0897727174518
 20
16.70148991926266
 30
0.0
  0
VERTEX
  5
686
  8
0
  6
CONTINUOUS
 62
     7
 10
-516.3928455291733
 20
16.71450720241335
 30
0.0
  0
VERTEX
  5
687
  8
0
  6
CONTINUOUS
 62
     7
 10
-516.7386188057706
 20
16.72417991641073
 30
0.0
  0
VERTEX
  5
688
  8
0
  6
CONTINUOUS
 62
     7
 10
-517.1138046741356
 20
16.7301363442804
 30
0.0
  0
VERTEX
  5
689
  8
0
  6
CONTINUOUS
 62
     7
 10
-517.503984951754
 20
16.73214758383974
 30
0.0
  0
SEQEND
  5
A42
  8
0
  6
CONTINUOUS
 62
     7
  0
POLYLINE
  5
162
  8
0
  6
CONTINUOUS
 62
     7
 66
     1
 10
0.0
 20
0.0
 30
0.0
  0
VERTEX
  5
68A
  8
0
  6
CONTINUOUS
 62
     7
 10
-517.503984951754
 20
16.73214758383974
 30
0.0
  0
VERTEX
  5
68B
  8
0
  6
CONTINUOUS
 62
     7
 10
-517.8941652293723
 20
16.7301363442804
 30
0.0
  0
VERTEX
  5
68C
  8
0
  6
CONTINUOUS
 62
     7
 10
-518.2693510977374
 20
16.72417991641073
 30
0.0
  0
VERTEX
  5
68D
  8
0
  6
CONTINUOUS
 62
     7
 10
-518.6151243743346
 20
16.71450720241335
 30
0.0
  0
VERTEX
  5
68E
  8
0
  6
CONTINUOUS
 62
     7
 10
-518.9181971860562
 20
16.70148991926266
 30
0.0
  0
VERTEX
  5
68F
  8
0
  6
CONTINUOUS
 62
     7
 10
-519.1669226147129
 20
16.68562831384997
 30
0.0
  0
VERTEX
  5
690
  8
0
  6
CONTINUOUS
 62
     7
 10
-519.3517422815684
 20
16.667531938776
 30
0.0
  0
VERTEX
  5
691
  8
0
  6
CONTINUOUS
 62
     7
 10
-519.4655536704732
 20
16.64789622758628
 30
0.0
  0
VERTEX
  5
692
  8
0
  6
CONTINUOUS
 62
     7
 10
-519.5039830735782
 20
16.62747576964998
 30
0.0
  0
SEQEND
  5
A43
  8
0
  6
CONTINUOUS
 62
     7
  0
LINE
  5
163
  8
0
  6
CONTINUOUS
 62
     7
 10
-519.503984951754
 20
16.62747576964993
 30
0.0
 11
-519.503984951754
 21
15.4770962727312
 31
0.0
  0
LINE
  5
164
  8
0
  6
CONTINUOUS
 62
     7
 10
-522.503984951754
 20
15.47709627273126
 30
0.0
 11
-522.5039868299298
 21
16.62747576964998
 31
0.0
  0
POLYLINE
  5
165
  8
0
  6
CONTINUOUS
 62
     7
 66
     1
 10
0.0
 20
0.0
 30
0.0
  0
VERTEX
  5
693
  8
0
  6
CONTINUOUS
 62
     7
 10
-522.5039868299298
 20
16.62747576964998
 30
0.0
  0
VERTEX
  5
694
  8
0
  6
CONTINUOUS
 62
     7
 10
-522.5424162330347
 20
16.64789622758628
 30
0.0
  0
VERTEX
  5
695
  8
0
  6
CONTINUOUS
 62
     7
 10
-522.6562276219396
 20
16.667531938776
 30
0.0
  0
VERTEX
  5
696
  8
0
  6
CONTINUOUS
 62
     7
 10
-522.841047288795
 20
16.68562831384997
 30
0.0
  0
VERTEX
  5
697
  8
0
  6
CONTINUOUS
 62
     7
 10
-523.0897727174518
 20
16.70148991926266
 30
0.0
  0
VERTEX
  5
698
  8
0
  6
CONTINUOUS
 62
     7
 10
-523.3928455291733
 20
16.71450720241335
 30
0.0
  0
VERTEX
  5
699
  8
0
  6
CONTINUOUS
 62
     7
 10
-523.7386188057706
 20
16.72417991641073
 30
0.0
  0
VERTEX
  5
69A
  8
0
  6
CONTINUOUS
 62
     7
 10
-524.1138046741356
 20
16.7301363442804
 30
0.0
  0
VERTEX
  5
69B
  8
0
  6
CONTINUOUS
 62
     7
 10
-524.503984951754
 20
16.73214758383974
 30
0.0
  0
SEQEND
  5
A44
  8
0
  6
CONTINUOUS
 62
     7
  0
POLYLINE
  5
166
  8
0
  6
CONTINUOUS
 62
     7
 66
     1
 10
0.0
 20
0.0
 30
0.0
  0
VERTEX
  5
69C
  8
0
  6
CONTINUOUS
 62
     7
 10
-524.503984951754
 20
16.73214758383974
 30
0.0
  0
VERTEX
  5
69D
  8
0
  6
CONTINUOUS
 62
     7
 10
-524.8941652293723
 20
16.7301363442804
 30
0.0
  0
VERTEX
  5
69E
  8
0
  6
CONTINUOUS
 62
     7
 10
-525.2693510977374
 20
16.72417991641073
 30
0.0
  0
VERTEX
  5
69F
  8
0
  6
CONTINUOUS
 62
     7
 10
-525.6151243743346
 20
16.71450720241335
 30
0.0
  0
VERTEX
  5
6A0
  8
0
  6
CONTINUOUS
 62
     7
 10
-525.9181971860562
 20
16.70148991926266
 30
0.0
  0
VERTEX
  5
6A1
  8
0
  6
CONTINUOUS
 62
     7
 10
-526.1669226147129
 20
16.68562831384997
 30
0.0
  0
VERTEX
  5
6A2
  8
0
  6
CONTINUOUS
 62
     7
 10
-526.3517422815684
 20
16.667531938776
 30
0.0
  0
VERTEX
  5
6A3
  8
0
  6
CONTINUOUS
 62
     7
 10
-526.4655536704732
 20
16.64789622758628
 30
0.0
  0
VERTEX
  5
6A4
  8
0
  6
CONTINUOUS
 62
     7
 10
-526.5039830735782
 20
16.62747576964998
 30
0.0
  0
SEQEND
  5
A45
  8
0
  6
CONTINUOUS
 62
     7
  0
LINE
  5
167
  8
0
  6
CONTINUOUS
 62
     7
 10
-526.503984951754
 20
16.62747576964993
 30
0.0
 11
-526.503984951754
 21
15.4770962727312
 31
0.0
  0
LINE
  5
168
  8
0
  6
CONTINUOUS
 62
     7
 10
-526.5039830735782
 20
121.7033090469026
 30
0.0
 11
-526.503984951754
 21
122.8536885438214
 31
0.0
  0
POLYLINE
  5
169
  8
0
  6
CONTINUOUS
 62
     7
 66
     1
 10
0.0
 20
0.0
 30
0.0
  0
VERTEX
  5
6A5
  8
0
  6
CONTINUOUS
 62
     7
 10
-526.5039830735782
 20
121.7033090469026
 30
0.0
  0
VERTEX
  5
6A6
  8
0
  6
CONTINUOUS
 62
     7
 10
-526.4655536704732
 20
121.6828885889663
 30
0.0
  0
VERTEX
  5
6A7
  8
0
  6
CONTINUOUS
 62
     7
 10
-526.3517422815684
 20
121.6632528777766
 30
0.0
  0
VERTEX
  5
6A8
  8
0
  6
CONTINUOUS
 62
     7
 10
-526.1669226147129
 20
121.6451565027027
 30
0.0
  0
VERTEX
  5
6A9
  8
0
  6
CONTINUOUS
 62
     7
 10
-525.9181971860562
 20
121.62929489729
 30
0.0
  0
VERTEX
  5
6AA
  8
0
  6
CONTINUOUS
 62
     7
 10
-525.6151243743346
 20
121.6162776141393
 30
0.0
  0
VERTEX
  5
6AB
  8
0
  6
CONTINUOUS
 62
     7
 10
-525.2693510977374
 20
121.6066049001419
 30
0.0
  0
VERTEX
  5
6AC
  8
0
  6
CONTINUOUS
 62
     7
 10
-524.8941652293723
 20
121.6006484722722
 30
0.0
  0
VERTEX
  5
6AD
  8
0
  6
CONTINUOUS
 62
     7
 10
-524.503984951754
 20
121.5986372327129
 30
0.0
  0
SEQEND
  5
A46
  8
0
  6
CONTINUOUS
 62
     7
  0
POLYLINE
  5
16A
  8
0
  6
CONTINUOUS
 62
     7
 66
     1
 10
0.0
 20
0.0
 30
0.0
  0
VERTEX
  5
6AE
  8
0
  6
CONTINUOUS
 62
     7
 10
-524.503984951754
 20
121.5986372327129
 30
0.0
  0
VERTEX
  5
6AF
  8
0
  6
CONTINUOUS
 62
     7
 10
-524.1138046741356
 20
121.6006484722722
 30
0.0
  0
VERTEX
  5
6B0
  8
0
  6
CONTINUOUS
 62
     7
 10
-523.7386188057706
 20
121.6066049001419
 30
0.0
  0
VERTEX
  5
6B1
  8
0
  6
CONTINUOUS
 62
     7
 10
-523.3928455291733
 20
121.6162776141393
 30
0.0
  0
VERTEX
  5
6B2
  8
0
  6
CONTINUOUS
 62
     7
 10
-523.0897727174518
 20
121.62929489729
 30
0.0
  0
VERTEX
  5
6B3
  8
0
  6
CONTINUOUS
 62
     7
 10
-522.841047288795
 20
121.6451565027027
 30
0.0
  0
VERTEX
  5
6B4
  8
0
  6
CONTINUOUS
 62
     7
 10
-522.6562276219396
 20
121.6632528777766
 30
0.0
  0
VERTEX
  5
6B5
  8
0
  6
CONTINUOUS
 62
     7
 10
-522.5424162330347
 20
121.6828885889663
 30
0.0
  0
VERTEX
  5
6B6
  8
0
  6
CONTINUOUS
 62
     7
 10
-522.5039868299298
 20
121.7033090469026
 30
0.0
  0
SEQEND
  5
A47
  8
0
  6
CONTINUOUS
 62
     7
  0
LINE
  5
16B
  8
0
  6
CONTINUOUS
 62
     7
 10
-522.503984951754
 20
122.8536885438214
 30
0.0
 11
-522.503984951754
 21
121.7033090469026
 31
0.0
  0
LINE
  5
16C
  8
0
  6
CONTINUOUS
 62
     7
 10
-519.5039830735782
 20
121.7033090469026
 30
0.0
 11
-519.503984951754
 21
122.8536885438214
 31
0.0
  0
POLYLINE
  5
16D
  8
0
  6
CONTINUOUS
 62
     7
 66
     1
 10
0.0
 20
0.0
 30
0.0
  0
VERTEX
  5
6B7
  8
0
  6
CONTINUOUS
 62
     7
 10
-519.5039830735782
 20
121.7033090469026
 30
0.0
  0
VERTEX
  5
6B8
  8
0
  6
CONTINUOUS
 62
     7
 10
-519.4655536704732
 20
121.6828885889663
 30
0.0
  0
VERTEX
  5
6B9
  8
0
  6
CONTINUOUS
 62
     7
 10
-519.3517422815684
 20
121.6632528777766
 30
0.0
  0
VERTEX
  5
6BA
  8
0
  6
CONTINUOUS
 62
     7
 10
-519.1669226147129
 20
121.6451565027027
 30
0.0
  0
VERTEX
  5
6BB
  8
0
  6
CONTINUOUS
 62
     7
 10
-518.9181971860562
 20
121.62929489729
 30
0.0
  0
VERTEX
  5
6BC
  8
0
  6
CONTINUOUS
 62
     7
 10
-518.6151243743346
 20
121.6162776141393
 30
0.0
  0
VERTEX
  5
6BD
  8
0
  6
CONTINUOUS
 62
     7
 10
-518.2693510977374
 20
121.6066049001419
 30
0.0
  0
VERTEX
  5
6BE
  8
0
  6
CONTINUOUS
 62
     7
 10
-517.8941652293723
 20
121.6006484722722
 30
0.0
  0
VERTEX
  5
6BF
  8
0
  6
CONTINUOUS
 62
     7
 10
-517.503984951754
 20
121.5986372327129
 30
0.0
  0
SEQEND
  5
A48
  8
0
  6
CONTINUOUS
 62
     7
  0
POLYLINE
  5
16E
  8
0
  6
CONTINUOUS
 62
     7
 66
     1
 10
0.0
 20
0.0
 30
0.0
  0
VERTEX
  5
6C0
  8
0
  6
CONTINUOUS
 62
     7
 10
-517.503984951754
 20
121.5986372327129
 30
0.0
  0
VERTEX
  5
6C1
  8
0
  6
CONTINUOUS
 62
     7
 10
-517.1138046741356
 20
121.6006484722722
 30
0.0
  0
VERTEX
  5
6C2
  8
0
  6
CONTINUOUS
 62
     7
 10
-516.7386188057706
 20
121.6066049001419
 30
0.0
  0
VERTEX
  5
6C3
  8
0
  6
CONTINUOUS
 62
     7
 10
-516.3928455291733
 20
121.6162776141393
 30
0.0
  0
VERTEX
  5
6C4
  8
0
  6
CONTINUOUS
 62
     7
 10
-516.0897727174518
 20
121.62929489729
 30
0.0
  0
VERTEX
  5
6C5
  8
0
  6
CONTINUOUS
 62
     7
 10
-515.841047288795
 20
121.6451565027027
 30
0.0
  0
VERTEX
  5
6C6
  8
0
  6
CONTINUOUS
 62
     7
 10
-515.6562276219396
 20
121.6632528777766
 30
0.0
  0
VERTEX
  5
6C7
  8
0
  6
CONTINUOUS
 62
     7
 10
-515.5424162330347
 20
121.6828885889663
 30
0.0
  0
VERTEX
  5
6C8
  8
0
  6
CONTINUOUS
 62
     7
 10
-515.5039868299298
 20
121.7033090469026
 30
0.0
  0
SEQEND
  5
A49
  8
0
  6
CONTINUOUS
 62
     7
  0
LINE
  5
16F
  8
0
  6
CONTINUOUS
 62
     7
 10
-515.503984951754
 20
122.8536885438214
 30
0.0
 11
-515.503984951754
 21
121.7033090469026
 31
0.0
  0
LINE
  5
170
  8
0
  6
CONTINUOUS
 62
     9
 10
-557.1713810508227
 20
72.16768474144291
 30
0.0
 11
-557.1463198845968
 21
72.14473782667396
 31
0.0
  0
LINE
  5
171
  8
0
  6
CONTINUOUS
 62
     9
 10
-557.1463198845968
 20
94.43604698987845
 30
0.0
 11
-557.1713810508227
 21
94.41310007510951
 31
0.0
  0
LINE
  5
172
  8
0
  6
CONTINUOUS
 62
     9
 10
-484.8365888526855
 20
94.41310007510951
 30
0.0
 11
-484.8616500189112
 21
94.43604698987845
 31
0.0
  0
POLYLINE
  5
173
  8
0
  6
CONTINUOUS
 62
     7
 66
     1
 10
0.0
 20
0.0
 30
0.0
  0
VERTEX
  5
6C9
  8
0
  6
CONTINUOUS
 62
     7
 10
-515.7442301406571
 20
123.8523180785759
 30
0.0
  0
VERTEX
  5
6CA
  8
0
  6
CONTINUOUS
 62
     7
 10
-515.9876699999198
 20
124.2065437429425
 30
0.0
  0
VERTEX
  5
6CB
  8
0
  6
CONTINUOUS
 62
     7
 10
-516.3010100349765
 20
124.5005674066244
 30
0.0
  0
VERTEX
  5
6CC
  8
0
  6
CONTINUOUS
 62
     7
 10
-516.6698056539323
 20
124.7208349387919
 30
0.0
  0
VERTEX
  5
6CD
  8
0
  6
CONTINUOUS
 62
     7
 10
-517.0770558303866
 20
124.8571922759555
 30
0.0
  0
VERTEX
  5
6CE
  8
0
  6
CONTINUOUS
 62
     7
 10
-517.5039868299299
 20
124.9033535118573
 30
0.0
  0
SEQEND
  5
A4A
  8
0
  6
CONTINUOUS
 62
     7
  0
POLYLINE
  5
174
  8
0
  6
CONTINUOUS
 62
     7
 66
     1
 10
0.0
 20
0.0
 30
0.0
  0
VERTEX
  5
6CF
  8
0
  6
CONTINUOUS
 62
     7
 10
-517.5039868299298
 20
124.9033535118608
 30
0.0
  0
VERTEX
  5
6D0
  8
0
  6
CONTINUOUS
 62
     7
 10
-517.9309170089382
 20
124.8571916335974
 30
0.0
  0
VERTEX
  5
6D1
  8
0
  6
CONTINUOUS
 62
     7
 10
-518.3381662979868
 20
124.7208339974616
 30
0.0
  0
VERTEX
  5
6D2
  8
0
  6
CONTINUOUS
 62
     7
 10
-518.7069610688853
 20
124.5005665016257
 30
0.0
  0
VERTEX
  5
6D3
  8
0
  6
CONTINUOUS
 62
     7
 10
-519.0203003934708
 20
124.2065431725802
 30
0.0
  0
VERTEX
  5
6D4
  8
0
  6
CONTINUOUS
 62
     7
 10
-519.2637397628508
 20
123.8523180785759
 30
0.0
  0
SEQEND
  5
A4B
  8
0
  6
CONTINUOUS
 62
     7
  0
POLYLINE
  5
175
  8
0
  6
CONTINUOUS
 62
     7
 66
     1
 10
0.0
 20
0.0
 30
0.0
  0
VERTEX
  5
6D5
  8
0
  6
CONTINUOUS
 62
     7
 10
-522.7442301406571
 20
123.8523180785759
 30
0.0
  0
VERTEX
  5
6D6
  8
0
  6
CONTINUOUS
 62
     7
 10
-522.9876699999198
 20
124.2065437429425
 30
0.0
  0
VERTEX
  5
6D7
  8
0
  6
CONTINUOUS
 62
     7
 10
-523.3010100349765
 20
124.5005674066244
 30
0.0
  0
VERTEX
  5
6D8
  8
0
  6
CONTINUOUS
 62
     7
 10
-523.6698056539323
 20
124.7208349387919
 30
0.0
  0
VERTEX
  5
6D9
  8
0
  6
CONTINUOUS
 62
     7
 10
-524.0770558303866
 20
124.8571922759555
 30
0.0
  0
VERTEX
  5
6DA
  8
0
  6
CONTINUOUS
 62
     7
 10
-524.5039868299299
 20
124.9033535118573
 30
0.0
  0
SEQEND
  5
A4C
  8
0
  6
CONTINUOUS
 62
     7
  0
POLYLINE
  5
176
  8
0
  6
CONTINUOUS
 62
     7
 66
     1
 10
0.0
 20
0.0
 30
0.0
  0
VERTEX
  5
6DB
  8
0
  6
CONTINUOUS
 62
     7
 10
-524.5039868299298
 20
124.9033535118608
 30
0.0
  0
VERTEX
  5
6DC
  8
0
  6
CONTINUOUS
 62
     7
 10
-524.9309170089382
 20
124.8571916335974
 30
0.0
  0
VERTEX
  5
6DD
  8
0
  6
CONTINUOUS
 62
     7
 10
-525.3381662979868
 20
124.7208339974616
 30
0.0
  0
VERTEX
  5
6DE
  8
0
  6
CONTINUOUS
 62
     7
 10
-525.7069610688853
 20
124.5005665016257
 30
0.0
  0
VERTEX
  5
6DF
  8
0
  6
CONTINUOUS
 62
     7
 10
-526.0203003934708
 20
124.2065431725802
 30
0.0
  0
VERTEX
  5
6E0
  8
0
  6
CONTINUOUS
 62
     7
 10
-526.2637397628508
 20
123.8523180785759
 30
0.0
  0
SEQEND
  5
A4D
  8
0
  6
CONTINUOUS
 62
     7
  0
POLYLINE
  5
177
  8
0
  6
CONTINUOUS
 62
     7
 66
     1
 10
0.0
 20
0.0
 30
0.0
  0
VERTEX
  5
6E1
  8
0
  6
CONTINUOUS
 62
     7
 10
-526.2637397628508
 20
14.47846673797668
 30
0.0
  0
VERTEX
  5
6E2
  8
0
  6
CONTINUOUS
 62
     7
 10
-526.0203003934708
 20
14.12424164397241
 30
0.0
  0
VERTEX
  5
6E3
  8
0
  6
CONTINUOUS
 62
     7
 10
-525.7069610688853
 20
13.83021831492697
 30
0.0
  0
VERTEX
  5
6E4
  8
0
  6
CONTINUOUS
 62
     7
 10
-525.3381662979868
 20
13.60995081909104
 30
0.0
  0
VERTEX
  5
6E5
  8
0
  6
CONTINUOUS
 62
     7
 10
-524.9309170089382
 20
13.47359318295518
 30
0.0
  0
VERTEX
  5
6E6
  8
0
  6
CONTINUOUS
 62
     7
 10
-524.5039868299298
 20
13.42743130469177
 30
0.0
  0
SEQEND
  5
A4E
  8
0
  6
CONTINUOUS
 62
     7
  0
POLYLINE
  5
178
  8
0
  6
CONTINUOUS
 62
     7
 66
     1
 10
0.0
 20
0.0
 30
0.0
  0
VERTEX
  5
6E7
  8
0
  6
CONTINUOUS
 62
     7
 10
-524.50398682993
 20
13.4274313046953
 30
0.0
  0
VERTEX
  5
6E8
  8
0
  6
CONTINUOUS
 62
     7
 10
-524.0770558303866
 20
13.47359254059708
 30
0.0
  0
VERTEX
  5
6E9
  8
0
  6
CONTINUOUS
 62
     7
 10
-523.6698056539324
 20
13.60994987776068
 30
0.0
  0
VERTEX
  5
6EA
  8
0
  6
CONTINUOUS
 62
     7
 10
-523.3010100349765
 20
13.83021740992827
 30
0.0
  0
VERTEX
  5
6EB
  8
0
  6
CONTINUOUS
 62
     7
 10
-522.9876699999198
 20
14.12424107361012
 30
0.0
  0
VERTEX
  5
6EC
  8
0
  6
CONTINUOUS
 62
     7
 10
-522.7442301406571
 20
14.47846673797668
 30
0.0
  0
SEQEND
  5
A4F
  8
0
  6
CONTINUOUS
 62
     7
  0
POLYLINE
  5
179
  8
0
  6
CONTINUOUS
 62
     7
 66
     1
 10
0.0
 20
0.0
 30
0.0
  0
VERTEX
  5
6ED
  8
0
  6
CONTINUOUS
 62
     7
 10
-519.2637397628508
 20
14.47846673797668
 30
0.0
  0
VERTEX
  5
6EE
  8
0
  6
CONTINUOUS
 62
     7
 10
-519.0203003934708
 20
14.12424164397241
 30
0.0
  0
VERTEX
  5
6EF
  8
0
  6
CONTINUOUS
 62
     7
 10
-518.7069610688853
 20
13.83021831492697
 30
0.0
  0
VERTEX
  5
6F0
  8
0
  6
CONTINUOUS
 62
     7
 10
-518.3381662979868
 20
13.60995081909104
 30
0.0
  0
VERTEX
  5
6F1
  8
0
  6
CONTINUOUS
 62
     7
 10
-517.9309170089382
 20
13.47359318295518
 30
0.0
  0
VERTEX
  5
6F2
  8
0
  6
CONTINUOUS
 62
     7
 10
-517.5039868299298
 20
13.42743130469177
 30
0.0
  0
SEQEND
  5
A50
  8
0
  6
CONTINUOUS
 62
     7
  0
POLYLINE
  5
17A
  8
0
  6
CONTINUOUS
 62
     7
 66
     1
 10
0.0
 20
0.0
 30
0.0
  0
VERTEX
  5
6F3
  8
0
  6
CONTINUOUS
 62
     7
 10
-517.50398682993
 20
13.4274313046953
 30
0.0
  0
VERTEX
  5
6F4
  8
0
  6
CONTINUOUS
 62
     7
 10
-517.0770558303866
 20
13.47359254059708
 30
0.0
  0
VERTEX
  5
6F5
  8
0
  6
CONTINUOUS
 62
     7
 10
-516.6698056539324
 20
13.60994987776068
 30
0.0
  0
VERTEX
  5
6F6
  8
0
  6
CONTINUOUS
 62
     7
 10
-516.3010100349765
 20
13.83021740992827
 30
0.0
  0
VERTEX
  5
6F7
  8
0
  6
CONTINUOUS
 62
     7
 10
-515.9876699999198
 20
14.12424107361012
 30
0.0
  0
VERTEX
  5
6F8
  8
0
  6
CONTINUOUS
 62
     7
 10
-515.7442301406571
 20
14.47846673797668
 30
0.0
  0
SEQEND
  5
A51
  8
0
  6
CONTINUOUS
 62
     7
  0
ARC
  5
17B
  8
0
  6
CONTINUOUS
 62
     7
 10
-524.4363523243298
 20
15.44630351424583
 30
0.0
 40
2.067861909307303
 50
179.1467707281017
 51
207.9069771888346
  0
ARC
  5
17C
  8
0
  6
CONTINUOUS
 62
     7
 10
-524.4391149632172
 20
122.8851459238489
 30
0.0
 40
2.06510959426318
 50
152.0734437703152
 51
180.8728083127485
  0
ARC
  5
17D
  8
0
  6
CONTINUOUS
 62
     7
 10
-517.4363523243298
 20
15.44630351424583
 30
0.0
 40
2.067861909307303
 50
179.1467707281017
 51
207.9069771888346
  0
ARC
  5
17E
  8
0
  6
CONTINUOUS
 62
     7
 10
-524.5688549402907
 20
15.44563889270373
 30
0.0
 40
2.06510959426318
 50
332.0734437703148
 51
0.8728083127496689
  0
ARC
  5
17F
  8
0
  6
CONTINUOUS
 62
     7
 10
-517.4391149632172
 20
122.8851459238489
 30
0.0
 40
2.06510959426318
 50
152.0734437703152
 51
180.8728083127485
  0
ARC
  5
180
  8
0
  6
CONTINUOUS
 62
     7
 10
-524.5716175791781
 20
122.8844813023068
 30
0.0
 40
2.067861909307303
 50
359.1467707281003
 51
27.90697718883462
  0
ARC
  5
181
  8
0
  6
CONTINUOUS
 62
     7
 10
-517.5688549402906
 20
15.44563889270373
 30
0.0
 40
2.06510959426318
 50
332.0734437703148
 51
0.8728083127496689
  0
ARC
  5
182
  8
0
  6
CONTINUOUS
 62
     7
 10
-517.5716175791781
 20
122.8844813023068
 30
0.0
 40
2.067861909307303
 50
359.1467707281003
 51
27.90697718883462
  0
ARC
  5
183
  8
0
  6
CONTINUOUS
 62
     9
 10
-486.8496595962445
 20
112.1822432487232
 30
0.0
 40
1.00000020955684
 50
0.0087300814921132
 51
1.991280913848003
  0
POLYLINE
  5
184
  8
0
  6
CONTINUOUS
 62
     9
 66
     1
 10
0.0
 20
0.0
 30
0.0
  0
VERTEX
  5
6F9
  8
0
  6
CONTINUOUS
 62
     9
 10
-486.845296162349
 20
113.1990944604882
 30
0.0
  0
VERTEX
  5
6FA
  8
0
  6
CONTINUOUS
 62
     9
 10
-486.7975272556553
 20
113.1970990407759
 30
0.0
  0
VERTEX
  5
6FB
  8
0
  6
CONTINUOUS
 62
     9
 10
-486.7498683715986
 20
113.1928063930018
 30
0.0
  0
VERTEX
  5
6FC
  8
0
  6
CONTINUOUS
 62
     9
 10
-486.7024292794089
 20
113.1862264041083
 30
0.0
  0
VERTEX
  5
6FD
  8
0
  6
CONTINUOUS
 62
     9
 10
-486.6553192420857
 20
113.1773742293037
 30
0.0
  0
VERTEX
  5
6FE
  8
0
  6
CONTINUOUS
 62
     9
 10
-486.6086467647405
 20
113.1662702571562
 30
0.0
  0
VERTEX
  5
6FF
  8
0
  6
CONTINUOUS
 62
     9
 10
-486.5625193446844
 20
113.1529400626346
 30
0.0
  0
VERTEX
  5
700
  8
0
  6
CONTINUOUS
 62
     9
 10
-486.5170432238382
 20
113.1374143482033
 30
0.0
  0
VERTEX
  5
701
  8
0
  6
CONTINUOUS
 62
     9
 10
-486.4723231440328
 20
113.1197288731074
 30
0.0
  0
VERTEX
  5
702
  8
0
  6
CONTINUOUS
 62
     9
 10
-486.4284621057647
 20
113.0999243710112
 30
0.0
  0
VERTEX
  5
703
  8
0
  6
CONTINUOUS
 62
     9
 10
-486.3855611309627
 20
113.0780464561793
 30
0.0
  0
VERTEX
  5
704
  8
0
  6
CONTINUOUS
 62
     9
 10
-486.3437190303117
 20
113.0541455184163
 30
0.0
  0
VERTEX
  5
705
  8
0
  6
CONTINUOUS
 62
     9
 10
-486.3030321756689
 20
113.0282766070084
 30
0.0
  0
VERTEX
  5
706
  8
0
  6
CONTINUOUS
 62
     9
 10
-486.2635942780977
 20
113.0004993039313
 30
0.0
  0
VERTEX
  5
707
  8
0
  6
CONTINUOUS
 62
     9
 10
-486.2254961720297
 20
112.9708775866205
 30
0.0
  0
VERTEX
  5
708
  8
0
  6
CONTINUOUS
 62
     9
 10
-486.1888256060527
 20
112.9394796806158
 30
0.0
  0
VERTEX
  5
709
  8
0
  6
CONTINUOUS
 62
     9
 10
-486.1536670408054
 20
112.9063779024232
 30
0.0
  0
VERTEX
  5
70A
  8
0
  6
CONTINUOUS
 62
     9
 10
-486.1201014544456
 20
112.8716484929528
 30
0.0
  0
VERTEX
  5
70B
  8
0
  6
CONTINUOUS
 62
     9
 10
-486.0882061561392
 20
112.8353714419193
 30
0.0
  0
VERTEX
  5
70C
  8
0
  6
CONTINUOUS
 62
     9
 10
-486.0580546079993
 20
112.7976303036073
 30
0.0
  0
VERTEX
  5
70D
  8
0
  6
CONTINUOUS
 62
     9
 10
-486.0297162558866
 20
112.7585120044265
 30
0.0
  0
VERTEX
  5
70E
  8
0
  6
CONTINUOUS
 62
     9
 10
-486.0032563694597
 20
112.7181066427011
 30
0.0
  0
VERTEX
  5
70F
  8
0
  6
CONTINUOUS
 62
     9
 10
-485.9787358918442
 20
112.6765072811524
 30
0.0
  0
VERTEX
  5
710
  8
0
  6
CONTINUOUS
 62
     9
 10
-485.9562112992668
 20
112.6338097325543
 30
0.0
  0
VERTEX
  5
711
  8
0
  6
CONTINUOUS
 62
     9
 10
-485.9357344709783
 20
112.5901123390548
 30
0.0
  0
VERTEX
  5
712
  8
0
  6
CONTINUOUS
 62
     9
 10
-485.9173525697627
 20
112.5455157456718
 30
0.0
  0
VERTEX
  5
713
  8
0
  6
CONTINUOUS
 62
     9
 10
-485.9011079333121
 20
112.5001226684847
 30
0.0
  0
VERTEX
  5
714
  8
0
  6
CONTINUOUS
 62
     9
 10
-485.8870379767121
 20
112.4540376580558
 30
0.0
  0
VERTEX
  5
715
  8
0
  6
CONTINUOUS
 62
     9
 10
-485.875175106267
 20
112.4073668586268
 30
0.0
  0
VERTEX
  5
716
  8
0
  6
CONTINUOUS
 62
     9
 10
-485.8655466448608
 20
112.3602177636444
 30
0.0
  0
VERTEX
  5
717
  8
0
  6
CONTINUOUS
 62
     9
 10
-485.858174769026
 20
112.3126989681787
 30
0.0
  0
VERTEX
  5
718
  8
0
  6
CONTINUOUS
 62
     9
 10
-485.8530764578663
 20
112.2649199188039
 30
0.0
  0
VERTEX
  5
719
  8
0
  6
CONTINUOUS
 62
     9
 10
-485.8502634539498
 20
112.2169906615178
 30
0.0
  0
SEQEND
  5
A52
  8
0
  6
CONTINUOUS
 62
     9
  0
LINE
  5
185
  8
0
  6
CONTINUOUS
 62
     9
 10
-486.5744580677448
 20
114.2491220127014
 30
0.0
 11
-486.582881002039
 21
114.2491549798001
 31
0.0
  0
LINE
  5
186
  8
0
  6
CONTINUOUS
 62
     9
 10
-555.4250889014692
 20
114.2491549798001
 30
0.0
 11
-555.4335118357634
 21
114.2491220127014
 31
0.0
  0
POLYLINE
  5
187
  8
0
  6
CONTINUOUS
 62
     9
 66
     1
 10
0.0
 20
0.0
 30
0.0
  0
VERTEX
  5
71A
  8
0
  6
CONTINUOUS
 62
     9
 10
-556.1577064495584
 20
112.2169906615178
 30
0.0
  0
VERTEX
  5
71B
  8
0
  6
CONTINUOUS
 62
     9
 10
-556.1548934456418
 20
112.2649199188039
 30
0.0
  0
VERTEX
  5
71C
  8
0
  6
CONTINUOUS
 62
     9
 10
-556.1497951344821
 20
112.3126989681788
 30
0.0
  0
VERTEX
  5
71D
  8
0
  6
CONTINUOUS
 62
     9
 10
-556.1424232586473
 20
112.3602177636444
 30
0.0
  0
VERTEX
  5
71E
  8
0
  6
CONTINUOUS
 62
     9
 10
-556.1327947972411
 20
112.4073668586268
 30
0.0
  0
VERTEX
  5
71F
  8
0
  6
CONTINUOUS
 62
     9
 10
-556.1209319267961
 20
112.4540376580558
 30
0.0
  0
VERTEX
  5
720
  8
0
  6
CONTINUOUS
 62
     9
 10
-556.1068619701961
 20
112.5001226684847
 30
0.0
  0
VERTEX
  5
721
  8
0
  6
CONTINUOUS
 62
     9
 10
-556.0906173337454
 20
112.5455157456719
 30
0.0
  0
VERTEX
  5
722
  8
0
  6
CONTINUOUS
 62
     9
 10
-556.07223543253
 20
112.5901123390548
 30
0.0
  0
VERTEX
  5
723
  8
0
  6
CONTINUOUS
 62
     9
 10
-556.0517586042414
 20
112.6338097325543
 30
0.0
  0
VERTEX
  5
724
  8
0
  6
CONTINUOUS
 62
     9
 10
-556.029234011664
 20
112.6765072811524
 30
0.0
  0
VERTEX
  5
725
  8
0
  6
CONTINUOUS
 62
     9
 10
-556.0047135340484
 20
112.7181066427011
 30
0.0
  0
VERTEX
  5
726
  8
0
  6
CONTINUOUS
 62
     9
 10
-555.9782536476215
 20
112.7585120044265
 30
0.0
  0
VERTEX
  5
727
  8
0
  6
CONTINUOUS
 62
     9
 10
-555.9499152955088
 20
112.7976303036073
 30
0.0
  0
VERTEX
  5
728
  8
0
  6
CONTINUOUS
 62
     9
 10
-555.919763747369
 20
112.8353714419193
 30
0.0
  0
VERTEX
  5
729
  8
0
  6
CONTINUOUS
 62
     9
 10
-555.8878684490626
 20
112.8716484929528
 30
0.0
  0
VERTEX
  5
72A
  8
0
  6
CONTINUOUS
 62
     9
 10
-555.8543028627028
 20
112.9063779024232
 30
0.0
  0
VERTEX
  5
72B
  8
0
  6
CONTINUOUS
 62
     9
 10
-555.8191442974555
 20
112.9394796806158
 30
0.0
  0
VERTEX
  5
72C
  8
0
  6
CONTINUOUS
 62
     9
 10
-555.7824737314785
 20
112.9708775866205
 30
0.0
  0
VERTEX
  5
72D
  8
0
  6
CONTINUOUS
 62
     9
 10
-555.7443756254106
 20
113.0004993039313
 30
0.0
  0
VERTEX
  5
72E
  8
0
  6
CONTINUOUS
 62
     9
 10
-555.7049377278393
 20
113.0282766070084
 30
0.0
  0
VERTEX
  5
72F
  8
0
  6
CONTINUOUS
 62
     9
 10
-555.6642508731965
 20
113.0541455184163
 30
0.0
  0
VERTEX
  5
730
  8
0
  6
CONTINUOUS
 62
     9
 10
-555.6224087725454
 20
113.0780464561793
 30
0.0
  0
VERTEX
  5
731
  8
0
  6
CONTINUOUS
 62
     9
 10
-555.5795077977434
 20
113.0999243710112
 30
0.0
  0
VERTEX
  5
732
  8
0
  6
CONTINUOUS
 62
     9
 10
-555.5356467594753
 20
113.1197288731074
 30
0.0
  0
VERTEX
  5
733
  8
0
  6
CONTINUOUS
 62
     9
 10
-555.4909266796699
 20
113.1374143482033
 30
0.0
  0
VERTEX
  5
734
  8
0
  6
CONTINUOUS
 62
     9
 10
-555.4454505588237
 20
113.1529400626346
 30
0.0
  0
VERTEX
  5
735
  8
0
  6
CONTINUOUS
 62
     9
 10
-555.3993231387677
 20
113.1662702571562
 30
0.0
  0
VERTEX
  5
736
  8
0
  6
CONTINUOUS
 62
     9
 10
-555.3526506614223
 20
113.1773742293037
 30
0.0
  0
VERTEX
  5
737
  8
0
  6
CONTINUOUS
 62
     9
 10
-555.3055406240992
 20
113.1862264041083
 30
0.0
  0
VERTEX
  5
738
  8
0
  6
CONTINUOUS
 62
     9
 10
-555.2581015319096
 20
113.1928063930018
 30
0.0
  0
VERTEX
  5
739
  8
0
  6
CONTINUOUS
 62
     9
 10
-555.2104426478529
 20
113.1970990407759
 30
0.0
  0
VERTEX
  5
73A
  8
0
  6
CONTINUOUS
 62
     9
 10
-555.1626737411591
 20
113.1990944604882
 30
0.0
  0
SEQEND
  5
A53
  8
0
  6
CONTINUOUS
 62
     9
  0
ARC
  5
188
  8
0
  6
CONTINUOUS
 62
     9
 10
-555.1583103072637
 20
112.1822432487232
 30
0.0
 40
1.00000020955684
 50
178.008719086152
 51
179.9912699185079
  0
ARC
  5
189
  8
0
  6
CONTINUOUS
 62
     9
 10
-555.1583103072637
 20
26.14854156782921
 30
0.0
 40
1.00000020955684
 50
180.0087300814925
 51
181.9912809138488
  0
POLYLINE
  5
18A
  8
0
  6
CONTINUOUS
 62
     9
 66
     1
 10
0.0
 20
0.0
 30
0.0
  0
VERTEX
  5
73B
  8
0
  6
CONTINUOUS
 62
     9
 10
-556.1577064495584
 20
26.11379415503461
 30
0.0
  0
VERTEX
  5
73C
  8
0
  6
CONTINUOUS
 62
     9
 10
-556.1548934456418
 20
26.06586489774855
 30
0.0
  0
VERTEX
  5
73D
  8
0
  6
CONTINUOUS
 62
     9
 10
-556.1497951344821
 20
26.01808584837367
 30
0.0
  0
VERTEX
  5
73E
  8
0
  6
CONTINUOUS
 62
     9
 10
-556.1424232586473
 20
25.97056705290798
 30
0.0
  0
VERTEX
  5
73F
  8
0
  6
CONTINUOUS
 62
     9
 10
-556.1327947972411
 20
25.92341795792562
 30
0.0
  0
VERTEX
  5
740
  8
0
  6
CONTINUOUS
 62
     9
 10
-556.1209319267961
 20
25.87674715849659
 30
0.0
  0
VERTEX
  5
741
  8
0
  6
CONTINUOUS
 62
     9
 10
-556.1068619701961
 20
25.83066214806767
 30
0.0
  0
VERTEX
  5
742
  8
0
  6
CONTINUOUS
 62
     9
 10
-556.0906173337454
 20
25.78526907088055
 30
0.0
  0
VERTEX
  5
743
  8
0
  6
CONTINUOUS
 62
     9
 10
-556.07223543253
 20
25.7406724774976
 30
0.0
  0
VERTEX
  5
744
  8
0
  6
CONTINUOUS
 62
     9
 10
-556.0517586042414
 20
25.69697508399813
 30
0.0
  0
VERTEX
  5
745
  8
0
  6
CONTINUOUS
 62
     9
 10
-556.029234011664
 20
25.65427753540001
 30
0.0
  0
VERTEX
  5
746
  8
0
  6
CONTINUOUS
 62
     9
 10
-556.0047135340485
 20
25.61267817385129
 30
0.0
  0
VERTEX
  5
747
  8
0
  6
CONTINUOUS
 62
     9
 10
-555.9782536476215
 20
25.5722728121259
 30
0.0
  0
VERTEX
  5
748
  8
0
  6
CONTINUOUS
 62
     9
 10
-555.9499152955088
 20
25.53315451294515
 30
0.0
  0
VERTEX
  5
749
  8
0
  6
CONTINUOUS
 62
     9
 10
-555.919763747369
 20
25.49541337463309
 30
0.0
  0
VERTEX
  5
74A
  8
0
  6
CONTINUOUS
 62
     9
 10
-555.8878684490626
 20
25.45913632359961
 30
0.0
  0
VERTEX
  5
74B
  8
0
  6
CONTINUOUS
 62
     9
 10
-555.8543028627028
 20
25.42440691412923
 30
0.0
  0
VERTEX
  5
74C
  8
0
  6
CONTINUOUS
 62
     9
 10
-555.8191442974555
 20
25.39130513593658
 30
0.0
  0
VERTEX
  5
74D
  8
0
  6
CONTINUOUS
 62
     9
 10
-555.7824737314785
 20
25.35990722993193
 30
0.0
  0
VERTEX
  5
74E
  8
0
  6
CONTINUOUS
 62
     9
 10
-555.7443756254106
 20
25.33028551262109
 30
0.0
  0
VERTEX
  5
74F
  8
0
  6
CONTINUOUS
 62
     9
 10
-555.7049377278393
 20
25.30250820954405
 30
0.0
  0
VERTEX
  5
750
  8
0
  6
CONTINUOUS
 62
     9
 10
-555.6642508731965
 20
25.27663929813608
 30
0.0
  0
VERTEX
  5
751
  8
0
  6
CONTINUOUS
 62
     9
 10
-555.6224087725454
 20
25.25273836037315
 30
0.0
  0
VERTEX
  5
752
  8
0
  6
CONTINUOUS
 62
     9
 10
-555.5795077977434
 20
25.23086044554119
 30
0.0
  0
VERTEX
  5
753
  8
0
  6
CONTINUOUS
 62
     9
 10
-555.5356467594753
 20
25.211055943445
 30
0.0
  0
VERTEX
  5
754
  8
0
  6
CONTINUOUS
 62
     9
 10
-555.4909266796699
 20
25.19337046834911
 30
0.0
  0
VERTEX
  5
755
  8
0
  6
CONTINUOUS
 62
     9
 10
-555.4454505588237
 20
25.17784475391781
 30
0.0
  0
VERTEX
  5
756
  8
0
  6
CONTINUOUS
 62
     9
 10
-555.3993231387677
 20
25.16451455939624
 30
0.0
  0
VERTEX
  5
757
  8
0
  6
CONTINUOUS
 62
     9
 10
-555.3526506614223
 20
25.15341058724874
 30
0.0
  0
VERTEX
  5
758
  8
0
  6
CONTINUOUS
 62
     9
 10
-555.3055406240992
 20
25.14455841244409
 30
0.0
  0
VERTEX
  5
759
  8
0
  6
CONTINUOUS
 62
     9
 10
-555.2581015319096
 20
25.13797842355058
 30
0.0
  0
VERTEX
  5
75A
  8
0
  6
CONTINUOUS
 62
     9
 10
-555.2104426478529
 20
25.1336857757765
 30
0.0
  0
VERTEX
  5
75B
  8
0
  6
CONTINUOUS
 62
     9
 10
-555.1626737411591
 20
25.13169035606423
 30
0.0
  0
SEQEND
  5
A54
  8
0
  6
CONTINUOUS
 62
     9
  0
LINE
  5
18B
  8
0
  6
CONTINUOUS
 62
     9
 10
-555.4335118357634
 20
24.08166280385104
 30
0.0
 11
-555.4250889014692
 21
24.08162983675235
 31
0.0
  0
LINE
  5
18C
  8
0
  6
CONTINUOUS
 62
     9
 10
-486.582881002039
 20
24.08162983675235
 30
0.0
 11
-486.5744580677448
 21
24.08166280385103
 31
0.0
  0
POLYLINE
  5
18D
  8
0
  6
CONTINUOUS
 62
     9
 66
     1
 10
0.0
 20
0.0
 30
0.0
  0
VERTEX
  5
75C
  8
0
  6
CONTINUOUS
 62
     9
 10
-485.8502634539498
 20
26.11379415503462
 30
0.0
  0
VERTEX
  5
75D
  8
0
  6
CONTINUOUS
 62
     9
 10
-485.8530764578663
 20
26.06586489774856
 30
0.0
  0
VERTEX
  5
75E
  8
0
  6
CONTINUOUS
 62
     9
 10
-485.858174769026
 20
26.01808584837369
 30
0.0
  0
VERTEX
  5
75F
  8
0
  6
CONTINUOUS
 62
     9
 10
-485.8655466448608
 20
25.97056705290798
 30
0.0
  0
VERTEX
  5
760
  8
0
  6
CONTINUOUS
 62
     9
 10
-485.875175106267
 20
25.92341795792563
 30
0.0
  0
VERTEX
  5
761
  8
0
  6
CONTINUOUS
 62
     9
 10
-485.8870379767121
 20
25.8767471584966
 30
0.0
  0
VERTEX
  5
762
  8
0
  6
CONTINUOUS
 62
     9
 10
-485.9011079333121
 20
25.83066214806767
 30
0.0
  0
VERTEX
  5
763
  8
0
  6
CONTINUOUS
 62
     9
 10
-485.9173525697627
 20
25.78526907088056
 30
0.0
  0
VERTEX
  5
764
  8
0
  6
CONTINUOUS
 62
     9
 10
-485.9357344709783
 20
25.7406724774976
 30
0.0
  0
VERTEX
  5
765
  8
0
  6
CONTINUOUS
 62
     9
 10
-485.9562112992668
 20
25.69697508399814
 30
0.0
  0
VERTEX
  5
766
  8
0
  6
CONTINUOUS
 62
     9
 10
-485.9787358918442
 20
25.65427753540001
 30
0.0
  0
VERTEX
  5
767
  8
0
  6
CONTINUOUS
 62
     9
 10
-486.0032563694597
 20
25.61267817385129
 30
0.0
  0
VERTEX
  5
768
  8
0
  6
CONTINUOUS
 62
     9
 10
-486.0297162558866
 20
25.57227281212591
 30
0.0
  0
VERTEX
  5
769
  8
0
  6
CONTINUOUS
 62
     9
 10
-486.0580546079993
 20
25.53315451294516
 30
0.0
  0
VERTEX
  5
76A
  8
0
  6
CONTINUOUS
 62
     9
 10
-486.0882061561392
 20
25.4954133746331
 30
0.0
  0
VERTEX
  5
76B
  8
0
  6
CONTINUOUS
 62
     9
 10
-486.1201014544456
 20
25.45913632359961
 30
0.0
  0
VERTEX
  5
76C
  8
0
  6
CONTINUOUS
 62
     9
 10
-486.1536670408054
 20
25.42440691412923
 30
0.0
  0
VERTEX
  5
76D
  8
0
  6
CONTINUOUS
 62
     9
 10
-486.1888256060527
 20
25.39130513593658
 30
0.0
  0
VERTEX
  5
76E
  8
0
  6
CONTINUOUS
 62
     9
 10
-486.2254961720297
 20
25.35990722993193
 30
0.0
  0
VERTEX
  5
76F
  8
0
  6
CONTINUOUS
 62
     9
 10
-486.2635942780976
 20
25.3302855126211
 30
0.0
  0
VERTEX
  5
770
  8
0
  6
CONTINUOUS
 62
     9
 10
-486.3030321756689
 20
25.30250820954406
 30
0.0
  0
VERTEX
  5
771
  8
0
  6
CONTINUOUS
 62
     9
 10
-486.3437190303117
 20
25.27663929813608
 30
0.0
  0
VERTEX
  5
772
  8
0
  6
CONTINUOUS
 62
     9
 10
-486.3855611309627
 20
25.25273836037316
 30
0.0
  0
VERTEX
  5
773
  8
0
  6
CONTINUOUS
 62
     9
 10
-486.4284621057647
 20
25.2308604455412
 30
0.0
  0
VERTEX
  5
774
  8
0
  6
CONTINUOUS
 62
     9
 10
-486.4723231440328
 20
25.211055943445
 30
0.0
  0
VERTEX
  5
775
  8
0
  6
CONTINUOUS
 62
     9
 10
-486.5170432238382
 20
25.19337046834912
 30
0.0
  0
VERTEX
  5
776
  8
0
  6
CONTINUOUS
 62
     9
 10
-486.5625193446844
 20
25.17784475391781
 30
0.0
  0
VERTEX
  5
777
  8
0
  6
CONTINUOUS
 62
     9
 10
-486.6086467647405
 20
25.16451455939623
 30
0.0
  0
VERTEX
  5
778
  8
0
  6
CONTINUOUS
 62
     9
 10
-486.6553192420857
 20
25.15341058724874
 30
0.0
  0
VERTEX
  5
779
  8
0
  6
CONTINUOUS
 62
     9
 10
-486.7024292794089
 20
25.14455841244409
 30
0.0
  0
VERTEX
  5
77A
  8
0
  6
CONTINUOUS
 62
     9
 10
-486.7498683715986
 20
25.13797842355058
 30
0.0
  0
VERTEX
  5
77B
  8
0
  6
CONTINUOUS
 62
     9
 10
-486.7975272556553
 20
25.1336857757765
 30
0.0
  0
VERTEX
  5
77C
  8
0
  6
CONTINUOUS
 62
     9
 10
-486.845296162349
 20
25.13169035606423
 30
0.0
  0
SEQEND
  5
A55
  8
0
  6
CONTINUOUS
 62
     9
  0
ARC
  5
18E
  8
0
  6
CONTINUOUS
 62
     9
 10
-486.8496595962445
 20
26.1485415678292
 30
0.0
 40
1.00000020955684
 50
358.008719086152
 51
359.991269918508
  0
POLYLINE
  5
18F
  8
0
  6
CONTINUOUS
 62
     9
 66
     1
 10
0.0
 20
0.0
 30
0.0
  0
VERTEX
  5
77D
  8
0
  6
CONTINUOUS
 62
     9
 10
-489.9955874860325
 20
113.1990944604882
 30
0.0
  0
VERTEX
  5
77E
  8
0
  6
CONTINUOUS
 62
     9
 10
-490.0201747218932
 20
113.1996379506546
 30
0.0
  0
VERTEX
  5
77F
  8
0
  6
CONTINUOUS
 62
     9
 10
-490.0446984195824
 20
113.201386474984
 30
0.0
  0
VERTEX
  5
780
  8
0
  6
CONTINUOUS
 62
     9
 10
-490.0690995909299
 20
113.2043358276567
 30
0.0
  0
VERTEX
  5
781
  8
0
  6
CONTINUOUS
 62
     9
 10
-490.0933195424843
 20
113.2084789144359
 30
0.0
  0
VERTEX
  5
782
  8
0
  6
CONTINUOUS
 62
     9
 10
-490.1173000166925
 20
113.213805769732
 30
0.0
  0
VERTEX
  5
783
  8
0
  6
CONTINUOUS
 62
     9
 10
-490.1409833320287
 20
113.2203035805732
 30
0.0
  0
VERTEX
  5
784
  8
0
  6
CONTINUOUS
 62
     9
 10
-490.1643125217395
 20
113.2279567174251
 30
0.0
  0
VERTEX
  5
785
  8
0
  6
CONTINUOUS
 62
     9
 10
-490.1872314708691
 20
113.2367467717858
 30
0.0
  0
VERTEX
  5
786
  8
0
  6
CONTINUOUS
 62
     9
 10
-490.2096850512351
 20
113.2466526004642
 30
0.0
  0
VERTEX
  5
787
  8
0
  6
CONTINUOUS
 62
     9
 10
-490.231619254032
 20
113.2576503764374
 30
0.0
  0
VERTEX
  5
788
  8
0
  6
CONTINUOUS
 62
     9
 10
-490.2529813197409
 20
113.2697136461626
 30
0.0
  0
VERTEX
  5
789
  8
0
  6
CONTINUOUS
 62
     9
 10
-490.273719865035
 20
113.2828133932079
 30
0.0
  0
VERTEX
  5
78A
  8
0
  6
CONTINUOUS
 62
     9
 10
-490.293785006375
 20
113.2969181080464
 30
0.0
  0
VERTEX
  5
78B
  8
0
  6
CONTINUOUS
 62
     9
 10
-490.3131284799961
 20
113.3119938638481
 30
0.0
  0
VERTEX
  5
78C
  8
0
  6
CONTINUOUS
 62
     9
 10
-490.3317037579998
 20
113.328004398086
 30
0.0
  0
VERTEX
  5
78D
  8
0
  6
CONTINUOUS
 62
     9
 10
-490.34946616027
 20
113.3449111997602
 30
0.0
  0
VERTEX
  5
78E
  8
0
  6
CONTINUOUS
 62
     9
 10
-490.3663729619442
 20
113.3626736020304
 30
0.0
  0
VERTEX
  5
78F
  8
0
  6
CONTINUOUS
 62
     9
 10
-490.3823834961821
 20
113.3812488800341
 30
0.0
  0
VERTEX
  5
790
  8
0
  6
CONTINUOUS
 62
     9
 10
-490.3974592519838
 20
113.4005923536552
 30
0.0
  0
VERTEX
  5
791
  8
0
  6
CONTINUOUS
 62
     9
 10
-490.4115639668223
 20
113.4206574949952
 30
0.0
  0
VERTEX
  5
792
  8
0
  6
CONTINUOUS
 62
     9
 10
-490.4246637138676
 20
113.4413960402893
 30
0.0
  0
VERTEX
  5
793
  8
0
  6
CONTINUOUS
 62
     9
 10
-490.4367269835928
 20
113.4627581059982
 30
0.0
  0
VERTEX
  5
794
  8
0
  6
CONTINUOUS
 62
     9
 10
-490.447724759566
 20
113.4846923087951
 30
0.0
  0
VERTEX
  5
795
  8
0
  6
CONTINUOUS
 62
     9
 10
-490.4576305882444
 20
113.5071458891612
 30
0.0
  0
VERTEX
  5
796
  8
0
  6
CONTINUOUS
 62
     9
 10
-490.4664206426051
 20
113.5300648382907
 30
0.0
  0
VERTEX
  5
797
  8
0
  6
CONTINUOUS
 62
     9
 10
-490.4740737794571
 20
113.5533940280016
 30
0.0
  0
VERTEX
  5
798
  8
0
  6
CONTINUOUS
 62
     9
 10
-490.4805715902982
 20
113.5770773433378
 30
0.0
  0
VERTEX
  5
799
  8
0
  6
CONTINUOUS
 62
     9
 10
-490.4858984455943
 20
113.6010578175459
 30
0.0
  0
VERTEX
  5
79A
  8
0
  6
CONTINUOUS
 62
     9
 10
-490.4900415323735
 20
113.6252777691004
 30
0.0
  0
VERTEX
  5
79B
  8
0
  6
CONTINUOUS
 62
     9
 10
-490.4929908850462
 20
113.6496789404477
 30
0.0
  0
VERTEX
  5
79C
  8
0
  6
CONTINUOUS
 62
     9
 10
-490.4947394093757
 20
113.674202638137
 30
0.0
  0
VERTEX
  5
79D
  8
0
  6
CONTINUOUS
 62
     9
 10
-490.495282899542
 20
113.6987898739977
 30
0.0
  0
SEQEND
  5
A56
  8
0
  6
CONTINUOUS
 62
     9
  0
POLYLINE
  5
190
  8
0
  6
CONTINUOUS
 62
     9
 66
     1
 10
0.0
 20
0.0
 30
0.0
  0
VERTEX
  5
79E
  8
0
  6
CONTINUOUS
 62
     9
 10
-552.0123824174756
 20
25.13169035606423
 30
0.0
  0
VERTEX
  5
79F
  8
0
  6
CONTINUOUS
 62
     9
 10
-551.9877951816148
 20
25.13114686589784
 30
0.0
  0
VERTEX
  5
7A0
  8
0
  6
CONTINUOUS
 62
     9
 10
-551.9632714839256
 20
25.12939834156844
 30
0.0
  0
VERTEX
  5
7A1
  8
0
  6
CONTINUOUS
 62
     9
 10
-551.9388703125783
 20
25.12644898889573
 30
0.0
  0
VERTEX
  5
7A2
  8
0
  6
CONTINUOUS
 62
     9
 10
-551.9146503610237
 20
25.12230590211649
 30
0.0
  0
VERTEX
  5
7A3
  8
0
  6
CONTINUOUS
 62
     9
 10
-551.8906698868157
 20
25.11697904682039
 30
0.0
  0
VERTEX
  5
7A4
  8
0
  6
CONTINUOUS
 62
     9
 10
-551.8669865714795
 20
25.11048123597925
 30
0.0
  0
VERTEX
  5
7A5
  8
0
  6
CONTINUOUS
 62
     9
 10
-551.8436573817686
 20
25.1028280991273
 30
0.0
  0
VERTEX
  5
7A6
  8
0
  6
CONTINUOUS
 62
     9
 10
-551.820738432639
 20
25.09403804476663
 30
0.0
  0
VERTEX
  5
7A7
  8
0
  6
CONTINUOUS
 62
     9
 10
-551.798284852273
 20
25.08413221608821
 30
0.0
  0
VERTEX
  5
7A8
  8
0
  6
CONTINUOUS
 62
     9
 10
-551.7763506494761
 20
25.07313444011505
 30
0.0
  0
VERTEX
  5
7A9
  8
0
  6
CONTINUOUS
 62
     9
 10
-551.7549885837673
 20
25.06107117038978
 30
0.0
  0
VERTEX
  5
7AA
  8
0
  6
CONTINUOUS
 62
     9
 10
-551.7342500384731
 20
25.04797142334451
 30
0.0
  0
VERTEX
  5
7AB
  8
0
  6
CONTINUOUS
 62
     9
 10
-551.7141848971331
 20
25.03386670850604
 30
0.0
  0
VERTEX
  5
7AC
  8
0
  6
CONTINUOUS
 62
     9
 10
-551.694841423512
 20
25.01879095270432
 30
0.0
  0
VERTEX
  5
7AD
  8
0
  6
CONTINUOUS
 62
     9
 10
-551.6762661455082
 20
25.0027804184664
 30
0.0
  0
VERTEX
  5
7AE
  8
0
  6
CONTINUOUS
 62
     9
 10
-551.658503743238
 20
24.98587361679221
 30
0.0
  0
VERTEX
  5
7AF
  8
0
  6
CONTINUOUS
 62
     9
 10
-551.6415969415639
 20
24.96811121452203
 30
0.0
  0
VERTEX
  5
7B0
  8
0
  6
CONTINUOUS
 62
     9
 10
-551.625586407326
 20
24.94953593651829
 30
0.0
  0
VERTEX
  5
7B1
  8
0
  6
CONTINUOUS
 62
     9
 10
-551.6105106515242
 20
24.9301924628972
 30
0.0
  0
VERTEX
  5
7B2
  8
0
  6
CONTINUOUS
 62
     9
 10
-551.5964059366858
 20
24.91012732155723
 30
0.0
  0
VERTEX
  5
7B3
  8
0
  6
CONTINUOUS
 62
     9
 10
-551.5833061896404
 20
24.88938877626306
 30
0.0
  0
VERTEX
  5
7B4
  8
0
  6
CONTINUOUS
 62
     9
 10
-551.5712429199152
 20
24.86802671055419
 30
0.0
  0
VERTEX
  5
7B5
  8
0
  6
CONTINUOUS
 62
     9
 10
-551.5602451439421
 20
24.84609250775732
 30
0.0
  0
VERTEX
  5
7B6
  8
0
  6
CONTINUOUS
 62
     9
 10
-551.5503393152636
 20
24.82363892739126
 30
0.0
  0
VERTEX
  5
7B7
  8
0
  6
CONTINUOUS
 62
     9
 10
-551.5415492609029
 20
24.80071997826171
 30
0.0
  0
VERTEX
  5
7B8
  8
0
  6
CONTINUOUS
 62
     9
 10
-551.533896124051
 20
24.77739078855084
 30
0.0
  0
VERTEX
  5
7B9
  8
0
  6
CONTINUOUS
 62
     9
 10
-551.5273983132098
 20
24.75370747321464
 30
0.0
  0
VERTEX
  5
7BA
  8
0
  6
CONTINUOUS
 62
     9
 10
-551.5220714579137
 20
24.72972699900651
 30
0.0
  0
VERTEX
  5
7BB
  8
0
  6
CONTINUOUS
 62
     9
 10
-551.5179283711345
 20
24.70550704745205
 30
0.0
  0
VERTEX
  5
7BC
  8
0
  6
CONTINUOUS
 62
     9
 10
-551.5149790184618
 20
24.68110587610466
 30
0.0
  0
VERTEX
  5
7BD
  8
0
  6
CONTINUOUS
 62
     9
 10
-551.5132304941325
 20
24.65658217841543
 30
0.0
  0
VERTEX
  5
7BE
  8
0
  6
CONTINUOUS
 62
     9
 10
-551.512687003966
 20
24.63199494255468
 30
0.0
  0
SEQEND
  5
A57
  8
0
  6
CONTINUOUS
 62
     9
  0
POLYLINE
  5
191
  8
0
  6
CONTINUOUS
 62
     9
 66
     1
 10
0.0
 20
0.0
 30
0.0
  0
VERTEX
  5
7BF
  8
0
  6
CONTINUOUS
 62
     9
 10
-551.512687003966
 20
113.6987898739977
 30
0.0
  0
VERTEX
  5
7C0
  8
0
  6
CONTINUOUS
 62
     9
 10
-551.5132304941325
 20
113.674202638137
 30
0.0
  0
VERTEX
  5
7C1
  8
0
  6
CONTINUOUS
 62
     9
 10
-551.5149790184618
 20
113.6496789404478
 30
0.0
  0
VERTEX
  5
7C2
  8
0
  6
CONTINUOUS
 62
     9
 10
-551.5179283711345
 20
113.6252777691004
 30
0.0
  0
VERTEX
  5
7C3
  8
0
  6
CONTINUOUS
 62
     9
 10
-551.5220714579137
 20
113.6010578175459
 30
0.0
  0
VERTEX
  5
7C4
  8
0
  6
CONTINUOUS
 62
     9
 10
-551.5273983132098
 20
113.5770773433378
 30
0.0
  0
VERTEX
  5
7C5
  8
0
  6
CONTINUOUS
 62
     9
 10
-551.533896124051
 20
113.5533940280016
 30
0.0
  0
VERTEX
  5
7C6
  8
0
  6
CONTINUOUS
 62
     9
 10
-551.5415492609029
 20
113.5300648382907
 30
0.0
  0
VERTEX
  5
7C7
  8
0
  6
CONTINUOUS
 62
     9
 10
-551.5503393152636
 20
113.5071458891612
 30
0.0
  0
VERTEX
  5
7C8
  8
0
  6
CONTINUOUS
 62
     9
 10
-551.5602451439421
 20
113.4846923087951
 30
0.0
  0
VERTEX
  5
7C9
  8
0
  6
CONTINUOUS
 62
     9
 10
-551.5712429199152
 20
113.4627581059982
 30
0.0
  0
VERTEX
  5
7CA
  8
0
  6
CONTINUOUS
 62
     9
 10
-551.5833061896404
 20
113.4413960402893
 30
0.0
  0
VERTEX
  5
7CB
  8
0
  6
CONTINUOUS
 62
     9
 10
-551.5964059366858
 20
113.4206574949952
 30
0.0
  0
VERTEX
  5
7CC
  8
0
  6
CONTINUOUS
 62
     9
 10
-551.6105106515242
 20
113.4005923536552
 30
0.0
  0
VERTEX
  5
7CD
  8
0
  6
CONTINUOUS
 62
     9
 10
-551.625586407326
 20
113.3812488800341
 30
0.0
  0
VERTEX
  5
7CE
  8
0
  6
CONTINUOUS
 62
     9
 10
-551.6415969415639
 20
113.3626736020304
 30
0.0
  0
VERTEX
  5
7CF
  8
0
  6
CONTINUOUS
 62
     9
 10
-551.658503743238
 20
113.3449111997602
 30
0.0
  0
VERTEX
  5
7D0
  8
0
  6
CONTINUOUS
 62
     9
 10
-551.6762661455082
 20
113.328004398086
 30
0.0
  0
VERTEX
  5
7D1
  8
0
  6
CONTINUOUS
 62
     9
 10
-551.694841423512
 20
113.3119938638481
 30
0.0
  0
VERTEX
  5
7D2
  8
0
  6
CONTINUOUS
 62
     9
 10
-551.7141848971331
 20
113.2969181080464
 30
0.0
  0
VERTEX
  5
7D3
  8
0
  6
CONTINUOUS
 62
     9
 10
-551.7342500384731
 20
113.2828133932079
 30
0.0
  0
VERTEX
  5
7D4
  8
0
  6
CONTINUOUS
 62
     9
 10
-551.7549885837672
 20
113.2697136461626
 30
0.0
  0
VERTEX
  5
7D5
  8
0
  6
CONTINUOUS
 62
     9
 10
-551.7763506494761
 20
113.2576503764374
 30
0.0
  0
VERTEX
  5
7D6
  8
0
  6
CONTINUOUS
 62
     9
 10
-551.798284852273
 20
113.2466526004642
 30
0.0
  0
VERTEX
  5
7D7
  8
0
  6
CONTINUOUS
 62
     9
 10
-551.820738432639
 20
113.2367467717858
 30
0.0
  0
VERTEX
  5
7D8
  8
0
  6
CONTINUOUS
 62
     9
 10
-551.8436573817686
 20
113.2279567174251
 30
0.0
  0
VERTEX
  5
7D9
  8
0
  6
CONTINUOUS
 62
     9
 10
-551.8669865714795
 20
113.2203035805732
 30
0.0
  0
VERTEX
  5
7DA
  8
0
  6
CONTINUOUS
 62
     9
 10
-551.8906698868157
 20
113.213805769732
 30
0.0
  0
VERTEX
  5
7DB
  8
0
  6
CONTINUOUS
 62
     9
 10
-551.9146503610237
 20
113.2084789144359
 30
0.0
  0
VERTEX
  5
7DC
  8
0
  6
CONTINUOUS
 62
     9
 10
-551.9388703125783
 20
113.2043358276567
 30
0.0
  0
VERTEX
  5
7DD
  8
0
  6
CONTINUOUS
 62
     9
 10
-551.9632714839256
 20
113.201386474984
 30
0.0
  0
VERTEX
  5
7DE
  8
0
  6
CONTINUOUS
 62
     9
 10
-551.9877951816148
 20
113.1996379506546
 30
0.0
  0
VERTEX
  5
7DF
  8
0
  6
CONTINUOUS
 62
     9
 10
-552.0123824174756
 20
113.1990944604882
 30
0.0
  0
SEQEND
  5
A58
  8
0
  6
CONTINUOUS
 62
     9
  0
POLYLINE
  5
192
  8
0
  6
CONTINUOUS
 62
     9
 66
     1
 10
0.0
 20
0.0
 30
0.0
  0
VERTEX
  5
7E0
  8
0
  6
CONTINUOUS
 62
     9
 10
-490.495282899542
 20
24.63199494255469
 30
0.0
  0
VERTEX
  5
7E1
  8
0
  6
CONTINUOUS
 62
     9
 10
-490.4947394093757
 20
24.65658217841544
 30
0.0
  0
VERTEX
  5
7E2
  8
0
  6
CONTINUOUS
 62
     9
 10
-490.4929908850463
 20
24.68110587610466
 30
0.0
  0
VERTEX
  5
7E3
  8
0
  6
CONTINUOUS
 62
     9
 10
-490.4900415323736
 20
24.70550704745206
 30
0.0
  0
VERTEX
  5
7E4
  8
0
  6
CONTINUOUS
 62
     9
 10
-490.4858984455943
 20
24.72972699900651
 30
0.0
  0
VERTEX
  5
7E5
  8
0
  6
CONTINUOUS
 62
     9
 10
-490.4805715902982
 20
24.75370747321465
 30
0.0
  0
VERTEX
  5
7E6
  8
0
  6
CONTINUOUS
 62
     9
 10
-490.4740737794571
 20
24.77739078855085
 30
0.0
  0
VERTEX
  5
7E7
  8
0
  6
CONTINUOUS
 62
     9
 10
-490.4664206426051
 20
24.80071997826171
 30
0.0
  0
VERTEX
  5
7E8
  8
0
  6
CONTINUOUS
 62
     9
 10
-490.4576305882444
 20
24.82363892739127
 30
0.0
  0
VERTEX
  5
7E9
  8
0
  6
CONTINUOUS
 62
     9
 10
-490.447724759566
 20
24.84609250775732
 30
0.0
  0
VERTEX
  5
7EA
  8
0
  6
CONTINUOUS
 62
     9
 10
-490.4367269835928
 20
24.86802671055421
 30
0.0
  0
VERTEX
  5
7EB
  8
0
  6
CONTINUOUS
 62
     9
 10
-490.4246637138676
 20
24.88938877626307
 30
0.0
  0
VERTEX
  5
7EC
  8
0
  6
CONTINUOUS
 62
     9
 10
-490.4115639668223
 20
24.91012732155724
 30
0.0
  0
VERTEX
  5
7ED
  8
0
  6
CONTINUOUS
 62
     9
 10
-490.3974592519838
 20
24.93019246289721
 30
0.0
  0
VERTEX
  5
7EE
  8
0
  6
CONTINUOUS
 62
     9
 10
-490.3823834961821
 20
24.9495359365183
 30
0.0
  0
VERTEX
  5
7EF
  8
0
  6
CONTINUOUS
 62
     9
 10
-490.3663729619443
 20
24.96811121452204
 30
0.0
  0
VERTEX
  5
7F0
  8
0
  6
CONTINUOUS
 62
     9
 10
-490.34946616027
 20
24.98587361679222
 30
0.0
  0
VERTEX
  5
7F1
  8
0
  6
CONTINUOUS
 62
     9
 10
-490.3317037579998
 20
25.0027804184664
 30
0.0
  0
VERTEX
  5
7F2
  8
0
  6
CONTINUOUS
 62
     9
 10
-490.3131284799961
 20
25.01879095270433
 30
0.0
  0
VERTEX
  5
7F3
  8
0
  6
CONTINUOUS
 62
     9
 10
-490.293785006375
 20
25.03386670850605
 30
0.0
  0
VERTEX
  5
7F4
  8
0
  6
CONTINUOUS
 62
     9
 10
-490.273719865035
 20
25.04797142334452
 30
0.0
  0
VERTEX
  5
7F5
  8
0
  6
CONTINUOUS
 62
     9
 10
-490.2529813197409
 20
25.06107117038979
 30
0.0
  0
VERTEX
  5
7F6
  8
0
  6
CONTINUOUS
 62
     9
 10
-490.231619254032
 20
25.07313444011506
 30
0.0
  0
VERTEX
  5
7F7
  8
0
  6
CONTINUOUS
 62
     9
 10
-490.2096850512351
 20
25.08413221608821
 30
0.0
  0
VERTEX
  5
7F8
  8
0
  6
CONTINUOUS
 62
     9
 10
-490.1872314708691
 20
25.09403804476663
 30
0.0
  0
VERTEX
  5
7F9
  8
0
  6
CONTINUOUS
 62
     9
 10
-490.1643125217395
 20
25.1028280991273
 30
0.0
  0
VERTEX
  5
7FA
  8
0
  6
CONTINUOUS
 62
     9
 10
-490.1409833320287
 20
25.11048123597925
 30
0.0
  0
VERTEX
  5
7FB
  8
0
  6
CONTINUOUS
 62
     9
 10
-490.1173000166925
 20
25.1169790468204
 30
0.0
  0
VERTEX
  5
7FC
  8
0
  6
CONTINUOUS
 62
     9
 10
-490.0933195424843
 20
25.1223059021165
 30
0.0
  0
VERTEX
  5
7FD
  8
0
  6
CONTINUOUS
 62
     9
 10
-490.0690995909299
 20
25.12644898889574
 30
0.0
  0
VERTEX
  5
7FE
  8
0
  6
CONTINUOUS
 62
     9
 10
-490.0446984195825
 20
25.12939834156844
 30
0.0
  0
VERTEX
  5
7FF
  8
0
  6
CONTINUOUS
 62
     9
 10
-490.0201747218932
 20
25.13114686589784
 30
0.0
  0
VERTEX
  5
800
  8
0
  6
CONTINUOUS
 62
     9
 10
-489.9955874860325
 20
25.13169035606424
 30
0.0
  0
SEQEND
  5
A59
  8
0
  6
CONTINUOUS
 62
     9
  0
LINE
  5
193
  8
0
  6
CONTINUOUS
 62
     9
 10
-552.0123824174756
 20
113.1990944604882
 30
0.0
 11
-555.1626737411591
 21
113.1990944604882
 31
0.0
  0
LINE
  5
194
  8
0
  6
CONTINUOUS
 62
     9
 10
-486.845296162349
 20
113.1990944604882
 30
0.0
 11
-489.9955874860325
 21
113.1990944604882
 31
0.0
  0
LINE
  5
195
  8
0
  6
CONTINUOUS
 62
     9
 10
-551.512687003966
 20
24.63199494255468
 30
0.0
 11
-551.512687003966
 21
18.13205647738832
 31
0.0
  0
LINE
  5
196
  8
0
  6
CONTINUOUS
 62
     9
 10
-489.9955874860325
 20
25.13169035606423
 30
0.0
 11
-486.845296162349
 21
25.13169035606423
 31
0.0
  0
LINE
  5
197
  8
0
  6
CONTINUOUS
 62
     9
 10
-490.495282899542
 20
113.6987898739977
 30
0.0
 11
-490.495282899542
 21
120.1987283391643
 31
0.0
  0
LINE
  5
198
  8
0
  6
CONTINUOUS
 62
     9
 10
-555.1626737411591
 20
25.13169035606423
 30
0.0
 11
-552.0123824174756
 21
25.13169035606424
 31
0.0
  0
LINE
  5
199
  8
0
  6
CONTINUOUS
 62
     9
 10
-551.512687003966
 20
120.1987283391643
 30
0.0
 11
-551.512687003966
 21
113.6987898739977
 31
0.0
  0
LINE
  5
19A
  8
0
  6
CONTINUOUS
 62
     9
 10
-490.495282899542
 20
18.13205647738832
 30
0.0
 11
-490.495282899542
 21
24.63199494255469
 31
0.0
  0
LINE
  5
19B
  8
0
  6
CONTINUOUS
 62
     9
 10
-533.0039849517538
 20
17.71699255905217
 30
0.0
 11
-533.1085134150214
 21
17.71699255905217
 31
0.0
  0
LINE
  5
19C
  8
0
  6
CONTINUOUS
 62
     9
 10
-543.8994564884861
 20
17.71699255905217
 30
0.0
 11
-544.0039849517538
 21
17.71699255905217
 31
0.0
  0
LINE
  5
19D
  8
0
  6
CONTINUOUS
 62
     9
 10
-544.0039849517538
 20
17.71699255905217
 30
0.0
 11
-544.0039849517538
 21
17.26869858446336
 31
0.0
  0
LINE
  5
19E
  8
0
  6
CONTINUOUS
 62
     9
 10
-544.0039849517538
 20
17.26869858446336
 30
0.0
 11
-543.8748059589503
 21
17.22305905857896
 31
0.0
  0
ARC
  5
19F
  8
0
  6
CONTINUOUS
 62
     9
 10
-541.3787117717598
 20
44.45646750551194
 30
0.0
 40
27.34755970518772
 50
264.7631531492701
 51
270.7851134581873
  0
LINE
  5
1A0
  8
0
  6
CONTINUOUS
 62
     9
 10
-541.0039849517538
 20
17.11147524661424
 30
0.0
 11
-536.0039849517538
 21
17.11147524661424
 31
0.0
  0
ARC
  5
1A1
  8
0
  6
CONTINUOUS
 62
     9
 10
-535.5901168328443
 20
41.75766053190592
 30
0.0
 40
24.64965995580421
 50
269.0379578947013
 51
275.887583981049
  0
LINE
  5
1A2
  8
0
  6
CONTINUOUS
 62
     9
 10
-533.061629110544
 20
17.23802583285392
 30
0.0
 11
-533.0039849517538
 21
17.26869858446336
 31
0.0
  0
LINE
  5
1A3
  8
0
  6
CONTINUOUS
 62
     9
 10
-533.0039849517538
 20
17.26869858446336
 30
0.0
 11
-533.0039849517538
 21
17.71699255905217
 31
0.0
  0
LINE
  5
1A4
  8
0
  6
CONTINUOUS
 62
     9
 10
-491.3363580253168
 20
17.82582307966121
 30
0.0
 11
-490.7944407041023
 21
17.83201072794387
 31
0.0
  0
LINE
  5
1A5
  8
0
  6
CONTINUOUS
 62
     9
 10
-498.5062813376479
 20
17.82582307966121
 30
0.0
 11
-491.3363580253168
 21
17.82582307966121
 31
0.0
  0
LINE
  5
1A6
  8
0
  6
CONTINUOUS
 62
     9
 10
-509.0039849517537
 20
17.71699255905217
 30
0.0
 11
-509.0039849517537
 21
17.26869858446336
 31
0.0
  0
LINE
  5
1A7
  8
0
  6
CONTINUOUS
 62
     9
 10
-509.0039849517537
 20
17.26869858446336
 30
0.0
 11
-508.8748059589504
 21
17.22305905857896
 31
0.0
  0
ARC
  5
1A8
  8
0
  6
CONTINUOUS
 62
     9
 10
-506.3787117717596
 20
44.4564675055159
 30
0.0
 40
27.34755970519168
 50
264.7631531492704
 51
270.7851134581869
  0
LINE
  5
1A9
  8
0
  6
CONTINUOUS
 62
     9
 10
-506.0039849517537
 20
17.11147524661424
 30
0.0
 11
-501.0039849517537
 21
17.11147524661424
 31
0.0
  0
ARC
  5
1AA
  8
0
  6
CONTINUOUS
 62
     9
 10
-500.5901168328443
 20
41.75766053190734
 30
0.0
 40
24.64965995580564
 50
269.0379578947014
 51
275.8875839810487
  0
LINE
  5
1AB
  8
0
  6
CONTINUOUS
 62
     9
 10
-498.0616291105439
 20
17.23802583285392
 30
0.0
 11
-498.0039849517537
 21
17.26869858446336
 31
0.0
  0
LINE
  5
1AC
  8
0
  6
CONTINUOUS
 62
     9
 10
-498.0039849517537
 20
17.26869858446336
 30
0.0
 11
-498.0039849517537
 21
17.71699255905217
 31
0.0
  0
LINE
  5
1AD
  8
0
  6
CONTINUOUS
 62
     9
 10
-490.7944407041023
 20
120.4987740886086
 30
0.0
 11
-491.3363580253168
 21
120.5049617368912
 31
0.0
  0
LINE
  5
1AE
  8
0
  6
CONTINUOUS
 62
     9
 10
-491.3363580253168
 20
120.5049617368912
 30
0.0
 11
-498.5062813376479
 21
120.5049617368912
 31
0.0
  0
LINE
  5
1AF
  8
0
  6
CONTINUOUS
 62
     9
 10
-498.0039849517537
 20
120.6137922575002
 30
0.0
 11
-498.0039849517537
 21
121.0620862320891
 31
0.0
  0
LINE
  5
1B0
  8
0
  6
CONTINUOUS
 62
     9
 10
-498.0039849517537
 20
121.0620862320891
 30
0.0
 11
-498.133163944557
 21
121.1077257579735
 31
0.0
  0
ARC
  5
1B1
  8
0
  6
CONTINUOUS
 62
     9
 10
-500.6292581317477
 20
93.87431731103408
 30
0.0
 40
27.34755970519412
 50
84.763153149271
 51
90.78511345818686
  0
LINE
  5
1B2
  8
0
  6
CONTINUOUS
 62
     9
 10
-501.0039849517537
 20
121.2193095699382
 30
0.0
 11
-506.0039849517537
 21
121.2193095699382
 31
0.0
  0
ARC
  5
1B3
  8
0
  6
CONTINUOUS
 62
     9
 10
-506.4178530706631
 20
96.57312428464245
 30
0.0
 40
24.64965995580827
 50
89.03795789470149
 51
95.88758398104814
  0
LINE
  5
1B4
  8
0
  6
CONTINUOUS
 62
     9
 10
-508.9463407929634
 20
121.0927589836985
 30
0.0
 11
-509.0039849517537
 21
121.0620862320891
 31
0.0
  0
LINE
  5
1B5
  8
0
  6
CONTINUOUS
 62
     9
 10
-509.0039849517537
 20
121.0620862320891
 30
0.0
 11
-509.0039849517537
 21
120.6137922575002
 31
0.0
  0
LINE
  5
1B6
  8
0
  6
CONTINUOUS
 62
     9
 10
-533.0039849517538
 20
120.6137922575002
 30
0.0
 11
-533.0039849517538
 21
121.0620862320891
 31
0.0
  0
LINE
  5
1B7
  8
0
  6
CONTINUOUS
 62
     9
 10
-533.0039849517538
 20
121.0620862320891
 30
0.0
 11
-533.133163944557
 21
121.1077257579735
 31
0.0
  0
ARC
  5
1B8
  8
0
  6
CONTINUOUS
 62
     9
 10
-535.6292581317477
 20
93.87431731103382
 30
0.0
 40
27.34755970519437
 50
84.76315314927093
 51
90.78511345818683
  0
LINE
  5
1B9
  8
0
  6
CONTINUOUS
 62
     9
 10
-536.0039849517538
 20
121.2193095699382
 30
0.0
 11
-541.0039849517538
 21
121.2193095699382
 31
0.0
  0
ARC
  5
1BA
  8
0
  6
CONTINUOUS
 62
     9
 10
-541.4178530706631
 20
96.57312428464245
 30
0.0
 40
24.64965995580827
 50
89.03795789470149
 51
95.88758398104814
  0
LINE
  5
1BB
  8
0
  6
CONTINUOUS
 62
     9
 10
-543.9463407929634
 20
121.0927589836985
 30
0.0
 11
-544.0039849517538
 21
121.0620862320891
 31
0.0
  0
LINE
  5
1BC
  8
0
  6
CONTINUOUS
 62
     9
 10
-544.0039849517538
 20
121.0620862320891
 30
0.0
 11
-544.0039849517538
 21
120.6137922575002
 31
0.0
  0
LINE
  5
1BD
  8
0
  6
CONTINUOUS
 62
     7
 10
-543.0039849517538
 20
120.0634566973345
 30
0.0
 11
-543.0039849517538
 21
118.0648290433321
 31
0.0
  0
LINE
  5
1BE
  8
0
  6
CONTINUOUS
 62
     7
 10
-534.0039849517538
 20
118.0648290433321
 30
0.0
 11
-534.0039849517538
 21
120.0634566973345
 31
0.0
  0
LINE
  5
1BF
  8
0
  6
CONTINUOUS
 62
     7
 10
-508.0039849517537
 20
20.26595577322029
 30
0.0
 11
-508.0039849517537
 21
18.26732811921793
 31
0.0
  0
LINE
  5
1C0
  8
0
  6
CONTINUOUS
 62
     7
 10
-534.0039849517538
 20
118.0648290433321
 30
0.0
 11
-534.0039849517538
 21
117.9286407712986
 31
0.0
  0
LINE
  5
1C1
  8
0
  6
CONTINUOUS
 62
     9
 10
-534.0039849517538
 20
117.9286407712986
 30
0.0
 11
-543.0039849517538
 21
117.9286407712986
 31
0.0
  0
LINE
  5
1C2
  8
0
  6
CONTINUOUS
 62
     7
 10
-543.0039849517538
 20
117.9286407712986
 30
0.0
 11
-543.0039849517538
 21
118.0648290433321
 31
0.0
  0
LINE
  5
1C3
  8
0
  6
CONTINUOUS
 62
     7
 10
-499.0039849517537
 20
18.26732811921793
 30
0.0
 11
-499.0039849517537
 21
20.26595577322029
 31
0.0
  0
LINE
  5
1C4
  8
0
  6
CONTINUOUS
 62
     7
 10
-534.0039849517538
 20
18.26732811921793
 30
0.0
 11
-534.0039849517538
 21
20.26595577322029
 31
0.0
  0
LINE
  5
1C5
  8
0
  6
CONTINUOUS
 62
     7
 10
-499.0039849517537
 20
118.0648290433321
 30
0.0
 11
-499.0039849517537
 21
117.9286407712986
 31
0.0
  0
LINE
  5
1C6
  8
0
  6
CONTINUOUS
 62
     9
 10
-499.0039849517537
 20
117.9286407712986
 30
0.0
 11
-508.0039849517537
 21
117.9286407712986
 31
0.0
  0
LINE
  5
1C7
  8
0
  6
CONTINUOUS
 62
     7
 10
-508.0039849517537
 20
117.9286407712986
 30
0.0
 11
-508.0039849517537
 21
118.0648290433321
 31
0.0
  0
LINE
  5
1C8
  8
0
  6
CONTINUOUS
 62
     7
 10
-499.0039849517537
 20
118.0648290433321
 30
0.0
 11
-499.0039849517537
 21
120.0634566973345
 31
0.0
  0
LINE
  5
1C9
  8
0
  6
CONTINUOUS
 62
     7
 10
-508.0039849517537
 20
120.0634566973345
 30
0.0
 11
-508.0039849517537
 21
118.0648290433321
 31
0.0
  0
LINE
  5
1CA
  8
0
  6
CONTINUOUS
 62
     7
 10
-543.0039849517538
 20
20.26595577322029
 30
0.0
 11
-543.0039849517538
 21
18.26732811921793
 31
0.0
  0
LINE
  5
1CB
  8
0
  6
CONTINUOUS
 62
     7
 10
-508.0039849517537
 20
20.40214404525381
 30
0.0
 11
-508.0039849517537
 21
20.26595577322029
 31
0.0
  0
LINE
  5
1CC
  8
0
  6
CONTINUOUS
 62
     9
 10
-508.0039849517537
 20
20.40214404525381
 30
0.0
 11
-499.0039849517537
 21
20.40214404525381
 31
0.0
  0
LINE
  5
1CD
  8
0
  6
CONTINUOUS
 62
     7
 10
-499.0039849517537
 20
20.26595577322029
 30
0.0
 11
-499.0039849517537
 21
20.40214404525381
 31
0.0
  0
LINE
  5
1CE
  8
0
  6
CONTINUOUS
 62
     7
 10
-543.0039849517538
 20
20.40214404525381
 30
0.0
 11
-543.0039849517538
 21
20.26595577322029
 31
0.0
  0
LINE
  5
1CF
  8
0
  6
CONTINUOUS
 62
     9
 10
-543.0039849517538
 20
20.40214404525381
 30
0.0
 11
-534.0039849517538
 21
20.40214404525381
 31
0.0
  0
LINE
  5
1D0
  8
0
  6
CONTINUOUS
 62
     7
 10
-534.0039849517538
 20
20.26595577322029
 30
0.0
 11
-534.0039849517538
 21
20.40214404525381
 31
0.0
  0
LINE
  5
1D1
  8
0
  6
CONTINUOUS
 62
     7
 10
-544.0039849517538
 20
17.71699255905217
 30
0.0
 11
-543.9516489955107
 21
17.71562209380675
 31
0.0
  0
POLYLINE
  5
1D2
  8
0
  6
CONTINUOUS
 62
     7
 66
     1
 10
0.0
 20
0.0
 30
0.0
  0
VERTEX
  5
801
  8
0
  6
CONTINUOUS
 62
     7
 10
-543.0039849517538
 20
18.61095018132086
 30
0.0
  0
VERTEX
  5
802
  8
0
  6
CONTINUOUS
 62
     7
 10
-543.0049367301718
 20
18.57134460638422
 30
0.0
  0
VERTEX
  5
803
  8
0
  6
CONTINUOUS
 62
     7
 10
-543.0077902536619
 20
18.5318144229105
 30
0.0
  0
VERTEX
  5
804
  8
0
  6
CONTINUOUS
 62
     7
 10
-543.01254009038
 20
18.49243487885069
 30
0.0
  0
VERTEX
  5
805
  8
0
  6
CONTINUOUS
 62
     7
 10
-543.0191771987414
 20
18.45328093540512
 30
0.0
  0
VERTEX
  5
806
  8
0
  6
CONTINUOUS
 62
     7
 10
-543.0276889446338
 20
18.41442712433047
 30
0.0
  0
VERTEX
  5
807
  8
0
  6
CONTINUOUS
 62
     7
 10
-543.0380591254647
 20
18.37594740606445
 30
0.0
  0
VERTEX
  5
808
  8
0
  6
CONTINUOUS
 62
     7
 10
-543.0502680010055
 20
18.33791502893781
 30
0.0
  0
VERTEX
  5
809
  8
0
  6
CONTINUOUS
 62
     7
 10
-543.0642923309678
 20
18.30040238974204
 30
0.0
  0
VERTEX
  5
80A
  8
0
  6
CONTINUOUS
 62
     7
 10
-543.0801054192424
 20
18.26348089591792
 30
0.0
  0
VERTEX
  5
80B
  8
0
  6
CONTINUOUS
 62
     7
 10
-543.097677164717
 20
18.22722082962742
 30
0.0
  0
VERTEX
  5
80C
  8
0
  6
CONTINUOUS
 62
     7
 10
-543.1169741185755
 20
18.19169121396763
 30
0.0
  0
VERTEX
  5
80D
  8
0
  6
CONTINUOUS
 62
     7
 10
-543.1379595479692
 20
18.15695968158131
 30
0.0
  0
VERTEX
  5
80E
  8
0
  6
CONTINUOUS
 62
     7
 10
-543.1605935059408
 20
18.12309234591439
 30
0.0
  0
VERTEX
  5
80F
  8
0
  6
CONTINUOUS
 62
     7
 10
-543.1848329074646
 20
18.09015367536518
 30
0.0
  0
VERTEX
  5
810
  8
0
  6
CONTINUOUS
 62
     7
 10
-543.2106316114624
 20
18.0582063705652
 30
0.0
  0
VERTEX
  5
811
  8
0
  6
CONTINUOUS
 62
     7
 10
-543.2379405086347
 20
18.0273112450249
 30
0.0
  0
VERTEX
  5
812
  8
0
  6
CONTINUOUS
 62
     7
 10
-543.2667076149436
 20
17.99752710937171
 30
0.0
  0
VERTEX
  5
813
  8
0
  6
CONTINUOUS
 62
     7
 10
-543.2968781705672
 20
17.96891065940066
 30
0.0
  0
VERTEX
  5
814
  8
0
  6
CONTINUOUS
 62
     7
 10
-543.3283947441381
 20
17.94151636815072
 30
0.0
  0
VERTEX
  5
815
  8
0
  6
CONTINUOUS
 62
     7
 10
-543.3611973420673
 20
17.91539638221229
 30
0.0
  0
VERTEX
  5
816
  8
0
  6
CONTINUOUS
 62
     7
 10
-543.3952235227449
 20
17.89060042246315
 30
0.0
  0
VERTEX
  5
817
  8
0
  6
CONTINUOUS
 62
     7
 10
-543.4304085154026
 20
17.867175689422
 30
0.0
  0
VERTEX
  5
818
  8
0
  6
CONTINUOUS
 62
     7
 10
-543.4666853434069
 20
17.84516677339956
 30
0.0
  0
VERTEX
  5
819
  8
0
  6
CONTINUOUS
 62
     7
 10
-543.5039849517536
 20
17.82461556961838
 30
0.0
  0
SEQEND
  5
A5A
  8
0
  6
CONTINUOUS
 62
     7
  0
LINE
  5
1D3
  8
0
  6
CONTINUOUS
 62
     7
 10
-533.5039849517536
 20
17.82461556961837
 30
0.0
 11
-533.0563209079966
 21
17.71562209380674
 31
0.0
  0
POLYLINE
  5
1D4
  8
0
  6
CONTINUOUS
 62
     7
 66
     1
 10
0.0
 20
0.0
 30
0.0
  0
VERTEX
  5
81A
  8
0
  6
CONTINUOUS
 62
     7
 10
-533.5039849517536
 20
17.82461556961838
 30
0.0
  0
VERTEX
  5
81B
  8
0
  6
CONTINUOUS
 62
     7
 10
-533.5412845601005
 20
17.84516677339955
 30
0.0
  0
VERTEX
  5
81C
  8
0
  6
CONTINUOUS
 62
     7
 10
-533.5775613881048
 20
17.867175689422
 30
0.0
  0
VERTEX
  5
81D
  8
0
  6
CONTINUOUS
 62
     7
 10
-533.6127463807624
 20
17.89060042246315
 30
0.0
  0
VERTEX
  5
81E
  8
0
  6
CONTINUOUS
 62
     7
 10
-533.6467725614402
 20
17.91539638221228
 30
0.0
  0
VERTEX
  5
81F
  8
0
  6
CONTINUOUS
 62
     7
 10
-533.6795751593694
 20
17.94151636815072
 30
0.0
  0
VERTEX
  5
820
  8
0
  6
CONTINUOUS
 62
     7
 10
-533.7110917329403
 20
17.96891065940066
 30
0.0
  0
VERTEX
  5
821
  8
0
  6
CONTINUOUS
 62
     7
 10
-533.7412622885638
 20
17.99752710937171
 30
0.0
  0
VERTEX
  5
822
  8
0
  6
CONTINUOUS
 62
     7
 10
-533.7700293948727
 20
18.0273112450249
 30
0.0
  0
VERTEX
  5
823
  8
0
  6
CONTINUOUS
 62
     7
 10
-533.7973382920449
 20
18.05820637056519
 30
0.0
  0
VERTEX
  5
824
  8
0
  6
CONTINUOUS
 62
     7
 10
-533.8231369960426
 20
18.09015367536518
 30
0.0
  0
VERTEX
  5
825
  8
0
  6
CONTINUOUS
 62
     7
 10
-533.8473763975666
 20
18.12309234591439
 30
0.0
  0
VERTEX
  5
826
  8
0
  6
CONTINUOUS
 62
     7
 10
-533.8700103555382
 20
18.15695968158131
 30
0.0
  0
VERTEX
  5
827
  8
0
  6
CONTINUOUS
 62
     7
 10
-533.8909957849319
 20
18.19169121396762
 30
0.0
  0
VERTEX
  5
828
  8
0
  6
CONTINUOUS
 62
     7
 10
-533.9102927387903
 20
18.22722082962742
 30
0.0
  0
VERTEX
  5
829
  8
0
  6
CONTINUOUS
 62
     7
 10
-533.927864484265
 20
18.26348089591792
 30
0.0
  0
VERTEX
  5
82A
  8
0
  6
CONTINUOUS
 62
     7
 10
-533.9436775725395
 20
18.30040238974203
 30
0.0
  0
VERTEX
  5
82B
  8
0
  6
CONTINUOUS
 62
     7
 10
-533.9577019025019
 20
18.33791502893781
 30
0.0
  0
VERTEX
  5
82C
  8
0
  6
CONTINUOUS
 62
     7
 10
-533.9699107780427
 20
18.37594740606444
 30
0.0
  0
VERTEX
  5
82D
  8
0
  6
CONTINUOUS
 62
     7
 10
-533.9802809588737
 20
18.41442712433047
 30
0.0
  0
VERTEX
  5
82E
  8
0
  6
CONTINUOUS
 62
     7
 10
-533.988792704766
 20
18.45328093540511
 30
0.0
  0
VERTEX
  5
82F
  8
0
  6
CONTINUOUS
 62
     7
 10
-533.9954298131275
 20
18.49243487885069
 30
0.0
  0
VERTEX
  5
830
  8
0
  6
CONTINUOUS
 62
     7
 10
-534.0001796498454
 20
18.53181442291049
 30
0.0
  0
VERTEX
  5
831
  8
0
  6
CONTINUOUS
 62
     7
 10
-534.0030331733356
 20
18.57134460638421
 30
0.0
  0
VERTEX
  5
832
  8
0
  6
CONTINUOUS
 62
     7
 10
-534.0039849517538
 20
18.61095018132086
 30
0.0
  0
SEQEND
  5
A5B
  8
0
  6
CONTINUOUS
 62
     7
  0
LINE
  5
1D5
  8
0
  6
CONTINUOUS
 62
     7
 10
-533.0039849517538
 20
120.6137922575003
 30
0.0
 11
-533.0563209079966
 21
120.6151627227457
 31
0.0
  0
POLYLINE
  5
1D6
  8
0
  6
CONTINUOUS
 62
     7
 66
     1
 10
0.0
 20
0.0
 30
0.0
  0
VERTEX
  5
833
  8
0
  6
CONTINUOUS
 62
     7
 10
-534.0039849517538
 20
119.7198346352315
 30
0.0
  0
VERTEX
  5
834
  8
0
  6
CONTINUOUS
 62
     7
 10
-534.0030331733356
 20
119.7594402101682
 30
0.0
  0
VERTEX
  5
835
  8
0
  6
CONTINUOUS
 62
     7
 10
-534.0001796498454
 20
119.7989703936419
 30
0.0
  0
VERTEX
  5
836
  8
0
  6
CONTINUOUS
 62
     7
 10
-533.9954298131275
 20
119.8383499377017
 30
0.0
  0
VERTEX
  5
837
  8
0
  6
CONTINUOUS
 62
     7
 10
-533.988792704766
 20
119.8775038811473
 30
0.0
  0
VERTEX
  5
838
  8
0
  6
CONTINUOUS
 62
     7
 10
-533.9802809588737
 20
119.916357692222
 30
0.0
  0
VERTEX
  5
839
  8
0
  6
CONTINUOUS
 62
     7
 10
-533.9699107780427
 20
119.954837410488
 30
0.0
  0
VERTEX
  5
83A
  8
0
  6
CONTINUOUS
 62
     7
 10
-533.9577019025019
 20
119.9928697876146
 30
0.0
  0
VERTEX
  5
83B
  8
0
  6
CONTINUOUS
 62
     7
 10
-533.9436775725395
 20
120.0303824268104
 30
0.0
  0
VERTEX
  5
83C
  8
0
  6
CONTINUOUS
 62
     7
 10
-533.927864484265
 20
120.0673039206345
 30
0.0
  0
VERTEX
  5
83D
  8
0
  6
CONTINUOUS
 62
     7
 10
-533.9102927387903
 20
120.103563986925
 30
0.0
  0
VERTEX
  5
83E
  8
0
  6
CONTINUOUS
 62
     7
 10
-533.8909957849319
 20
120.1390936025848
 30
0.0
  0
VERTEX
  5
83F
  8
0
  6
CONTINUOUS
 62
     7
 10
-533.8700103555382
 20
120.1738251349711
 30
0.0
  0
VERTEX
  5
840
  8
0
  6
CONTINUOUS
 62
     7
 10
-533.8473763975666
 20
120.207692470638
 30
0.0
  0
VERTEX
  5
841
  8
0
  6
CONTINUOUS
 62
     7
 10
-533.8231369960426
 20
120.2406311411872
 30
0.0
  0
VERTEX
  5
842
  8
0
  6
CONTINUOUS
 62
     7
 10
-533.7973382920449
 20
120.2725784459872
 30
0.0
  0
VERTEX
  5
843
  8
0
  6
CONTINUOUS
 62
     7
 10
-533.7700293948727
 20
120.3034735715275
 30
0.0
  0
VERTEX
  5
844
  8
0
  6
CONTINUOUS
 62
     7
 10
-533.7412622885638
 20
120.3332577071807
 30
0.0
  0
VERTEX
  5
845
  8
0
  6
CONTINUOUS
 62
     7
 10
-533.7110917329403
 20
120.3618741571518
 30
0.0
  0
VERTEX
  5
846
  8
0
  6
CONTINUOUS
 62
     7
 10
-533.6795751593694
 20
120.3892684484017
 30
0.0
  0
VERTEX
  5
847
  8
0
  6
CONTINUOUS
 62
     7
 10
-533.6467725614402
 20
120.4153884343401
 30
0.0
  0
VERTEX
  5
848
  8
0
  6
CONTINUOUS
 62
     7
 10
-533.6127463807624
 20
120.4401843940893
 30
0.0
  0
VERTEX
  5
849
  8
0
  6
CONTINUOUS
 62
     7
 10
-533.5775613881048
 20
120.4636091271304
 30
0.0
  0
VERTEX
  5
84A
  8
0
  6
CONTINUOUS
 62
     7
 10
-533.5412845601005
 20
120.4856180431529
 30
0.0
  0
VERTEX
  5
84B
  8
0
  6
CONTINUOUS
 62
     7
 10
-533.5039849517536
 20
120.506169246934
 30
0.0
  0
SEQEND
  5
A5C
  8
0
  6
CONTINUOUS
 62
     7
  0
LINE
  5
1D7
  8
0
  6
CONTINUOUS
 62
     7
 10
-509.0039849517537
 20
17.71699255905217
 30
0.0
 11
-508.9516489955108
 21
17.71562209380675
 31
0.0
  0
POLYLINE
  5
1D8
  8
0
  6
CONTINUOUS
 62
     7
 66
     1
 10
0.0
 20
0.0
 30
0.0
  0
VERTEX
  5
84C
  8
0
  6
CONTINUOUS
 62
     7
 10
-508.0039849517537
 20
18.61095018132086
 30
0.0
  0
VERTEX
  5
84D
  8
0
  6
CONTINUOUS
 62
     7
 10
-508.0049367301719
 20
18.57134460638422
 30
0.0
  0
VERTEX
  5
84E
  8
0
  6
CONTINUOUS
 62
     7
 10
-508.0077902536619
 20
18.5318144229105
 30
0.0
  0
VERTEX
  5
84F
  8
0
  6
CONTINUOUS
 62
     7
 10
-508.0125400903799
 20
18.49243487885069
 30
0.0
  0
VERTEX
  5
850
  8
0
  6
CONTINUOUS
 62
     7
 10
-508.0191771987414
 20
18.45328093540512
 30
0.0
  0
VERTEX
  5
851
  8
0
  6
CONTINUOUS
 62
     7
 10
-508.0276889446338
 20
18.41442712433047
 30
0.0
  0
VERTEX
  5
852
  8
0
  6
CONTINUOUS
 62
     7
 10
-508.0380591254646
 20
18.37594740606445
 30
0.0
  0
VERTEX
  5
853
  8
0
  6
CONTINUOUS
 62
     7
 10
-508.0502680010055
 20
18.33791502893781
 30
0.0
  0
VERTEX
  5
854
  8
0
  6
CONTINUOUS
 62
     7
 10
-508.0642923309678
 20
18.30040238974204
 30
0.0
  0
VERTEX
  5
855
  8
0
  6
CONTINUOUS
 62
     7
 10
-508.0801054192424
 20
18.26348089591792
 30
0.0
  0
VERTEX
  5
856
  8
0
  6
CONTINUOUS
 62
     7
 10
-508.0976771647171
 20
18.22722082962742
 30
0.0
  0
VERTEX
  5
857
  8
0
  6
CONTINUOUS
 62
     7
 10
-508.1169741185755
 20
18.19169121396763
 30
0.0
  0
VERTEX
  5
858
  8
0
  6
CONTINUOUS
 62
     7
 10
-508.1379595479692
 20
18.15695968158131
 30
0.0
  0
VERTEX
  5
859
  8
0
  6
CONTINUOUS
 62
     7
 10
-508.1605935059408
 20
18.12309234591439
 30
0.0
  0
VERTEX
  5
85A
  8
0
  6
CONTINUOUS
 62
     7
 10
-508.1848329074647
 20
18.09015367536518
 30
0.0
  0
VERTEX
  5
85B
  8
0
  6
CONTINUOUS
 62
     7
 10
-508.2106316114625
 20
18.0582063705652
 30
0.0
  0
VERTEX
  5
85C
  8
0
  6
CONTINUOUS
 62
     7
 10
-508.2379405086347
 20
18.0273112450249
 30
0.0
  0
VERTEX
  5
85D
  8
0
  6
CONTINUOUS
 62
     7
 10
-508.2667076149436
 20
17.99752710937171
 30
0.0
  0
VERTEX
  5
85E
  8
0
  6
CONTINUOUS
 62
     7
 10
-508.2968781705671
 20
17.96891065940066
 30
0.0
  0
VERTEX
  5
85F
  8
0
  6
CONTINUOUS
 62
     7
 10
-508.3283947441381
 20
17.94151636815072
 30
0.0
  0
VERTEX
  5
860
  8
0
  6
CONTINUOUS
 62
     7
 10
-508.3611973420672
 20
17.91539638221229
 30
0.0
  0
VERTEX
  5
861
  8
0
  6
CONTINUOUS
 62
     7
 10
-508.395223522745
 20
17.89060042246315
 30
0.0
  0
VERTEX
  5
862
  8
0
  6
CONTINUOUS
 62
     7
 10
-508.4304085154026
 20
17.867175689422
 30
0.0
  0
VERTEX
  5
863
  8
0
  6
CONTINUOUS
 62
     7
 10
-508.4666853434069
 20
17.84516677339956
 30
0.0
  0
VERTEX
  5
864
  8
0
  6
CONTINUOUS
 62
     7
 10
-508.5039849517538
 20
17.82461556961838
 30
0.0
  0
SEQEND
  5
A5D
  8
0
  6
CONTINUOUS
 62
     7
  0
LINE
  5
1D9
  8
0
  6
CONTINUOUS
 62
     7
 10
-498.5039849517537
 20
17.82461556961837
 30
0.0
 11
-498.0563209079967
 21
17.71562209380674
 31
0.0
  0
POLYLINE
  5
1DA
  8
0
  6
CONTINUOUS
 62
     7
 66
     1
 10
0.0
 20
0.0
 30
0.0
  0
VERTEX
  5
865
  8
0
  6
CONTINUOUS
 62
     7
 10
-498.5039849517537
 20
17.82461556961838
 30
0.0
  0
VERTEX
  5
866
  8
0
  6
CONTINUOUS
 62
     7
 10
-498.5412845601006
 20
17.84516677339956
 30
0.0
  0
VERTEX
  5
867
  8
0
  6
CONTINUOUS
 62
     7
 10
-498.5775613881048
 20
17.867175689422
 30
0.0
  0
VERTEX
  5
868
  8
0
  6
CONTINUOUS
 62
     7
 10
-498.6127463807624
 20
17.89060042246315
 30
0.0
  0
VERTEX
  5
869
  8
0
  6
CONTINUOUS
 62
     7
 10
-498.6467725614402
 20
17.91539638221228
 30
0.0
  0
VERTEX
  5
86A
  8
0
  6
CONTINUOUS
 62
     7
 10
-498.6795751593693
 20
17.94151636815072
 30
0.0
  0
VERTEX
  5
86B
  8
0
  6
CONTINUOUS
 62
     7
 10
-498.7110917329402
 20
17.96891065940066
 30
0.0
  0
VERTEX
  5
86C
  8
0
  6
CONTINUOUS
 62
     7
 10
-498.7412622885638
 20
17.99752710937171
 30
0.0
  0
VERTEX
  5
86D
  8
0
  6
CONTINUOUS
 62
     7
 10
-498.7700293948727
 20
18.0273112450249
 30
0.0
  0
VERTEX
  5
86E
  8
0
  6
CONTINUOUS
 62
     7
 10
-498.7973382920449
 20
18.0582063705652
 30
0.0
  0
VERTEX
  5
86F
  8
0
  6
CONTINUOUS
 62
     7
 10
-498.8231369960427
 20
18.09015367536518
 30
0.0
  0
VERTEX
  5
870
  8
0
  6
CONTINUOUS
 62
     7
 10
-498.8473763975666
 20
18.12309234591439
 30
0.0
  0
VERTEX
  5
871
  8
0
  6
CONTINUOUS
 62
     7
 10
-498.8700103555381
 20
18.15695968158131
 30
0.0
  0
VERTEX
  5
872
  8
0
  6
CONTINUOUS
 62
     7
 10
-498.8909957849319
 20
18.19169121396762
 30
0.0
  0
VERTEX
  5
873
  8
0
  6
CONTINUOUS
 62
     7
 10
-498.9102927387903
 20
18.22722082962742
 30
0.0
  0
VERTEX
  5
874
  8
0
  6
CONTINUOUS
 62
     7
 10
-498.9278644842649
 20
18.26348089591792
 30
0.0
  0
VERTEX
  5
875
  8
0
  6
CONTINUOUS
 62
     7
 10
-498.9436775725396
 20
18.30040238974204
 30
0.0
  0
VERTEX
  5
876
  8
0
  6
CONTINUOUS
 62
     7
 10
-498.9577019025019
 20
18.33791502893781
 30
0.0
  0
VERTEX
  5
877
  8
0
  6
CONTINUOUS
 62
     7
 10
-498.9699107780427
 20
18.37594740606444
 30
0.0
  0
VERTEX
  5
878
  8
0
  6
CONTINUOUS
 62
     7
 10
-498.9802809588736
 20
18.41442712433047
 30
0.0
  0
VERTEX
  5
879
  8
0
  6
CONTINUOUS
 62
     7
 10
-498.9887927047659
 20
18.45328093540512
 30
0.0
  0
VERTEX
  5
87A
  8
0
  6
CONTINUOUS
 62
     7
 10
-498.9954298131275
 20
18.49243487885069
 30
0.0
  0
VERTEX
  5
87B
  8
0
  6
CONTINUOUS
 62
     7
 10
-499.0001796498454
 20
18.53181442291049
 30
0.0
  0
VERTEX
  5
87C
  8
0
  6
CONTINUOUS
 62
     7
 10
-499.0030331733356
 20
18.57134460638421
 30
0.0
  0
VERTEX
  5
87D
  8
0
  6
CONTINUOUS
 62
     7
 10
-499.0039849517537
 20
18.61095018132086
 30
0.0
  0
SEQEND
  5
A5E
  8
0
  6
CONTINUOUS
 62
     7
  0
LINE
  5
1DB
  8
0
  6
CONTINUOUS
 62
     7
 10
-543.5039849517536
 20
120.506169246934
 30
0.0
 11
-543.9516489955107
 21
120.6151627227457
 31
0.0
  0
POLYLINE
  5
1DC
  8
0
  6
CONTINUOUS
 62
     7
 66
     1
 10
0.0
 20
0.0
 30
0.0
  0
VERTEX
  5
87E
  8
0
  6
CONTINUOUS
 62
     7
 10
-543.5039849517536
 20
120.506169246934
 30
0.0
  0
VERTEX
  5
87F
  8
0
  6
CONTINUOUS
 62
     7
 10
-543.4666853434069
 20
120.4856180431529
 30
0.0
  0
VERTEX
  5
880
  8
0
  6
CONTINUOUS
 62
     7
 10
-543.4304085154026
 20
120.4636091271304
 30
0.0
  0
VERTEX
  5
881
  8
0
  6
CONTINUOUS
 62
     7
 10
-543.3952235227449
 20
120.4401843940893
 30
0.0
  0
VERTEX
  5
882
  8
0
  6
CONTINUOUS
 62
     7
 10
-543.3611973420673
 20
120.4153884343401
 30
0.0
  0
VERTEX
  5
883
  8
0
  6
CONTINUOUS
 62
     7
 10
-543.3283947441381
 20
120.3892684484017
 30
0.0
  0
VERTEX
  5
884
  8
0
  6
CONTINUOUS
 62
     7
 10
-543.2968781705672
 20
120.3618741571518
 30
0.0
  0
VERTEX
  5
885
  8
0
  6
CONTINUOUS
 62
     7
 10
-543.2667076149436
 20
120.3332577071807
 30
0.0
  0
VERTEX
  5
886
  8
0
  6
CONTINUOUS
 62
     7
 10
-543.2379405086347
 20
120.3034735715275
 30
0.0
  0
VERTEX
  5
887
  8
0
  6
CONTINUOUS
 62
     7
 10
-543.2106316114624
 20
120.2725784459872
 30
0.0
  0
VERTEX
  5
888
  8
0
  6
CONTINUOUS
 62
     7
 10
-543.1848329074646
 20
120.2406311411872
 30
0.0
  0
VERTEX
  5
889
  8
0
  6
CONTINUOUS
 62
     7
 10
-543.1605935059408
 20
120.207692470638
 30
0.0
  0
VERTEX
  5
88A
  8
0
  6
CONTINUOUS
 62
     7
 10
-543.1379595479692
 20
120.1738251349711
 30
0.0
  0
VERTEX
  5
88B
  8
0
  6
CONTINUOUS
 62
     7
 10
-543.1169741185755
 20
120.1390936025848
 30
0.0
  0
VERTEX
  5
88C
  8
0
  6
CONTINUOUS
 62
     7
 10
-543.097677164717
 20
120.103563986925
 30
0.0
  0
VERTEX
  5
88D
  8
0
  6
CONTINUOUS
 62
     7
 10
-543.0801054192424
 20
120.0673039206345
 30
0.0
  0
VERTEX
  5
88E
  8
0
  6
CONTINUOUS
 62
     7
 10
-543.0642923309678
 20
120.0303824268104
 30
0.0
  0
VERTEX
  5
88F
  8
0
  6
CONTINUOUS
 62
     7
 10
-543.0502680010055
 20
119.9928697876146
 30
0.0
  0
VERTEX
  5
890
  8
0
  6
CONTINUOUS
 62
     7
 10
-543.0380591254647
 20
119.954837410488
 30
0.0
  0
VERTEX
  5
891
  8
0
  6
CONTINUOUS
 62
     7
 10
-543.0276889446338
 20
119.916357692222
 30
0.0
  0
VERTEX
  5
892
  8
0
  6
CONTINUOUS
 62
     7
 10
-543.0191771987414
 20
119.8775038811473
 30
0.0
  0
VERTEX
  5
893
  8
0
  6
CONTINUOUS
 62
     7
 10
-543.01254009038
 20
119.8383499377017
 30
0.0
  0
VERTEX
  5
894
  8
0
  6
CONTINUOUS
 62
     7
 10
-543.0077902536619
 20
119.7989703936419
 30
0.0
  0
VERTEX
  5
895
  8
0
  6
CONTINUOUS
 62
     7
 10
-543.0049367301718
 20
119.7594402101682
 30
0.0
  0
VERTEX
  5
896
  8
0
  6
CONTINUOUS
 62
     7
 10
-543.0039849517538
 20
119.7198346352315
 30
0.0
  0
SEQEND
  5
A5F
  8
0
  6
CONTINUOUS
 62
     7
  0
LINE
  5
1DD
  8
0
  6
CONTINUOUS
 62
     7
 10
-508.5039849517538
 20
120.506169246934
 30
0.0
 11
-508.9516489955108
 21
120.6151627227457
 31
0.0
  0
POLYLINE
  5
1DE
  8
0
  6
CONTINUOUS
 62
     7
 66
     1
 10
0.0
 20
0.0
 30
0.0
  0
VERTEX
  5
897
  8
0
  6
CONTINUOUS
 62
     7
 10
-508.5039849517538
 20
120.506169246934
 30
0.0
  0
VERTEX
  5
898
  8
0
  6
CONTINUOUS
 62
     7
 10
-508.4666853434069
 20
120.4856180431529
 30
0.0
  0
VERTEX
  5
899
  8
0
  6
CONTINUOUS
 62
     7
 10
-508.4304085154026
 20
120.4636091271304
 30
0.0
  0
VERTEX
  5
89A
  8
0
  6
CONTINUOUS
 62
     7
 10
-508.395223522745
 20
120.4401843940893
 30
0.0
  0
VERTEX
  5
89B
  8
0
  6
CONTINUOUS
 62
     7
 10
-508.3611973420672
 20
120.4153884343401
 30
0.0
  0
VERTEX
  5
89C
  8
0
  6
CONTINUOUS
 62
     7
 10
-508.3283947441381
 20
120.3892684484017
 30
0.0
  0
VERTEX
  5
89D
  8
0
  6
CONTINUOUS
 62
     7
 10
-508.2968781705671
 20
120.3618741571518
 30
0.0
  0
VERTEX
  5
89E
  8
0
  6
CONTINUOUS
 62
     7
 10
-508.2667076149436
 20
120.3332577071807
 30
0.0
  0
VERTEX
  5
89F
  8
0
  6
CONTINUOUS
 62
     7
 10
-508.2379405086347
 20
120.3034735715275
 30
0.0
  0
VERTEX
  5
8A0
  8
0
  6
CONTINUOUS
 62
     7
 10
-508.2106316114625
 20
120.2725784459872
 30
0.0
  0
VERTEX
  5
8A1
  8
0
  6
CONTINUOUS
 62
     7
 10
-508.1848329074647
 20
120.2406311411872
 30
0.0
  0
VERTEX
  5
8A2
  8
0
  6
CONTINUOUS
 62
     7
 10
-508.1605935059408
 20
120.207692470638
 30
0.0
  0
VERTEX
  5
8A3
  8
0
  6
CONTINUOUS
 62
     7
 10
-508.1379595479692
 20
120.1738251349711
 30
0.0
  0
VERTEX
  5
8A4
  8
0
  6
CONTINUOUS
 62
     7
 10
-508.1169741185755
 20
120.1390936025848
 30
0.0
  0
VERTEX
  5
8A5
  8
0
  6
CONTINUOUS
 62
     7
 10
-508.0976771647171
 20
120.103563986925
 30
0.0
  0
VERTEX
  5
8A6
  8
0
  6
CONTINUOUS
 62
     7
 10
-508.0801054192424
 20
120.0673039206345
 30
0.0
  0
VERTEX
  5
8A7
  8
0
  6
CONTINUOUS
 62
     7
 10
-508.0642923309678
 20
120.0303824268104
 30
0.0
  0
VERTEX
  5
8A8
  8
0
  6
CONTINUOUS
 62
     7
 10
-508.0502680010055
 20
119.9928697876146
 30
0.0
  0
VERTEX
  5
8A9
  8
0
  6
CONTINUOUS
 62
     7
 10
-508.0380591254646
 20
119.954837410488
 30
0.0
  0
VERTEX
  5
8AA
  8
0
  6
CONTINUOUS
 62
     7
 10
-508.0276889446338
 20
119.916357692222
 30
0.0
  0
VERTEX
  5
8AB
  8
0
  6
CONTINUOUS
 62
     7
 10
-508.0191771987414
 20
119.8775038811473
 30
0.0
  0
VERTEX
  5
8AC
  8
0
  6
CONTINUOUS
 62
     7
 10
-508.0125400903799
 20
119.8383499377017
 30
0.0
  0
VERTEX
  5
8AD
  8
0
  6
CONTINUOUS
 62
     7
 10
-508.0077902536619
 20
119.7989703936419
 30
0.0
  0
VERTEX
  5
8AE
  8
0
  6
CONTINUOUS
 62
     7
 10
-508.0049367301719
 20
119.7594402101682
 30
0.0
  0
VERTEX
  5
8AF
  8
0
  6
CONTINUOUS
 62
     7
 10
-508.0039849517537
 20
119.7198346352315
 30
0.0
  0
SEQEND
  5
A60
  8
0
  6
CONTINUOUS
 62
     7
  0
LINE
  5
1DF
  8
0
  6
CONTINUOUS
 62
     7
 10
-498.0039849517537
 20
120.6137922575003
 30
0.0
 11
-498.0563209079967
 21
120.6151627227457
 31
0.0
  0
POLYLINE
  5
1E0
  8
0
  6
CONTINUOUS
 62
     7
 66
     1
 10
0.0
 20
0.0
 30
0.0
  0
VERTEX
  5
8B0
  8
0
  6
CONTINUOUS
 62
     7
 10
-499.0039849517537
 20
119.7198346352315
 30
0.0
  0
VERTEX
  5
8B1
  8
0
  6
CONTINUOUS
 62
     7
 10
-499.0030331733356
 20
119.7594402101682
 30
0.0
  0
VERTEX
  5
8B2
  8
0
  6
CONTINUOUS
 62
     7
 10
-499.0001796498454
 20
119.7989703936419
 30
0.0
  0
VERTEX
  5
8B3
  8
0
  6
CONTINUOUS
 62
     7
 10
-498.9954298131275
 20
119.8383499377017
 30
0.0
  0
VERTEX
  5
8B4
  8
0
  6
CONTINUOUS
 62
     7
 10
-498.9887927047659
 20
119.8775038811473
 30
0.0
  0
VERTEX
  5
8B5
  8
0
  6
CONTINUOUS
 62
     7
 10
-498.9802809588736
 20
119.916357692222
 30
0.0
  0
VERTEX
  5
8B6
  8
0
  6
CONTINUOUS
 62
     7
 10
-498.9699107780427
 20
119.954837410488
 30
0.0
  0
VERTEX
  5
8B7
  8
0
  6
CONTINUOUS
 62
     7
 10
-498.9577019025019
 20
119.9928697876146
 30
0.0
  0
VERTEX
  5
8B8
  8
0
  6
CONTINUOUS
 62
     7
 10
-498.9436775725396
 20
120.0303824268104
 30
0.0
  0
VERTEX
  5
8B9
  8
0
  6
CONTINUOUS
 62
     7
 10
-498.9278644842649
 20
120.0673039206345
 30
0.0
  0
VERTEX
  5
8BA
  8
0
  6
CONTINUOUS
 62
     7
 10
-498.9102927387903
 20
120.103563986925
 30
0.0
  0
VERTEX
  5
8BB
  8
0
  6
CONTINUOUS
 62
     7
 10
-498.8909957849319
 20
120.1390936025848
 30
0.0
  0
VERTEX
  5
8BC
  8
0
  6
CONTINUOUS
 62
     7
 10
-498.8700103555381
 20
120.1738251349711
 30
0.0
  0
VERTEX
  5
8BD
  8
0
  6
CONTINUOUS
 62
     7
 10
-498.8473763975666
 20
120.207692470638
 30
0.0
  0
VERTEX
  5
8BE
  8
0
  6
CONTINUOUS
 62
     7
 10
-498.8231369960427
 20
120.2406311411872
 30
0.0
  0
VERTEX
  5
8BF
  8
0
  6
CONTINUOUS
 62
     7
 10
-498.7973382920449
 20
120.2725784459872
 30
0.0
  0
VERTEX
  5
8C0
  8
0
  6
CONTINUOUS
 62
     7
 10
-498.7700293948727
 20
120.3034735715275
 30
0.0
  0
VERTEX
  5
8C1
  8
0
  6
CONTINUOUS
 62
     7
 10
-498.7412622885638
 20
120.3332577071807
 30
0.0
  0
VERTEX
  5
8C2
  8
0
  6
CONTINUOUS
 62
     7
 10
-498.7110917329402
 20
120.3618741571518
 30
0.0
  0
VERTEX
  5
8C3
  8
0
  6
CONTINUOUS
 62
     7
 10
-498.6795751593693
 20
120.3892684484017
 30
0.0
  0
VERTEX
  5
8C4
  8
0
  6
CONTINUOUS
 62
     7
 10
-498.6467725614402
 20
120.4153884343401
 30
0.0
  0
VERTEX
  5
8C5
  8
0
  6
CONTINUOUS
 62
     7
 10
-498.6127463807624
 20
120.4401843940893
 30
0.0
  0
VERTEX
  5
8C6
  8
0
  6
CONTINUOUS
 62
     7
 10
-498.5775613881048
 20
120.4636091271304
 30
0.0
  0
VERTEX
  5
8C7
  8
0
  6
CONTINUOUS
 62
     7
 10
-498.5412845601006
 20
120.4856180431529
 30
0.0
  0
VERTEX
  5
8C8
  8
0
  6
CONTINUOUS
 62
     7
 10
-498.5039849517537
 20
120.506169246934
 30
0.0
  0
SEQEND
  5
A61
  8
0
  6
CONTINUOUS
 62
     7
  0
LINE
  5
1E1
  8
0
  6
CONTINUOUS
 62
     7
 10
-499.0039849517537
 20
117.9265850734305
 30
0.0
 11
-499.0039849517537
 21
117.9286407712986
 31
0.0
  0
LINE
  5
1E2
  8
0
  6
CONTINUOUS
 62
     7
 10
-508.0039849517537
 20
117.9286407712986
 30
0.0
 11
-508.0039849517537
 21
117.9265850734305
 31
0.0
  0
LINE
  5
1E3
  8
0
  6
CONTINUOUS
 62
     7
 10
-534.0039849517538
 20
117.9265850734305
 30
0.0
 11
-534.0039849517538
 21
117.9286407712986
 31
0.0
  0
LINE
  5
1E4
  8
0
  6
CONTINUOUS
 62
     7
 10
-543.0039849517538
 20
117.9286407712986
 30
0.0
 11
-543.0039849517538
 21
117.9265850734305
 31
0.0
  0
LINE
  5
1E5
  8
0
  6
CONTINUOUS
 62
     7
 10
-534.0039849517538
 20
20.40214404525379
 30
0.0
 11
-534.0039849517538
 21
20.40419974312193
 31
0.0
  0
LINE
  5
1E6
  8
0
  6
CONTINUOUS
 62
     7
 10
-499.0039849517537
 20
20.40214404525379
 30
0.0
 11
-499.0039849517537
 21
20.40419974312193
 31
0.0
  0
LINE
  5
1E7
  8
0
  6
CONTINUOUS
 62
     7
 10
-498.0563209079967
 20
17.71562209380674
 30
0.0
 11
-498.0039849517537
 21
17.71699255905217
 31
0.0
  0
LINE
  5
1E8
  8
0
  6
CONTINUOUS
 62
     7
 10
-508.9516489955108
 20
17.71562209380675
 30
0.0
 11
-508.5039849517538
 21
17.82461556961838
 31
0.0
  0
LINE
  5
1E9
  8
0
  6
CONTINUOUS
 62
     7
 10
-508.9516489955108
 20
120.6151627227457
 30
0.0
 11
-509.0039849517537
 21
120.6137922575002
 31
0.0
  0
LINE
  5
1EA
  8
0
  6
CONTINUOUS
 62
     7
 10
-498.0563209079967
 20
120.6151627227457
 30
0.0
 11
-498.5039849517537
 21
120.506169246934
 31
0.0
  0
LINE
  5
1EB
  8
0
  6
CONTINUOUS
 62
     7
 10
-543.9516489955107
 20
120.6151627227457
 30
0.0
 11
-544.0039849517538
 21
120.6137922575002
 31
0.0
  0
LINE
  5
1EC
  8
0
  6
CONTINUOUS
 62
     7
 10
-533.0563209079966
 20
120.6151627227457
 30
0.0
 11
-533.5039849517536
 21
120.506169246934
 31
0.0
  0
LINE
  5
1ED
  8
0
  6
CONTINUOUS
 62
     7
 10
-533.0563209079966
 20
17.71562209380674
 30
0.0
 11
-533.0039849517538
 21
17.71699255905217
 31
0.0
  0
LINE
  5
1EE
  8
0
  6
CONTINUOUS
 62
     7
 10
-543.9516489955107
 20
17.71562209380675
 30
0.0
 11
-543.5039849517536
 21
17.82461556961838
 31
0.0
  0
LINE
  5
1EF
  8
0
  6
CONTINUOUS
 62
     9
 10
-491.3363580253168
 20
120.5049617368912
 30
0.0
 11
-491.3363580253168
 21
120.5042765042685
 31
0.0
  0
LINE
  5
1F0
  8
0
  6
CONTINUOUS
 62
     9
 10
-550.6716118781912
 20
17.82582307966121
 30
0.0
 11
-550.6716118781912
 21
17.82650831228392
 31
0.0
  0
LINE
  5
1F1
  8
0
  6
CONTINUOUS
 62
     9
 10
-550.6716118781912
 20
120.5042765042685
 30
0.0
 11
-550.6716118781912
 21
120.5049617368912
 31
0.0
  0
LINE
  5
1F2
  8
0
  6
CONTINUOUS
 62
     9
 10
-491.3363580253168
 20
17.82650831228392
 30
0.0
 11
-491.3363580253168
 21
17.82582307966121
 31
0.0
  0
LINE
  5
1F3
  8
0
  6
CONTINUOUS
 62
     9
 10
-490.5135839721225
 20
17.94360268501101
 30
0.0
 11
-490.495282899542
 21
18.13205647738833
 31
0.0
  0
LINE
  5
1F4
  8
0
  6
CONTINUOUS
 62
     9
 10
-490.495282899542
 20
120.1987283391643
 30
0.0
 11
-490.5135875436586
 21
120.387200527428
 31
0.0
  0
CIRCLE
  5
1F5
  8
0
  6
CONTINUOUS
 62
     9
 10
-513.253984951754
 20
37.91539240827621
 30
0.0
 40
2.130159367992213
  0
CIRCLE
  5
1F6
  8
0
  6
CONTINUOUS
 62
     9
 10
-528.7539849517541
 20
100.4153924082762
 30
0.0
 40
2.130159367992213
  0
CIRCLE
  5
1F7
  8
0
  6
CONTINUOUS
 62
     9
 10
-513.253984951754
 20
100.4153924082762
 30
0.0
 40
2.130159367992213
  0
CIRCLE
  5
1F8
  8
0
  6
CONTINUOUS
 62
     9
 10
-528.7539849517541
 20
37.91539240827621
 30
0.0
 40
2.130159367992213
  0
LINE
  5
1F9
  8
0
  6
CONTINUOUS
 62
     9
 10
-551.512687003966
 20
18.13205647738832
 30
0.0
 11
-550.5132961769469
 21
18.13205647738832
 31
0.0
  0
LINE
  5
1FA
  8
0
  6
CONTINUOUS
 62
     9
 10
-551.512687003966
 20
120.1987283391643
 30
0.0
 11
-550.5132961769469
 21
120.1987283391643
 31
0.0
  0
LINE
  5
1FB
  8
0
  6
CONTINUOUS
 62
     9
 10
-550.5132961769469
 20
120.1987283391643
 30
0.0
 11
-543.1543846052126
 21
120.1987283391643
 31
0.0
  0
LINE
  5
1FC
  8
0
  6
CONTINUOUS
 62
     9
 10
-533.8535852982949
 20
120.1987283391643
 30
0.0
 11
-508.1543846052126
 21
120.1987283391643
 31
0.0
  0
LINE
  5
1FD
  8
0
  6
CONTINUOUS
 62
     9
 10
-508.1543846052124
 20
18.13205647738832
 30
0.0
 11
-533.853585298295
 21
18.13205647738832
 31
0.0
  0
LINE
  5
1FE
  8
0
  6
CONTINUOUS
 62
     9
 10
-543.1543846052124
 20
18.13205647738832
 30
0.0
 11
-550.5132961769469
 21
18.13205647738832
 31
0.0
  0
LINE
  5
1FF
  8
0
  6
CONTINUOUS
 62
     7
 10
-508.0039849517537
 20
117.9265850734305
 30
0.0
 11
-499.0039849517537
 21
117.9265850734305
 31
0.0
  0
LINE
  5
200
  8
0
  6
CONTINUOUS
 62
     7
 10
-543.0039849517538
 20
117.9265850734305
 30
0.0
 11
-534.0039849517538
 21
117.9265850734305
 31
0.0
  0
LINE
  5
201
  8
0
  6
CONTINUOUS
 62
     7
 10
-498.5075782617307
 20
120.5042765042685
 30
0.0
 11
-491.3363580253168
 21
120.5042765042685
 31
0.0
  0
LINE
  5
202
  8
0
  6
CONTINUOUS
 62
     7
 10
-491.3363580253168
 20
17.82650831228392
 30
0.0
 11
-498.5075782617307
 21
17.82650831228392
 31
0.0
  0
LINE
  5
203
  8
0
  6
CONTINUOUS
 62
     7
 10
-490.4898742131491
 20
17.96586173138137
 30
0.0
 11
-490.5096849072856
 21
17.94730733409693
 31
0.0
  0
LINE
  5
204
  8
0
  6
CONTINUOUS
 62
     7
 10
-490.5096849072856
 20
17.94730733409693
 30
0.0
 11
-490.8356122717879
 21
17.82682573279257
 31
0.0
  0
ENDBLK
  8
0
  0
BLOCK
  8
0
  2
D_FRAME_VIEW_3193
 70
     0
 10
0.0
 20
0.0
 30
0.0
  0
LINE
  5
20D
  8
0
  6
CONTINUOUS
 62
     7
 10
-560.0039849517541
 20
-39.74015003386322
 30
0.0
 11
-566.0039849517541
 21
-39.74015003386322
 31
0.0
  0
LINE
  5
20E
  8
0
  6
CONTINUOUS
 62
     7
 10
-566.0039849517541
 20
-39.74015003386322
 30
0.0
 11
-566.0039849517541
 21
-39.24015003386322
 31
0.0
  0
LINE
  5
20F
  8
0
  6
CONTINUOUS
 62
     7
 10
-566.0039849517541
 20
-39.24015003386322
 30
0.0
 11
-560.0039849517541
 21
-39.24015003386322
 31
0.0
  0
LINE
  5
210
  8
0
  6
CONTINUOUS
 62
     7
 10
-476.003984951754
 20
-39.24015003386322
 30
0.0
 11
-476.003984951754
 21
-39.74015003386322
 31
0.0
  0
LINE
  5
211
  8
0
  6
CONTINUOUS
 62
     7
 10
-476.003984951754
 20
-39.74015003386322
 30
0.0
 11
-482.003984951754
 21
-39.74015003386322
 31
0.0
  0
LINE
  5
212
  8
0
  6
CONTINUOUS
 62
     7
 10
-482.003984951754
 20
-39.24015003386322
 30
0.0
 11
-476.003984951754
 21
-39.24015003386322
 31
0.0
  0
LINE
  5
213
  8
0
  6
CONTINUOUS
 62
     7
 10
-482.003984951754
 20
-39.74015003386322
 30
0.0
 11
-560.0039849517541
 21
-39.74015003386322
 31
0.0
  0
LINE
  5
214
  8
0
  6
CONTINUOUS
 62
     7
 10
-482.003984951754
 20
-39.24015003386322
 30
0.0
 11
-560.0039849517541
 21
-39.24015003386322
 31
0.0
  0
LINE
  5
215
  8
0
  6
CONTINUOUS
 62
     7
 10
-489.8447901033416
 20
-39.74015003386322
 30
0.0
 11
-489.8268606072863
 21
-40.04015003386322
 31
0.0
  0
LINE
  5
216
  8
0
  6
CONTINUOUS
 62
     7
 10
-492.1811092962217
 20
-40.04015003386322
 30
0.0
 11
-492.1631798001665
 21
-39.74015003386322
 31
0.0
  0
LINE
  5
217
  8
0
  6
CONTINUOUS
 62
     7
 10
-552.1811092962217
 20
-40.04015003386322
 30
0.0
 11
-552.1631798001665
 21
-39.74015003386322
 31
0.0
  0
LINE
  5
218
  8
0
  6
CONTINUOUS
 62
     7
 10
-549.8447901033417
 20
-39.74015003386322
 30
0.0
 11
-549.8268606072863
 21
-40.04015003386322
 31
0.0
  0
LINE
  5
219
  8
0
  6
CONTINUOUS
 62
     7
 10
-549.8268606072863
 20
-44.74015003386322
 30
0.0
 11
-547.0039849517541
 21
-44.74015003386323
 31
0.0
  0
LINE
  5
21A
  8
0
  6
CONTINUOUS
 62
     7
 10
-549.8268606072863
 20
-40.04015003386322
 30
0.0
 11
-549.8268606072863
 21
-44.74015003386323
 31
0.0
  0
LINE
  5
21B
  8
0
  6
CONTINUOUS
 62
     7
 10
-555.0039849517541
 20
-44.74015003386322
 30
0.0
 11
-552.1811092962217
 21
-44.74015003386322
 31
0.0
  0
LINE
  5
21C
  8
0
  6
CONTINUOUS
 62
     7
 10
-552.1811092962217
 20
-40.04015003386322
 30
0.0
 11
-552.1811092962217
 21
-44.74015003386323
 31
0.0
  0
LINE
  5
21D
  8
0
  6
CONTINUOUS
 62
     7
 10
-489.8268606072863
 20
-44.74015003386322
 30
0.0
 11
-492.1811092962217
 21
-44.74015003386322
 31
0.0
  0
LINE
  5
21E
  8
0
  6
CONTINUOUS
 62
     7
 10
-492.1811092962217
 20
-40.04015003386322
 30
0.0
 11
-492.1811092962217
 21
-44.74015003386323
 31
0.0
  0
LINE
  5
21F
  8
0
  6
CONTINUOUS
 62
     7
 10
-489.8268606072863
 20
-40.04015003386322
 30
0.0
 11
-489.8268606072863
 21
-44.74015003386323
 31
0.0
  0
LINE
  5
220
  8
0
  6
CONTINUOUS
 62
     7
 10
-492.1811092962217
 20
-44.74015003386322
 30
0.0
 11
-495.003984951754
 21
-44.74015003386323
 31
0.0
  0
LINE
  5
221
  8
0
  6
CONTINUOUS
 62
     7
 10
-487.003984951754
 20
-44.74015003386322
 30
0.0
 11
-489.8268606072863
 21
-44.74015003386322
 31
0.0
  0
LINE
  5
222
  8
0
  6
CONTINUOUS
 62
     7
 10
-552.1811092962217
 20
-44.74015003386322
 30
0.0
 11
-549.8268606072863
 21
-44.74015003386322
 31
0.0
  0
ARC
  5
223
  8
0
  6
CONTINUOUS
 62
     7
 10
-500.0550203850391
 20
-40.24015003386322
 30
0.0
 40
0.5000000000000144
 50
90.00000000000074
 51
176.9999999999997
  0
ARC
  5
224
  8
0
  6
CONTINUOUS
 62
     7
 10
-541.9529495184689
 20
-40.24015003386322
 30
0.0
 40
0.5000000000000141
 50
2.999999999999923
 51
89.99999999999996
  0
LINE
  5
225
  8
0
  6
CONTINUOUS
 62
     7
 10
-541.2909257907558
 20
-43.31865396822764
 30
0.0
 11
-541.4536347510916
 21
-40.21398205574175
 31
0.0
  0
LINE
  5
226
  8
0
  6
CONTINUOUS
 62
     7
 10
-500.5543351524164
 20
-40.21398205574175
 30
0.0
 11
-500.7170441127523
 21
-43.31865396822764
 31
0.0
  0
ARC
  5
227
  8
0
  6
CONTINUOUS
 62
     7
 10
-539.7929814886239
 20
-43.24015003386322
 30
0.0
 40
1.499999999999932
 50
182.9999999999999
 51
269.9999999999999
  0
ARC
  5
228
  8
0
  6
CONTINUOUS
 62
     7
 10
-502.2149884148841
 20
-43.24015003386322
 30
0.0
 40
1.500000000000001
 50
270.0
 51
356.9999999999999
  0
LINE
  5
229
  8
0
  6
CONTINUOUS
 62
     7
 10
-502.2149884148841
 20
-44.74015003386322
 30
0.0
 11
-539.7929814886239
 21
-44.74015003386322
 31
0.0
  0
LINE
  5
22A
  8
0
  6
CONTINUOUS
 62
     7
 10
-519.9529154848336
 20
-67.16453047920804
 30
0.0
 11
-519.9529154848336
 21
-45.21398205574173
 31
0.0
  0
POLYLINE
  5
22B
  8
0
  6
CONTINUOUS
 62
     7
 66
     1
 10
0.0
 20
0.0
 30
0.0
  0
VERTEX
  5
8C9
  8
0
  6
CONTINUOUS
 62
     7
 10
-519.805357132315
 20
-44.74015003386322
 30
0.0
  0
VERTEX
  5
8CA
  8
0
  6
CONTINUOUS
 62
     7
 10
-519.8139722008553
 20
-44.74057641534833
 30
0.0
  0
VERTEX
  5
8CB
  8
0
  6
CONTINUOUS
 62
     7
 10
-519.8223825036484
 20
-44.74186008994867
 30
0.0
  0
VERTEX
  5
8CC
  8
0
  6
CONTINUOUS
 62
     7
 10
-519.8305703324892
 20
-44.74400785288184
 30
0.0
  0
VERTEX
  5
8CD
  8
0
  6
CONTINUOUS
 62
     7
 10
-519.8385179791725
 20
-44.74702649936538
 30
0.0
  0
VERTEX
  5
8CE
  8
0
  6
CONTINUOUS
 62
     7
 10
-519.8464307164184
 20
-44.75104817332264
 30
0.0
  0
VERTEX
  5
8CF
  8
0
  6
CONTINUOUS
 62
     7
 10
-519.8540835361327
 20
-44.75600722236601
 30
0.0
  0
VERTEX
  5
8D0
  8
0
  6
CONTINUOUS
 62
     7
 10
-519.8614613663455
 20
-44.76190012093105
 30
0.0
  0
VERTEX
  5
8D1
  8
0
  6
CONTINUOUS
 62
     7
 10
-519.8685491350868
 20
-44.7687233434533
 30
0.0
  0
VERTEX
  5
8D2
  8
0
  6
CONTINUOUS
 62
     7
 10
-519.8751704160385
 20
-44.77626855355717
 30
0.0
  0
VERTEX
  5
8D3
  8
0
  6
CONTINUOUS
 62
     7
 10
-519.8815180758758
 20
-44.78470253107329
 30
0.0
  0
VERTEX
  5
8D4
  8
0
  6
CONTINUOUS
 62
     7
 10
-519.8875830505144
 20
-44.79400889045829
 30
0.0
  0
VERTEX
  5
8D5
  8
0
  6
CONTINUOUS
 62
     7
 10
-519.8933562758698
 20
-44.80417124616877
 30
0.0
  0
VERTEX
  5
8D6
  8
0
  6
CONTINUOUS
 62
     7
 10
-519.8990126908328
 20
-44.81556165900147
 30
0.0
  0
VERTEX
  5
8D7
  8
0
  6
CONTINUOUS
 62
     7
 10
-519.9043676081398
 20
-44.82785778443949
 30
0.0
  0
VERTEX
  5
8D8
  8
0
  6
CONTINUOUS
 62
     7
 10
-519.9094166975526
 20
-44.84102575342928
 30
0.0
  0
VERTEX
  5
8D9
  8
0
  6
CONTINUOUS
 62
     7
 10
-519.9141556288333
 20
-44.85503169691729
 30
0.0
  0
VERTEX
  5
8DA
  8
0
  6
CONTINUOUS
 62
     7
 10
-519.9182377343834
 20
-44.8686189310134
 30
0.0
  0
VERTEX
  5
8DB
  8
0
  6
CONTINUOUS
 62
     7
 10
-519.922071648266
 20
-44.88289463152822
 30
0.0
  0
VERTEX
  5
8DC
  8
0
  6
CONTINUOUS
 62
     7
 10
-519.9256576076457
 20
-44.89782146389358
 30
0.0
  0
VERTEX
  5
8DD
  8
0
  6
CONTINUOUS
 62
     7
 10
-519.9289958496875
 20
-44.91336209354132
 30
0.0
  0
VERTEX
  5
8DE
  8
0
  6
CONTINUOUS
 62
     7
 10
-519.9321853036811
 20
-44.93001653542699
 30
0.0
  0
VERTEX
  5
8DF
  8
0
  6
CONTINUOUS
 62
     7
 10
-519.9351275054894
 20
-44.94729569800844
 30
0.0
  0
VERTEX
  5
8E0
  8
0
  6
CONTINUOUS
 62
     7
 10
-519.9378250802708
 20
-44.96514894983277
 30
0.0
  0
VERTEX
  5
8E1
  8
0
  6
CONTINUOUS
 62
     7
 10
-519.9402806531841
 20
-44.98352565944708
 30
0.0
  0
VERTEX
  5
8E2
  8
0
  6
CONTINUOUS
 62
     7
 10
-519.9423739286077
 20
-45.00125312317393
 30
0.0
  0
VERTEX
  5
8E3
  8
0
  6
CONTINUOUS
 62
     7
 10
-519.944267077667
 20
-45.01941215505364
 30
0.0
  0
VERTEX
  5
8E4
  8
0
  6
CONTINUOUS
 62
     7
 10
-519.9459628386913
 20
-45.03795495244637
 30
0.0
  0
VERTEX
  5
8E5
  8
0
  6
CONTINUOUS
 62
     7
 10
-519.9474639500103
 20
-45.05683371271224
 30
0.0
  0
VERTEX
  5
8E6
  8
0
  6
CONTINUOUS
 62
     7
 10
-519.9488115094683
 20
-45.07660404690316
 30
0.0
  0
VERTEX
  5
8E7
  8
0
  6
CONTINUOUS
 62
     7
 10
-519.9499635710074
 20
-45.09669482688077
 30
0.0
  0
VERTEX
  5
8E8
  8
0
  6
CONTINUOUS
 62
     7
 10
-519.9509224341645
 20
-45.11704980953516
 30
0.0
  0
VERTEX
  5
8E9
  8
0
  6
CONTINUOUS
 62
     7
 10
-519.9516903984759
 20
-45.13761275175641
 30
0.0
  0
VERTEX
  5
8EA
  8
0
  6
CONTINUOUS
 62
     7
 10
-519.9522273192704
 20
-45.15653574701429
 30
0.0
  0
VERTEX
  5
8EB
  8
0
  6
CONTINUOUS
 62
     7
 10
-519.9526100537001
 20
-45.17560117467024
 30
0.0
  0
VERTEX
  5
8EC
  8
0
  6
CONTINUOUS
 62
     7
 10
-519.9528392321073
 20
-45.19476471686561
 30
0.0
  0
VERTEX
  5
8ED
  8
0
  6
CONTINUOUS
 62
     7
 10
-519.9529154848336
 20
-45.21398205574174
 30
0.0
  0
SEQEND
  5
A62
  8
0
  6
CONTINUOUS
 62
     7
  0
LINE
  5
22C
  8
0
  6
CONTINUOUS
 62
     7
 10
-526.9529154848337
 20
-67.16453047920804
 30
0.0
 11
-526.9529154848325
 21
-63.7352498242941
 31
0.0
  0
LINE
  5
22D
  8
0
  6
CONTINUOUS
 62
     7
 10
-526.9529154848337
 20
-57.90191466293356
 30
0.0
 11
-526.9529154848325
 21
-63.73524982429411
 31
0.0
  0
LINE
  5
22E
  8
0
  6
CONTINUOUS
 62
     7
 10
-526.9529154848337
 20
-57.90191466293356
 30
0.0
 11
-526.9529154848337
 21
-45.21398205574174
 31
0.0
  0
POLYLINE
  5
22F
  8
0
  6
CONTINUOUS
 62
     7
 66
     1
 10
0.0
 20
0.0
 30
0.0
  0
VERTEX
  5
8EE
  8
0
  6
CONTINUOUS
 62
     7
 10
-526.8053571323151
 20
-44.74015003386322
 30
0.0
  0
VERTEX
  5
8EF
  8
0
  6
CONTINUOUS
 62
     7
 10
-526.8139722008553
 20
-44.74057641534833
 30
0.0
  0
VERTEX
  5
8F0
  8
0
  6
CONTINUOUS
 62
     7
 10
-526.8223825036484
 20
-44.74186008994867
 30
0.0
  0
VERTEX
  5
8F1
  8
0
  6
CONTINUOUS
 62
     7
 10
-526.8305703324892
 20
-44.74400785288184
 30
0.0
  0
VERTEX
  5
8F2
  8
0
  6
CONTINUOUS
 62
     7
 10
-526.8385179791725
 20
-44.74702649936538
 30
0.0
  0
VERTEX
  5
8F3
  8
0
  6
CONTINUOUS
 62
     7
 10
-526.8464307164184
 20
-44.75104817332264
 30
0.0
  0
VERTEX
  5
8F4
  8
0
  6
CONTINUOUS
 62
     7
 10
-526.8540835361326
 20
-44.75600722236601
 30
0.0
  0
VERTEX
  5
8F5
  8
0
  6
CONTINUOUS
 62
     7
 10
-526.8614613663455
 20
-44.76190012093105
 30
0.0
  0
VERTEX
  5
8F6
  8
0
  6
CONTINUOUS
 62
     7
 10
-526.8685491350868
 20
-44.7687233434533
 30
0.0
  0
VERTEX
  5
8F7
  8
0
  6
CONTINUOUS
 62
     7
 10
-526.8751704160385
 20
-44.77626855355717
 30
0.0
  0
VERTEX
  5
8F8
  8
0
  6
CONTINUOUS
 62
     7
 10
-526.8815180758758
 20
-44.78470253107329
 30
0.0
  0
VERTEX
  5
8F9
  8
0
  6
CONTINUOUS
 62
     7
 10
-526.8875830505144
 20
-44.79400889045829
 30
0.0
  0
VERTEX
  5
8FA
  8
0
  6
CONTINUOUS
 62
     7
 10
-526.8933562758699
 20
-44.80417124616877
 30
0.0
  0
VERTEX
  5
8FB
  8
0
  6
CONTINUOUS
 62
     7
 10
-526.8990126908327
 20
-44.81556165900147
 30
0.0
  0
VERTEX
  5
8FC
  8
0
  6
CONTINUOUS
 62
     7
 10
-526.9043676081398
 20
-44.82785778443949
 30
0.0
  0
VERTEX
  5
8FD
  8
0
  6
CONTINUOUS
 62
     7
 10
-526.9094166975526
 20
-44.84102575342928
 30
0.0
  0
VERTEX
  5
8FE
  8
0
  6
CONTINUOUS
 62
     7
 10
-526.9141556288333
 20
-44.85503169691729
 30
0.0
  0
VERTEX
  5
8FF
  8
0
  6
CONTINUOUS
 62
     7
 10
-526.9182377343834
 20
-44.8686189310134
 30
0.0
  0
VERTEX
  5
900
  8
0
  6
CONTINUOUS
 62
     7
 10
-526.922071648266
 20
-44.88289463152822
 30
0.0
  0
VERTEX
  5
901
  8
0
  6
CONTINUOUS
 62
     7
 10
-526.9256576076458
 20
-44.89782146389358
 30
0.0
  0
VERTEX
  5
902
  8
0
  6
CONTINUOUS
 62
     7
 10
-526.9289958496875
 20
-44.91336209354132
 30
0.0
  0
VERTEX
  5
903
  8
0
  6
CONTINUOUS
 62
     7
 10
-526.9321853036811
 20
-44.93001653542699
 30
0.0
  0
VERTEX
  5
904
  8
0
  6
CONTINUOUS
 62
     7
 10
-526.9351275054894
 20
-44.94729569800844
 30
0.0
  0
VERTEX
  5
905
  8
0
  6
CONTINUOUS
 62
     7
 10
-526.9378250802708
 20
-44.96514894983277
 30
0.0
  0
VERTEX
  5
906
  8
0
  6
CONTINUOUS
 62
     7
 10
-526.9402806531841
 20
-44.98352565944708
 30
0.0
  0
VERTEX
  5
907
  8
0
  6
CONTINUOUS
 62
     7
 10
-526.9423739286077
 20
-45.00125312317393
 30
0.0
  0
VERTEX
  5
908
  8
0
  6
CONTINUOUS
 62
     7
 10
-526.944267077667
 20
-45.01941215505364
 30
0.0
  0
VERTEX
  5
909
  8
0
  6
CONTINUOUS
 62
     7
 10
-526.9459628386913
 20
-45.03795495244637
 30
0.0
  0
VERTEX
  5
90A
  8
0
  6
CONTINUOUS
 62
     7
 10
-526.9474639500103
 20
-45.05683371271224
 30
0.0
  0
VERTEX
  5
90B
  8
0
  6
CONTINUOUS
 62
     7
 10
-526.9488115094683
 20
-45.07660404690316
 30
0.0
  0
VERTEX
  5
90C
  8
0
  6
CONTINUOUS
 62
     7
 10
-526.9499635710074
 20
-45.09669482688077
 30
0.0
  0
VERTEX
  5
90D
  8
0
  6
CONTINUOUS
 62
     7
 10
-526.9509224341643
 20
-45.11704980953516
 30
0.0
  0
VERTEX
  5
90E
  8
0
  6
CONTINUOUS
 62
     7
 10
-526.9516903984759
 20
-45.13761275175641
 30
0.0
  0
VERTEX
  5
90F
  8
0
  6
CONTINUOUS
 62
     7
 10
-526.9522273192704
 20
-45.15653574701429
 30
0.0
  0
VERTEX
  5
910
  8
0
  6
CONTINUOUS
 62
     7
 10
-526.9526100537001
 20
-45.17560117467024
 30
0.0
  0
VERTEX
  5
911
  8
0
  6
CONTINUOUS
 62
     7
 10
-526.9528392321073
 20
-45.19476471686561
 30
0.0
  0
VERTEX
  5
912
  8
0
  6
CONTINUOUS
 62
     7
 10
-526.9529154848337
 20
-45.21398205574174
 30
0.0
  0
SEQEND
  5
A63
  8
0
  6
CONTINUOUS
 62
     7
  0
LINE
  5
230
  8
0
  6
CONTINUOUS
 62
     7
 10
-515.0550544186713
 20
-63.73524982432746
 30
0.0
 11
-515.0550544186757
 21
-57.90191466294424
 31
0.0
  0
LINE
  5
231
  8
0
  6
CONTINUOUS
 62
     7
 10
-515.0550544186713
 20
-63.73524982432746
 30
0.0
 11
-515.0550544186742
 21
-67.16453047920805
 31
0.0
  0
POLYLINE
  5
232
  8
0
  6
CONTINUOUS
 62
     7
 66
     1
 10
0.0
 20
0.0
 30
0.0
  0
VERTEX
  5
913
  8
0
  6
CONTINUOUS
 62
     7
 10
-515.0550544186742
 20
-45.21398205574175
 30
0.0
  0
VERTEX
  5
914
  8
0
  6
CONTINUOUS
 62
     7
 10
-515.0551395986832
 20
-45.19367336022822
 30
0.0
  0
VERTEX
  5
915
  8
0
  6
CONTINUOUS
 62
     7
 10
-515.0553956618195
 20
-45.17342571084138
 30
0.0
  0
VERTEX
  5
916
  8
0
  6
CONTINUOUS
 62
     7
 10
-515.0558233927475
 20
-45.15329139195696
 30
0.0
  0
VERTEX
  5
917
  8
0
  6
CONTINUOUS
 62
     7
 10
-515.0564235761316
 20
-45.13332268795074
 30
0.0
  0
VERTEX
  5
918
  8
0
  6
CONTINUOUS
 62
     7
 10
-515.0572236573262
 20
-45.11296518342875
 30
0.0
  0
VERTEX
  5
919
  8
0
  6
CONTINUOUS
 62
     7
 10
-515.0582122132823
 20
-45.09282001519861
 30
0.0
  0
VERTEX
  5
91A
  8
0
  6
CONTINUOUS
 62
     7
 10
-515.059391545448
 20
-45.07294195343322
 30
0.0
  0
VERTEX
  5
91B
  8
0
  6
CONTINUOUS
 62
     7
 10
-515.0607639552716
 20
-45.05338576830544
 30
0.0
  0
VERTEX
  5
91C
  8
0
  6
CONTINUOUS
 62
     7
 10
-515.0622875238952
 20
-45.03470850943563
 30
0.0
  0
VERTEX
  5
91D
  8
0
  6
CONTINUOUS
 62
     7
 10
-515.0640035500072
 20
-45.01636791922035
 30
0.0
  0
VERTEX
  5
91E
  8
0
  6
CONTINUOUS
 62
     7
 10
-515.0659147140543
 20
-44.99841054222387
 30
0.0
  0
VERTEX
  5
91F
  8
0
  6
CONTINUOUS
 62
     7
 10
-515.0680236964832
 20
-44.98088292301042
 30
0.0
  0
VERTEX
  5
920
  8
0
  6
CONTINUOUS
 62
     7
 10
-515.0704071518173
 20
-44.96331369043697
 30
0.0
  0
VERTEX
  5
921
  8
0
  6
CONTINUOUS
 62
     7
 10
-515.0730137810123
 20
-44.94623021110187
 30
0.0
  0
VERTEX
  5
922
  8
0
  6
CONTINUOUS
 62
     7
 10
-515.0758458847444
 20
-44.92967708368901
 30
0.0
  0
VERTEX
  5
923
  8
0
  6
CONTINUOUS
 62
     7
 10
-515.07890576369
 20
-44.9136989068823
 30
0.0
  0
VERTEX
  5
924
  8
0
  6
CONTINUOUS
 62
     7
 10
-515.0821122295883
 20
-44.89870476219951
 30
0.0
  0
VERTEX
  5
925
  8
0
  6
CONTINUOUS
 62
     7
 10
-515.0855482241599
 20
-44.88427924437688
 30
0.0
  0
VERTEX
  5
926
  8
0
  6
CONTINUOUS
 62
     7
 10
-515.089214021763
 20
-44.87045593781437
 30
0.0
  0
VERTEX
  5
927
  8
0
  6
CONTINUOUS
 62
     7
 10
-515.0931098967559
 20
-44.85726842691194
 30
0.0
  0
VERTEX
  5
928
  8
0
  6
CONTINUOUS
 62
     7
 10
-515.0973627143834
 20
-44.84438279317312
 30
0.0
  0
VERTEX
  5
929
  8
0
  6
CONTINUOUS
 62
     7
 10
-515.101870946469
 20
-44.83218574781817
 30
0.0
  0
VERTEX
  5
92A
  8
0
  6
CONTINUOUS
 62
     7
 10
-515.1066316872643
 20
-44.82070374441204
 30
0.0
  0
VERTEX
  5
92B
  8
0
  6
CONTINUOUS
 62
     7
 10
-515.1116420310202
 20
-44.80996323651974
 30
0.0
  0
VERTEX
  5
92C
  8
0
  6
CONTINUOUS
 62
     7
 10
-515.1168412244693
 20
-44.80008882426961
 30
0.0
  0
VERTEX
  5
92D
  8
0
  6
CONTINUOUS
 62
     7
 10
-515.1222916362607
 20
-44.79094410426972
 30
0.0
  0
VERTEX
  5
92E
  8
0
  6
CONTINUOUS
 62
     7
 10
-515.1279867392844
 20
-44.7825440291265
 30
0.0
  0
VERTEX
  5
92F
  8
0
  6
CONTINUOUS
 62
     7
 10
-515.1339200064308
 20
-44.77490355144635
 30
0.0
  0
VERTEX
  5
930
  8
0
  6
CONTINUOUS
 62
     7
 10
-515.1402621583155
 20
-44.76785090829226
 30
0.0
  0
VERTEX
  5
931
  8
0
  6
CONTINUOUS
 62
     7
 10
-515.1468578321987
 20
-44.76159536330796
 30
0.0
  0
VERTEX
  5
932
  8
0
  6
CONTINUOUS
 62
     7
 10
-515.1536959761602
 20
-44.75614225021746
 30
0.0
  0
VERTEX
  5
933
  8
0
  6
CONTINUOUS
 62
     7
 10
-515.1607655382803
 20
-44.75149690274473
 30
0.0
  0
VERTEX
  5
934
  8
0
  6
CONTINUOUS
 62
     7
 10
-515.1706465472068
 20
-44.74651505008407
 30
0.0
  0
VERTEX
  5
935
  8
0
  6
CONTINUOUS
 62
     7
 10
-515.1809389658808
 20
-44.7429711088391
 30
0.0
  0
VERTEX
  5
936
  8
0
  6
CONTINUOUS
 62
     7
 10
-515.1916064789825
 20
-44.74085334732654
 30
0.0
  0
VERTEX
  5
937
  8
0
  6
CONTINUOUS
 62
     7
 10
-515.2026127711929
 20
-44.74015003386322
 30
0.0
  0
SEQEND
  5
A64
  8
0
  6
CONTINUOUS
 62
     7
  0
LINE
  5
233
  8
0
  6
CONTINUOUS
 62
     7
 10
-515.0550544186742
 20
-45.21398205574175
 30
0.0
 11
-515.0550544186757
 21
-57.90191466294424
 31
0.0
  0
POLYLINE
  5
234
  8
0
  6
CONTINUOUS
 62
     7
 66
     1
 10
0.0
 20
0.0
 30
0.0
  0
VERTEX
  5
938
  8
0
  6
CONTINUOUS
 62
     7
 10
-522.0550544186742
 20
-45.21398205574174
 30
0.0
  0
VERTEX
  5
939
  8
0
  6
CONTINUOUS
 62
     7
 10
-522.0551395986832
 20
-45.19367336022821
 30
0.0
  0
VERTEX
  5
93A
  8
0
  6
CONTINUOUS
 62
     7
 10
-522.0553956618195
 20
-45.17342571084136
 30
0.0
  0
VERTEX
  5
93B
  8
0
  6
CONTINUOUS
 62
     7
 10
-522.0558233927475
 20
-45.15329139195695
 30
0.0
  0
VERTEX
  5
93C
  8
0
  6
CONTINUOUS
 62
     7
 10
-522.0564235761316
 20
-45.13332268795072
 30
0.0
  0
VERTEX
  5
93D
  8
0
  6
CONTINUOUS
 62
     7
 10
-522.0572236573262
 20
-45.11296518342873
 30
0.0
  0
VERTEX
  5
93E
  8
0
  6
CONTINUOUS
 62
     7
 10
-522.0582122132823
 20
-45.0928200151986
 30
0.0
  0
VERTEX
  5
93F
  8
0
  6
CONTINUOUS
 62
     7
 10
-522.059391545448
 20
-45.0729419534332
 30
0.0
  0
VERTEX
  5
940
  8
0
  6
CONTINUOUS
 62
     7
 10
-522.0607639552716
 20
-45.05338576830543
 30
0.0
  0
VERTEX
  5
941
  8
0
  6
CONTINUOUS
 62
     7
 10
-522.0622875238952
 20
-45.03470850943562
 30
0.0
  0
VERTEX
  5
942
  8
0
  6
CONTINUOUS
 62
     7
 10
-522.0640035500071
 20
-45.01636791922034
 30
0.0
  0
VERTEX
  5
943
  8
0
  6
CONTINUOUS
 62
     7
 10
-522.0659147140543
 20
-44.99841054222385
 30
0.0
  0
VERTEX
  5
944
  8
0
  6
CONTINUOUS
 62
     7
 10
-522.0680236964834
 20
-44.98088292301041
 30
0.0
  0
VERTEX
  5
945
  8
0
  6
CONTINUOUS
 62
     7
 10
-522.0704071518174
 20
-44.96331369043696
 30
0.0
  0
VERTEX
  5
946
  8
0
  6
CONTINUOUS
 62
     7
 10
-522.0730137810123
 20
-44.94623021110186
 30
0.0
  0
VERTEX
  5
947
  8
0
  6
CONTINUOUS
 62
     7
 10
-522.0758458847444
 20
-44.929677083689
 30
0.0
  0
VERTEX
  5
948
  8
0
  6
CONTINUOUS
 62
     7
 10
-522.07890576369
 20
-44.91369890688229
 30
0.0
  0
VERTEX
  5
949
  8
0
  6
CONTINUOUS
 62
     7
 10
-522.0821122295883
 20
-44.8987047621995
 30
0.0
  0
VERTEX
  5
94A
  8
0
  6
CONTINUOUS
 62
     7
 10
-522.0855482241599
 20
-44.88427924437687
 30
0.0
  0
VERTEX
  5
94B
  8
0
  6
CONTINUOUS
 62
     7
 10
-522.089214021763
 20
-44.87045593781436
 30
0.0
  0
VERTEX
  5
94C
  8
0
  6
CONTINUOUS
 62
     7
 10
-522.0931098967559
 20
-44.85726842691194
 30
0.0
  0
VERTEX
  5
94D
  8
0
  6
CONTINUOUS
 62
     7
 10
-522.0973627143834
 20
-44.84438279317312
 30
0.0
  0
VERTEX
  5
94E
  8
0
  6
CONTINUOUS
 62
     7
 10
-522.101870946469
 20
-44.83218574781816
 30
0.0
  0
VERTEX
  5
94F
  8
0
  6
CONTINUOUS
 62
     7
 10
-522.1066316872643
 20
-44.82070374441204
 30
0.0
  0
VERTEX
  5
950
  8
0
  6
CONTINUOUS
 62
     7
 10
-522.1116420310202
 20
-44.80996323651973
 30
0.0
  0
VERTEX
  5
951
  8
0
  6
CONTINUOUS
 62
     7
 10
-522.1168412244693
 20
-44.8000888242696
 30
0.0
  0
VERTEX
  5
952
  8
0
  6
CONTINUOUS
 62
     7
 10
-522.1222916362607
 20
-44.79094410426972
 30
0.0
  0
VERTEX
  5
953
  8
0
  6
CONTINUOUS
 62
     7
 10
-522.1279867392844
 20
-44.78254402912649
 30
0.0
  0
VERTEX
  5
954
  8
0
  6
CONTINUOUS
 62
     7
 10
-522.1339200064308
 20
-44.77490355144634
 30
0.0
  0
VERTEX
  5
955
  8
0
  6
CONTINUOUS
 62
     7
 10
-522.1402621583155
 20
-44.76785090829225
 30
0.0
  0
VERTEX
  5
956
  8
0
  6
CONTINUOUS
 62
     7
 10
-522.1468578321986
 20
-44.76159536330795
 30
0.0
  0
VERTEX
  5
957
  8
0
  6
CONTINUOUS
 62
     7
 10
-522.1536959761602
 20
-44.75614225021745
 30
0.0
  0
VERTEX
  5
958
  8
0
  6
CONTINUOUS
 62
     7
 10
-522.1607655382803
 20
-44.75149690274473
 30
0.0
  0
VERTEX
  5
959
  8
0
  6
CONTINUOUS
 62
     7
 10
-522.1706465472068
 20
-44.74651505008406
 30
0.0
  0
VERTEX
  5
95A
  8
0
  6
CONTINUOUS
 62
     7
 10
-522.1809389658808
 20
-44.7429711088391
 30
0.0
  0
VERTEX
  5
95B
  8
0
  6
CONTINUOUS
 62
     7
 10
-522.1916064789825
 20
-44.74085334732654
 30
0.0
  0
VERTEX
  5
95C
  8
0
  6
CONTINUOUS
 62
     7
 10
-522.2026127711929
 20
-44.74015003386322
 30
0.0
  0
SEQEND
  5
A65
  8
0
  6
CONTINUOUS
 62
     7
  0
LINE
  5
235
  8
0
  6
CONTINUOUS
 62
     7
 10
-522.0550544186742
 20
-45.21398205574174
 30
0.0
 11
-522.0550544186742
 21
-67.16453047920805
 31
0.0
  0
POLYLINE
  5
236
  8
0
  6
CONTINUOUS
 62
     7
 66
     1
 10
0.0
 20
0.0
 30
0.0
  0
VERTEX
  5
95D
  8
0
  6
CONTINUOUS
 62
     7
 10
-519.9529136066578
 20
-67.16453047920805
 30
0.0
  0
VERTEX
  5
95E
  8
0
  6
CONTINUOUS
 62
     7
 10
-519.9058581292413
 20
-67.64163800248762
 30
0.0
  0
VERTEX
  5
95F
  8
0
  6
CONTINUOUS
 62
     7
 10
-519.7665000126001
 20
-68.10041055121253
 30
0.0
  0
VERTEX
  5
960
  8
0
  6
CONTINUOUS
 62
     7
 10
-519.5401947110034
 20
-68.52321775361791
 30
0.0
  0
VERTEX
  5
961
  8
0
  6
CONTINUOUS
 62
     7
 10
-519.2356390102785
 20
-68.89381136602832
 30
0.0
  0
VERTEX
  5
962
  8
0
  6
CONTINUOUS
 62
     7
 10
-518.8645368152073
 20
-69.19794968375012
 30
0.0
  0
VERTEX
  5
963
  8
0
  6
CONTINUOUS
 62
     7
 10
-518.4411493750298
 20
-69.42394484179599
 30
0.0
  0
VERTEX
  5
964
  8
0
  6
CONTINUOUS
 62
     7
 10
-517.9817472316337
 20
-69.56311197298179
 30
0.0
  0
VERTEX
  5
965
  8
0
  6
CONTINUOUS
 62
     7
 10
-517.503984951754
 20
-69.61010296250186
 30
0.0
  0
SEQEND
  5
A66
  8
0
  6
CONTINUOUS
 62
     7
  0
POLYLINE
  5
237
  8
0
  6
CONTINUOUS
 62
     7
 66
     1
 10
0.0
 20
0.0
 30
0.0
  0
VERTEX
  5
966
  8
0
  6
CONTINUOUS
 62
     7
 10
-526.9529136066578
 20
-67.16453047920805
 30
0.0
  0
VERTEX
  5
967
  8
0
  6
CONTINUOUS
 62
     7
 10
-526.9058581292413
 20
-67.64163800248762
 30
0.0
  0
VERTEX
  5
968
  8
0
  6
CONTINUOUS
 62
     7
 10
-526.7665000126001
 20
-68.10041055121253
 30
0.0
  0
VERTEX
  5
969
  8
0
  6
CONTINUOUS
 62
     7
 10
-526.5401947110034
 20
-68.52321775361791
 30
0.0
  0
VERTEX
  5
96A
  8
0
  6
CONTINUOUS
 62
     7
 10
-526.2356390102785
 20
-68.89381136602832
 30
0.0
  0
VERTEX
  5
96B
  8
0
  6
CONTINUOUS
 62
     7
 10
-525.8645368152073
 20
-69.19794968375012
 30
0.0
  0
VERTEX
  5
96C
  8
0
  6
CONTINUOUS
 62
     7
 10
-525.4411493750298
 20
-69.42394484179599
 30
0.0
  0
VERTEX
  5
96D
  8
0
  6
CONTINUOUS
 62
     7
 10
-524.9817472316337
 20
-69.56311197298179
 30
0.0
  0
VERTEX
  5
96E
  8
0
  6
CONTINUOUS
 62
     7
 10
-524.503984951754
 20
-69.61010296250186
 30
0.0
  0
SEQEND
  5
A67
  8
0
  6
CONTINUOUS
 62
     7
  0
POLYLINE
  5
238
  8
0
  6
CONTINUOUS
 62
     7
 66
     1
 10
0.0
 20
0.0
 30
0.0
  0
VERTEX
  5
96F
  8
0
  6
CONTINUOUS
 62
     7
 10
-517.503984951754
 20
-69.61010296250174
 30
0.0
  0
VERTEX
  5
970
  8
0
  6
CONTINUOUS
 62
     7
 10
-517.0262226718743
 20
-69.56311197298167
 30
0.0
  0
VERTEX
  5
971
  8
0
  6
CONTINUOUS
 62
     7
 10
-516.5668205284782
 20
-69.42394484179589
 30
0.0
  0
VERTEX
  5
972
  8
0
  6
CONTINUOUS
 62
     7
 10
-516.1434330883008
 20
-69.19794968375002
 30
0.0
  0
VERTEX
  5
973
  8
0
  6
CONTINUOUS
 62
     7
 10
-515.7723308932295
 20
-68.89381136602825
 30
0.0
  0
VERTEX
  5
974
  8
0
  6
CONTINUOUS
 62
     7
 10
-515.4677751925045
 20
-68.52321775361786
 30
0.0
  0
VERTEX
  5
975
  8
0
  6
CONTINUOUS
 62
     7
 10
-515.241469890908
 20
-68.1004105512125
 30
0.0
  0
VERTEX
  5
976
  8
0
  6
CONTINUOUS
 62
     7
 10
-515.1021117742666
 20
-67.64163800248761
 30
0.0
  0
VERTEX
  5
977
  8
0
  6
CONTINUOUS
 62
     7
 10
-515.0550562968502
 20
-67.16453047920805
 30
0.0
  0
SEQEND
  5
A68
  8
0
  6
CONTINUOUS
 62
     7
  0
POLYLINE
  5
239
  8
0
  6
CONTINUOUS
 62
     7
 66
     1
 10
0.0
 20
0.0
 30
0.0
  0
VERTEX
  5
978
  8
0
  6
CONTINUOUS
 62
     7
 10
-524.503984951754
 20
-69.61010296250174
 30
0.0
  0
VERTEX
  5
979
  8
0
  6
CONTINUOUS
 62
     7
 10
-524.0262226718743
 20
-69.56311197298167
 30
0.0
  0
VERTEX
  5
97A
  8
0
  6
CONTINUOUS
 62
     7
 10
-523.5668205284782
 20
-69.42394484179589
 30
0.0
  0
VERTEX
  5
97B
  8
0
  6
CONTINUOUS
 62
     7
 10
-523.1434330883008
 20
-69.19794968375002
 30
0.0
  0
VERTEX
  5
97C
  8
0
  6
CONTINUOUS
 62
     7
 10
-522.7723308932295
 20
-68.89381136602825
 30
0.0
  0
VERTEX
  5
97D
  8
0
  6
CONTINUOUS
 62
     7
 10
-522.4677751925045
 20
-68.52321775361786
 30
0.0
  0
VERTEX
  5
97E
  8
0
  6
CONTINUOUS
 62
     7
 10
-522.241469890908
 20
-68.1004105512125
 30
0.0
  0
VERTEX
  5
97F
  8
0
  6
CONTINUOUS
 62
     7
 10
-522.1021117742666
 20
-67.64163800248761
 30
0.0
  0
VERTEX
  5
980
  8
0
  6
CONTINUOUS
 62
     7
 10
-522.0550562968502
 20
-67.16453047920805
 30
0.0
  0
SEQEND
  5
A69
  8
0
  6
CONTINUOUS
 62
     7
  0
ARC
  5
23A
  8
0
  6
CONTINUOUS
 62
     7
 10
-484.5266893312149
 20
-40.24015003386322
 30
0.0
 40
0.5000000000000572
 50
90.0
 51
179.4999999999989
  0
ARC
  5
23B
  8
0
  6
CONTINUOUS
 62
     7
 10
-557.4812805722933
 20
-40.24015003386322
 30
0.0
 40
0.4999999999999935
 50
0.4999999999987494
 51
90.0
  0
ARC
  5
23C
  8
0
  6
CONTINUOUS
 62
     7
 10
-538.5044878848624
 20
-60.76631801198466
 30
0.0
 40
10.18290461361453
 50
270.0028298354539
 51
89.99717016454423
  0
ARC
  5
23D
  8
0
  6
CONTINUOUS
 62
     7
 10
-503.5034820186456
 20
-60.76631801198447
 30
0.0
 40
10.18290461361472
 50
90.00282983545642
 51
269.9971701645455
  0
LINE
  5
23E
  8
0
  6
CONTINUOUS
 62
     7
 10
-485.026670292747
 20
-40.23578676611402
 30
0.0
 11
-485.0660935084485
 21
-44.75323983711077
 31
0.0
  0
LINE
  5
23F
  8
0
  6
CONTINUOUS
 62
     7
 10
-556.9418763950597
 20
-44.75323983711077
 30
0.0
 11
-556.9812996107611
 21
-40.23578676611405
 31
0.0
  0
ARC
  5
240
  8
0
  6
CONTINUOUS
 62
     7
 10
-486.5660363930448
 20
-44.7401500338632
 30
0.0
 40
1.500000000000001
 50
270.0
 51
359.4999999999999
  0
LINE
  5
241
  8
0
  6
CONTINUOUS
 62
     7
 10
-486.5660363930448
 20
-46.2401500338632
 30
0.0
 11
-488.4483861883497
 21
-46.2401500338632
 31
0.0
  0
LINE
  5
242
  8
0
  6
CONTINUOUS
 62
     7
 10
-552.9870861353753
 20
-48.88063673734193
 30
0.0
 11
-552.9578144638339
 21
-48.89491243624023
 31
0.0
  0
LINE
  5
243
  8
0
  6
CONTINUOUS
 62
     7
 10
-552.9870861353753
 20
-48.88063673734193
 30
0.0
 11
-553.0624429367874
 21
-46.72270028551196
 31
0.0
  0
LINE
  5
244
  8
0
  6
CONTINUOUS
 62
     9
 10
-553.0605722844704
 20
-46.72140237491126
 30
0.0
 11
-553.0624429367875
 21
-46.72270028551195
 31
0.0
  0
POLYLINE
  5
245
  8
0
  6
CONTINUOUS
 62
     9
 66
     1
 10
0.0
 20
0.0
 30
0.0
  0
VERTEX
  5
981
  8
0
  6
CONTINUOUS
 62
     9
 10
-553.0605722844704
 20
-46.72140237491126
 30
0.0
  0
VERTEX
  5
982
  8
0
  6
CONTINUOUS
 62
     9
 10
-553.0732763337455
 20
-46.62656750760935
 30
0.0
  0
VERTEX
  5
983
  8
0
  6
CONTINUOUS
 62
     9
 10
-553.1037898487104
 20
-46.53589224014405
 30
0.0
  0
VERTEX
  5
984
  8
0
  6
CONTINUOUS
 62
     9
 10
-553.1509953686425
 20
-46.45269726664124
 30
0.0
  0
VERTEX
  5
985
  8
0
  6
CONTINUOUS
 62
     9
 10
-553.21316414107
 20
-46.38002933918157
 30
0.0
  0
VERTEX
  5
986
  8
0
  6
CONTINUOUS
 62
     9
 10
-553.2880194318494
 20
-46.32054969016722
 30
0.0
  0
VERTEX
  5
987
  8
0
  6
CONTINUOUS
 62
     9
 10
-553.3728199033335
 20
-46.27643657312434
 30
0.0
  0
VERTEX
  5
988
  8
0
  6
CONTINUOUS
 62
     9
 10
-553.4644600071691
 20
-46.24930549107525
 30
0.0
  0
VERTEX
  5
989
  8
0
  6
CONTINUOUS
 62
     9
 10
-553.5595837151583
 20
-46.2401500338632
 30
0.0
  0
SEQEND
  5
A6A
  8
0
  6
CONTINUOUS
 62
     9
  0
ARC
  5
246
  8
0
  6
CONTINUOUS
 62
     7
 10
-555.4419335104634
 20
-44.74015003386321
 30
0.0
 40
1.499999999999949
 50
180.5
 51
270.0
  0
LINE
  5
247
  8
0
  6
CONTINUOUS
 62
     7
 10
-553.5595837151583
 20
-46.2401500338632
 30
0.0
 11
-555.4419335104634
 21
-46.2401500338632
 31
0.0
  0
LINE
  5
248
  8
0
  6
CONTINUOUS
 62
     7
 10
-488.9455269667206
 20
-46.72270028551196
 30
0.0
 11
-489.0208837681328
 21
-48.88063673734193
 31
0.0
  0
LINE
  5
249
  8
0
  6
CONTINUOUS
 62
     9
 10
-488.9455269667206
 20
-46.72270028551195
 30
0.0
 11
-488.9473976190377
 21
-46.72140237491126
 31
0.0
  0
POLYLINE
  5
24A
  8
0
  6
CONTINUOUS
 62
     9
 66
     1
 10
0.0
 20
0.0
 30
0.0
  0
VERTEX
  5
98A
  8
0
  6
CONTINUOUS
 62
     9
 10
-488.4483861883498
 20
-46.2401500338632
 30
0.0
  0
VERTEX
  5
98B
  8
0
  6
CONTINUOUS
 62
     9
 10
-488.5435098963389
 20
-46.24930549107526
 30
0.0
  0
VERTEX
  5
98C
  8
0
  6
CONTINUOUS
 62
     9
 10
-488.6351500001746
 20
-46.27643657312437
 30
0.0
  0
VERTEX
  5
98D
  8
0
  6
CONTINUOUS
 62
     9
 10
-488.7199504716586
 20
-46.32054969016725
 30
0.0
  0
VERTEX
  5
98E
  8
0
  6
CONTINUOUS
 62
     9
 10
-488.794805762438
 20
-46.3800293391816
 30
0.0
  0
VERTEX
  5
98F
  8
0
  6
CONTINUOUS
 62
     9
 10
-488.8569745348655
 20
-46.45269726664128
 30
0.0
  0
VERTEX
  5
990
  8
0
  6
CONTINUOUS
 62
     9
 10
-488.9041800547976
 20
-46.53589224014409
 30
0.0
  0
VERTEX
  5
991
  8
0
  6
CONTINUOUS
 62
     9
 10
-488.9346935697625
 20
-46.62656750760939
 30
0.0
  0
VERTEX
  5
992
  8
0
  6
CONTINUOUS
 62
     9
 10
-488.9473976190377
 20
-46.7214023749113
 30
0.0
  0
SEQEND
  5
A6B
  8
0
  6
CONTINUOUS
 62
     9
  0
LINE
  5
24B
  8
0
  6
CONTINUOUS
 62
     7
 10
-551.4733626623885
 20
-50.58341341078967
 30
0.0
 11
-538.5039849517538
 21
-50.58341341079004
 31
0.0
  0
POLYLINE
  5
24C
  8
0
  6
CONTINUOUS
 62
     9
 66
     1
 10
0.0
 20
0.0
 30
0.0
  0
VERTEX
  5
993
  8
0
  6
CONTINUOUS
 62
     9
 10
-552.9578144638339
 20
-48.89491243624023
 30
0.0
  0
VERTEX
  5
994
  8
0
  6
CONTINUOUS
 62
     9
 10
-552.872189596163
 20
-48.9066336136433
 30
0.0
  0
VERTEX
  5
995
  8
0
  6
CONTINUOUS
 62
     9
 10
-552.7334944160145
 20
-48.91535097362325
 30
0.0
  0
VERTEX
  5
996
  8
0
  6
CONTINUOUS
 62
     9
 10
-552.5470465446238
 20
-48.92073028957969
 30
0.0
  0
VERTEX
  5
997
  8
0
  6
CONTINUOUS
 62
     9
 10
-552.3199944579446
 20
-48.92256531667609
 30
0.0
  0
VERTEX
  5
998
  8
0
  6
CONTINUOUS
 62
     9
 10
-552.0610434116059
 20
-48.9207856993381
 30
0.0
  0
VERTEX
  5
999
  8
0
  6
CONTINUOUS
 62
     9
 10
-551.7801216783962
 20
-48.91545966871075
 30
0.0
  0
VERTEX
  5
99A
  8
0
  6
CONTINUOUS
 62
     9
 10
-551.4879998948467
 20
-48.9067914266526
 30
0.0
  0
SEQEND
  5
A6C
  8
0
  6
CONTINUOUS
 62
     9
  0
LINE
  5
24D
  8
0
  6
CONTINUOUS
 62
     7
 10
-551.4733626623885
 20
-50.58341341078967
 30
0.0
 11
-551.9317483970343
 21
-50.50018311989296
 31
0.0
  0
ARC
  5
24E
  8
0
  6
CONTINUOUS
 62
     7
 10
-551.3885553712821
 20
-48.77776848417815
 30
0.0
 40
1.806037330883854
 50
218.9196164050217
 51
252.4964365021362
  0
POLYLINE
  5
24F
  8
0
  6
CONTINUOUS
 62
     7
 66
     1
 10
0.0
 20
0.0
 30
0.0
  0
VERTEX
  5
99B
  8
0
  6
CONTINUOUS
 62
     7
 10
-552.7937031764037
 20
-49.91237435685291
 30
0.0
  0
VERTEX
  5
99C
  8
0
  6
CONTINUOUS
 62
     7
 10
-552.8560275207877
 20
-49.81159627202798
 30
0.0
  0
VERTEX
  5
99D
  8
0
  6
CONTINUOUS
 62
     7
 10
-552.906239980748
 20
-49.70105588309885
 30
0.0
  0
VERTEX
  5
99E
  8
0
  6
CONTINUOUS
 62
     7
 10
-552.933814785791
 20
-49.61539637341372
 30
0.0
  0
SEQEND
  5
A6D
  8
0
  6
CONTINUOUS
 62
     7
  0
LINE
  5
250
  8
0
  6
CONTINUOUS
 62
     7
 10
-490.5346072411197
 20
-50.58341341078967
 30
0.0
 11
-503.5039849517544
 21
-50.58341341078967
 31
0.0
  0
LINE
  5
251
  8
0
  6
CONTINUOUS
 62
     7
 10
-489.0208837681328
 20
-48.88063673734193
 30
0.0
 11
-489.0374303469466
 21
-49.35446875922045
 31
0.0
  0
ARC
  5
252
  8
0
  6
CONTINUOUS
 62
     7
 10
-490.6194145322327
 20
-48.77776848417121
 30
0.0
 40
1.806037330893446
 50
287.5035634980097
 51
321.0803835949454
  0
POLYLINE
  5
253
  8
0
  6
CONTINUOUS
 62
     7
 66
     1
 10
0.0
 20
0.0
 30
0.0
  0
VERTEX
  5
99F
  8
0
  6
CONTINUOUS
 62
     7
 10
-489.2142667271043
 20
-49.91237435685282
 30
0.0
  0
VERTEX
  5
9A0
  8
0
  6
CONTINUOUS
 62
     7
 10
-489.1519423827202
 20
-49.8115962720279
 30
0.0
  0
VERTEX
  5
9A1
  8
0
  6
CONTINUOUS
 62
     7
 10
-489.1017299227601
 20
-49.70105588309875
 30
0.0
  0
VERTEX
  5
9A2
  8
0
  6
CONTINUOUS
 62
     7
 10
-489.0659319013567
 20
-49.58259977148775
 30
0.0
  0
VERTEX
  5
9A3
  8
0
  6
CONTINUOUS
 62
     7
 10
-489.0477423243871
 20
-49.48202036789362
 30
0.0
  0
VERTEX
  5
9A4
  8
0
  6
CONTINUOUS
 62
     7
 10
-489.037636994055
 20
-49.3600405846057
 30
0.0
  0
VERTEX
  5
9A5
  8
0
  6
CONTINUOUS
 62
     7
 10
-489.0374072464195
 20
-49.35380724667322
 30
0.0
  0
SEQEND
  5
A6E
  8
0
  6
CONTINUOUS
 62
     7
  0
LINE
  5
254
  8
0
  6
CONTINUOUS
 62
     7
 10
-490.5346072411197
 20
-50.58341341078967
 30
0.0
 11
-490.0762215064738
 21
-50.5001831198927
 31
0.0
  0
LINE
  5
255
  8
0
  6
CONTINUOUS
 62
     7
 10
-491.3363580253168
 20
-70.949222613179
 30
0.0
 11
-490.7944407041023
 21
-71.06728997583603
 31
0.0
  0
LINE
  5
256
  8
0
  6
CONTINUOUS
 62
     7
 10
-503.5039849517541
 20
-70.94922261317927
 30
0.0
 11
-491.3363580253168
 21
-70.949222613179
 31
0.0
  0
LINE
  5
257
  8
0
  6
CONTINUOUS
 62
     9
 10
-498.0039849517537
 20
-68.87261257364143
 30
0.0
 11
-509.0039849517537
 21
-68.87261257364143
 31
0.0
  0
LINE
  5
258
  8
0
  6
CONTINUOUS
 62
     7
 10
-538.5039849517541
 20
-70.94922261317927
 30
0.0
 11
-550.6716118781912
 21
-70.949222613179
 31
0.0
  0
LINE
  5
259
  8
0
  6
CONTINUOUS
 62
     7
 10
-550.6716118781912
 20
-70.949222613179
 30
0.0
 11
-551.2135291994058
 21
-71.067289975836
 31
0.0
  0
LINE
  5
25A
  8
0
  6
CONTINUOUS
 62
     9
 10
-533.0039849517538
 20
-68.87261257364143
 30
0.0
 11
-544.0039849517538
 21
-68.87261257364143
 31
0.0
  0
LINE
  5
25B
  8
0
  6
CONTINUOUS
 62
     7
 10
-489.0374072464195
 20
-49.35380724667322
 30
0.0
 11
-489.8344721519151
 21
-72.1787597633698
 31
0.0
  0
ARC
  5
25C
  8
0
  6
CONTINUOUS
 62
     7
 10
-491.4945217150114
 20
-72.88936285085204
 30
0.0
 40
1.951938263292329
 50
38.82799823655967
 51
68.98211186167106
  0
POLYLINE
  5
25D
  8
0
  6
CONTINUOUS
 62
     7
 66
     1
 10
0.0
 20
0.0
 30
0.0
  0
VERTEX
  5
9A6
  8
0
  6
CONTINUOUS
 62
     7
 10
-489.9738999806703
 20
-71.66552768026982
 30
0.0
  0
VERTEX
  5
9A7
  8
0
  6
CONTINUOUS
 62
     7
 10
-489.9183721316281
 20
-71.7593695253797
 30
0.0
  0
VERTEX
  5
9A8
  8
0
  6
CONTINUOUS
 62
     7
 10
-489.8755771806004
 20
-71.8612252655407
 30
0.0
  0
VERTEX
  5
9A9
  8
0
  6
CONTINUOUS
 62
     7
 10
-489.84770189901
 20
-71.96962801451483
 30
0.0
  0
VERTEX
  5
9AA
  8
0
  6
CONTINUOUS
 62
     7
 10
-489.8343154872702
 20
-72.09782686264238
 30
0.0
  0
VERTEX
  5
9AB
  8
0
  6
CONTINUOUS
 62
     7
 10
-489.8344721519151
 20
-72.1787597633698
 30
0.0
  0
SEQEND
  5
A6F
  8
0
  6
CONTINUOUS
 62
     7
  0
ARC
  5
25E
  8
0
  6
CONTINUOUS
 62
     7
 10
-550.5134481884958
 20
-72.88936285085308
 30
0.0
 40
1.951938263293638
 50
111.0178881383421
 51
141.1720017634316
  0
POLYLINE
  5
25F
  8
0
  6
CONTINUOUS
 62
     7
 66
     1
 10
0.0
 20
0.0
 30
0.0
  0
VERTEX
  5
9AC
  8
0
  6
CONTINUOUS
 62
     7
 10
-552.0340699228377
 20
-71.6655276802698
 30
0.0
  0
VERTEX
  5
9AD
  8
0
  6
CONTINUOUS
 62
     7
 10
-552.08959777188
 20
-71.75936952537968
 30
0.0
  0
VERTEX
  5
9AE
  8
0
  6
CONTINUOUS
 62
     7
 10
-552.1323927229076
 20
-71.86122526554068
 30
0.0
  0
VERTEX
  5
9AF
  8
0
  6
CONTINUOUS
 62
     7
 10
-552.160268004498
 20
-71.96962801451481
 30
0.0
  0
VERTEX
  5
9B0
  8
0
  6
CONTINUOUS
 62
     7
 10
-552.1736544162379
 20
-72.09782686264238
 30
0.0
  0
VERTEX
  5
9B1
  8
0
  6
CONTINUOUS
 62
     7
 10
-552.173497751593
 20
-72.1787597633698
 30
0.0
  0
SEQEND
  5
A70
  8
0
  6
CONTINUOUS
 62
     7
  0
LINE
  5
260
  8
0
  6
CONTINUOUS
 62
     7
 10
-552.173497751593
 20
-72.1787597633698
 30
0.0
 11
-552.9705626570886
 21
-49.35380724667323
 31
0.0
  0
LINE
  5
261
  8
0
  6
CONTINUOUS
 62
     7
 10
-552.155148332669
 20
-72.70421837127306
 30
0.0
 11
-552.173497751593
 21
-72.1787597633698
 31
0.0
  0
LINE
  5
262
  8
0
  6
CONTINUOUS
 62
     7
 10
-489.8344721519151
 20
-72.1787597633698
 30
0.0
 11
-489.8528215708391
 21
-72.70421837127306
 31
0.0
  0
LINE
  5
263
  8
0
  6
CONTINUOUS
 62
     7
 10
-552.0123824174756
 20
-76.79249927891696
 30
0.0
 11
-552.155148332669
 21
-72.70421837127306
 31
0.0
  0
LINE
  5
264
  8
0
  6
CONTINUOUS
 62
     7
 10
-489.8528215708391
 20
-72.70421837127306
 30
0.0
 11
-489.9955874860325
 21
-76.79249927891695
 31
0.0
  0
ARC
  5
265
  8
0
  6
CONTINUOUS
 62
     7
 10
-488.4458315532111
 20
-46.7401500338632
 30
0.0
 40
0.5000000000000004
 50
90.0
 51
178.0000000000005
  0
ARC
  5
266
  8
0
  6
CONTINUOUS
 62
     7
 10
-553.562138350297
 20
-46.74015003386319
 30
0.0
 40
0.4999999999999228
 50
1.999999999999025
 51
90.0
  0
LINE
  5
267
  8
0
  6
CONTINUOUS
 62
     7
 10
-536.0039849517538
 20
-58.74015003386295
 30
0.0
 11
-541.0039849517538
 21
-58.74015003386295
 31
0.0
  0
LINE
  5
268
  8
0
  6
CONTINUOUS
 62
     7
 10
-501.0039849517537
 20
-58.74015003386295
 30
0.0
 11
-506.0039849517537
 21
-58.74015003386295
 31
0.0
  0
ARC
  5
269
  8
0
  6
CONTINUOUS
 62
     7
 10
-541.0039849517538
 20
-60.24015003386295
 30
0.0
 40
1.500000000000001
 50
90.0
 51
180.0
  0
ARC
  5
26A
  8
0
  6
CONTINUOUS
 62
     7
 10
-536.0039849517538
 20
-60.24015003386295
 30
0.0
 40
1.500000000000001
 50
0.0000000000005301
 51
90.0
  0
ARC
  5
26B
  8
0
  6
CONTINUOUS
 62
     7
 10
-506.0039849517537
 20
-60.24015003386295
 30
0.0
 40
1.500000000000001
 50
90.0
 51
180.0
  0
ARC
  5
26C
  8
0
  6
CONTINUOUS
 62
     7
 10
-501.0039849517537
 20
-60.24015003386295
 30
0.0
 40
1.500000000000001
 50
0.0000000000005301
 51
90.0
  0
ARC
  5
26D
  8
0
  6
CONTINUOUS
 62
     7
 10
-550.5132961769469
 20
-76.7401500338632
 30
0.0
 40
1.500000000000001
 50
182.0000000000002
 51
269.9999999999999
  0
LINE
  5
26E
  8
0
  6
CONTINUOUS
 62
     7
 10
-491.4946737265612
 20
-78.2401500338632
 30
0.0
 11
-550.5132961769469
 21
-78.2401500338632
 31
0.0
  0
ARC
  5
26F
  8
0
  6
CONTINUOUS
 62
     7
 10
-491.4946737265611
 20
-76.7401500338632
 30
0.0
 40
1.500000000000001
 50
269.9999999999977
 51
358.0000000000001
  0
LINE
  5
270
  8
0
  6
CONTINUOUS
 62
     7
 10
-499.5039849517537
 20
-65.7982200350133
 30
0.0
 11
-499.5039849517537
 21
-60.24015003386294
 31
0.0
  0
LINE
  5
271
  8
0
  6
CONTINUOUS
 62
     7
 10
-498.7539849517537
 20
-68.11312288966768
 30
0.0
 11
-498.0039849517537
 21
-68.87261257364143
 31
0.0
  0
POLYLINE
  5
272
  8
0
  6
CONTINUOUS
 62
     7
 66
     1
 10
0.0
 20
0.0
 30
0.0
  0
VERTEX
  5
9B2
  8
0
  6
CONTINUOUS
 62
     7
 10
-499.5039849517537
 20
-65.7982200350133
 30
0.0
  0
VERTEX
  5
9B3
  8
0
  6
CONTINUOUS
 62
     7
 10
-499.4712063528544
 20
-66.35397205393427
 30
0.0
  0
VERTEX
  5
9B4
  8
0
  6
CONTINUOUS
 62
     7
 10
-499.3743031382176
 20
-66.88543504283433
 30
0.0
  0
VERTEX
  5
9B5
  8
0
  6
CONTINUOUS
 62
     7
 10
-499.2175104433161
 20
-67.36938151885619
 30
0.0
  0
VERTEX
  5
9B6
  8
0
  6
CONTINUOUS
 62
     7
 10
-499.007680861292
 20
-67.78466069876484
 30
0.0
  0
VERTEX
  5
9B7
  8
0
  6
CONTINUOUS
 62
     7
 10
-498.7539849517537
 20
-68.1131228896677
 30
0.0
  0
SEQEND
  5
A71
  8
0
  6
CONTINUOUS
 62
     7
  0
LINE
  5
273
  8
0
  6
CONTINUOUS
 62
     7
 10
-544.0039849517538
 20
-68.87261257364143
 30
0.0
 11
-543.2539849517536
 21
-68.1131228896677
 31
0.0
  0
LINE
  5
274
  8
0
  6
CONTINUOUS
 62
     7
 10
-542.5039849517538
 20
-60.24015003386295
 30
0.0
 11
-542.5039849517536
 21
-65.7982200350133
 31
0.0
  0
POLYLINE
  5
275
  8
0
  6
CONTINUOUS
 62
     7
 66
     1
 10
0.0
 20
0.0
 30
0.0
  0
VERTEX
  5
9B8
  8
0
  6
CONTINUOUS
 62
     7
 10
-543.2539849517538
 20
-68.1131228896677
 30
0.0
  0
VERTEX
  5
9B9
  8
0
  6
CONTINUOUS
 62
     7
 10
-543.0002890422155
 20
-67.78466069876484
 30
0.0
  0
VERTEX
  5
9BA
  8
0
  6
CONTINUOUS
 62
     7
 10
-542.7904594601913
 20
-67.36938151885619
 30
0.0
  0
VERTEX
  5
9BB
  8
0
  6
CONTINUOUS
 62
     7
 10
-542.6336667652898
 20
-66.88543504283433
 30
0.0
  0
VERTEX
  5
9BC
  8
0
  6
CONTINUOUS
 62
     7
 10
-542.5367635506531
 20
-66.35397205393427
 30
0.0
  0
VERTEX
  5
9BD
  8
0
  6
CONTINUOUS
 62
     7
 10
-542.5039849517538
 20
-65.7982200350133
 30
0.0
  0
SEQEND
  5
A72
  8
0
  6
CONTINUOUS
 62
     7
  0
LINE
  5
276
  8
0
  6
CONTINUOUS
 62
     7
 10
-509.0039849517537
 20
-68.87261257364143
 30
0.0
 11
-508.2539849517536
 21
-68.1131228896677
 31
0.0
  0
LINE
  5
277
  8
0
  6
CONTINUOUS
 62
     7
 10
-507.5039849517538
 20
-60.24015003386295
 30
0.0
 11
-507.5039849517538
 21
-65.7982200350133
 31
0.0
  0
POLYLINE
  5
278
  8
0
  6
CONTINUOUS
 62
     7
 66
     1
 10
0.0
 20
0.0
 30
0.0
  0
VERTEX
  5
9BE
  8
0
  6
CONTINUOUS
 62
     7
 10
-508.2539849517537
 20
-68.1131228896677
 30
0.0
  0
VERTEX
  5
9BF
  8
0
  6
CONTINUOUS
 62
     7
 10
-508.0002890422154
 20
-67.78466069876484
 30
0.0
  0
VERTEX
  5
9C0
  8
0
  6
CONTINUOUS
 62
     7
 10
-507.7904594601913
 20
-67.36938151885619
 30
0.0
  0
VERTEX
  5
9C1
  8
0
  6
CONTINUOUS
 62
     7
 10
-507.6336667652898
 20
-66.88543504283433
 30
0.0
  0
VERTEX
  5
9C2
  8
0
  6
CONTINUOUS
 62
     7
 10
-507.536763550653
 20
-66.35397205393427
 30
0.0
  0
VERTEX
  5
9C3
  8
0
  6
CONTINUOUS
 62
     7
 10
-507.5039849517537
 20
-65.7982200350133
 30
0.0
  0
SEQEND
  5
A73
  8
0
  6
CONTINUOUS
 62
     7
  0
LINE
  5
279
  8
0
  6
CONTINUOUS
 62
     7
 10
-534.5039849517536
 20
-65.7982200350133
 30
0.0
 11
-534.5039849517536
 21
-60.24015003386294
 31
0.0
  0
LINE
  5
27A
  8
0
  6
CONTINUOUS
 62
     7
 10
-533.7539849517538
 20
-68.11312288966768
 30
0.0
 11
-533.0039849517538
 21
-68.87261257364143
 31
0.0
  0
POLYLINE
  5
27B
  8
0
  6
CONTINUOUS
 62
     7
 66
     1
 10
0.0
 20
0.0
 30
0.0
  0
VERTEX
  5
9C4
  8
0
  6
CONTINUOUS
 62
     7
 10
-534.5039849517538
 20
-65.7982200350133
 30
0.0
  0
VERTEX
  5
9C5
  8
0
  6
CONTINUOUS
 62
     7
 10
-534.4712063528544
 20
-66.35397205393427
 30
0.0
  0
VERTEX
  5
9C6
  8
0
  6
CONTINUOUS
 62
     7
 10
-534.3743031382177
 20
-66.88543504283433
 30
0.0
  0
VERTEX
  5
9C7
  8
0
  6
CONTINUOUS
 62
     7
 10
-534.2175104433162
 20
-67.36938151885619
 30
0.0
  0
VERTEX
  5
9C8
  8
0
  6
CONTINUOUS
 62
     7
 10
-534.007680861292
 20
-67.78466069876484
 30
0.0
  0
VERTEX
  5
9C9
  8
0
  6
CONTINUOUS
 62
     7
 10
-533.7539849517538
 20
-68.1131228896677
 30
0.0
  0
SEQEND
  5
A74
  8
0
  6
CONTINUOUS
 62
     7
  0
LINE
  5
27C
  8
0
  6
CONTINUOUS
 62
     9
 10
-485.3496786339874
 20
-77.24887656936158
 30
0.0
 11
-485.3505870441375
 21
-77.25007860643976
 31
0.0
  0
LINE
  5
27D
  8
0
  6
CONTINUOUS
 62
     7
 10
-485.0660935084485
 20
-44.75323983711076
 30
0.0
 11
-485.3496786339874
 21
-77.24887656936157
 31
0.0
  0
LINE
  5
27E
  8
0
  6
CONTINUOUS
 62
     9
 10
-556.6582912695208
 20
-77.24887656936158
 30
0.0
 11
-556.6573828593707
 21
-77.25007860643976
 31
0.0
  0
LINE
  5
27F
  8
0
  6
CONTINUOUS
 62
     7
 10
-556.6582912695208
 20
-77.24887656936157
 30
0.0
 11
-556.9418763950597
 21
-44.75323983711075
 31
0.0
  0
LINE
  5
280
  8
0
  6
CONTINUOUS
 62
     7
 10
-486.3499398637621
 20
-78.2401500338632
 30
0.0
 11
-491.4946737265613
 21
-78.2401500338632
 31
0.0
  0
LINE
  5
281
  8
0
  6
CONTINUOUS
 62
     7
 10
-550.5132961769469
 20
-78.2401500338632
 30
0.0
 11
-555.6580300397461
 21
-78.2401500338632
 31
0.0
  0
POLYLINE
  5
282
  8
0
  6
CONTINUOUS
 62
     7
 66
     1
 10
0.0
 20
0.0
 30
0.0
  0
VERTEX
  5
9CA
  8
0
  6
CONTINUOUS
 62
     7
 10
-486.3499398637637
 20
-78.2401500338632
 30
0.0
  0
VERTEX
  5
9CB
  8
0
  6
CONTINUOUS
 62
     7
 10
-486.1561828569832
 20
-78.22117668387907
 30
0.0
  0
VERTEX
  5
9CC
  8
0
  6
CONTINUOUS
 62
     7
 10
-485.9697782892057
 20
-78.16497660994523
 30
0.0
  0
VERTEX
  5
9CD
  8
0
  6
CONTINUOUS
 62
     7
 10
-485.7977995986377
 20
-78.07368241940551
 30
0.0
  0
VERTEX
  5
9CE
  8
0
  6
CONTINUOUS
 62
     7
 10
-485.6467728090511
 20
-77.95075842551721
 30
0.0
  0
VERTEX
  5
9CF
  8
0
  6
CONTINUOUS
 62
     7
 10
-485.5224288887176
 20
-77.80086918819543
 30
0.0
  0
VERTEX
  5
9D0
  8
0
  6
CONTINUOUS
 62
     7
 10
-485.4294862790752
 20
-77.62970250935736
 30
0.0
  0
VERTEX
  5
9D1
  8
0
  6
CONTINUOUS
 62
     7
 10
-485.3714718454463
 20
-77.44375359960955
 30
0.0
  0
VERTEX
  5
9D2
  8
0
  6
CONTINUOUS
 62
     7
 10
-485.3505870441375
 20
-77.25007860643976
 30
0.0
  0
SEQEND
  5
A75
  8
0
  6
CONTINUOUS
 62
     7
  0
POLYLINE
  5
283
  8
0
  6
CONTINUOUS
 62
     7
 66
     1
 10
0.0
 20
0.0
 30
0.0
  0
VERTEX
  5
9D3
  8
0
  6
CONTINUOUS
 62
     7
 10
-556.6573828593707
 20
-77.25007860643981
 30
0.0
  0
VERTEX
  5
9D4
  8
0
  6
CONTINUOUS
 62
     7
 10
-556.6364980580619
 20
-77.44375359960958
 30
0.0
  0
VERTEX
  5
9D5
  8
0
  6
CONTINUOUS
 62
     7
 10
-556.578483624433
 20
-77.62970250935737
 30
0.0
  0
VERTEX
  5
9D6
  8
0
  6
CONTINUOUS
 62
     7
 10
-556.4855410147906
 20
-77.80086918819543
 30
0.0
  0
VERTEX
  5
9D7
  8
0
  6
CONTINUOUS
 62
     7
 10
-556.3611970944571
 20
-77.95075842551721
 30
0.0
  0
VERTEX
  5
9D8
  8
0
  6
CONTINUOUS
 62
     7
 10
-556.2101703048705
 20
-78.07368241940549
 30
0.0
  0
VERTEX
  5
9D9
  8
0
  6
CONTINUOUS
 62
     7
 10
-556.0381916143025
 20
-78.16497660994521
 30
0.0
  0
VERTEX
  5
9DA
  8
0
  6
CONTINUOUS
 62
     7
 10
-555.851787046525
 20
-78.22117668387905
 30
0.0
  0
VERTEX
  5
9DB
  8
0
  6
CONTINUOUS
 62
     7
 10
-555.6580300397445
 20
-78.2401500338632
 30
0.0
  0
SEQEND
  5
A76
  8
0
  6
CONTINUOUS
 62
     7
  0
ARC
  5
284
  8
0
  6
CONTINUOUS
 62
     7
 10
-555.6583293464566
 20
-77.2401500338632
 30
0.0
 40
1.000000000000001
 50
180.4999999999997
 51
270.0
  0
ARC
  5
285
  8
0
  6
CONTINUOUS
 62
     7
 10
-486.3496405570516
 20
-77.2401500338632
 30
0.0
 40
1.000000000000003
 50
269.9999999999957
 51
359.5000000000002
  0
LINE
  5
286
  8
0
  6
CONTINUOUS
 62
     7
 10
-486.3496405570516
 20
-78.2401500338632
 30
0.0
 11
-486.3499398637621
 21
-78.2401500338632
 31
0.0
  0
ARC
  5
287
  8
0
  6
CONTINUOUS
 62
     7
 10
-559.3269361775907
 20
-40.74015003386322
 30
0.0
 40
1.000000000000114
 50
0.5000000000001218
 51
90.0
  0
ARC
  5
288
  8
0
  6
CONTINUOUS
 62
     7
 10
-482.6810337259174
 20
-40.74015003386322
 30
0.0
 40
1.000000000000001
 50
89.99999999999962
 51
179.4999999999996
  0
LINE
  5
289
  8
0
  6
CONTINUOUS
 62
     7
 10
-557.9996405570515
 20
-78.2401500338632
 30
0.0
 11
-558.3269742545266
 21
-40.73142349836485
 31
0.0
  0
LINE
  5
28A
  8
0
  6
CONTINUOUS
 62
     7
 10
-557.1793575867924
 20
-78.2401500338632
 30
0.0
 11
-557.9996405570515
 21
-78.2401500338632
 31
0.0
  0
LINE
  5
28B
  8
0
  6
CONTINUOUS
 62
     7
 10
-483.6809956489815
 20
-40.73142349836484
 30
0.0
 11
-484.0083293464565
 21
-78.2401500338632
 31
0.0
  0
LINE
  5
28C
  8
0
  6
CONTINUOUS
 62
     7
 10
-484.0083293464565
 20
-78.2401500338632
 30
0.0
 11
-484.8286123167156
 21
-78.2401500338632
 31
0.0
  0
LINE
  5
28D
  8
0
  6
CONTINUOUS
 62
     7
 10
-555.7583228422202
 20
-78.2401500338632
 30
0.0
 11
-557.1793575867924
 21
-78.2401500338632
 31
0.0
  0
LINE
  5
28E
  8
0
  6
CONTINUOUS
 62
     7
 10
-484.8286123167156
 20
-78.2401500338632
 30
0.0
 11
-486.2496570657787
 21
-78.2401500338632
 31
0.0
  0
LINE
  5
28F
  8
0
  6
CONTINUOUS
 62
     7
 10
-553.503984951754
 20
-34.74015003386322
 30
0.0
 11
-548.503984951754
 21
-34.74015003386322
 31
0.0
  0
LINE
  5
290
  8
0
  6
CONTINUOUS
 62
     7
 10
-493.503984951754
 20
-34.74015003386322
 30
0.0
 11
-488.5039849517539
 21
-34.74015003386322
 31
0.0
  0
ARC
  5
291
  8
0
  6
CONTINUOUS
 62
     7
 10
-509.0222073728306
 20
-38.24015003386321
 30
0.0
 40
1.000000000000001
 50
270.0
 51
340.0000000000001
  0
ARC
  5
292
  8
0
  6
CONTINUOUS
 62
     7
 10
-532.9857625306773
 20
-38.24015003386321
 30
0.0
 40
1.000000000000001
 50
200.0
 51
270.0
  0
ARC
  5
293
  8
0
  6
CONTINUOUS
 62
     7
 10
-547.0222073728306
 20
-38.24015003386321
 30
0.0
 40
0.9999999999999538
 50
270.0
 51
340.0000000000001
  0
ARC
  5
294
  8
0
  6
CONTINUOUS
 62
     7
 10
-494.9857625306773
 20
-38.24015003386321
 30
0.0
 40
1.000000000000001
 50
199.9999999999993
 51
269.9999999999986
  0
LINE
  5
295
  8
0
  6
CONTINUOUS
 62
     7
 10
-546.0825147520447
 20
-38.58217017718888
 30
0.0
 11
-544.741633745866
 21
-34.89812989053755
 31
0.0
  0
LINE
  5
296
  8
0
  6
CONTINUOUS
 62
     7
 10
-508.0825147520447
 20
-38.58217017718888
 30
0.0
 11
-506.741633745866
 21
-34.89812989053755
 31
0.0
  0
LINE
  5
297
  8
0
  6
CONTINUOUS
 62
     7
 10
-535.2663361576418
 20
-34.89812989053755
 30
0.0
 11
-533.9254551514633
 21
-38.58217017718888
 31
0.0
  0
LINE
  5
298
  8
0
  6
CONTINUOUS
 62
     7
 10
-497.2663361576419
 20
-34.89812989053756
 30
0.0
 11
-495.9254551514632
 21
-38.58217017718887
 31
0.0
  0
LINE
  5
299
  8
0
  6
CONTINUOUS
 62
     7
 10
-543.8019411250801
 20
-34.24015003386322
 30
0.0
 11
-536.2060287784278
 21
-34.24015003386322
 31
0.0
  0
ARC
  5
29A
  8
0
  6
CONTINUOUS
 62
     7
 10
-505.8019411250801
 20
-35.24015003386322
 30
0.0
 40
0.9999999999999538
 50
90.0
 51
159.9999999999999
  0
ARC
  5
29B
  8
0
  6
CONTINUOUS
 62
     7
 10
-536.2060287784278
 20
-35.24015003386322
 30
0.0
 40
1.000000000000058
 50
20.00000000000018
 51
90.00000000000034
  0
ARC
  5
29C
  8
0
  6
CONTINUOUS
 62
     7
 10
-543.8019411250801
 20
-35.24015003386322
 30
0.0
 40
1.000000000000001
 50
89.99999999999982
 51
160.0000000000001
  0
ARC
  5
29D
  8
0
  6
CONTINUOUS
 62
     7
 10
-498.2060287784278
 20
-35.24015003386322
 30
0.0
 40
1.000000000000001
 50
19.99999999999995
 51
90.00000000000001
  0
LINE
  5
29E
  8
0
  6
CONTINUOUS
 62
     7
 10
-505.8019411250801
 20
-34.24015003386322
 30
0.0
 11
-498.2060287784278
 21
-34.24015003386322
 31
0.0
  0
ARC
  5
29F
  8
0
  6
CONTINUOUS
 62
     7
 10
-486.703984951754
 20
-40.04015003386322
 30
0.0
 40
0.299999999999967
 50
90.0
 51
180.0
  0
ARC
  5
2A0
  8
0
  6
CONTINUOUS
 62
     7
 10
-495.303984951754
 20
-40.04015003386322
 30
0.0
 40
0.3000000000000017
 50
0.0
 51
90.0
  0
ARC
  5
2A1
  8
0
  6
CONTINUOUS
 62
     7
 10
-555.303984951754
 20
-40.04015003386322
 30
0.0
 40
0.3000000000000017
 50
0.0
 51
90.0
  0
ARC
  5
2A2
  8
0
  6
CONTINUOUS
 62
     7
 10
-546.703984951754
 20
-40.04015003386322
 30
0.0
 40
0.300000000000078
 50
90.00000000000068
 51
180.0
  0
LINE
  5
2A3
  8
0
  6
CONTINUOUS
 62
     7
 10
-547.0039849517541
 20
-44.74015003386322
 30
0.0
 11
-547.0039849517541
 21
-40.04015003386322
 31
0.0
  0
LINE
  5
2A4
  8
0
  6
CONTINUOUS
 62
     7
 10
-555.0039849517541
 20
-40.04015003386322
 30
0.0
 11
-555.0039849517541
 21
-44.74015003386322
 31
0.0
  0
LINE
  5
2A5
  8
0
  6
CONTINUOUS
 62
     7
 10
-495.003984951754
 20
-40.04015003386322
 30
0.0
 11
-495.003984951754
 21
-44.74015003386322
 31
0.0
  0
LINE
  5
2A6
  8
0
  6
CONTINUOUS
 62
     7
 10
-487.003984951754
 20
-44.74015003386322
 30
0.0
 11
-487.003984951754
 21
-40.04015003386322
 31
0.0
  0
LINE
  5
2A7
  8
0
  6
CONTINUOUS
 62
     7
 10
-552.9578147864843
 20
-48.89491236323627
 30
0.0
 11
-552.9338124573039
 21
-49.61541362081734
 31
0.0
  0
ARC
  5
2A8
  8
0
  6
CONTINUOUS
 62
     7
 10
-553.503984951754
 20
-35.74015003386322
 30
0.0
 40
1.000000000000001
 50
90.0
 51
180.0000000000016
  0
ARC
  5
2A9
  8
0
  6
CONTINUOUS
 62
     7
 10
-548.503984951754
 20
-35.74015003386322
 30
0.0
 40
1.000000000000001
 50
359.9999999999985
 51
89.99999999999977
  0
LINE
  5
2AA
  8
0
  6
CONTINUOUS
 62
     7
 10
-494.503984951754
 20
-35.74015003386313
 30
0.0
 11
-494.503984951754
 21
-39.24015003386316
 31
0.0
  0
LINE
  5
2AB
  8
0
  6
CONTINUOUS
 62
     7
 10
-487.5039849517539
 20
-39.24015003386316
 30
0.0
 11
-487.5039849517539
 21
-35.74015003386313
 31
0.0
  0
LINE
  5
2AC
  8
0
  6
CONTINUOUS
 62
     7
 10
-554.503984951754
 20
-35.74015003386313
 30
0.0
 11
-554.503984951754
 21
-39.24015003386316
 31
0.0
  0
LINE
  5
2AD
  8
0
  6
CONTINUOUS
 62
     7
 10
-547.503984951754
 20
-39.24015003386316
 30
0.0
 11
-547.503984951754
 21
-35.74015003386313
 31
0.0
  0
ARC
  5
2AE
  8
0
  6
CONTINUOUS
 62
     7
 10
-493.503984951754
 20
-35.74015003386322
 30
0.0
 40
1.000000000000001
 50
90.0
 51
180.0000000000016
  0
ARC
  5
2AF
  8
0
  6
CONTINUOUS
 62
     7
 10
-488.5039849517539
 20
-35.74015003386322
 30
0.0
 40
1.000000000000001
 50
359.9999999999985
 51
90.0000000000004
  0
ENDBLK
  8
0
  0
BLOCK
  8
0
  2
D_FRAME_VIEW_3651
 70
     0
 10
0.0
 20
0.0
 30
0.0
  0
LINE
  5
2B4
  8
0
  6
CONTINUOUS
 62
     7
 10
-442.503984951754
 20
138.1653924082762
 30
0.0
 11
-442.503984951754
 21
132.1653924082762
 31
0.0
  0
LINE
  5
2B5
  8
0
  6
CONTINUOUS
 62
     7
 10
-443.003984951754
 20
132.1653924082762
 30
0.0
 11
-443.003984951754
 21
138.1653924082762
 31
0.0
  0
LINE
  5
2B6
  8
0
  6
CONTINUOUS
 62
     7
 10
-442.503984951754
 20
132.1653924082762
 30
0.0
 11
-442.503984951754
 21
6.16539240827621
 31
0.0
  0
LINE
  5
2B7
  8
0
  6
CONTINUOUS
 62
     7
 10
-443.003984951754
 20
132.1653924082762
 30
0.0
 11
-443.003984951754
 21
6.16539240827621
 31
0.0
  0
LINE
  5
2B8
  8
0
  6
CONTINUOUS
 62
     7
 10
-442.503984951754
 20
0.1653924082762048
 30
0.0
 11
-443.003984951754
 21
0.1653924082762048
 31
0.0
  0
LINE
  5
2B9
  8
0
  6
CONTINUOUS
 62
     7
 10
-442.503984951754
 20
6.16539240827621
 30
0.0
 11
-442.503984951754
 21
0.1653924082762048
 31
0.0
  0
LINE
  5
2BA
  8
0
  6
CONTINUOUS
 62
     7
 10
-443.003984951754
 20
0.1653924082762048
 30
0.0
 11
-443.003984951754
 21
6.16539240827621
 31
0.0
  0
LINE
  5
2BB
  8
0
  6
CONTINUOUS
 62
     7
 10
-443.003984951754
 20
276.1653924082764
 30
0.0
 11
-442.503984951754
 21
276.1653924082764
 31
0.0
  0
LINE
  5
2BC
  8
0
  6
CONTINUOUS
 62
     7
 10
-443.003984951754
 20
270.1653924082764
 30
0.0
 11
-443.003984951754
 21
276.1653924082764
 31
0.0
  0
LINE
  5
2BD
  8
0
  6
CONTINUOUS
 62
     7
 10
-442.503984951754
 20
276.1653924082764
 30
0.0
 11
-442.503984951754
 21
270.1653924082764
 31
0.0
  0
LINE
  5
2BE
  8
0
  6
CONTINUOUS
 62
     7
 10
-443.003984951754
 20
270.1653924082764
 30
0.0
 11
-443.003984951754
 21
144.1653924082767
 31
0.0
  0
LINE
  5
2BF
  8
0
  6
CONTINUOUS
 62
     7
 10
-442.503984951754
 20
270.1653924082764
 30
0.0
 11
-442.503984951754
 21
144.1653924082765
 31
0.0
  0
LINE
  5
2C0
  8
0
  6
CONTINUOUS
 62
     7
 10
-443.003984951754
 20
138.1653924082765
 30
0.0
 11
-443.003984951754
 21
144.1653924082767
 31
0.0
  0
LINE
  5
2C1
  8
0
  6
CONTINUOUS
 62
     7
 10
-442.503984951754
 20
144.1653924082765
 30
0.0
 11
-442.503984951754
 21
138.1653924082765
 31
0.0
  0
LINE
  5
2C2
  8
0
  6
CONTINUOUS
 62
     9
 10
-442.503984951754
 20
62.73015371962575
 30
0.0
 11
-442.4921689994551
 21
62.88341299879465
 31
0.0
  0
LINE
  5
2C3
  8
0
  6
CONTINUOUS
 62
     9
 10
-442.503984951754
 20
34.48015371962577
 30
0.0
 11
-442.4921689994551
 21
34.63341299879467
 31
0.0
  0
LINE
  5
2C4
  8
0
  6
CONTINUOUS
 62
     9
 10
-442.503984951754
 20
47.35063109692665
 30
0.0
 11
-442.4921689994551
 21
47.19737181775775
 31
0.0
  0
LINE
  5
2C5
  8
0
  6
CONTINUOUS
 62
     9
 10
-442.503984951754
 20
75.60063109692666
 30
0.0
 11
-442.4921689994551
 21
75.44737181775776
 31
0.0
  0
LINE
  5
2C6
  8
0
  6
CONTINUOUS
 62
     9
 10
-442.503984951754
 20
103.8506310969267
 30
0.0
 11
-442.4921689994551
 21
103.6973718177578
 31
0.0
  0
LINE
  5
2C7
  8
0
  6
CONTINUOUS
 62
     7
 10
-404.003984951754
 20
38.44182513257042
 30
0.0
 11
-404.003984951754
 21
37.45713773192272
 31
0.0
  0
LINE
  5
2C8
  8
0
  6
CONTINUOUS
 62
     7
 10
-404.003984951754
 20
94.94182513257039
 30
0.0
 11
-404.003984951754
 21
93.95713773192271
 31
0.0
  0
LINE
  5
2C9
  8
0
  6
CONTINUOUS
 62
     7
 10
-404.003984951754
 20
66.69182513257037
 30
0.0
 11
-404.003984951754
 21
65.70713773192271
 31
0.0
  0
LINE
  5
2CA
  8
0
  6
CONTINUOUS
 62
     7
 10
-404.003984951754
 20
72.62364708462971
 30
0.0
 11
-404.003984951754
 21
71.63895968398202
 31
0.0
  0
LINE
  5
2CB
  8
0
  6
CONTINUOUS
 62
     7
 10
-404.003984951754
 20
44.3736470846297
 30
0.0
 11
-404.003984951754
 21
43.38895968398203
 31
0.0
  0
LINE
  5
2CC
  8
0
  6
CONTINUOUS
 62
     7
 10
-404.003984951754
 20
100.8736470846297
 30
0.0
 11
-404.003984951754
 21
99.88895968398202
 31
0.0
  0
LINE
  5
2CD
  8
0
  6
CONTINUOUS
 62
     7
 10
-404.003984951754
 20
71.63895968398202
 30
0.0
 11
-404.003984951754
 21
66.69182513257037
 31
0.0
  0
LINE
  5
2CE
  8
0
  6
CONTINUOUS
 62
     7
 10
-404.003984951754
 20
43.38895968398203
 30
0.0
 11
-404.003984951754
 21
38.44182513257042
 31
0.0
  0
LINE
  5
2CF
  8
0
  6
CONTINUOUS
 62
     7
 10
-404.003984951754
 20
99.88895968398202
 30
0.0
 11
-404.003984951754
 21
94.94182513257039
 31
0.0
  0
ARC
  5
2D0
  8
0
  6
CONTINUOUS
 62
     7
 10
-442.003984951754
 20
124.1143569749912
 30
0.0
 40
0.4999999999999988
 50
180.0
 51
267.0000000000005
  0
ARC
  5
2D1
  8
0
  6
CONTINUOUS
 62
     7
 10
-442.003984951754
 20
14.21642784156148
 30
0.0
 40
0.5000000000000017
 50
93.00000000000003
 51
180.0
  0
LINE
  5
2D2
  8
0
  6
CONTINUOUS
 62
     7
 10
-404.003984951754
 20
37.00179208697309
 30
0.0
 11
-404.00542122585
 21
36.91227732751383
 31
0.0
  0
LINE
  5
2D3
  8
0
  6
CONTINUOUS
 62
     7
 10
-404.003984951754
 20
37.45713773192272
 30
0.0
 11
-404.003984951754
 21
37.38750237251448
 31
0.0
  0
LINE
  5
2D4
  8
0
  6
CONTINUOUS
 62
     7
 10
-404.003984951754
 20
37.38750237251448
 30
0.0
 11
-404.003984951754
 21
37.36362370227161
 31
0.0
  0
LINE
  5
2D5
  8
0
  6
CONTINUOUS
 62
     7
 10
-404.003984951754
 20
37.36362370227161
 30
0.0
 11
-404.003984951754
 21
36.98674748438381
 31
0.0
  0
LINE
  5
2D6
  8
0
  6
CONTINUOUS
 62
     7
 10
-404.003984951754
 20
65.25179208697308
 30
0.0
 11
-404.0054212257365
 21
65.16227733080831
 31
0.0
  0
LINE
  5
2D7
  8
0
  6
CONTINUOUS
 62
     7
 10
-404.003984951754
 20
65.70713773192271
 30
0.0
 11
-404.003984951754
 21
65.63750237251446
 31
0.0
  0
LINE
  5
2D8
  8
0
  6
CONTINUOUS
 62
     7
 10
-404.003984951754
 20
65.63750237251446
 30
0.0
 11
-404.003984951754
 21
65.6136237022716
 31
0.0
  0
LINE
  5
2D9
  8
0
  6
CONTINUOUS
 62
     7
 10
-404.003984951754
 20
65.6136237022716
 30
0.0
 11
-404.003984951754
 21
65.23674748438383
 31
0.0
  0
LINE
  5
2DA
  8
0
  6
CONTINUOUS
 62
     7
 10
-404.003984951754
 20
93.5017920869731
 30
0.0
 11
-404.0054212257365
 21
93.41227733080832
 31
0.0
  0
LINE
  5
2DB
  8
0
  6
CONTINUOUS
 62
     7
 10
-404.003984951754
 20
93.95713773192271
 30
0.0
 11
-404.003984951754
 21
93.88750237251448
 31
0.0
  0
LINE
  5
2DC
  8
0
  6
CONTINUOUS
 62
     7
 10
-404.003984951754
 20
93.88750237251448
 30
0.0
 11
-404.003984951754
 21
93.86362370227161
 31
0.0
  0
LINE
  5
2DD
  8
0
  6
CONTINUOUS
 62
     7
 10
-404.003984951754
 20
93.86362370227161
 30
0.0
 11
-404.003984951754
 21
93.48674748438381
 31
0.0
  0
LINE
  5
2DE
  8
0
  6
CONTINUOUS
 62
     9
 10
-404.005144903921
 20
44.90999409727699
 30
0.0
 11
-404.003984951754
 21
44.8289927295742
 31
0.0
  0
LINE
  5
2DF
  8
0
  6
CONTINUOUS
 62
     7
 10
-404.003984951754
 20
44.84550148250877
 30
0.0
 11
-404.003984951754
 21
44.44328244403813
 31
0.0
  0
LINE
  5
2E0
  8
0
  6
CONTINUOUS
 62
     7
 10
-404.003984951754
 20
44.44328244403813
 30
0.0
 11
-404.003984951754
 21
44.3736470846297
 31
0.0
  0
LINE
  5
2E1
  8
0
  6
CONTINUOUS
 62
     7
 10
-404.003984951754
 20
73.0955014825088
 30
0.0
 11
-404.003984951754
 21
72.69328244403813
 31
0.0
  0
LINE
  5
2E2
  8
0
  6
CONTINUOUS
 62
     7
 10
-404.003984951754
 20
72.69328244403813
 30
0.0
 11
-404.003984951754
 21
72.62364708462971
 31
0.0
  0
LINE
  5
2E3
  8
0
  6
CONTINUOUS
 62
     7
 10
-404.003984951754
 20
101.3455014825088
 30
0.0
 11
-404.003984951754
 21
100.9432824440381
 31
0.0
  0
LINE
  5
2E4
  8
0
  6
CONTINUOUS
 62
     7
 10
-404.003984951754
 20
100.9432824440381
 30
0.0
 11
-404.003984951754
 21
100.8736470846297
 31
0.0
  0
LINE
  5
2E5
  8
0
  6
CONTINUOUS
 62
     7
 10
-442.0301529298754
 20
123.6150422076139
 30
0.0
 11
-437.4254810173896
 21
123.3737215783535
 31
0.0
  0
LINE
  5
2E6
  8
0
  6
CONTINUOUS
 62
     7
 10
-437.4254810173896
 20
14.95706323819914
 30
0.0
 11
-442.0301529298754
 21
14.71574260893876
 31
0.0
  0
LINE
  5
2E7
  8
0
  6
CONTINUOUS
 62
     7
 10
-436.003984951754
 20
121.8757772762216
 30
0.0
 11
-436.003984951754
 21
115.2484748323259
 31
0.0
  0
ARC
  5
2E8
  8
0
  6
CONTINUOUS
 62
     7
 10
-437.503984951754
 20
121.8757772762216
 30
0.0
 40
1.500000000000001
 50
359.9999999999997
 51
87.00000000000006
  0
LINE
  5
2E9
  8
0
  6
CONTINUOUS
 62
     7
 10
-436.003984951754
 20
23.08230998422649
 30
0.0
 11
-436.003984951754
 21
16.45500754033101
 31
0.0
  0
ARC
  5
2EA
  8
0
  6
CONTINUOUS
 62
     7
 10
-437.503984951754
 20
16.45500754033101
 30
0.0
 40
1.499999999999999
 50
273.0000000000001
 51
0.0
  0
POLYLINE
  5
2EB
  8
0
  6
CONTINUOUS
 62
     9
 66
     1
 10
0.0
 20
0.0
 30
0.0
  0
VERTEX
  5
9DE
  8
0
  6
CONTINUOUS
 62
     9
 10
-436.003984951754
 20
115.2484748323259
 30
0.0
  0
VERTEX
  5
9DF
  8
0
  6
CONTINUOUS
 62
     9
 10
-435.9947994046227
 20
115.1530781522593
 30
0.0
  0
VERTEX
  5
9E0
  8
0
  6
CONTINUOUS
 62
     9
 10
-435.967580260333
 20
115.0611865549964
 30
0.0
  0
VERTEX
  5
9E1
  8
0
  6
CONTINUOUS
 62
     9
 10
-435.9233276098161
 20
114.9761763389277
 30
0.0
  0
VERTEX
  5
9E2
  8
0
  6
CONTINUOUS
 62
     9
 10
-435.8636673922999
 20
114.9011709654387
 30
0.0
  0
VERTEX
  5
9E3
  8
0
  6
CONTINUOUS
 62
     9
 10
-435.790791654744
 20
114.8389262961024
 30
0.0
  0
VERTEX
  5
9E4
  8
0
  6
CONTINUOUS
 62
     9
 10
-435.7073780112364
 20
114.7917293362943
 30
0.0
  0
VERTEX
  5
9E5
  8
0
  6
CONTINUOUS
 62
     9
 10
-435.6164912615926
 20
114.7613142056095
 30
0.0
  0
VERTEX
  5
9E6
  8
0
  6
CONTINUOUS
 62
     9
 10
-435.5214707839024
 20
114.7487984225137
 30
0.0
  0
SEQEND
  5
A77
  8
0
  6
CONTINUOUS
 62
     9
  0
LINE
  5
2EC
  8
0
  6
CONTINUOUS
 62
     7
 10
-435.5214347001052
 20
114.7488503933096
 30
0.0
 11
-405.4516357067002
 21
113.6987898739977
 31
0.0
  0
LINE
  5
2ED
  8
0
  6
CONTINUOUS
 62
     9
 10
-404.9952584162556
 20
112.1823956173905
 30
0.0
 11
-404.9940563791774
 21
112.2342776895665
 31
0.0
  0
POLYLINE
  5
2EE
  8
0
  6
CONTINUOUS
 62
     9
 10
0.0
 20
0.0
 30
0.0
 66
     1
 70
     8
  0
VERTEX
  5
2EF
  8
0
  6
CONTINUOUS
 62
     9
 10
-435.5214347001052
 20
114.7488503933096
 30
0.0
 70
    32
  0
VERTEX
  5
2F0
  8
0
  6
CONTINUOUS
 62
     9
 10
-435.5214707839023
 20
114.7487984225137
 30
0.0
 70
    32
  0
SEQEND
  5
2F1
  8
0
  6
CONTINUOUS
 62
     9
  0
POLYLINE
  5
2F2
  8
0
  6
CONTINUOUS
 62
     9
 66
     1
 10
0.0
 20
0.0
 30
0.0
  0
VERTEX
  5
9E7
  8
0
  6
CONTINUOUS
 62
     9
 10
-435.5214707839029
 20
23.58198639403873
 30
0.0
  0
VERTEX
  5
9E8
  8
0
  6
CONTINUOUS
 62
     9
 10
-435.616491261593
 20
23.56947061094283
 30
0.0
  0
VERTEX
  5
9E9
  8
0
  6
CONTINUOUS
 62
     9
 10
-435.7073780112368
 20
23.539055480258
 30
0.0
  0
VERTEX
  5
9EA
  8
0
  6
CONTINUOUS
 62
     9
 10
-435.7907916547442
 20
23.49185852044988
 30
0.0
  0
VERTEX
  5
9EB
  8
0
  6
CONTINUOUS
 62
     9
 10
-435.8636673923001
 20
23.42961385111358
 30
0.0
  0
VERTEX
  5
9EC
  8
0
  6
CONTINUOUS
 62
     9
 10
-435.9233276098162
 20
23.35460847762453
 30
0.0
  0
VERTEX
  5
9ED
  8
0
  6
CONTINUOUS
 62
     9
 10
-435.9675802603331
 20
23.26959826155589
 30
0.0
  0
VERTEX
  5
9EE
  8
0
  6
CONTINUOUS
 62
     9
 10
-435.9947994046227
 20
23.17770666429302
 30
0.0
  0
VERTEX
  5
9EF
  8
0
  6
CONTINUOUS
 62
     9
 10
-436.003984951754
 20
23.08230998422647
 30
0.0
  0
SEQEND
  5
A78
  8
0
  6
CONTINUOUS
 62
     9
  0
LINE
  5
2F3
  8
0
  6
CONTINUOUS
 62
     7
 10
-405.4516357067002
 20
24.63199494255468
 30
0.0
 11
-435.5214347001052
 21
23.5819344232428
 31
0.0
  0
POLYLINE
  5
2F4
  8
0
  6
CONTINUOUS
 62
     9
 10
0.0
 20
0.0
 30
0.0
 66
     1
 70
     8
  0
VERTEX
  5
2F5
  8
0
  6
CONTINUOUS
 62
     9
 10
-435.5214707839023
 20
23.58198639403875
 30
0.0
 70
    32
  0
VERTEX
  5
2F6
  8
0
  6
CONTINUOUS
 62
     9
 10
-435.5214347001052
 20
23.5819344232428
 30
0.0
 70
    32
  0
SEQEND
  5
2F7
  8
0
  6
CONTINUOUS
 62
     9
  0
LINE
  5
2F8
  8
0
  6
CONTINUOUS
 62
     7
 10
-441.503984951754
 20
272.5403924082761
 30
0.0
 11
-441.503984951754
 21
268.0403924082761
 31
0.0
  0
LINE
  5
2F9
  8
0
  6
CONTINUOUS
 62
     7
 10
-441.503984951754
 20
268.0403924082761
 30
0.0
 11
-441.503984951754
 21
263.5403924082761
 31
0.0
  0
LINE
  5
2FA
  8
0
  6
CONTINUOUS
 62
     7
 10
-441.5039849517539
 20
141.7903924082762
 30
0.0
 11
-441.5039849517539
 21
146.2903924082762
 31
0.0
  0
LINE
  5
2FB
  8
0
  6
CONTINUOUS
 62
     7
 10
-441.5039849517539
 20
146.2903924082762
 30
0.0
 11
-441.5039849517539
 21
150.7903924082762
 31
0.0
  0
LINE
  5
2FC
  8
0
  6
CONTINUOUS
 62
     7
 10
-404.003984951754
 20
65.23667355190646
 30
0.0
 11
-404.003984951754
 21
44.8289927295726
 31
0.0
  0
LINE
  5
2FD
  8
0
  6
CONTINUOUS
 62
     7
 10
-404.003984951754
 20
93.48667355190648
 30
0.0
 11
-404.003984951754
 21
73.09123416023913
 31
0.0
  0
LINE
  5
2FE
  8
0
  6
CONTINUOUS
 62
     7
 10
-404.003984951754
 20
36.98667355190651
 30
0.0
 11
-404.003984951754
 21
26.14838919916183
 31
0.0
  0
LINE
  5
2FF
  8
0
  6
CONTINUOUS
 62
     7
 10
-404.003984951754
 20
112.1823956173905
 30
0.0
 11
-404.003984951754
 21
101.3412341602392
 31
0.0
  0
LINE
  5
300
  8
0
  6
CONTINUOUS
 62
     7
 10
-404.003984951754
 20
112.1997036334691
 30
0.0
 11
-404.003984951754
 21
112.1823956173905
 31
0.0
  0
LINE
  5
301
  8
0
  6
CONTINUOUS
 62
     7
 10
-404.003984951754
 20
26.14838919916183
 30
0.0
 11
-404.003984951754
 21
26.13108118308327
 31
0.0
  0
ARC
  5
302
  8
0
  6
CONTINUOUS
 62
     7
 10
-405.503984951754
 20
112.1997036334691
 30
0.0
 40
1.500000000000001
 50
0.0
 51
87.99999999999962
  0
ARC
  5
303
  8
0
  6
CONTINUOUS
 62
     7
 10
-405.503984951754
 20
26.13108118308332
 30
0.0
 40
1.500000000000001
 50
272.0000000000005
 51
359.999999999998
  0
ARC
  5
304
  8
0
  6
CONTINUOUS
 62
     7
 10
-435.503984951754
 20
23.08223900973325
 30
0.0
 40
0.5000000000000003
 50
92.00000000000153
 51
179.9999999999992
  0
ARC
  5
305
  8
0
  6
CONTINUOUS
 62
     7
 10
-435.503984951754
 20
115.2485458068192
 30
0.0
 40
0.5000000000000004
 50
180.0000000000008
 51
267.9999999999997
  0
LINE
  5
306
  8
0
  6
CONTINUOUS
 62
     7
 10
-442.503984951754
 20
7.131197559863813
 30
0.0
 11
-442.203984951754
 21
7.113268063812162
 31
0.0
  0
LINE
  5
307
  8
0
  6
CONTINUOUS
 62
     7
 10
-442.203984951754
 20
131.2175167527403
 30
0.0
 11
-442.503984951754
 21
131.1995872566886
 31
0.0
  0
LINE
  5
308
  8
0
  6
CONTINUOUS
 62
     7
 10
-442.203984951754
 20
128.8632680638085
 30
0.0
 11
-442.503984951754
 21
128.8811975598638
 31
0.0
  0
LINE
  5
309
  8
0
  6
CONTINUOUS
 62
     7
 10
-442.503984951754
 20
9.449587256688659
 30
0.0
 11
-442.203984951754
 21
9.467516752743919
 31
0.0
  0
LINE
  5
30A
  8
0
  6
CONTINUOUS
 62
     7
 10
-437.503984951754
 20
7.113268063808547
 30
0.0
 11
-437.503984951754
 21
4.290392408276222
 31
0.0
  0
LINE
  5
30B
  8
0
  6
CONTINUOUS
 62
     7
 10
-442.203984951754
 20
7.113268063808547
 30
0.0
 11
-437.503984951754
 21
7.113268063808547
 31
0.0
  0
LINE
  5
30C
  8
0
  6
CONTINUOUS
 62
     7
 10
-437.503984951754
 20
131.2175167527439
 30
0.0
 11
-437.503984951754
 21
134.0403924082762
 31
0.0
  0
LINE
  5
30D
  8
0
  6
CONTINUOUS
 62
     7
 10
-442.203984951754
 20
131.2175167527439
 30
0.0
 11
-437.503984951754
 21
131.2175167527439
 31
0.0
  0
LINE
  5
30E
  8
0
  6
CONTINUOUS
 62
     7
 10
-437.503984951754
 20
12.29039240827622
 30
0.0
 11
-437.503984951754
 21
9.467516752743919
 31
0.0
  0
LINE
  5
30F
  8
0
  6
CONTINUOUS
 62
     7
 10
-442.203984951754
 20
9.467516752743924
 30
0.0
 11
-437.503984951754
 21
9.467516752743924
 31
0.0
  0
LINE
  5
310
  8
0
  6
CONTINUOUS
 62
     7
 10
-437.503984951754
 20
126.0403924082762
 30
0.0
 11
-437.503984951754
 21
128.8632680638085
 31
0.0
  0
LINE
  5
311
  8
0
  6
CONTINUOUS
 62
     7
 10
-442.203984951754
 20
128.8632680638085
 30
0.0
 11
-437.503984951754
 21
128.8632680638085
 31
0.0
  0
LINE
  5
312
  8
0
  6
CONTINUOUS
 62
     7
 10
-437.503984951754
 20
128.8632680638085
 30
0.0
 11
-437.503984951754
 21
131.2175167527439
 31
0.0
  0
LINE
  5
313
  8
0
  6
CONTINUOUS
 62
     7
 10
-437.503984951754
 20
9.467516752743919
 30
0.0
 11
-437.503984951754
 21
7.113268063808547
 31
0.0
  0
LINE
  5
314
  8
0
  6
CONTINUOUS
 62
     7
 10
-447.503984951754
 20
265.5403924082761
 30
0.0
 11
-447.503984951754
 21
268.0403924082761
 31
0.0
  0
LINE
  5
315
  8
0
  6
CONTINUOUS
 62
     7
 10
-447.503984951754
 20
268.0403924082761
 30
0.0
 11
-447.503984951754
 21
270.5403924082761
 31
0.0
  0
LINE
  5
316
  8
0
  6
CONTINUOUS
 62
     7
 10
-447.503984951754
 20
143.7903924082762
 30
0.0
 11
-447.503984951754
 21
146.2903924082762
 31
0.0
  0
LINE
  5
317
  8
0
  6
CONTINUOUS
 62
     7
 10
-447.503984951754
 20
146.2903924082762
 30
0.0
 11
-447.503984951754
 21
148.7903924082762
 31
0.0
  0
LINE
  5
318
  8
0
  6
CONTINUOUS
 62
     7
 10
-437.4254810173896
 20
123.3737215783535
 30
0.0
 11
-433.3373435589646
 21
123.1594713727536
 31
0.0
  0
LINE
  5
319
  8
0
  6
CONTINUOUS
 62
     7
 10
-433.3373435589646
 20
15.17131344379902
 30
0.0
 11
-437.4254810173896
 21
14.95706323819915
 31
0.0
  0
LINE
  5
31A
  8
0
  6
CONTINUOUS
 62
     7
 10
-409.5137619250334
 20
121.910930364751
 30
0.0
 11
-405.4254810173895
 21
121.6966726412962
 31
0.0
  0
LINE
  5
31B
  8
0
  6
CONTINUOUS
 62
     7
 10
-405.4254810173895
 20
16.63411217525646
 30
0.0
 11
-409.5137619250335
 21
16.41985445180159
 31
0.0
  0
LINE
  5
31C
  8
0
  6
CONTINUOUS
 62
     7
 10
-404.003984951754
 20
26.13108118308327
 30
0.0
 11
-404.003984951754
 21
18.13205647738826
 31
0.0
  0
LINE
  5
31D
  8
0
  6
CONTINUOUS
 62
     7
 10
-404.003984951754
 20
120.1987283391643
 30
0.0
 11
-404.003984951754
 21
112.1997036334691
 31
0.0
  0
ARC
  5
31E
  8
0
  6
CONTINUOUS
 62
     7
 10
-405.503984951754
 20
120.1987283391643
 30
0.0
 40
1.499999999999988
 50
0.0
 51
87.00000000000011
  0
ARC
  5
31F
  8
0
  6
CONTINUOUS
 62
     7
 10
-405.503984951754
 20
18.13205647738832
 30
0.0
 40
1.500000000000001
 50
273.0000000000007
 51
359.999999999998
  0
ARC
  5
320
  8
0
  6
CONTINUOUS
 62
     9
 10
-445.9675229766181
 20
206.2956655704415
 30
0.0
 40
2.314696651739936
 50
354.9070355688712
 51
11.14457830615868
  0
POLYLINE
  5
321
  8
0
  6
CONTINUOUS
 62
     9
 66
     1
 10
0.0
 20
0.0
 30
0.0
  0
VERTEX
  5
9F0
  8
0
  6
CONTINUOUS
 62
     9
 10
-443.6964755374833
 20
206.7430626186828
 30
0.0
  0
VERTEX
  5
9F1
  8
0
  6
CONTINUOUS
 62
     9
 10
-443.7343919141575
 20
206.8673847458645
 30
0.0
  0
VERTEX
  5
9F2
  8
0
  6
CONTINUOUS
 62
     9
 10
-443.7822802638224
 20
206.9607454212746
 30
0.0
  0
VERTEX
  5
9F3
  8
0
  6
CONTINUOUS
 62
     9
 10
-443.8688504519166
 20
207.0355251163639
 30
0.0
  0
VERTEX
  5
9F4
  8
0
  6
CONTINUOUS
 62
     9
 10
-443.9168292090063
 20
207.0417845524385
 30
0.0
  0
SEQEND
  5
A79
  8
0
  6
CONTINUOUS
 62
     9
  0
ARC
  5
322
  8
0
  6
CONTINUOUS
 62
     7
 10
-444.003984951754
 20
208.0379792505302
 30
0.0
 40
1.00000000000001
 50
274.9999999999999
 51
0.0
  0
ARC
  5
323
  8
0
  6
CONTINUOUS
 62
     9
 10
-445.9675229766179
 20
240.5456655704416
 30
0.0
 40
2.314696651739715
 50
354.9070355688706
 51
11.14457830615902
  0
POLYLINE
  5
324
  8
0
  6
CONTINUOUS
 62
     9
 66
     1
 10
0.0
 20
0.0
 30
0.0
  0
VERTEX
  5
9F5
  8
0
  6
CONTINUOUS
 62
     9
 10
-443.6964755374833
 20
240.9930626186829
 30
0.0
  0
VERTEX
  5
9F6
  8
0
  6
CONTINUOUS
 62
     9
 10
-443.7343919141575
 20
241.1173847458646
 30
0.0
  0
VERTEX
  5
9F7
  8
0
  6
CONTINUOUS
 62
     9
 10
-443.7822802638224
 20
241.2107454212747
 30
0.0
  0
VERTEX
  5
9F8
  8
0
  6
CONTINUOUS
 62
     9
 10
-443.8688504519166
 20
241.285525116364
 30
0.0
  0
VERTEX
  5
9F9
  8
0
  6
CONTINUOUS
 62
     9
 10
-443.9168292090063
 20
241.2917845524386
 30
0.0
  0
SEQEND
  5
A7A
  8
0
  6
CONTINUOUS
 62
     9
  0
ARC
  5
325
  8
0
  6
CONTINUOUS
 62
     7
 10
-444.003984951754
 20
242.2879792505303
 30
0.0
 40
1.000000000000001
 50
275.0
 51
0.0
  0
POLYLINE
  5
326
  8
0
  6
CONTINUOUS
 62
     9
 66
     1
 10
0.0
 20
0.0
 30
0.0
  0
VERTEX
  5
9FA
  8
0
  6
CONTINUOUS
 62
     9
 10
-443.9168292090063
 20
227.4390002641131
 30
0.0
  0
VERTEX
  5
9FB
  8
0
  6
CONTINUOUS
 62
     9
 10
-443.8094230843144
 20
227.4860973045033
 30
0.0
  0
VERTEX
  5
9FC
  8
0
  6
CONTINUOUS
 62
     9
 10
-443.7454924778854
 20
227.5870016580445
 30
0.0
  0
VERTEX
  5
9FD
  8
0
  6
CONTINUOUS
 62
     9
 10
-443.7049362172186
 20
227.7039724015407
 30
0.0
  0
SEQEND
  5
A7B
  8
0
  6
CONTINUOUS
 62
     9
  0
ARC
  5
327
  8
0
  6
CONTINUOUS
 62
     9
 10
-445.8644410939364
 20
228.1837795904256
 30
0.0
 40
2.212165511681673
 50
347.4732853571941
 51
5.36453412660859
  0
ARC
  5
328
  8
0
  6
CONTINUOUS
 62
     7
 10
-444.003984951754
 20
226.4428055660213
 30
0.0
 40
1.00000000000001
 50
0.0
 51
85.00000000000001
  0
ARC
  5
329
  8
0
  6
CONTINUOUS
 62
     7
 10
-444.003984951754
 20
172.0928055660212
 30
0.0
 40
1.000000000000001
 50
0.0000000000007951
 51
85.00000000000018
  0
POLYLINE
  5
32A
  8
0
  6
CONTINUOUS
 62
     9
 66
     1
 10
0.0
 20
0.0
 30
0.0
  0
VERTEX
  5
9FE
  8
0
  6
CONTINUOUS
 62
     9
 10
-443.9168292090063
 20
173.089000264113
 30
0.0
  0
VERTEX
  5
9FF
  8
0
  6
CONTINUOUS
 62
     9
 10
-443.8094230843144
 20
173.1360973045032
 30
0.0
  0
VERTEX
  5
A00
  8
0
  6
CONTINUOUS
 62
     9
 10
-443.7454924778854
 20
173.2370016580444
 30
0.0
  0
VERTEX
  5
A01
  8
0
  6
CONTINUOUS
 62
     9
 10
-443.7049362172186
 20
173.3539724015406
 30
0.0
  0
SEQEND
  5
A7C
  8
0
  6
CONTINUOUS
 62
     9
  0
ARC
  5
32B
  8
0
  6
CONTINUOUS
 62
     9
 10
-445.8644410939363
 20
173.8337795904256
 30
0.0
 40
2.212165511681565
 50
347.4732853571934
 51
5.364534126608135
  0
LINE
  5
32C
  8
0
  6
CONTINUOUS
 62
     7
 10
-447.0911406945016
 20
241.0140682829576
 30
0.0
 11
-443.9168292090063
 21
241.2917845524385
 31
0.0
  0
LINE
  5
32D
  8
0
  6
CONTINUOUS
 62
     7
 10
-447.0911406945016
 20
206.7640682829575
 30
0.0
 11
-443.9168292090063
 21
207.0417845524385
 31
0.0
  0
LINE
  5
32E
  8
0
  6
CONTINUOUS
 62
     7
 10
-443.9168292090063
 20
227.4390002641131
 30
0.0
 11
-447.0911406945016
 21
227.7167165335941
 31
0.0
  0
LINE
  5
32F
  8
0
  6
CONTINUOUS
 62
     7
 10
-443.9168292090063
 20
173.089000264113
 30
0.0
 11
-447.0911406945016
 21
173.366716533594
 31
0.0
  0
LINE
  5
330
  8
0
  6
CONTINUOUS
 62
     7
 10
-448.003984951754
 20
174.3629112316857
 30
0.0
 11
-448.003984951754
 21
205.7678735848658
 31
0.0
  0
ARC
  5
331
  8
0
  6
CONTINUOUS
 62
     7
 10
-447.003984951754
 20
240.0178735848658
 30
0.0
 40
1.000000000000001
 50
95.0000000000001
 51
180.0000000000016
  0
ARC
  5
332
  8
0
  6
CONTINUOUS
 62
     7
 10
-447.003984951754
 20
205.7678735848658
 30
0.0
 40
1.000000000000001
 50
95.0000000000001
 51
180.0000000000016
  0
LINE
  5
333
  8
0
  6
CONTINUOUS
 62
     7
 10
-448.003984951754
 20
228.7129112316858
 30
0.0
 11
-448.003984951754
 21
240.0178735848658
 31
0.0
  0
ARC
  5
334
  8
0
  6
CONTINUOUS
 62
     7
 10
-447.003984951754
 20
228.7129112316859
 30
0.0
 40
1.00000000000001
 50
180.0000000000016
 51
264.9999999999998
  0
ARC
  5
335
  8
0
  6
CONTINUOUS
 62
     7
 10
-447.003984951754
 20
174.3629112316857
 30
0.0
 40
1.00000000000001
 50
179.9999999999992
 51
264.9999999999995
  0
ARC
  5
336
  8
0
  6
CONTINUOUS
 62
     7
 10
-437.003984951754
 20
14.47846673797668
 30
0.0
 40
0.5000000000000017
 50
92.99999999999987
 51
180.0
  0
ARC
  5
337
  8
0
  6
CONTINUOUS
 62
     7
 10
-437.003984951754
 20
123.8523180785759
 30
0.0
 40
0.5000000000000004
 50
180.0
 51
267.0000000000001
  0
LINE
  5
338
  8
0
  6
CONTINUOUS
 62
     7
 10
-437.503984951754
 20
126.0403924082762
 30
0.0
 11
-437.503984951754
 21
123.8523180785759
 31
0.0
  0
LINE
  5
339
  8
0
  6
CONTINUOUS
 62
     7
 10
-437.503984951754
 20
14.47846673797668
 30
0.0
 11
-437.503984951754
 21
12.29039240827622
 31
0.0
  0
LINE
  5
33A
  8
0
  6
CONTINUOUS
 62
     7
 10
-418.5088851612898
 20
15.94844001861211
 30
0.0
 11
-424.3422203226729
 21
15.64272787699034
 31
0.0
  0
LINE
  5
33B
  8
0
  6
CONTINUOUS
 62
     7
 10
-409.5137619250332
 20
16.4198544518016
 30
0.0
 11
-409.5990769852844
 21
16.41538327895443
 31
0.0
  0
LINE
  5
33C
  8
0
  6
CONTINUOUS
 62
     7
 10
-409.5990769852844
 20
16.41538327895443
 30
0.0
 11
-418.5088851612898
 21
15.94844001861211
 31
0.0
  0
LINE
  5
33D
  8
0
  6
CONTINUOUS
 62
     7
 10
-424.3422203226729
 20
15.64272787699034
 30
0.0
 11
-433.2676254744554
 21
15.174967213784
 31
0.0
  0
LINE
  5
33E
  8
0
  6
CONTINUOUS
 62
     7
 10
-433.2676254744554
 20
15.174967213784
 30
0.0
 11
-433.3373435589642
 21
15.17131344379903
 31
0.0
  0
LINE
  5
33F
  8
0
  6
CONTINUOUS
 62
     7
 10
-424.3422203226845
 20
122.6880569395629
 30
0.0
 11
-418.5088851613221
 21
122.3823447979422
 31
0.0
  0
LINE
  5
340
  8
0
  6
CONTINUOUS
 62
     7
 10
-418.5088851613221
 20
122.3823447979422
 30
0.0
 11
-409.5892538477832
 21
121.9148867287762
 31
0.0
  0
LINE
  5
341
  8
0
  6
CONTINUOUS
 62
     7
 10
-409.5892538477832
 20
121.9148867287762
 30
0.0
 11
-409.5137619250331
 21
121.910930364751
 31
0.0
  0
LINE
  5
342
  8
0
  6
CONTINUOUS
 62
     7
 10
-433.3373435589643
 20
123.1594713727536
 30
0.0
 11
-433.2541737194953
 21
123.1551126261637
 31
0.0
  0
LINE
  5
343
  8
0
  6
CONTINUOUS
 62
     7
 10
-433.2541737194953
 20
123.1551126261637
 30
0.0
 11
-424.3422203226845
 21
122.6880569395629
 31
0.0
  0
LINE
  5
344
  8
0
  6
CONTINUOUS
 62
     7
 10
-437.503984951754
 20
125.3778357952139
 30
0.0
 11
-414.9750760431415
 21
124.1971457096469
 31
0.0
  0
LINE
  5
345
  8
0
  6
CONTINUOUS
 62
     7
 10
-414.9750760431415
 20
14.13363910690574
 30
0.0
 11
-437.503984951754
 21
12.95294902133875
 31
0.0
  0
ARC
  5
346
  8
0
  6
CONTINUOUS
 62
     7
 10
-415.1059159337489
 20
16.63021294379105
 30
0.0
 40
2.500000000000009
 50
272.9999999999945
 51
351.3989207880019
  0
ARC
  5
347
  8
0
  6
CONTINUOUS
 62
     7
 10
-415.1059159337489
 20
121.7005718727616
 30
0.0
 40
2.499999999998904
 50
8.601079211994376
 51
87.00000000000124
  0
LINE
  5
348
  8
0
  6
CONTINUOUS
 62
     7
 10
-404.0054210663664
 20
36.91228195974242
 30
0.0
 11
-404.007671621591
 21
36.95223991874001
 31
0.0
  0
LINE
  5
349
  8
0
  6
CONTINUOUS
 62
     7
 10
-404.007671621591
 20
36.95223991874001
 30
0.0
 11
-404.0051365910425
 21
36.9790836123746
 31
0.0
  0
LINE
  5
34A
  8
0
  6
CONTINUOUS
 62
     7
 10
-404.0051365910425
 20
36.9790836123746
 30
0.0
 11
-404.0039719132312
 21
36.98682066939401
 31
0.0
  0
LINE
  5
34B
  8
0
  6
CONTINUOUS
 62
     7
 10
-404.0054210663664
 20
65.16228195974237
 30
0.0
 11
-404.007671621591
 21
65.20223991873995
 31
0.0
  0
LINE
  5
34C
  8
0
  6
CONTINUOUS
 62
     7
 10
-404.007671621591
 20
65.20223991873995
 30
0.0
 11
-404.0051365910425
 21
65.22908361237457
 31
0.0
  0
LINE
  5
34D
  8
0
  6
CONTINUOUS
 62
     7
 10
-404.0051365910425
 20
65.22908361237457
 30
0.0
 11
-404.0039719132312
 21
65.23682066939399
 31
0.0
  0
LINE
  5
34E
  8
0
  6
CONTINUOUS
 62
     7
 10
-404.0054210663664
 20
93.41228195974239
 30
0.0
 11
-404.007671621591
 21
93.45223991873996
 31
0.0
  0
LINE
  5
34F
  8
0
  6
CONTINUOUS
 62
     7
 10
-404.007671621591
 20
93.45223991873996
 30
0.0
 11
-404.0067413612356
 21
93.46538584289289
 31
0.0
  0
LINE
  5
350
  8
0
  6
CONTINUOUS
 62
     7
 10
-404.0067413612356
 20
93.46538584289289
 30
0.0
 11
-404.0051365910425
 21
93.47908361237457
 31
0.0
  0
LINE
  5
351
  8
0
  6
CONTINUOUS
 62
     7
 10
-404.0051365910425
 20
93.47908361237457
 30
0.0
 11
-404.0039719132312
 21
93.48682066939396
 31
0.0
  0
LINE
  5
352
  8
0
  6
CONTINUOUS
 62
     7
 10
-404.003982663557
 20
73.09092281824344
 30
0.0
 11
-404.0040437173974
 21
73.09812470248191
 31
0.0
  0
LINE
  5
353
  8
0
  6
CONTINUOUS
 62
     7
 10
-404.003982663557
 20
101.3409228182434
 30
0.0
 11
-404.0040437173974
 21
101.3481247024819
 31
0.0
  0
ARC
  5
354
  8
0
  6
CONTINUOUS
 62
     7
 10
-442.003984951754
 20
274.272443215845
 30
0.0
 40
0.499999999999988
 50
180.0
 51
240.0000000000002
  0
ARC
  5
355
  8
0
  6
CONTINUOUS
 62
     7
 10
-442.003984951754
 20
261.8083416007073
 30
0.0
 40
0.5000000000000004
 50
119.9999999999998
 51
180.0
  0
ARC
  5
356
  8
0
  6
CONTINUOUS
 62
     7
 10
-442.003984951754
 20
152.5224432158451
 30
0.0
 40
0.499999999999988
 50
180.0
 51
240.0000000000001
  0
ARC
  5
357
  8
0
  6
CONTINUOUS
 62
     7
 10
-442.003984951754
 20
140.0583416007073
 30
0.0
 40
0.5000000000000004
 50
119.9999999999999
 51
180.0
  0
ARC
  5
358
  8
0
  6
CONTINUOUS
 62
     7
 10
-443.003984951754
 20
263.5403924082761
 30
0.0
 40
1.499999999999992
 50
299.9999999999997
 51
0.0
  0
ARC
  5
359
  8
0
  6
CONTINUOUS
 62
     7
 10
-443.003984951754
 20
272.5403924082761
 30
0.0
 40
1.500000000000001
 50
0.0
 51
60.00000000000025
  0
ARC
  5
35A
  8
0
  6
CONTINUOUS
 62
     7
 10
-443.003984951754
 20
141.7903924082762
 30
0.0
 40
1.499999999999992
 50
299.9999999999998
 51
0.0
  0
ARC
  5
35B
  8
0
  6
CONTINUOUS
 62
     7
 10
-443.003984951754
 20
150.7903924082762
 30
0.0
 40
1.500000000000001
 50
0.0
 51
60.00000000000009
  0
ARC
  5
35C
  8
0
  6
CONTINUOUS
 62
     7
 10
-442.203984951754
 20
3.990392408276227
 30
0.0
 40
0.3000000000000225
 50
90.0
 51
180.0
  0
ARC
  5
35D
  8
0
  6
CONTINUOUS
 62
     7
 10
-442.203984951754
 20
134.3403924082762
 30
0.0
 40
0.2999999999999947
 50
179.9999999999972
 51
270.0
  0
ARC
  5
35E
  8
0
  6
CONTINUOUS
 62
     7
 10
-442.203984951754
 20
125.7403924082762
 30
0.0
 40
0.3000000000000225
 50
90.0
 51
180.0
  0
ARC
  5
35F
  8
0
  6
CONTINUOUS
 62
     7
 10
-442.203984951754
 20
12.59039240827622
 30
0.0
 40
0.3000000000000017
 50
180.0
 51
270.0
  0
LINE
  5
360
  8
0
  6
CONTINUOUS
 62
     7
 10
-442.203984951754
 20
4.290392408276222
 30
0.0
 11
-437.503984951754
 21
4.290392408276222
 31
0.0
  0
LINE
  5
361
  8
0
  6
CONTINUOUS
 62
     7
 10
-437.503984951754
 20
134.0403924082762
 30
0.0
 11
-442.203984951754
 21
134.0403924082762
 31
0.0
  0
LINE
  5
362
  8
0
  6
CONTINUOUS
 62
     7
 10
-437.503984951754
 20
12.29039240827622
 30
0.0
 11
-442.203984951754
 21
12.29039240827622
 31
0.0
  0
LINE
  5
363
  8
0
  6
CONTINUOUS
 62
     7
 10
-442.203984951754
 20
126.0403924082762
 30
0.0
 11
-437.503984951754
 21
126.0403924082762
 31
0.0
  0
ARC
  5
364
  8
0
  6
CONTINUOUS
 62
     7
 10
-446.503984951754
 20
265.5403924082761
 30
0.0
 40
1.000000000000001
 50
180.0
 51
270.0000000000015
  0
ARC
  5
365
  8
0
  6
CONTINUOUS
 62
     7
 10
-446.503984951754
 20
270.5403924082761
 30
0.0
 40
1.000000000000001
 50
89.99999999999841
 51
180.0
  0
LINE
  5
366
  8
0
  6
CONTINUOUS
 62
     7
 10
-446.503984951754
 20
264.5403924082761
 30
0.0
 11
-443.003984951754
 21
264.5403924082761
 31
0.0
  0
LINE
  5
367
  8
0
  6
CONTINUOUS
 62
     7
 10
-443.003984951754
 20
271.5403924082761
 30
0.0
 11
-446.503984951754
 21
271.5403924082761
 31
0.0
  0
LINE
  5
368
  8
0
  6
CONTINUOUS
 62
     7
 10
-446.503984951754
 20
142.7903924082762
 30
0.0
 11
-443.003984951754
 21
142.7903924082762
 31
0.0
  0
LINE
  5
369
  8
0
  6
CONTINUOUS
 62
     7
 10
-443.003984951754
 20
149.7903924082762
 30
0.0
 11
-446.503984951754
 21
149.7903924082762
 31
0.0
  0
ARC
  5
36A
  8
0
  6
CONTINUOUS
 62
     7
 10
-446.503984951754
 20
143.7903924082762
 30
0.0
 40
1.000000000000001
 50
179.9999999999992
 51
270.0000000000015
  0
ARC
  5
36B
  8
0
  6
CONTINUOUS
 62
     7
 10
-446.503984951754
 20
148.7903924082762
 30
0.0
 40
1.000000000000001
 50
89.99999999999841
 51
180.0000000000008
  0
ENDBLK
  8
0
  0
ENDSEC
  0
SECTION
  2
ENTITIES
  0
INSERT
  5
205
  8
0
  6
CONTINUOUS
 62
     7
  2
D_FRAME_VIEW_1330
 10
0.0
 20
0.0
 30
0.0
  0
LINE
  5
206
  8
0
  6
CENTER
 62
     1
 10
-560.6873924984769
 20
-60.76631801198466
 30
0.0
 11
-481.321583271248
 21
-60.76631801198466
 31
0.0
  0
LINE
  5
208
  8
0
  6
CENTER
 62
     1
 10
-399.416133218902
 20
69.16539240827632
 30
0.0
 11
-445.9759595854925
 21
69.16539240827632
 31
0.0
  0
LINE
  5
209
  8
0
  6
CENTER
 62
     1
 10
-521.003984951754
 20
4.165392408276208
 30
0.0
 11
-521.003984951754
 21
272.1653924082762
 31
0.0
  0
INSERT
  5
2B0
  8
0
  6
CONTINUOUS
 62
     7
  2
D_FRAME_VIEW_3193
 10
0.0
 20
0.0
 30
0.0
  0
INSERT
  5
36C
  8
0
  6
CONTINUOUS
 62
     7
  2
D_FRAME_VIEW_3651
 10
0.0
 20
0.0
 30
0.0
  0
LINE
  5
36D
  8
0
  6
CENTER
 62
     1
 10
-503.5034820186456
 20
-72.94922262559919
 30
0.0
 11
-503.5034820186456
 21
-48.58341339836974
 31
0.0
  0
LINE
  5
36E
  8
0
  6
CENTER
 62
     1
 10
-562.0039849517541
 20
207.1653924082763
 30
0.0
 11
-480.003984951754
 21
207.1653924082763
 31
0.0
  0
LINE
  5
36F
  8
0
  6
CENTER
 62
     1
 10
-538.5044878848624
 20
-72.94922262559919
 30
0.0
 11
-538.5044878848624
 21
-48.58341339837013
 31
0.0
  0
LINE
  5
370
  8
0
  6
CENTER
 62
     1
 10
-562.0039849517541
 20
69.16539240827623
 30
0.0
 11
-480.003984951754
 21
69.16539240827623
 31
0.0
  0
TEXT
  5
371
  8
0
  6
CONTINUOUS
 62
     7
 10
-489.7136260671723
 20
-104.0261166463429
 30
0.0
 40
5.0
  1
SB-1FA
  0
ENDSEC
  0
EOF
