  0
SECTION
  2
HEADER
  9
$ACADVER
  1
AC1006
  9
$DWGCODEPAGE
  3
ansi_932
  9
$INSBASE
 10
0.0
 20
0.0
 30
0.0
  9
$EXTMIN
 10
-448.4319383386132
 20
61.81528756681155
  9
$EXTMAX
 10
-316.7026531012011
 20
240.0749674721361
  9
$LIMMIN
 10
0.0
 20
0.0
  9
$LIMMAX
 10
12.0
 20
9.0
  9
$ORTHOMODE
 70
     0
  9
$REGENMODE
 70
     1
  9
$FILLMODE
 70
     1
  9
$QTEXTMODE
 70
     0
  9
$MIRRTEXT
 70
     1
  9
$DRAGMODE
 70
     2
  9
$LTSCALE
 40
1.0
  9
$OSMODE
 70
    37
  9
$ATTMODE
 70
     1
  9
$TEXTSIZE
 40
0.2
  9
$TRACEWID
 40
0.05
  9
$TEXTSTYLE
  7
STANDARD
  9
$CLAYER
  8
0
  9
$CELTYPE
  6
BYLAYER
  9
$CECOLOR
 62
   256
  9
$DIMSCALE
 40
1.0
  9
$DIMASZ
 40
3.0
  9
$DIMEXO
 40
0.0625
  9
$DIMDLI
 40
0.38
  9
$DIMRND
 40
0.0
  9
$DIMDLE
 40
0.0
  9
$DIMEXE
 40
1.5
  9
$DIMTP
 40
0.0
  9
$DIMTM
 40
0.0
  9
$DIMTXT
 40
3.0
  9
$DIMCEN
 40
0.09
  9
$DIMTSZ
 40
0.0
  9
$DIMTOL
 70
     0
  9
$DIMLIM
 70
     0
  9
$DIMTIH
 70
     1
  9
$DIMTOH
 70
     1
  9
$DIMSE1
 70
     0
  9
$DIMSE2
 70
     0
  9
$DIMTAD
 70
     1
  9
$DIMZIN
 70
     0
  9
$DIMBLK
  1

  9
$DIMASO
 70
     1
  9
$DIMSHO
 70
     1
  9
$DIMPOST
  1

  9
$DIMAPOST
  1

  9
$DIMALT
 70
     0
  9
$DIMALTD
 70
     2
  9
$DIMALTF
 40
25.4
  9
$DIMLFAC
 40
1.0
  9
$DIMTOFL
 70
     0
  9
$DIMTVP
 40
0.0
  9
$DIMTIX
 70
     0
  9
$DIMSOXD
 70
     0
  9
$DIMSAH
 70
     0
  9
$DIMBLK1
  1

  9
$DIMBLK2
  1

  9
$LUNITS
 70
     2
  9
$LUPREC
 70
     4
  9
$SKETCHINC
 40
0.1
  9
$FILLETRAD
 40
0.5
  9
$AUNITS
 70
     0
  9
$AUPREC
 70
     0
  9
$MENU
  1
.
  9
$ELEVATION
 40
0.0
  9
$THICKNESS
 40
0.0
  9
$LIMCHECK
 70
     0
  9
$CHAMFERA
 40
0.0
  9
$CHAMFERB
 40
0.0
  9
$SKPOLY
 70
     0
  9
$TDCREATE
 40
2459692.426142766
  9
$TDUPDATE
 40
2459692.426142998
  9
$TDINDWG
 40
0.0000000116
  9
$TDUSRTIMER
 40
0.0000000116
  9
$USRTIMER
 70
     1
  9
$ANGBASE
 50
0.0
  9
$ANGDIR
 70
     0
  9
$PDMODE
 70
     0
  9
$PDSIZE
 40
0.0
  9
$PLINEWID
 40
0.0
  9
$COORDS
 70
     1
  9
$SPLFRAME
 70
     0
  9
$SPLINETYPE
 70
     6
  9
$SPLINESEGS
 70
     8
  9
$ATTDIA
 70
     0
  9
$ATTREQ
 70
     1
  9
$HANDLING
 70
     1
  9
$HANDSEED
  5
267
  9
$SURFTAB1
 70
     6
  9
$SURFTAB2
 70
     6
  9
$SURFTYPE
 70
     6
  9
$SURFU
 70
     6
  9
$SURFV
 70
     6
  9
$UCSNAME
  2

  9
$UCSORG
 10
0.0
 20
0.0
 30
0.0
  9
$UCSXDIR
 10
1.0
 20
0.0
 30
0.0
  9
$UCSYDIR
 10
0.0
 20
1.0
 30
0.0
  9
$USERI1
 70
     0
  9
$USERI2
 70
     0
  9
$USERI3
 70
     0
  9
$USERI4
 70
     0
  9
$USERI5
 70
     0
  9
$USERR1
 40
0.0
  9
$USERR2
 40
0.0
  9
$USERR3
 40
0.0
  9
$USERR4
 40
0.0
  9
$USERR5
 40
0.0
  9
$WORLDVIEW
 70
     1
  0
ENDSEC
  0
SECTION
  2
TABLES
  0
TABLE
  2
VPORT
 70
     1
  0
VPORT
  2
*ACTIVE
 70
     0
 10
0.0
 20
0.0
 11
1.0
 21
1.0
 12
-382.5672957199072
 22
150.9451275194738
 13
0.0
 23
0.0
 14
0.5
 24
0.5
 15
0.5
 25
0.5
 16
0.0
 26
0.0
 36
1.0
 17
0.0
 27
0.0
 37
0.0
 40
178.2596799053246
 41
1.6
 42
50.0
 43
0.0
 44
0.0
 50
0.0
 51
0.0
 71
     0
 72
   100
 73
     1
 74
     3
 75
     0
 76
     0
 77
     0
 78
     0
  0
ENDTAB
  0
TABLE
  2
LTYPE
 70
     1
  0
LTYPE
  2
CONTINUOUS
 70
     0
  3
Solid line
 72
    65
 73
     0
 40
0.0
  0
ENDTAB
  0
TABLE
  2
LAYER
 70
     1
  0
LAYER
  2
0
 70
     0
 62
     7
  6
CONTINUOUS
  0
ENDTAB
  0
TABLE
  2
STYLE
 70
     2
  0
STYLE
  2
STANDARD
 70
     0
 40
0.0
 41
1.0
 50
0.0
 71
     0
 42
0.2
  3
txt
  4

  0
STYLE
  2
ＭＳ_ゴシック
 70
     0
 40
0.0
 41
1.0
 50
0.0
 71
     0
 42
0.2
  3
ＭＳ ゴシック.shx
  4

  0
ENDTAB
  0
TABLE
  2
VIEW
 70
     0
  0
ENDTAB
  0
TABLE
  2
UCS
 70
     0
  0
ENDTAB
  0
ENDSEC
  0
SECTION
  2
BLOCKS
  0
ENDSEC
  0
SECTION
  2
ENTITIES
  0
LINE
  5
6F
  8
0
  6
CONTINUOUS
 62
   253
 10
-407.602156248465
 20
218.7830941666782
 30
0.0
 11
-407.579655109069
 21
218.7917966170888
 31
0.0
  0
LINE
  5
70
  8
0
  6
CONTINUOUS
 62
   253
 10
-407.820119026132
 20
218.6140518870258
 30
0.0
 11
-407.8066033725311
 21
218.6319721217446
 31
0.0
  0
LINE
  5
71
  8
0
  6
CONTINUOUS
 62
   253
 10
-422.1973581781629
 20
218.7514931790466
 30
0.0
 11
-422.1771215380344
 21
218.7392119623294
 31
0.0
  0
LINE
  5
72
  8
0
  6
CONTINUOUS
 62
   253
 10
-422.1575752276145
 20
218.7261040229191
 30
0.0
 11
-422.1387658140253
 21
218.7122005891653
 31
0.0
  0
LINE
  5
73
  8
0
  6
CONTINUOUS
 62
   253
 10
-422.0197803093292
 20
218.5766697458076
 30
0.0
 11
-422.0093757447744
 21
218.5572968985068
 31
0.0
  0
LINE
  5
74
  8
0
  6
CONTINUOUS
 62
   253
 10
-422.4021492126523
 20
218.8206944762757
 30
0.0
 11
-422.3780270369327
 21
218.8169133671607
 31
0.0
  0
LINE
  5
75
  8
0
  6
CONTINUOUS
 62
   253
 10
-407.64563974099
 20
144.3870165299674
 30
0.0
 11
-407.6665184990635
 21
144.3984417652256
 31
0.0
  0
LINE
  5
76
  8
0
  6
CONTINUOUS
 62
   253
 10
-407.3886671681963
 20
144.3240460767264
 30
0.0
 11
-407.4130782776235
 21
144.3247473656213
 31
0.0
  0
LINE
  5
77
  8
0
  6
CONTINUOUS
 62
   253
 10
-407.7603416160708
 20
144.4677933952325
 30
0.0
 11
-407.7766790216197
 21
144.4838773889589
 31
0.0
  0
LINE
  5
78
  8
0
  6
CONTINUOUS
 62
   253
 10
-407.7063014496118
 20
218.7261040229191
 30
0.0
 11
-407.6867551391919
 21
218.7392119623294
 31
0.0
  0
LINE
  5
79
  8
0
  6
CONTINUOUS
 62
   253
 10
-407.4130782776235
 20
144.3247473656213
 30
0.0
 11
-407.4374510649891
 21
144.3264802054837
 31
0.0
  0
LINE
  5
7A
  8
0
  6
CONTINUOUS
 62
   253
 10
-422.330474727401
 20
218.8063270521793
 30
0.0
 11
-422.3071578821924
 21
218.7995470671456
 31
0.0
  0
LINE
  5
7B
  8
0
  6
CONTINUOUS
 62
   253
 10
-407.579655109069
 20
218.7917966170888
 30
0.0
 11
-407.556718795034
 21
218.7995470671456
 31
0.0
  0
LINE
  5
7C
  8
0
  6
CONTINUOUS
 62
   253
 10
-421.9788657751033
 20
218.4763471456489
 30
0.0
 11
-421.9741062351692
 21
218.4554862423454
 31
0.0
  0
LINE
  5
7D
  8
0
  6
CONTINUOUS
 62
   253
 10
-407.8326266239526
 20
218.5956031109278
 30
0.0
 11
-407.820119026132
 21
218.6140518870258
 31
0.0
  0
LINE
  5
7E
  8
0
  6
CONTINUOUS
 62
   253
 10
-422.1207381088064
 20
218.6975347846033
 30
0.0
 11
-422.1035350611555
 21
218.6821415490398
 31
0.0
  0
LINE
  5
7F
  8
0
  6
CONTINUOUS
 62
   253
 10
-407.6665184990635
 20
144.3984417652256
 30
0.0
 11
-407.6867551391919
 21
144.4107229819429
 31
0.0
  0
LINE
  5
80
  8
0
  6
CONTINUOUS
 62
   253
 10
-407.4858496402937
 20
144.3330215771116
 30
0.0
 11
-407.509760123486
 21
144.3378145247159
 31
0.0
  0
LINE
  5
81
  8
0
  6
CONTINUOUS
 62
   253
 10
-422.3541165537403
 20
218.8121204195564
 30
0.0
 11
-422.330474727401
 21
218.8063270521793
 31
0.0
  0
LINE
  5
82
  8
0
  6
CONTINUOUS
 62
   253
 10
-407.7251108632009
 20
218.7122005891653
 30
0.0
 11
-407.7063014496118
 21
218.7261040229191
 31
0.0
  0
LINE
  5
83
  8
0
  6
CONTINUOUS
 62
   253
 10
-422.0437576510944
 20
218.6140518870258
 30
0.0
 11
-422.0312500532737
 21
218.5956031109278
 31
0.0
  0
LINE
  5
84
  8
0
  6
CONTINUOUS
 62
   253
 10
-422.0312500532737
 20
218.5956031109278
 30
0.0
 11
-422.0197803093292
 21
218.5766697458076
 31
0.0
  0
LINE
  5
85
  8
0
  6
CONTINUOUS
 62
   253
 10
-422.47520950903
 20
218.8258888675459
 30
0.0
 11
-422.4507983996028
 21
218.825187578651
 31
0.0
  0
LINE
  5
86
  8
0
  6
CONTINUOUS
 62
   253
 10
-407.6867551391919
 20
218.7392119623294
 30
0.0
 11
-407.6665184990635
 21
218.7514931790466
 31
0.0
  0
LINE
  5
87
  8
0
  6
CONTINUOUS
 62
   253
 10
-422.4793732477269
 20
218.8259029576093
 30
0.0
 11
-422.47520950903
 21
218.8258888675459
 31
0.0
  0
LINE
  5
88
  8
0
  6
CONTINUOUS
 62
   253
 10
-407.556718795034
 20
144.3503878771267
 30
0.0
 11
-407.579655109069
 21
144.3581383271835
 31
0.0
  0
LINE
  5
89
  8
0
  6
CONTINUOUS
 62
   253
 10
-407.64563974099
 20
218.7629184143049
 30
0.0
 11
-407.6241686065164
 21
218.7734604486282
 31
0.0
  0
LINE
  5
8A
  8
0
  6
CONTINUOUS
 62
   253
 10
-421.9741062351692
 20
218.4554862423454
 30
0.0
 11
-421.970520688521
 21
218.4344745643921
 31
0.0
  0
LINE
  5
8B
  8
0
  6
CONTINUOUS
 62
   253
 10
-422.0093757447744
 20
218.5572968985068
 30
0.0
 11
-422.0000611474397
 21
218.537530722889
 31
0.0
  0
LINE
  5
8C
  8
0
  6
CONTINUOUS
 62
   253
 10
-422.0572733046952
 20
218.6319721217446
 30
0.0
 11
-422.0437576510944
 21
218.6140518870258
 31
0.0
  0
LINE
  5
8D
  8
0
  6
CONTINUOUS
 62
   253
 10
-407.6867551391919
 20
144.4107229819429
 30
0.0
 11
-407.7063014496118
 21
144.4238309213532
 31
0.0
  0
LINE
  5
8E
  8
0
  6
CONTINUOUS
 62
   253
 10
-407.579655109069
 20
144.3581383271835
 30
0.0
 11
-407.602156248465
 21
144.366840777594
 31
0.0
  0
LINE
  5
8F
  8
0
  6
CONTINUOUS
 62
   253
 10
-407.5334019498254
 20
144.343607892093
 30
0.0
 11
-407.556718795034
 21
144.3503878771267
 31
0.0
  0
LINE
  5
90
  8
0
  6
CONTINUOUS
 62
   253
 10
-407.7766790216197
 20
218.6660575553134
 30
0.0
 11
-407.7603416160708
 21
218.6821415490398
 31
0.0
  0
LINE
  5
91
  8
0
  6
CONTINUOUS
 62
   253
 10
-407.7603416160708
 20
218.6821415490398
 30
0.0
 11
-407.7431385684199
 21
218.6975347846033
 31
0.0
  0
LINE
  5
92
  8
0
  6
CONTINUOUS
 62
   253
 10
-422.2842215681573
 20
218.7917966170888
 30
0.0
 11
-422.2617204287613
 21
218.7830941666782
 31
0.0
  0
LINE
  5
93
  8
0
  6
CONTINUOUS
 62
   253
 10
-407.7921118628381
 20
218.6493211219242
 30
0.0
 11
-407.7766790216197
 21
218.6660575553134
 31
0.0
  0
LINE
  5
94
  8
0
  6
CONTINUOUS
 62
   253
 10
-407.885010902123
 20
218.4763471456489
 30
0.0
 11
-407.879088708029
 21
218.4970075752947
 31
0.0
  0
LINE
  5
95
  8
0
  6
CONTINUOUS
 62
   253
 10
-407.509760123486
 20
218.8121204195564
 30
0.0
 11
-407.4858496402937
 21
218.8169133671607
 31
0.0
  0
LINE
  5
96
  8
0
  6
CONTINUOUS
 62
   253
 10
-407.461727464574
 20
218.8206944762757
 30
0.0
 11
-407.4374510649891
 21
218.8234547387886
 31
0.0
  0
LINE
  5
97
  8
0
  6
CONTINUOUS
 62
   253
 10
-422.3071578821924
 20
218.7995470671456
 30
0.0
 11
-422.2842215681573
 21
218.7917966170888
 31
0.0
  0
LINE
  5
98
  8
0
  6
CONTINUOUS
 62
   253
 10
-422.4264256122373
 20
218.8234547387886
 30
0.0
 11
-422.4021492126523
 21
218.8206944762757
 31
0.0
  0
LINE
  5
99
  8
0
  6
CONTINUOUS
 62
   253
 10
-422.3780270369327
 20
218.8169133671607
 30
0.0
 11
-422.3541165537403
 21
218.8121204195564
 31
0.0
  0
LINE
  5
9A
  8
0
  6
CONTINUOUS
 62
   253
 10
-422.0717648143882
 20
218.6493211219242
 30
0.0
 11
-422.0572733046952
 21
218.6319721217446
 31
0.0
  0
LINE
  5
9B
  8
0
  6
CONTINUOUS
 62
   253
 10
-407.8440963678971
 20
218.5766697458076
 30
0.0
 11
-407.8326266239526
 21
218.5956031109278
 31
0.0
  0
LINE
  5
9C
  8
0
  6
CONTINUOUS
 62
   253
 10
-422.1771215380344
 20
218.7392119623294
 30
0.0
 11
-422.1575752276145
 21
218.7261040229191
 31
0.0
  0
LINE
  5
9D
  8
0
  6
CONTINUOUS
 62
   253
 10
-407.4130782776235
 20
218.825187578651
 30
0.0
 11
-407.3886671681963
 21
218.8258888675459
 31
0.0
  0
LINE
  5
9E
  8
0
  6
CONTINUOUS
 62
   253
 10
-407.6241686065164
 20
218.7734604486282
 30
0.0
 11
-407.602156248465
 21
218.7830941666782
 31
0.0
  0
LINE
  5
9F
  8
0
  6
CONTINUOUS
 62
   253
 10
-407.8545009324519
 20
218.5572968985068
 30
0.0
 11
-407.8440963678971
 21
218.5766697458076
 31
0.0
  0
LINE
  5
A0
  8
0
  6
CONTINUOUS
 62
   253
 10
-407.6665184990635
 20
218.7514931790466
 30
0.0
 11
-407.64563974099
 21
218.7629184143049
 31
0.0
  0
LINE
  5
A1
  8
0
  6
CONTINUOUS
 62
   253
 10
-407.8066033725311
 20
218.6319721217446
 30
0.0
 11
-407.7921118628381
 21
218.6493211219242
 31
0.0
  0
LINE
  5
A2
  8
0
  6
CONTINUOUS
 62
   253
 10
-407.7431385684199
 20
144.452400159669
 30
0.0
 11
-407.7603416160708
 21
144.4677933952325
 31
0.0
  0
LINE
  5
A3
  8
0
  6
CONTINUOUS
 62
   253
 10
-422.2617204287613
 20
218.7830941666782
 30
0.0
 11
-422.2397080707099
 21
218.7734604486282
 31
0.0
  0
LINE
  5
A4
  8
0
  6
CONTINUOUS
 62
   253
 10
-407.4374510649891
 20
218.8234547387886
 30
0.0
 11
-407.4130782776235
 21
218.825187578651
 31
0.0
  0
LINE
  5
A5
  8
0
  6
CONTINUOUS
 62
   253
 10
-407.879088708029
 20
218.4970075752947
 30
0.0
 11
-407.8720179688081
 21
218.5174183098834
 31
0.0
  0
LINE
  5
A6
  8
0
  6
CONTINUOUS
 62
   253
 10
-422.0000611474397
 20
218.537530722889
 30
0.0
 11
-421.9918587084181
 21
218.5174183098834
 31
0.0
  0
LINE
  5
A7
  8
0
  6
CONTINUOUS
 62
   253
 10
-421.9918587084181
 20
218.5174183098834
 30
0.0
 11
-421.9847879691972
 21
218.4970075752947
 31
0.0
  0
LINE
  5
A8
  8
0
  6
CONTINUOUS
 62
   253
 10
-422.0871976556066
 20
218.6660575553134
 30
0.0
 11
-422.0717648143882
 21
218.6493211219242
 31
0.0
  0
LINE
  5
A9
  8
0
  6
CONTINUOUS
 62
   253
 10
-407.3886671681963
 20
218.8258888675459
 30
0.0
 11
-407.3845034294994
 21
218.8259029576093
 31
0.0
  0
LINE
  5
AA
  8
0
  6
CONTINUOUS
 62
   253
 10
-422.2397080707099
 20
218.7734604486282
 30
0.0
 11
-422.2182369362363
 21
218.7629184143049
 31
0.0
  0
LINE
  5
AB
  8
0
  6
CONTINUOUS
 62
   253
 10
-407.7431385684199
 20
218.6975347846033
 30
0.0
 11
-407.7251108632009
 21
218.7122005891653
 31
0.0
  0
LINE
  5
AC
  8
0
  6
CONTINUOUS
 62
   253
 10
-407.4374510649891
 20
144.3264802054837
 30
0.0
 11
-407.461727464574
 21
144.3292404679966
 31
0.0
  0
LINE
  5
AD
  8
0
  6
CONTINUOUS
 62
   253
 10
-407.7766790216197
 20
144.4838773889589
 30
0.0
 11
-407.7921118628381
 21
144.5006138223481
 31
0.0
  0
LINE
  5
AE
  8
0
  6
CONTINUOUS
 62
   253
 10
-407.6241686065164
 20
144.3764744956441
 30
0.0
 11
-407.64563974099
 21
144.3870165299674
 31
0.0
  0
LINE
  5
AF
  8
0
  6
CONTINUOUS
 62
   253
 10
-407.461727464574
 20
144.3292404679966
 30
0.0
 11
-407.4858496402937
 21
144.3330215771116
 31
0.0
  0
LINE
  5
B0
  8
0
  6
CONTINUOUS
 62
   253
 10
-407.7921118628381
 20
144.5006138223481
 30
0.0
 11
-407.8066033725311
 21
144.5179628225277
 31
0.0
  0
LINE
  5
B1
  8
0
  6
CONTINUOUS
 62
   253
 10
-421.970520688521
 20
218.4344745643921
 30
0.0
 11
-421.9681176773636
 21
218.4133621700022
 31
0.0
  0
LINE
  5
B2
  8
0
  6
CONTINUOUS
 62
   253
 10
-407.7251108632009
 20
144.4377343551069
 30
0.0
 11
-407.7431385684199
 21
144.452400159669
 31
0.0
  0
LINE
  5
B3
  8
0
  6
CONTINUOUS
 62
   253
 10
-421.9847879691972
 20
218.4970075752947
 30
0.0
 11
-421.9788657751033
 21
218.4763471456489
 31
0.0
  0
LINE
  5
B4
  8
0
  6
CONTINUOUS
 62
   253
 10
-407.602156248465
 20
144.366840777594
 30
0.0
 11
-407.6241686065164
 21
144.3764744956441
 31
0.0
  0
LINE
  5
B5
  8
0
  6
CONTINUOUS
 62
   253
 10
-407.7063014496118
 20
144.4238309213532
 30
0.0
 11
-407.7251108632009
 21
144.4377343551069
 31
0.0
  0
LINE
  5
B6
  8
0
  6
CONTINUOUS
 62
   253
 10
-407.509760123486
 20
144.3378145247159
 30
0.0
 11
-407.5334019498254
 21
144.343607892093
 31
0.0
  0
LINE
  5
B7
  8
0
  6
CONTINUOUS
 62
   253
 10
-421.9681176773636
 20
218.4133621700022
 30
0.0
 11
-421.9669029266299
 21
218.3921993573358
 31
0.0
  0
LINE
  5
B8
  8
0
  6
CONTINUOUS
 62
   253
 10
-393.7811857345814
 20
137.1884738702696
 30
0.0
 11
-393.2932478625067
 21
137.2365276094702
 31
0.0
  0
LINE
  5
B9
  8
0
  6
CONTINUOUS
 62
   253
 10
-438.8526332938329
 20
137.4532209499181
 30
0.0
 11
-438.397678224757
 21
137.0803070398487
 31
0.0
  0
LINE
  5
BA
  8
0
  6
CONTINUOUS
 62
   253
 10
-439.22599370821
 20
137.9076319350731
 30
0.0
 11
-438.8526332938329
 21
137.4532209499181
 31
0.0
  0
LINE
  5
BB
  8
0
  6
CONTINUOUS
 62
   253
 10
-438.5836770668523
 20
219.1478066078581
 30
0.0
 11
-438.5836770668523
 21
223.462270750112
 31
0.0
  0
LINE
  5
BC
  8
0
  6
CONTINUOUS
 62
   253
 10
-391.3282878057885
 20
223.9498581919061
 30
0.0
 11
-391.4706209848927
 21
224.4186849344293
 31
0.0
  0
LINE
  5
BD
  8
0
  6
CONTINUOUS
 62
   253
 10
-391.2801996103741
 20
144.0021283364141
 30
0.0
 11
-391.2801996103741
 21
139.6876641941603
 31
0.0
  0
LINE
  5
BE
  8
0
  6
CONTINUOUS
 62
   253
 10
-438.397678224757
 20
226.0696279044236
 30
0.0
 11
-438.8526332938329
 21
225.6967139943542
 31
0.0
  0
LINE
  5
BF
  8
0
  6
CONTINUOUS
 62
   253
 10
-420.4406271280182
 20
137.1448395313159
 30
0.0
 11
-422.4405509741466
 21
137.1621409562542
 31
0.0
  0
LINE
  5
C0
  8
0
  6
CONTINUOUS
 62
   253
 10
-436.082690942645
 20
225.9614610740026
 30
0.0
 11
-436.5706288147197
 21
225.9134073348021
 31
0.0
  0
LINE
  5
C1
  8
0
  6
CONTINUOUS
 62
   253
 10
-439.5034193272269
 20
224.7238481046607
 30
0.0
 11
-439.6742547031004
 21
224.1612622548286
 31
0.0
  0
LINE
  5
C2
  8
0
  6
CONTINUOUS
 62
   253
 10
-438.5836770668523
 20
144.0021283364141
 30
0.0
 11
-438.5127955332145
 21
146.8207922616098
 31
0.0
  0
LINE
  5
C3
  8
0
  6
CONTINUOUS
 62
   253
 10
-438.5836770668523
 20
139.6876641941603
 30
0.0
 11
-438.5836770668523
 21
144.0021283364141
 31
0.0
  0
LINE
  5
C4
  8
0
  6
CONTINUOUS
 62
   253
 10
-391.2801996103741
 20
223.462270750112
 30
0.0
 11
-391.2801996103741
 21
219.1478066078581
 31
0.0
  0
LINE
  5
C5
  8
0
  6
CONTINUOUS
 62
   253
 10
-392.824084188998
 20
137.3787586422573
 30
0.0
 11
-392.3917144955111
 21
137.6097041157466
 31
0.0
  0
LINE
  5
C6
  8
0
  6
CONTINUOUS
 62
   253
 10
-391.2801996103741
 20
219.1478066078581
 30
0.0
 11
-391.3510811440119
 21
216.3291426826625
 31
0.0
  0
LINE
  5
C7
  8
0
  6
CONTINUOUS
 62
   253
 10
-437.8511313081307
 20
137.9204938057595
 30
0.0
 11
-437.4721621817153
 21
137.6097041157466
 31
0.0
  0
LINE
  5
C8
  8
0
  6
CONTINUOUS
 62
   253
 10
-391.3282878057885
 20
139.2000767523662
 30
0.0
 11
-391.2801996103742
 21
139.6876641941603
 31
0.0
  0
LINE
  5
C9
  8
0
  6
CONTINUOUS
 62
   253
 10
-439.7319383386132
 20
139.573781515674
 30
0.0
 11
-439.7319383386132
 21
223.5761534285983
 31
0.0
  0
LINE
  5
CA
  8
0
  6
CONTINUOUS
 62
   253
 10
-436.5706288147197
 20
225.9134073348021
 30
0.0
 11
-437.0397924882284
 21
225.771176302015
 31
0.0
  0
LINE
  5
CB
  8
0
  6
CONTINUOUS
 62
   253
 10
-392.3917144955111
 20
225.5402308285257
 30
0.0
 11
-392.824084188998
 21
225.771176302015
 31
0.0
  0
LINE
  5
CC
  8
0
  6
CONTINUOUS
 62
   253
 10
-391.3510811440119
 20
146.8207922616098
 30
0.0
 11
-391.2801996103741
 21
144.0021283364141
 31
0.0
  0
LINE
  5
CD
  8
0
  6
CONTINUOUS
 62
   253
 10
-438.1621443056907
 20
224.8507441371737
 30
0.0
 11
-438.3932556923337
 21
224.4186849344293
 31
0.0
  0
LINE
  5
CE
  8
0
  6
CONTINUOUS
 62
   253
 10
-392.0127453690957
 20
137.9204938057595
 30
0.0
 11
-391.7017323715357
 21
138.2991908070986
 31
0.0
  0
LINE
  5
CF
  8
0
  6
CONTINUOUS
 62
   253
 10
-437.4721621817153
 20
137.6097041157466
 30
0.0
 11
-437.0397924882284
 21
137.3787586422573
 31
0.0
  0
LINE
  5
D0
  8
0
  6
CONTINUOUS
 62
   253
 10
-438.3932556923337
 20
224.4186849344293
 30
0.0
 11
-438.5355888714379
 21
223.9498581919061
 31
0.0
  0
LINE
  5
D1
  8
0
  6
CONTINUOUS
 62
   253
 10
-409.4232495492082
 20
137.1448395313159
 30
0.0
 11
-420.4406271280182
 21
137.1448395313159
 31
0.0
  0
LINE
  5
D2
  8
0
  6
CONTINUOUS
 62
   253
 10
-439.7319383386131
 20
139.573781515674
 30
0.0
 11
-439.6742547031004
 21
138.9886726894437
 31
0.0
  0
LINE
  5
D3
  8
0
  6
CONTINUOUS
 62
   253
 10
-437.315343098306
 20
136.6325821233893
 30
0.0
 11
-436.7295336985537
 21
136.5749674721361
 31
0.0
  0
LINE
  5
D4
  8
0
  6
CONTINUOUS
 62
   253
 10
-391.2801996103742
 20
223.462270750112
 30
0.0
 11
-391.3282878057885
 21
223.9498581919061
 31
0.0
  0
LINE
  5
D5
  8
0
  6
CONTINUOUS
 62
   253
 10
-393.2932478625067
 20
225.9134073348021
 30
0.0
 11
-393.7811857345814
 21
225.9614610740026
 31
0.0
  0
LINE
  5
D6
  8
0
  6
CONTINUOUS
 62
   253
 10
-438.8526332938329
 20
225.6967139943542
 30
0.0
 11
-439.22599370821
 21
225.2423030091992
 31
0.0
  0
LINE
  5
D7
  8
0
  6
CONTINUOUS
 62
   253
 10
-392.824084188998
 20
225.771176302015
 30
0.0
 11
-393.2932478625067
 21
225.9134073348021
 31
0.0
  0
LINE
  5
D8
  8
0
  6
CONTINUOUS
 62
   253
 10
-391.7017323715357
 20
224.8507441371737
 30
0.0
 11
-392.0127453690957
 21
225.2294411385128
 31
0.0
  0
LINE
  5
D9
  8
0
  6
CONTINUOUS
 62
   253
 10
-391.4706209848927
 20
138.731250009843
 30
0.0
 11
-391.3282878057885
 21
139.2000767523662
 31
0.0
  0
LINE
  5
DA
  8
0
  6
CONTINUOUS
 62
   253
 10
-439.22599370821
 20
225.2423030091992
 30
0.0
 11
-439.5034193272269
 21
224.7238481046607
 31
0.0
  0
LINE
  5
DB
  8
0
  6
CONTINUOUS
 62
   253
 10
-407.3969927890644
 20
137.1884738702697
 30
0.0
 11
-407.4233257030797
 21
137.1621409562542
 31
0.0
  0
LINE
  5
DC
  8
0
  6
CONTINUOUS
 62
   253
 10
-439.5034193272269
 20
138.4260868396116
 30
0.0
 11
-439.22599370821
 21
137.9076319350731
 31
0.0
  0
LINE
  5
DD
  8
0
  6
CONTINUOUS
 62
   253
 10
-392.0127453690957
 20
225.2294411385128
 30
0.0
 11
-392.3917144955111
 21
225.5402308285257
 31
0.0
  0
LINE
  5
DE
  8
0
  6
CONTINUOUS
 62
   253
 10
-407.4233257030798
 20
137.1621409562542
 30
0.0
 11
-409.4232495492082
 21
137.1448395313159
 31
0.0
  0
LINE
  5
DF
  8
0
  6
CONTINUOUS
 62
   253
 10
-439.6742547031004
 20
224.1612622548286
 30
0.0
 11
-439.7319383386131
 21
223.5761534285983
 31
0.0
  0
LINE
  5
E0
  8
0
  6
CONTINUOUS
 62
   253
 10
-437.8786025540257
 20
136.8032131960526
 30
0.0
 11
-437.315343098306
 21
136.6325821233893
 31
0.0
  0
LINE
  5
E1
  8
0
  6
CONTINUOUS
 62
   253
 10
-438.397678224757
 20
137.0803070398487
 30
0.0
 11
-437.8786025540257
 21
136.8032131960526
 31
0.0
  0
LINE
  5
E2
  8
0
  6
CONTINUOUS
 62
   253
 10
-391.7017323715357
 20
138.2991908070986
 30
0.0
 11
-391.4706209848927
 21
138.731250009843
 31
0.0
  0
LINE
  5
E3
  8
0
  6
CONTINUOUS
 62
   253
 10
-437.0397924882284
 20
225.771176302015
 30
0.0
 11
-437.4721621817153
 21
225.5402308285257
 31
0.0
  0
LINE
  5
E4
  8
0
  6
CONTINUOUS
 62
   253
 10
-437.4721621817153
 20
225.5402308285257
 30
0.0
 11
-437.8511313081307
 21
225.2294411385128
 31
0.0
  0
LINE
  5
E5
  8
0
  6
CONTINUOUS
 62
   253
 10
-437.8511313081307
 20
225.2294411385128
 30
0.0
 11
-438.1621443056907
 21
224.8507441371737
 31
0.0
  0
LINE
  5
E6
  8
0
  6
CONTINUOUS
 62
   253
 10
-438.3932556923337
 20
138.7312500098431
 30
0.0
 11
-438.1621443056907
 21
138.2991908070986
 31
0.0
  0
LINE
  5
E7
  8
0
  6
CONTINUOUS
 62
   253
 10
-438.5355888714379
 20
223.9498581919061
 30
0.0
 11
-438.5836770668523
 21
223.462270750112
 31
0.0
  0
LINE
  5
E8
  8
0
  6
CONTINUOUS
 62
   253
 10
-438.5836770668523
 20
139.6876641941604
 30
0.0
 11
-438.5355888714379
 21
139.2000767523662
 31
0.0
  0
LINE
  5
E9
  8
0
  6
CONTINUOUS
 62
   253
 10
-393.2932478625067
 20
137.2365276094702
 30
0.0
 11
-392.824084188998
 21
137.3787586422573
 31
0.0
  0
LINE
  5
EA
  8
0
  6
CONTINUOUS
 62
   253
 10
-437.0397924882284
 20
137.3787586422573
 30
0.0
 11
-436.5706288147197
 21
137.2365276094702
 31
0.0
  0
LINE
  5
EB
  8
0
  6
CONTINUOUS
 62
   253
 10
-438.5355888714379
 20
139.2000767523662
 30
0.0
 11
-438.3932556923337
 21
138.7312500098431
 31
0.0
  0
LINE
  5
EC
  8
0
  6
CONTINUOUS
 62
   253
 10
-392.3917144955111
 20
137.6097041157466
 30
0.0
 11
-392.0127453690957
 21
137.9204938057595
 31
0.0
  0
LINE
  5
ED
  8
0
  6
CONTINUOUS
 62
   253
 10
-438.5127955332145
 20
216.3291426826625
 30
0.0
 11
-438.5836770668523
 21
219.1478066078581
 31
0.0
  0
LINE
  5
EE
  8
0
  6
CONTINUOUS
 62
   253
 10
-438.1621443056907
 20
138.2991908070986
 30
0.0
 11
-437.8511313081307
 21
137.9204938057595
 31
0.0
  0
LINE
  5
EF
  8
0
  6
CONTINUOUS
 62
     7
 10
-412.9319383386132
 20
223.3199674721361
 30
0.0
 11
-412.9319383386132
 21
223.3299674721362
 31
0.0
  0
LINE
  5
F0
  8
0
  6
CONTINUOUS
 62
     7
 10
-414.9269383386131
 20
221.3299674721361
 30
0.0
 11
-414.9269383386131
 21
223.3199674721361
 31
0.0
  0
LINE
  5
F1
  8
0
  6
CONTINUOUS
 62
     7
 10
-414.9269383386131
 20
137.8199674721361
 30
0.0
 11
-414.9269383386131
 21
139.8199674721361
 31
0.0
  0
LINE
  5
F2
  8
0
  6
CONTINUOUS
 62
   253
 10
-422.4405509741465
 20
137.1621409562542
 30
0.0
 11
-422.3430141949765
 21
137.1717544494158
 31
0.0
  0
LINE
  5
F3
  8
0
  6
CONTINUOUS
 62
   253
 10
-420.4406271280182
 20
226.0050954129564
 30
0.0
 11
-409.4232495492082
 21
226.0050954129564
 31
0.0
  0
LINE
  5
F4
  8
0
  6
CONTINUOUS
 62
   253
 10
-422.2492253372732
 20
137.2002106681308
 30
0.0
 11
-422.1627883059032
 21
137.2464161615605
 31
0.0
  0
LINE
  5
F5
  8
0
  6
CONTINUOUS
 62
   253
 10
-407.9136931714503
 20
137.5645851386164
 30
0.0
 11
-407.8852369527353
 21
137.470796280913
 31
0.0
  0
LINE
  5
F6
  8
0
  6
CONTINUOUS
 62
   253
 10
-422.1627883059032
 20
225.9035187827118
 30
0.0
 11
-422.2492253372732
 21
225.9497242761415
 31
0.0
  0
LINE
  5
F7
  8
0
  6
CONTINUOUS
 62
     7
 10
-416.9319383386132
 20
223.3199674721361
 30
0.0
 11
-414.9369383386132
 21
223.3199674721361
 31
0.0
  0
LINE
  5
F8
  8
0
  6
CONTINUOUS
 62
   253
 10
-422.4405509741465
 20
137.1621409562542
 30
0.0
 11
-422.4668838881619
 21
137.1884738702697
 31
0.0
  0
LINE
  5
F9
  8
0
  6
CONTINUOUS
 62
     7
 10
-416.9319383386132
 20
139.8299674721361
 30
0.0
 11
-416.9319383386132
 21
139.8199674721361
 31
0.0
  0
LINE
  5
FA
  8
0
  6
CONTINUOUS
 62
   253
 10
-422.3430141949765
 20
225.9781804948565
 30
0.0
 11
-422.4405509741465
 21
225.987793988018
 31
0.0
  0
LINE
  5
FB
  8
0
  6
CONTINUOUS
 62
   253
 10
-422.2492253372732
 20
225.9497242761415
 30
0.0
 11
-422.3430141949765
 21
225.9781804948565
 31
0.0
  0
LINE
  5
FC
  8
0
  6
CONTINUOUS
 62
   253
 10
-421.9405700126144
 20
225.4878130264859
 30
0.0
 11
-421.950183505776
 21
225.5853498056559
 31
0.0
  0
LINE
  5
FD
  8
0
  6
CONTINUOUS
 62
     7
 10
-414.9269383386131
 20
223.3199674721361
 30
0.0
 11
-412.9319383386132
 21
223.3199674721361
 31
0.0
  0
LINE
  5
FE
  8
0
  6
CONTINUOUS
 62
   253
 10
-436.5706288147197
 20
137.2365276094702
 30
0.0
 11
-436.0826909426449
 21
137.1884738702697
 31
0.0
  0
LINE
  5
FF
  8
0
  6
CONTINUOUS
 62
   253
 10
-407.6146513399531
 20
225.9497242761415
 30
0.0
 11
-407.7010883713231
 21
225.9035187827118
 31
0.0
  0
LINE
  5
100
  8
0
  6
CONTINUOUS
 62
   253
 10
-407.7768521707512
 20
225.8413394941574
 30
0.0
 11
-407.8390314593057
 21
225.7655756947293
 31
0.0
  0
LINE
  5
101
  8
0
  6
CONTINUOUS
 62
   253
 10
-422.4668838881619
 20
137.1884738702697
 30
0.0
 11
-436.0826909426449
 21
137.1884738702697
 31
0.0
  0
LINE
  5
102
  8
0
  6
CONTINUOUS
 62
   253
 10
-407.4233257030798
 20
225.987793988018
 30
0.0
 11
-407.5208624822498
 21
225.9781804948565
 31
0.0
  0
LINE
  5
103
  8
0
  6
CONTINUOUS
 62
     7
 10
-416.9319383386132
 20
139.8199674721361
 30
0.0
 11
-414.9369383386132
 21
139.8199674721361
 31
0.0
  0
LINE
  5
104
  8
0
  6
CONTINUOUS
 62
     7
 10
-412.9319383386132
 20
223.3299674721362
 30
0.0
 11
-414.9269383386131
 21
223.3299674721361
 31
0.0
  0
LINE
  5
105
  8
0
  6
CONTINUOUS
 62
     7
 10
-414.9269383386131
 20
141.8199674721361
 30
0.0
 11
-414.9369383386132
 21
141.8199674721361
 31
0.0
  0
LINE
  5
106
  8
0
  6
CONTINUOUS
 62
   253
 10
-407.9136931714503
 20
225.5853498056559
 30
0.0
 11
-407.9233066646119
 21
225.4878130264859
 31
0.0
  0
LINE
  5
107
  8
0
  6
CONTINUOUS
 62
   253
 10
-407.9233066646119
 20
137.6621219177863
 30
0.0
 11
-407.9136931714503
 21
137.5645851386164
 31
0.0
  0
LINE
  5
108
  8
0
  6
CONTINUOUS
 62
   253
 10
-422.3430141949765
 20
137.1717544494158
 30
0.0
 11
-422.2492253372732
 21
137.2002106681308
 31
0.0
  0
LINE
  5
109
  8
0
  6
CONTINUOUS
 62
     7
 10
-414.9269383386131
 20
139.8199674721361
 30
0.0
 11
-412.9319383386132
 21
139.8199674721361
 31
0.0
  0
LINE
  5
10A
  8
0
  6
CONTINUOUS
 62
   253
 10
-422.0248452179206
 20
137.384359249543
 30
0.0
 11
-421.978639724491
 21
137.4707962809131
 31
0.0
  0
LINE
  5
10B
  8
0
  6
CONTINUOUS
 62
     7
 10
-414.9369383386132
 20
141.8199674721361
 30
0.0
 11
-414.9369383386132
 21
139.8299674721361
 31
0.0
  0
LINE
  5
10C
  8
0
  6
CONTINUOUS
 62
   253
 10
-422.0248452179206
 20
225.7655756947293
 30
0.0
 11
-422.0870245064751
 21
225.8413394941574
 31
0.0
  0
LINE
  5
10D
  8
0
  6
CONTINUOUS
 62
   253
 10
-421.978639724491
 20
137.4707962809131
 30
0.0
 11
-421.950183505776
 21
137.5645851386164
 31
0.0
  0
LINE
  5
10E
  8
0
  6
CONTINUOUS
 62
   253
 10
-407.8852369527353
 20
225.6791386633592
 30
0.0
 11
-407.9136931714503
 21
225.5853498056559
 31
0.0
  0
LINE
  5
10F
  8
0
  6
CONTINUOUS
 62
   253
 10
-407.3969927890644
 20
225.9614610740026
 30
0.0
 11
-393.7811857345814
 21
225.9614610740026
 31
0.0
  0
LINE
  5
110
  8
0
  6
CONTINUOUS
 62
   253
 10
-421.950183505776
 20
137.5645851386164
 30
0.0
 11
-421.9405700126144
 21
137.6621219177863
 31
0.0
  0
LINE
  5
111
  8
0
  6
CONTINUOUS
 62
   253
 10
-422.0870245064751
 20
137.3085954501149
 30
0.0
 11
-422.0248452179206
 21
137.384359249543
 31
0.0
  0
LINE
  5
112
  8
0
  6
CONTINUOUS
 62
   253
 10
-407.7768521707512
 20
137.3085954501149
 30
0.0
 11
-407.7010883713231
 21
137.2464161615605
 31
0.0
  0
LINE
  5
113
  8
0
  6
CONTINUOUS
 62
   253
 10
-422.4405509741465
 20
225.987793988018
 30
0.0
 11
-420.4406271280181
 21
226.0050954129564
 31
0.0
  0
LINE
  5
114
  8
0
  6
CONTINUOUS
 62
   253
 10
-407.5208624822497
 20
137.1717544494158
 30
0.0
 11
-407.4233257030797
 21
137.1621409562542
 31
0.0
  0
LINE
  5
115
  8
0
  6
CONTINUOUS
 62
   253
 10
-407.7010883713231
 20
137.2464161615605
 30
0.0
 11
-407.614651339953
 21
137.2002106681308
 31
0.0
  0
LINE
  5
116
  8
0
  6
CONTINUOUS
 62
   253
 10
-439.6742547031004
 20
138.9886726894437
 30
0.0
 11
-439.5034193272269
 21
138.4260868396116
 31
0.0
  0
LINE
  5
117
  8
0
  6
CONTINUOUS
 62
   253
 10
-436.0826909426449
 20
225.9614610740026
 30
0.0
 11
-422.4668838881619
 21
225.9614610740026
 31
0.0
  0
LINE
  5
118
  8
0
  6
CONTINUOUS
 62
     7
 10
-414.9269383386131
 20
139.8299674721361
 30
0.0
 11
-414.9269383386131
 21
141.8199674721361
 31
0.0
  0
LINE
  5
119
  8
0
  6
CONTINUOUS
 62
   253
 10
-407.7010883713231
 20
225.9035187827118
 30
0.0
 11
-407.7768521707512
 21
225.8413394941574
 31
0.0
  0
LINE
  5
11A
  8
0
  6
CONTINUOUS
 62
   253
 10
-409.4232495492082
 20
226.0050954129564
 30
0.0
 11
-407.4233257030798
 21
225.987793988018
 31
0.0
  0
LINE
  5
11B
  8
0
  6
CONTINUOUS
 62
     7
 10
-416.9319383386132
 20
223.3299674721362
 30
0.0
 11
-416.9319383386132
 21
223.3199674721361
 31
0.0
  0
LINE
  5
11C
  8
0
  6
CONTINUOUS
 62
   253
 10
-393.7811857345814
 20
137.1884738702697
 30
0.0
 11
-407.3969927890644
 21
137.1884738702697
 31
0.0
  0
LINE
  5
11D
  8
0
  6
CONTINUOUS
 62
   253
 10
-422.1627883059032
 20
137.2464161615605
 30
0.0
 11
-422.0870245064751
 21
137.3085954501149
 31
0.0
  0
LINE
  5
11E
  8
0
  6
CONTINUOUS
 62
   253
 10
-421.978639724491
 20
225.6791386633592
 30
0.0
 11
-422.0248452179206
 21
225.7655756947293
 31
0.0
  0
LINE
  5
11F
  8
0
  6
CONTINUOUS
 62
   253
 10
-422.4668838881619
 20
225.9614610740026
 30
0.0
 11
-422.4405509741466
 21
225.987793988018
 31
0.0
  0
LINE
  5
120
  8
0
  6
CONTINUOUS
 62
     7
 10
-412.9319383386132
 20
139.8199674721361
 30
0.0
 11
-412.9319383386132
 21
139.8299674721361
 31
0.0
  0
LINE
  5
121
  8
0
  6
CONTINUOUS
 62
     7
 10
-414.9369383386132
 20
137.8199674721361
 30
0.0
 11
-414.9269383386131
 21
137.8199674721361
 31
0.0
  0
LINE
  5
122
  8
0
  6
CONTINUOUS
 62
     7
 10
-414.9369383386132
 20
223.3299674721361
 30
0.0
 11
-416.9319383386132
 21
223.3299674721362
 31
0.0
  0
LINE
  5
123
  8
0
  6
CONTINUOUS
 62
     7
 10
-414.9369383386132
 20
139.8299674721361
 30
0.0
 11
-416.9319383386132
 21
139.8299674721361
 31
0.0
  0
LINE
  5
124
  8
0
  6
CONTINUOUS
 62
   253
 10
-391.4706209848927
 20
224.4186849344293
 30
0.0
 11
-391.7017323715357
 21
224.8507441371737
 31
0.0
  0
LINE
  5
125
  8
0
  6
CONTINUOUS
 62
   253
 10
-407.8390314593057
 20
225.7655756947293
 30
0.0
 11
-407.8852369527353
 21
225.6791386633592
 31
0.0
  0
LINE
  5
126
  8
0
  6
CONTINUOUS
 62
   253
 10
-407.5208624822498
 20
225.9781804948565
 30
0.0
 11
-407.6146513399531
 21
225.9497242761415
 31
0.0
  0
LINE
  5
127
  8
0
  6
CONTINUOUS
 62
   253
 10
-421.950183505776
 20
225.5853498056559
 30
0.0
 11
-421.978639724491
 21
225.6791386633592
 31
0.0
  0
LINE
  5
128
  8
0
  6
CONTINUOUS
 62
   253
 10
-407.8390314593057
 20
137.384359249543
 30
0.0
 11
-407.7768521707512
 21
137.3085954501149
 31
0.0
  0
LINE
  5
129
  8
0
  6
CONTINUOUS
 62
   253
 10
-407.4233257030798
 20
225.987793988018
 30
0.0
 11
-407.3969927890644
 21
225.9614610740026
 31
0.0
  0
LINE
  5
12A
  8
0
  6
CONTINUOUS
 62
     7
 10
-414.9369383386132
 20
221.3299674721361
 30
0.0
 11
-414.9269383386131
 21
221.3299674721361
 31
0.0
  0
LINE
  5
12B
  8
0
  6
CONTINUOUS
 62
   253
 10
-407.8852369527353
 20
137.470796280913
 30
0.0
 11
-407.8390314593057
 21
137.384359249543
 31
0.0
  0
LINE
  5
12C
  8
0
  6
CONTINUOUS
 62
   253
 10
-392.5485335789203
 20
226.5173528208829
 30
0.0
 11
-393.1343429786726
 21
226.5749674721361
 31
0.0
  0
LINE
  5
12D
  8
0
  6
CONTINUOUS
 62
   253
 10
-420.4406271280182
 20
217.0535715401512
 30
0.0
 11
-409.4232495492082
 21
217.0535715401512
 31
0.0
  0
LINE
  5
12E
  8
0
  6
CONTINUOUS
 62
   253
 10
-421.9405700126144
 20
145.120195129364
 30
0.0
 11
-421.9405700126144
 21
137.6621219177863
 31
0.0
  0
LINE
  5
12F
  8
0
  6
CONTINUOUS
 62
   253
 10
-421.4960322996906
 20
217.1992857406755
 30
0.0
 11
-421.3231844533069
 21
217.106949157634
 31
0.0
  0
LINE
  5
130
  8
0
  6
CONTINUOUS
 62
   253
 10
-407.9233066646119
 20
137.6621219177863
 30
0.0
 11
-407.9233066646119
 21
145.120195129364
 31
0.0
  0
LINE
  5
131
  8
0
  6
CONTINUOUS
 62
   253
 10
-421.4960322996905
 20
145.9506492035968
 30
0.0
 11
-421.6475463561882
 21
145.8264149603414
 31
0.0
  0
LINE
  5
132
  8
0
  6
CONTINUOUS
 62
   253
 10
-408.923268587676
 20
217.0307941167941
 30
0.0
 11
-408.7282347912221
 21
217.0500568739798
 31
0.0
  0
LINE
  5
133
  8
0
  6
CONTINUOUS
 62
   253
 10
-408.7282347912221
 20
146.0998780702924
 30
0.0
 11
-408.923268587676
 21
146.1191408274782
 31
0.0
  0
LINE
  5
134
  8
0
  6
CONTINUOUS
 62
   253
 10
-408.923268587676
 20
146.1191408274782
 30
0.0
 11
-409.4232495492081
 21
146.0963634041211
 31
0.0
  0
LINE
  5
135
  8
0
  6
CONTINUOUS
 62
   253
 10
-421.9212876594742
 20
217.8349042242115
 30
0.0
 11
-421.8643374994427
 21
217.647552249602
 31
0.0
  0
LINE
  5
136
  8
0
  6
CONTINUOUS
 62
   253
 10
-421.1356418860041
 20
146.0998780702924
 30
0.0
 11
-421.3231844533069
 21
146.0429857866382
 31
0.0
  0
LINE
  5
137
  8
0
  6
CONTINUOUS
 62
   253
 10
-390.6378829690163
 20
225.2423030091992
 30
0.0
 11
-391.0112433833934
 21
225.6967139943542
 31
0.0
  0
LINE
  5
138
  8
0
  6
CONTINUOUS
 62
     7
 10
-448.4319383386132
 20
130.0749674721361
 30
0.0
 11
-448.4319383386132
 21
233.0749674721361
 31
0.0
  0
LINE
  5
139
  8
0
  6
CONTINUOUS
 62
   253
 10
-407.9995391777837
 20
217.647552249602
 30
0.0
 11
-407.9425890177521
 21
217.8349042242116
 31
0.0
  0
LINE
  5
13A
  8
0
  6
CONTINUOUS
 62
   253
 10
-421.9405700126144
 20
225.4878130264859
 30
0.0
 11
-421.9405700126144
 21
218.0297398149083
 31
0.0
  0
LINE
  5
13B
  8
0
  6
CONTINUOUS
 62
   253
 10
-408.0919696945991
 20
217.474880062201
 30
0.0
 11
-407.9995391777837
 21
217.647552249602
 31
0.0
  0
LINE
  5
13C
  8
0
  6
CONTINUOUS
 62
   253
 10
-408.7282347912221
 20
217.0500568739798
 30
0.0
 11
-408.5406922239194
 21
217.1069491576341
 31
0.0
  0
LINE
  5
13D
  8
0
  6
CONTINUOUS
 62
     7
 10
-412.9319383386132
 20
139.8299674721361
 30
0.0
 11
-414.9269383386131
 21
139.8299674721361
 31
0.0
  0
LINE
  5
13E
  8
0
  6
CONTINUOUS
 62
   253
 10
-420.4406271280182
 20
146.0963634041211
 30
0.0
 11
-420.9406080895503
 21
146.1191408274782
 31
0.0
  0
LINE
  5
13F
  8
0
  6
CONTINUOUS
 62
   253
 10
-407.9233066646119
 20
218.0297398149083
 30
0.0
 11
-407.9233066646119
 21
225.4878130264859
 31
0.0
  0
ARC
  5
140
  8
0
  6
CONTINUOUS
 62
     7
 10
-441.4319383386132
 20
233.0749674721361
 30
0.0
 40
7.000000000000006
 50
90.0
 51
180.0
  0
ARC
  5
141
  8
0
  6
CONTINUOUS
 62
     7
 10
-441.4319383386132
 20
130.0749674721361
 30
0.0
 40
6.999999999999999
 50
180.0
 51
270.0
  0
LINE
  5
142
  8
0
  6
CONTINUOUS
 62
   253
 10
-393.1343429786726
 20
136.5749674721362
 30
0.0
 11
-436.7295336985537
 21
136.5749674721361
 31
0.0
  0
LINE
  5
143
  8
0
  6
CONTINUOUS
 62
   253
 10
-421.8643374994427
 20
217.647552249602
 30
0.0
 11
-421.7719069826272
 21
217.474880062201
 31
0.0
  0
LINE
  5
144
  8
0
  6
CONTINUOUS
 62
   253
 10
-391.0112433833934
 20
137.4532209499181
 30
0.0
 11
-390.6378829690163
 21
137.9076319350731
 31
0.0
  0
LINE
  5
145
  8
0
  6
CONTINUOUS
 62
   253
 10
-407.9995391777836
 20
145.5023826946703
 30
0.0
 11
-408.0919696945991
 21
145.6750548820713
 31
0.0
  0
LINE
  5
146
  8
0
  6
CONTINUOUS
 62
   253
 10
-407.614651339953
 20
137.2002106681308
 30
0.0
 11
-407.5208624822497
 21
137.1717544494158
 31
0.0
  0
LINE
  5
147
  8
0
  6
CONTINUOUS
 62
     7
 10
-414.9369383386132
 20
225.3299674721361
 30
0.0
 11
-414.9369383386132
 21
223.3299674721361
 31
0.0
  0
LINE
  5
148
  8
0
  6
CONTINUOUS
 62
     7
 10
-414.9369383386132
 20
139.8199674721361
 30
0.0
 11
-414.9369383386132
 21
137.8199674721361
 31
0.0
  0
LINE
  5
149
  8
0
  6
CONTINUOUS
 62
   253
 10
-420.9406080895503
 20
217.0307941167941
 30
0.0
 11
-420.4406271280181
 21
217.0535715401512
 31
0.0
  0
LINE
  5
14A
  8
0
  6
CONTINUOUS
 62
   253
 10
-421.9405700126144
 20
218.0297398149083
 30
0.0
 11
-421.9212876594742
 21
217.8349042242115
 31
0.0
  0
LINE
  5
14B
  8
0
  6
CONTINUOUS
 62
   253
 10
-408.5406922239194
 20
146.0429857866382
 30
0.0
 11
-408.7282347912221
 21
146.0998780702924
 31
0.0
  0
LINE
  5
14C
  8
0
  6
CONTINUOUS
 62
   253
 10
-421.7719069826272
 20
217.474880062201
 30
0.0
 11
-421.6475463561882
 21
217.3235199839309
 31
0.0
  0
LINE
  5
14D
  8
0
  6
CONTINUOUS
 62
   253
 10
-408.0919696945991
 20
145.6750548820713
 30
0.0
 11
-408.2163303210381
 21
145.8264149603414
 31
0.0
  0
LINE
  5
14E
  8
0
  6
CONTINUOUS
 62
   253
 10
-421.7719069826272
 20
145.6750548820713
 30
0.0
 11
-421.8643374994427
 21
145.5023826946703
 31
0.0
  0
LINE
  5
14F
  8
0
  6
CONTINUOUS
 62
   253
 10
-409.4232495492082
 20
146.0963634041211
 30
0.0
 11
-420.4406271280182
 21
146.0963634041211
 31
0.0
  0
LINE
  5
150
  8
0
  6
CONTINUOUS
 62
   253
 10
-407.9425890177521
 20
217.8349042242116
 30
0.0
 11
-407.9233066646119
 21
218.0297398149083
 31
0.0
  0
LINE
  5
151
  8
0
  6
CONTINUOUS
 62
   253
 10
-421.9212876594742
 20
145.3150307200607
 30
0.0
 11
-421.9405700126144
 21
145.120195129364
 31
0.0
  0
LINE
  5
152
  8
0
  6
CONTINUOUS
 62
   253
 10
-408.5406922239194
 20
217.1069491576341
 30
0.0
 11
-408.3678443775357
 21
217.1992857406755
 31
0.0
  0
LINE
  5
153
  8
0
  6
CONTINUOUS
 62
   253
 10
-421.3231844533069
 20
146.0429857866382
 30
0.0
 11
-421.4960322996905
 21
145.9506492035968
 31
0.0
  0
LINE
  5
154
  8
0
  6
CONTINUOUS
 62
   253
 10
-408.2163303210381
 20
217.3235199839309
 30
0.0
 11
-408.0919696945991
 21
217.474880062201
 31
0.0
  0
LINE
  5
155
  8
0
  6
CONTINUOUS
 62
   253
 10
-421.1356418860042
 20
217.0500568739798
 30
0.0
 11
-420.9406080895503
 21
217.0307941167941
 31
0.0
  0
LINE
  5
156
  8
0
  6
CONTINUOUS
 62
   253
 10
-421.3231844533069
 20
217.106949157634
 30
0.0
 11
-421.1356418860042
 21
217.0500568739798
 31
0.0
  0
LINE
  5
157
  8
0
  6
CONTINUOUS
 62
   253
 10
-421.6475463561882
 20
145.8264149603414
 30
0.0
 11
-421.7719069826272
 21
145.6750548820713
 31
0.0
  0
LINE
  5
158
  8
0
  6
CONTINUOUS
 62
     7
 10
-414.9269383386131
 20
223.3299674721361
 30
0.0
 11
-414.9269383386131
 21
225.3299674721361
 31
0.0
  0
LINE
  5
159
  8
0
  6
CONTINUOUS
 62
   253
 10
-409.4232495492082
 20
217.0535715401512
 30
0.0
 11
-408.9232685876761
 21
217.0307941167941
 31
0.0
  0
LINE
  5
15A
  8
0
  6
CONTINUOUS
 62
   253
 10
-408.2163303210381
 20
145.8264149603414
 30
0.0
 11
-408.3678443775358
 21
145.9506492035968
 31
0.0
  0
LINE
  5
15B
  8
0
  6
CONTINUOUS
 62
   253
 10
-407.9233066646119
 20
145.120195129364
 30
0.0
 11
-407.9425890177521
 21
145.3150307200607
 31
0.0
  0
LINE
  5
15C
  8
0
  6
CONTINUOUS
 62
     7
 10
-414.9369383386132
 20
223.3199674721361
 30
0.0
 11
-414.9369383386132
 21
221.3299674721361
 31
0.0
  0
LINE
  5
15D
  8
0
  6
CONTINUOUS
 62
   253
 10
-407.9425890177521
 20
145.3150307200607
 30
0.0
 11
-407.9995391777836
 21
145.5023826946703
 31
0.0
  0
LINE
  5
15E
  8
0
  6
CONTINUOUS
 62
     7
 10
-414.9269383386131
 20
225.3299674721361
 30
0.0
 11
-414.9369383386132
 21
225.3299674721361
 31
0.0
  0
LINE
  5
15F
  8
0
  6
CONTINUOUS
 62
   253
 10
-420.9406080895502
 20
146.1191408274782
 30
0.0
 11
-421.1356418860041
 21
146.0998780702924
 31
0.0
  0
LINE
  5
160
  8
0
  6
CONTINUOUS
 62
   253
 10
-421.8643374994427
 20
145.5023826946703
 30
0.0
 11
-421.9212876594742
 21
145.3150307200607
 31
0.0
  0
LINE
  5
161
  8
0
  6
CONTINUOUS
 62
   253
 10
-390.1896219741259
 20
224.1612622548286
 30
0.0
 11
-390.3604573499994
 21
224.7238481046607
 31
0.0
  0
LINE
  5
162
  8
0
  6
CONTINUOUS
 62
   253
 10
-422.0870245064751
 20
225.8413394941574
 30
0.0
 11
-422.1627883059032
 21
225.9035187827118
 31
0.0
  0
LINE
  5
163
  8
0
  6
CONTINUOUS
 62
   253
 10
-408.3678443775357
 20
217.1992857406755
 30
0.0
 11
-408.2163303210381
 21
217.3235199839309
 31
0.0
  0
LINE
  5
164
  8
0
  6
CONTINUOUS
 62
   253
 10
-421.6475463561882
 20
217.3235199839309
 30
0.0
 11
-421.4960322996906
 21
217.1992857406755
 31
0.0
  0
LINE
  5
165
  8
0
  6
CONTINUOUS
 62
   253
 10
-408.3678443775358
 20
145.9506492035968
 30
0.0
 11
-408.5406922239194
 21
146.0429857866382
 31
0.0
  0
LINE
  5
166
  8
0
  6
CONTINUOUS
 62
   253
 10
-437.8786025540257
 20
226.3467217482197
 30
0.0
 11
-438.397678224757
 21
226.0696279044236
 31
0.0
  0
LINE
  5
167
  8
0
  6
CONTINUOUS
 62
   253
 10
-390.6378829690163
 20
137.9076319350731
 30
0.0
 11
-390.3604573499994
 21
138.4260868396116
 31
0.0
  0
LINE
  5
168
  8
0
  6
CONTINUOUS
 62
   253
 10
-390.3604573499994
 20
224.7238481046607
 30
0.0
 11
-390.6378829690163
 21
225.2423030091992
 31
0.0
  0
LINE
  5
169
  8
0
  6
CONTINUOUS
 62
     7
 10
-381.4319383386132
 20
100.3695360582315
 30
0.0
 11
-381.4319383386132
 21
99.86953605823153
 31
0.0
  0
ARC
  5
16A
  8
0
  6
CONTINUOUS
 62
   253
 10
-423.2830167426048
 20
65.68035394475503
 30
0.0
 40
1.630129651617709
 50
329.5640631825649
 51
3.145945071198526
  0
LINE
  5
16B
  8
0
  6
CONTINUOUS
 62
     7
 10
-408.2085329545706
 20
65.76981466917148
 30
0.0
 11
-408.2198707265937
 21
67.06899466077415
 31
0.0
  0
LINE
  5
16C
  8
0
  6
CONTINUOUS
 62
   253
 10
-422.0688245212485
 20
64.6300772833043
 30
0.0
 11
-421.9660303796497
 21
64.73454451115212
 31
0.0
  0
LINE
  5
16D
  8
0
  6
CONTINUOUS
 62
   253
 10
-392.5485335789203
 20
136.6325821233893
 30
0.0
 11
-391.9852741232006
 21
136.8032131960526
 31
0.0
  0
LINE
  5
16E
  8
0
  6
CONTINUOUS
 62
     7
 10
-386.9319383386132
 20
99.86953605823153
 30
0.0
 11
-381.4319383386132
 21
99.86953605823153
 31
0.0
  0
LINE
  5
16F
  8
0
  6
CONTINUOUS
 62
     7
 10
-394.7864734563436
 20
64.16953605823153
 30
0.0
 11
-435.0774032208826
 21
64.16953605823153
 31
0.0
  0
ARC
  5
170
  8
0
  6
CONTINUOUS
 62
     7
 10
-388.4319383386132
 20
130.0749674721361
 30
0.0
 40
6.999999999999979
 50
270.0
 51
0.0
  0
LINE
  5
171
  8
0
  6
CONTINUOUS
 62
   253
 10
-391.9852741232006
 20
226.3467217482197
 30
0.0
 11
-392.5485335789203
 21
226.5173528208829
 31
0.0
  0
LINE
  5
172
  8
0
  6
CONTINUOUS
 62
   253
 10
-437.315343098306
 20
226.5173528208829
 30
0.0
 11
-437.8786025540257
 21
226.3467217482197
 31
0.0
  0
LINE
  5
173
  8
0
  6
CONTINUOUS
 62
     7
 10
-442.9319383386132
 20
99.86953605823153
 30
0.0
 11
-442.9319383386132
 21
100.3695360582315
 31
0.0
  0
ARC
  5
174
  8
0
  6
CONTINUOUS
 62
     7
 10
-394.7864734563436
 20
67.16953605823153
 30
0.0
 40
2.999999999999992
 50
270.0
 51
357.1533830841854
  0
LINE
  5
175
  8
0
  6
CONTINUOUS
 62
   253
 10
-408.0609312943506
 20
64.99080131989638
 30
0.0
 11
-408.0139336742349
 21
64.90016263094469
 31
0.0
  0
LINE
  5
176
  8
0
  6
CONTINUOUS
 62
   253
 10
-436.7295336985537
 20
226.5749674721361
 30
0.0
 11
-393.1343429786726
 21
226.5749674721361
 31
0.0
  0
LINE
  5
177
  8
0
  6
CONTINUOUS
 62
     7
 10
-441.4319383386132
 20
240.0749674721361
 30
0.0
 11
-388.4319383386132
 21
240.0749674721361
 31
0.0
  0
LINE
  5
178
  8
0
  6
CONTINUOUS
 62
   253
 10
-436.7295336985537
 20
226.5749674721361
 30
0.0
 11
-437.315343098306
 21
226.5173528208829
 31
0.0
  0
LINE
  5
179
  8
0
  6
CONTINUOUS
 62
     7
 10
-381.4319383386132
 20
233.0749674721361
 30
0.0
 11
-381.4319383386132
 21
130.0749674721361
 31
0.0
  0
ARC
  5
17A
  8
0
  6
CONTINUOUS
 62
     7
 10
-388.4319383386132
 20
233.0749674721361
 30
0.0
 40
7.000000000000006
 50
0.0
 51
90.0
  0
LINE
  5
17B
  8
0
  6
CONTINUOUS
 62
   253
 10
-390.3604573499994
 20
138.4260868396116
 30
0.0
 11
-390.1896219741259
 21
138.9886726894437
 31
0.0
  0
LINE
  5
17C
  8
0
  6
CONTINUOUS
 62
   253
 10
-393.1343429786726
 20
136.5749674721361
 30
0.0
 11
-392.5485335789203
 21
136.6325821233893
 31
0.0
  0
LINE
  5
17D
  8
0
  6
CONTINUOUS
 62
   253
 10
-390.1319383386132
 20
223.5761534285982
 30
0.0
 11
-390.1896219741259
 21
224.1612622548286
 31
0.0
  0
LINE
  5
17E
  8
0
  6
CONTINUOUS
 62
   253
 10
-391.9852741232006
 20
136.8032131960526
 30
0.0
 11
-391.4661984524693
 21
137.0803070398487
 31
0.0
  0
LINE
  5
17F
  8
0
  6
CONTINUOUS
 62
   253
 10
-390.1319383386132
 20
223.5761534285983
 30
0.0
 11
-390.1319383386132
 21
139.573781515674
 31
0.0
  0
LINE
  5
180
  8
0
  6
CONTINUOUS
 62
   253
 10
-391.4661984524693
 20
137.0803070398487
 30
0.0
 11
-391.0112433833934
 21
137.4532209499181
 31
0.0
  0
LINE
  5
181
  8
0
  6
CONTINUOUS
 62
   253
 10
-390.1896219741259
 20
138.9886726894437
 30
0.0
 11
-390.1319383386132
 21
139.573781515674
 31
0.0
  0
LINE
  5
182
  8
0
  6
CONTINUOUS
 62
   253
 10
-391.0112433833934
 20
225.6967139943542
 30
0.0
 11
-391.4661984524693
 21
226.0696279044236
 31
0.0
  0
LINE
  5
183
  8
0
  6
CONTINUOUS
 62
     7
 10
-448.4319383386132
 20
100.3695360582315
 30
0.0
 11
-448.4319383386132
 21
99.86953605823153
 31
0.0
  0
LINE
  5
184
  8
0
  6
CONTINUOUS
 62
   253
 10
-391.4661984524693
 20
226.0696279044236
 30
0.0
 11
-391.9852741232006
 21
226.3467217482197
 31
0.0
  0
LINE
  5
185
  8
0
  6
CONTINUOUS
 62
   253
 10
-408.1163446851999
 20
65.12977877784046
 30
0.0
 11
-408.0609312943506
 21
64.99080131989638
 31
0.0
  0
LINE
  5
186
  8
0
  6
CONTINUOUS
 62
     7
 10
-388.4319383386132
 20
123.0749674721361
 30
0.0
 11
-441.4319383386132
 21
123.0749674721361
 31
0.0
  0
LINE
  5
187
  8
0
  6
CONTINUOUS
 62
   253
 10
-407.5328955807046
 20
64.46741259623442
 30
0.0
 11
-407.4094242890449
 21
64.42750800435776
 31
0.0
  0
LINE
  5
188
  8
0
  6
CONTINUOUS
 62
     7
 10
-352.9026531012011
 20
229.5749674721361
 30
0.0
 11
-352.9026531012011
 21
133.5749674721361
 31
0.0
  0
LINE
  5
189
  8
0
  6
CONTINUOUS
 62
     7
 10
-442.9319383386132
 20
99.86953605823153
 30
0.0
 11
-448.4319383386132
 21
99.86953605823153
 31
0.0
  0
LINE
  5
18A
  8
0
  6
CONTINUOUS
 62
     7
 10
-352.9026531012011
 20
240.0749674721361
 30
0.0
 11
-352.9026531012011
 21
233.0749674721361
 31
0.0
  0
LINE
  5
18B
  8
0
  6
CONTINUOUS
 62
     7
 10
-339.3982898334519
 20
136.6928182649721
 30
0.0
 11
-352.9026531012011
 21
136.5749674721361
 31
0.0
  0
LINE
  5
18C
  8
0
  6
CONTINUOUS
 62
     7
 10
-352.9026531012011
 20
233.0749674721361
 30
0.0
 11
-352.9026531012011
 21
229.5749674721361
 31
0.0
  0
LINE
  5
18D
  8
0
  6
CONTINUOUS
 62
     7
 10
-338.9026531012011
 20
223.4581240148198
 30
0.0
 11
-338.9026531012011
 21
218.727251589819
 31
0.0
  0
ARC
  5
18E
  8
0
  6
CONTINUOUS
 62
     7
 10
-339.4026531012011
 20
225.957135717768
 30
0.0
 40
0.5000000000000016
 50
0.0
 51
89.49999999999955
  0
ARC
  5
18F
  8
0
  6
CONTINUOUS
 62
     7
 10
-319.7026531012011
 20
215.4617797045835
 30
0.0
 40
3.000000000000003
 50
0.0
 51
87.36877318911202
  0
LINE
  5
190
  8
0
  6
CONTINUOUS
 62
     7
 10
-353.4026531012011
 20
123.0749674721361
 30
0.0
 11
-353.4026531012011
 21
130.0749674721361
 31
0.0
  0
LINE
  5
191
  8
0
  6
CONTINUOUS
 62
     7
 10
-352.9026531012011
 20
133.5749674721361
 30
0.0
 11
-352.9026531012011
 21
130.0749674721361
 31
0.0
  0
ARC
  5
192
  8
0
  6
CONTINUOUS
 62
     7
 10
-409.4232495492082
 20
90.36953605823153
 30
0.0
 40
1.000000000000001
 50
0.5000000000004787
 51
90.0
  0
LINE
  5
193
  8
0
  6
CONTINUOUS
 62
   253
 10
-421.9660303796497
 20
64.73454451115212
 30
0.0
 11
-421.8775253027387
 21
64.85457159234848
 31
0.0
  0
LINE
  5
194
  8
0
  6
CONTINUOUS
 62
     7
 10
-352.9026531012011
 20
130.0749674721361
 30
0.0
 11
-352.9026531012011
 21
123.0749674721361
 31
0.0
  0
LINE
  5
195
  8
0
  6
CONTINUOUS
 62
   253
 10
-439.0100904925418
 20
85.95431816915217
 30
0.0
 11
-439.0123072929789
 21
85.89717949086372
 31
0.0
  0
LINE
  5
196
  8
0
  6
CONTINUOUS
 62
   253
 10
-407.8691294277613
 20
64.70220745430792
 30
0.0
 11
-407.7619877254147
 21
64.60236355451624
 31
0.0
  0
LINE
  5
197
  8
0
  6
CONTINUOUS
 62
     7
 10
-353.4026531012011
 20
233.0749674721361
 30
0.0
 11
-353.4026531012011
 21
240.0749674721361
 31
0.0
  0
LINE
  5
198
  8
0
  6
CONTINUOUS
 62
     7
 10
-448.4319383386132
 20
100.3695360582315
 30
0.0
 11
-448.4319383386132
 21
99.86953605823153
 31
0.0
  0
LINE
  5
199
  8
0
  6
CONTINUOUS
 62
     7
 10
-352.9026531012011
 20
226.5749674721361
 30
0.0
 11
-339.3982898334519
 21
226.4571166793001
 31
0.0
  0
LINE
  5
19A
  8
0
  6
CONTINUOUS
 62
   253
 10
-438.9501169811772
 20
86.11942902352936
 30
0.0
 11
-438.9786351221615
 21
86.06587042236504
 31
0.0
  0
LINE
  5
19B
  8
0
  6
CONTINUOUS
 62
     7
 10
-319.5649308082625
 20
144.6913181453461
 30
0.0
 11
-338.4256068166908
 21
143.8245591376059
 31
0.0
  0
LINE
  5
19C
  8
0
  6
CONTINUOUS
 62
     7
 10
-408.3969547121285
 20
87.36080952273316
 30
0.0
 11
-408.423287626144
 21
90.37826259372991
 31
0.0
  0
LINE
  5
19D
  8
0
  6
CONTINUOUS
 62
   253
 10
-438.8218918514449
 20
86.2622878311971
 30
0.0
 11
-438.8711851301811
 21
86.21818914334881
 31
0.0
  0
LINE
  5
19E
  8
0
  6
CONTINUOUS
 62
   253
 10
-438.9786351221615
 20
86.06587042236504
 30
0.0
 11
-438.9987515497036
 21
86.01073582288231
 31
0.0
  0
LINE
  5
19F
  8
0
  6
CONTINUOUS
 62
   253
 10
-438.7670083272795
 20
86.30138530156124
 30
0.0
 11
-438.8218918514449
 21
86.2622878311971
 31
0.0
  0
LINE
  5
1A0
  8
0
  6
CONTINUOUS
 62
     7
 10
-338.9026531012011
 20
139.6918109294525
 30
0.0
 11
-338.9026531012011
 21
137.1927992265043
 31
0.0
  0
LINE
  5
1A1
  8
0
  6
CONTINUOUS
 62
   253
 10
-441.4319383386132
 20
100.8695360582315
 30
0.0
 11
-441.4319383386132
 21
100.3695360582315
 31
0.0
  0
LINE
  5
1A2
  8
0
  6
CONTINUOUS
 62
     7
 10
-441.4319383386132
 20
100.3695360582315
 30
0.0
 11
-448.4319383386132
 21
100.3695360582315
 31
0.0
  0
ARC
  5
1A3
  8
0
  6
CONTINUOUS
 62
     7
 10
-338.4026531012011
 20
219.8248486557235
 30
0.0
 40
0.5000000000000004
 50
180.0
 51
267.3687731891123
  0
LINE
  5
1A4
  8
0
  6
CONTINUOUS
 62
     7
 10
-421.6440059506326
 20
67.06899466077415
 30
0.0
 11
-421.6553437226557
 21
65.76981466917148
 31
0.0
  0
LINE
  5
1A5
  8
0
  6
CONTINUOUS
 62
     7
 10
-353.4026531012011
 20
233.0749674721361
 30
0.0
 11
-353.4026531012011
 21
130.0749674721361
 31
0.0
  0
ARC
  5
1A6
  8
0
  6
CONTINUOUS
 62
     7
 10
-338.4026531012011
 20
143.3250862885488
 30
0.0
 40
0.4999999999999776
 50
92.63122681088768
 51
180.0
  0
LINE
  5
1A7
  8
0
  6
CONTINUOUS
 62
   253
 10
-438.8711851301811
 20
86.21818914334881
 30
0.0
 11
-438.9141986820528
 21
86.17022251067463
 31
0.0
  0
ARC
  5
1A8
  8
0
  6
CONTINUOUS
 62
     7
 10
-420.4406271280182
 20
90.36953605823153
 30
0.0
 40
1.000000000000001
 50
90.0
 51
179.4999999999994
  0
LINE
  5
1A9
  8
0
  6
CONTINUOUS
 62
   253
 10
-438.5874282559918
 20
86.36816427388958
 30
0.0
 11
-438.6144969779066
 21
86.36426286387206
 31
0.0
  0
LINE
  5
1AA
  8
0
  6
CONTINUOUS
 62
     7
 10
-388.4319383386132
 20
100.8695360582315
 30
0.0
 11
-381.4319383386132
 21
100.8695360582315
 31
0.0
  0
LINE
  5
1AB
  8
0
  6
CONTINUOUS
 62
   253
 10
-407.7619877254147
 20
64.60236355451624
 30
0.0
 11
-407.645405600533
 21
64.52253284647905
 31
0.0
  0
LINE
  5
1AC
  8
0
  6
CONTINUOUS
 62
   253
 10
-407.4094242890449
 20
64.42750800435776
 30
0.0
 11
-407.2864559655276
 21
64.40676226709866
 31
0.0
  0
LINE
  5
1AD
  8
0
  6
CONTINUOUS
 62
     7
 10
-352.9026531012011
 20
123.0749674721361
 30
0.0
 11
-353.4026531012011
 21
123.0749674721361
 31
0.0
  0
LINE
  5
1AE
  8
0
  6
CONTINUOUS
 62
     7
 10
-338.9026531012011
 20
144.4226833544533
 30
0.0
 11
-338.9026531012011
 21
139.6918109294525
 31
0.0
  0
LINE
  5
1AF
  8
0
  6
CONTINUOUS
 62
     7
 10
-409.4232495492082
 20
91.36953605823153
 30
0.0
 11
-420.4406271280182
 21
91.36953605823153
 31
0.0
  0
ARC
  5
1B0
  8
0
  6
CONTINUOUS
 62
     7
 10
-438.560049888973
 20
86.86953605823155
 30
0.0
 40
0.4999999999999992
 50
182.8466169158166
 51
270.0000000000005
  0
LINE
  5
1B1
  8
0
  6
CONTINUOUS
 62
     7
 10
-353.4026531012011
 20
240.0749674721361
 30
0.0
 11
-352.9026531012011
 21
240.0749674721361
 31
0.0
  0
LINE
  5
1B2
  8
0
  6
CONTINUOUS
 62
     7
 10
-338.9026531012011
 20
225.957135717768
 30
0.0
 11
-338.9026531012011
 21
223.4581240148198
 31
0.0
  0
LINE
  5
1B3
  8
0
  6
CONTINUOUS
 62
   253
 10
-407.2864559655276
 20
64.40676226709866
 30
0.0
 11
-407.2046137020665
 21
64.4028462199426
 31
0.0
  0
ARC
  5
1B4
  8
0
  6
CONTINUOUS
 62
     7
 10
-319.7026531012011
 20
147.6881552396887
 30
0.0
 40
3.0
 50
272.6312268108879
 51
0.0000000000002842
  0
LINE
  5
1B5
  8
0
  6
CONTINUOUS
 62
   253
 10
-408.0139336742349
 20
64.90016263094469
 30
0.0
 11
-407.9586312957762
 21
64.81314169891935
 31
0.0
  0
LINE
  5
1B6
  8
0
  6
CONTINUOUS
 62
   253
 10
-407.645405600533
 20
64.52253284647905
 30
0.0
 11
-407.5328955807046
 21
64.46741259623442
 31
0.0
  0
LINE
  5
1B7
  8
0
  6
CONTINUOUS
 62
     7
 10
-442.9319383386132
 20
99.86953605823153
 30
0.0
 11
-448.4319383386132
 21
99.86953605823153
 31
0.0
  0
LINE
  5
1B8
  8
0
  6
CONTINUOUS
 62
     7
 10
-386.9319383386132
 20
99.86953605823153
 30
0.0
 11
-386.9319383386132
 21
100.3695360582315
 31
0.0
  0
LINE
  5
1B9
  8
0
  6
CONTINUOUS
 62
     7
 10
-442.9319383386132
 20
99.86953605823153
 30
0.0
 11
-442.9319383386132
 21
100.3695360582315
 31
0.0
  0
ARC
  5
1BA
  8
0
  6
CONTINUOUS
 62
     7
 10
-435.0774032208827
 20
67.16953605823153
 30
0.0
 40
3.0
 50
182.846616915818
 51
270.0
  0
LINE
  5
1BB
  8
0
  6
CONTINUOUS
 62
   253
 10
-407.9586312957762
 20
64.81314169891935
 30
0.0
 11
-407.8691294277613
 21
64.70220745430792
 31
0.0
  0
ARC
  5
1BC
  8
0
  6
CONTINUOUS
 62
   253
 10
-406.1945029444774
 20
65.73325051890019
 30
0.0
 40
2.01436188869847
 50
178.959925441132
 51
197.4326531754753
  0
LINE
  5
1BD
  8
0
  6
CONTINUOUS
 62
     7
 10
-430.4319383386131
 20
71.16953605823153
 30
0.0
 11
-427.4319383386131
 21
71.16953605823153
 31
0.0
  0
ARC
  5
1BE
  8
0
  6
CONTINUOUS
 62
     7
 10
-391.3038267882533
 20
86.86953605823155
 30
0.0
 40
0.5000000000000004
 50
270.0
 51
357.1533830841832
  0
LINE
  5
1BF
  8
0
  6
CONTINUOUS
 62
     7
 10
-421.4669219650978
 20
87.36080952273316
 30
0.0
 11
-421.6440059506327
 21
67.06899466077415
 31
0.0
  0
LINE
  5
1C0
  8
0
  6
CONTINUOUS
 62
     7
 10
-390.8516981131775
 20
85.89436725865981
 30
0.0
 11
-391.7901752713375
 21
67.02054885566224
 31
0.0
  0
LINE
  5
1C1
  8
0
  6
CONTINUOUS
 62
   253
 10
-390.8536080113366
 20
85.95274935856358
 30
0.0
 11
-390.8642885071504
 21
86.00773146965874
 31
0.0
  0
LINE
  5
1C2
  8
0
  6
CONTINUOUS
 62
   253
 10
-391.0405968698679
 20
86.26118798898693
 30
0.0
 11
-391.0968683499468
 21
86.30138530156124
 31
0.0
  0
LINE
  5
1C3
  8
0
  6
CONTINUOUS
 62
     7
 10
-439.0121785640488
 20
85.89436725865967
 30
0.0
 11
-439.0586746548054
 21
86.82945530609706
 31
0.0
  0
LINE
  5
1C4
  8
0
  6
CONTINUOUS
 62
   253
 10
-422.6592629751598
 20
64.4028462199426
 30
0.0
 11
-422.537517075794
 21
64.41150982320367
 31
0.0
  0
ARC
  5
1C5
  8
0
  6
CONTINUOUS
 62
     7
 10
-422.4668838881619
 20
87.36953605823153
 30
0.0
 40
1.000000000000001
 50
270.0
 51
359.5000000000003
  0
LINE
  5
1C6
  8
0
  6
CONTINUOUS
 62
   253
 10
-422.4162017360275
 20
64.43773959212984
 30
0.0
 11
-422.2972343640859
 21
64.48193771407514
 31
0.0
  0
LINE
  5
1C7
  8
0
  6
CONTINUOUS
 62
   253
 10
-438.7185698408215
 20
86.32849602089243
 30
0.0
 11
-438.7670083272795
 21
86.30138530156124
 31
0.0
  0
LINE
  5
1C8
  8
0
  6
CONTINUOUS
 62
   253
 10
-391.248844151781
 20
86.36416150213262
 30
0.0
 11
-391.2761655515145
 21
86.36813790665353
 31
0.0
  0
LINE
  5
1C9
  8
0
  6
CONTINUOUS
 62
   253
 10
-438.667472499116
 20
86.34997607485039
 30
0.0
 11
-438.7185698408215
 21
86.32849602089243
 31
0.0
  0
ARC
  5
1CA
  8
0
  6
CONTINUOUS
 62
     7
 10
-339.4026531012011
 20
137.1927992265043
 30
0.0
 40
0.5000000000000004
 50
270.5000000000007
 51
0.0
  0
LINE
  5
1CB
  8
0
  6
CONTINUOUS
 62
   253
 10
-388.4319383386132
 20
100.3695360582315
 30
0.0
 11
-388.4319383386132
 21
100.8695360582315
 31
0.0
  0
LINE
  5
1CC
  8
0
  6
CONTINUOUS
 62
     7
 10
-438.0737014058887
 20
67.02054885566208
 30
0.0
 11
-439.0121785640488
 21
85.89436725865967
 31
0.0
  0
LINE
  5
1CD
  8
0
  6
CONTINUOUS
 62
   253
 10
-391.1448873495326
 20
86.32828948225998
 30
0.0
 11
-391.1956492409988
 21
86.349712414681
 31
0.0
  0
LINE
  5
1CE
  8
0
  6
CONTINUOUS
 62
   253
 10
-438.9141986820528
 20
86.17022251067463
 30
0.0
 11
-438.9501169811772
 21
86.11942902352936
 31
0.0
  0
LINE
  5
1CF
  8
0
  6
CONTINUOUS
 62
   253
 10
-391.2761655515145
 20
86.36813790665353
 30
0.0
 11
-391.3038267882533
 21
86.36953605823155
 31
0.0
  0
LINE
  5
1D0
  8
0
  6
CONTINUOUS
 62
     7
 10
-381.4319383386132
 20
100.3695360582315
 30
0.0
 11
-388.4319383386132
 21
100.3695360582315
 31
0.0
  0
LINE
  5
1D1
  8
0
  6
CONTINUOUS
 62
   253
 10
-422.2972343640859
 20
64.48193771407514
 30
0.0
 11
-422.1830174451831
 21
64.54412332632519
 31
0.0
  0
LINE
  5
1D2
  8
0
  6
CONTINUOUS
 62
   253
 10
-390.9902898232347
 20
86.21577764882657
 30
0.0
 11
-391.0405968698679
 21
86.26118798898693
 31
0.0
  0
LINE
  5
1D3
  8
0
  6
CONTINUOUS
 62
     7
 10
-390.8044437574189
 20
86.84470485780331
 30
0.0
 11
-390.8051678461634
 21
86.83014262860871
 31
0.0
  0
ARC
  5
1D4
  8
0
  6
CONTINUOUS
 62
     7
 10
-399.4319383386132
 20
74.16953605823154
 30
0.0
 40
3.000000000000001
 50
270.0
 51
0.0
  0
LINE
  5
1D5
  8
0
  6
CONTINUOUS
 62
     7
 10
-393.8058306549696
 20
86.36953605823153
 30
0.0
 11
-407.3969927890644
 21
86.36953605823153
 31
0.0
  0
LINE
  5
1D6
  8
0
  6
CONTINUOUS
 62
   253
 10
-438.6144969779066
 20
86.36426286387206
 30
0.0
 11
-438.667472499116
 21
86.34997607485039
 31
0.0
  0
LINE
  5
1D7
  8
0
  6
CONTINUOUS
 62
   253
 10
-390.9110637855235
 20
86.11502215734588
 30
0.0
 11
-390.9469704825889
 21
86.16680984577152
 31
0.0
  0
LINE
  5
1D8
  8
0
  6
CONTINUOUS
 62
   253
 10
-438.9987515497036
 20
86.01073582288231
 30
0.0
 11
-439.0100904925418
 21
85.95431816915217
 31
0.0
  0
LINE
  5
1D9
  8
0
  6
CONTINUOUS
 62
     7
 10
-427.4319383386131
 20
77.16953605823154
 30
0.0
 11
-430.4319383386131
 21
77.16953605823154
 31
0.0
  0
ARC
  5
1DA
  8
0
  6
CONTINUOUS
 62
     7
 10
-402.4319383386132
 20
74.16953605823154
 30
0.0
 40
3.000000000000001
 50
180.0
 51
270.0
  0
LINE
  5
1DB
  8
0
  6
CONTINUOUS
 62
     7
 10
-388.4319383386132
 20
100.3695360582315
 30
0.0
 11
-441.4319383386132
 21
100.3695360582315
 31
0.0
  0
LINE
  5
1DC
  8
0
  6
CONTINUOUS
 62
     7
 10
-448.4319383386132
 20
100.8695360582315
 30
0.0
 11
-441.4319383386132
 21
100.8695360582315
 31
0.0
  0
LINE
  5
1DD
  8
0
  6
CONTINUOUS
 62
     7
 10
-390.1319383386132
 20
100.3695360582315
 30
0.0
 11
-390.8044437574189
 21
86.84470485780331
 31
0.0
  0
LINE
  5
1DE
  8
0
  6
CONTINUOUS
 62
     7
 10
-439.0594329198074
 20
86.84470485780331
 30
0.0
 11
-439.7319383386132
 21
100.3695360582315
 31
0.0
  0
LINE
  5
1DF
  8
0
  6
CONTINUOUS
 62
     7
 10
-388.4319383386132
 20
100.8695360582315
 30
0.0
 11
-441.4319383386132
 21
100.8695360582315
 31
0.0
  0
LINE
  5
1E0
  8
0
  6
CONTINUOUS
 62
   253
 10
-390.8642885071504
 20
86.00773146965874
 30
0.0
 11
-390.8835733603714
 21
86.06208990397548
 31
0.0
  0
LINE
  5
1E1
  8
0
  6
CONTINUOUS
 62
     7
 10
-338.4256068166908
 20
219.3253758066664
 30
0.0
 11
-319.5649308082625
 21
218.4586167989261
 31
0.0
  0
LINE
  5
1E2
  8
0
  6
CONTINUOUS
 62
     7
 10
-390.8051678461635
 20
86.83014262860871
 30
0.0
 11
-390.8516981131775
 21
85.89436725865981
 31
0.0
  0
ARC
  5
1E3
  8
0
  6
CONTINUOUS
 62
     7
 10
-399.4319383386132
 20
74.16953605823154
 30
0.0
 40
3.000000000000001
 50
0.0
 51
90.0
  0
LINE
  5
1E4
  8
0
  6
CONTINUOUS
 62
   253
 10
-390.8516981131775
 20
85.89436725865981
 30
0.0
 11
-390.8515693842475
 21
85.8971794908627
 31
0.0
  0
LINE
  5
1E5
  8
0
  6
CONTINUOUS
 62
   253
 10
-390.8515693842475
 20
85.8971794908627
 30
0.0
 11
-390.8536080113366
 21
85.95274935856358
 31
0.0
  0
LINE
  5
1E6
  8
0
  6
CONTINUOUS
 62
   253
 10
-390.8835733603714
 20
86.06208990397548
 30
0.0
 11
-390.9110637855235
 21
86.11502215734588
 31
0.0
  0
LINE
  5
1E7
  8
0
  6
CONTINUOUS
 62
     7
 10
-399.4319383386132
 20
77.16953605823154
 30
0.0
 11
-402.4319383386132
 21
77.16953605823154
 31
0.0
  0
ARC
  5
1E8
  8
0
  6
CONTINUOUS
 62
     7
 10
-427.4319383386131
 20
74.16953605823154
 30
0.0
 40
3.000000000000001
 50
0.0
 51
90.0
  0
LINE
  5
1E9
  8
0
  6
CONTINUOUS
 62
     7
 10
-408.2198707265937
 20
67.06899466077415
 30
0.0
 11
-408.3969547121285
 21
87.36080952273316
 31
0.0
  0
ARC
  5
1EA
  8
0
  6
CONTINUOUS
 62
     7
 10
-430.4319383386131
 20
74.16953605823154
 30
0.0
 40
3.000000000000001
 50
90.0
 51
180.0
  0
LINE
  5
1EB
  8
0
  6
CONTINUOUS
 62
   253
 10
-422.537517075794
 20
64.41150982320367
 30
0.0
 11
-422.4162017360275
 21
64.43773959212984
 31
0.0
  0
LINE
  5
1EC
  8
0
  6
CONTINUOUS
 62
     7
 10
-421.4405890510823
 20
90.37826259372991
 30
0.0
 11
-421.4669219650978
 21
87.36080952273316
 31
0.0
  0
LINE
  5
1ED
  8
0
  6
CONTINUOUS
 62
   253
 10
-391.0968683499468
 20
86.30138530156124
 30
0.0
 11
-391.1448873495326
 21
86.32828948225998
 31
0.0
  0
LINE
  5
1EE
  8
0
  6
CONTINUOUS
 62
     7
 10
-448.4319383386132
 20
100.3695360582315
 30
0.0
 11
-448.4319383386132
 21
100.8695360582315
 31
0.0
  0
LINE
  5
1EF
  8
0
  6
CONTINUOUS
 62
   253
 10
-438.560049888973
 20
86.36953605823155
 30
0.0
 11
-438.5874282559918
 21
86.36816427388958
 31
0.0
  0
LINE
  5
1F0
  8
0
  6
CONTINUOUS
 62
   253
 10
-390.9469704825889
 20
86.16680984577152
 30
0.0
 11
-390.9902898232347
 21
86.21577764882657
 31
0.0
  0
LINE
  5
1F1
  8
0
  6
CONTINUOUS
 62
     7
 10
-402.4319383386132
 20
71.16953605823153
 30
0.0
 11
-399.4319383386132
 21
71.16953605823153
 31
0.0
  0
ARC
  5
1F2
  8
0
  6
CONTINUOUS
 62
     7
 10
-402.4319383386132
 20
74.16953605823154
 30
0.0
 40
3.000000000000001
 50
90.0
 51
180.0
  0
LINE
  5
1F3
  8
0
  6
CONTINUOUS
 62
   253
 10
-422.1830174451831
 20
64.54412332632519
 30
0.0
 11
-422.0688245212485
 21
64.6300772833043
 31
0.0
  0
LINE
  5
1F4
  8
0
  6
CONTINUOUS
 62
   253
 10
-439.0123072929789
 20
85.89717949086372
 30
0.0
 11
-439.0121785640488
 21
85.89436725865967
 31
0.0
  0
LINE
  5
1F5
  8
0
  6
CONTINUOUS
 62
     7
 10
-316.7026531012011
 20
215.4617797045835
 30
0.0
 11
-316.7026531012011
 21
147.6881552396887
 31
0.0
  0
LINE
  5
1F6
  8
0
  6
CONTINUOUS
 62
     7
 10
-391.3038267882533
 20
86.36953605823153
 30
0.0
 11
-393.8058306549696
 21
86.36953605823153
 31
0.0
  0
LINE
  5
1F7
  8
0
  6
CONTINUOUS
 62
     7
 10
-422.4668838881619
 20
86.36953605823155
 30
0.0
 11
-436.0580460222568
 21
86.36953605823155
 31
0.0
  0
LINE
  5
1F8
  8
0
  6
CONTINUOUS
 62
     7
 10
-439.0586746548054
 20
86.82945530609706
 30
0.0
 11
-439.0594329198073
 21
86.84470485780331
 31
0.0
  0
LINE
  5
1F9
  8
0
  6
CONTINUOUS
 62
     7
 10
-436.0580460222568
 20
86.36953605823153
 30
0.0
 11
-438.560049888973
 21
86.36953605823153
 31
0.0
  0
LINE
  5
1FA
  8
0
  6
CONTINUOUS
 62
     7
 10
-381.4319383386132
 20
100.8695360582315
 30
0.0
 11
-381.4319383386132
 21
100.3695360582315
 31
0.0
  0
ARC
  5
1FB
  8
0
  6
CONTINUOUS
 62
     7
 10
-407.3969927890644
 20
87.36953605823153
 30
0.0
 40
1.000000000000001
 50
180.4999999999997
 51
270.0
  0
LINE
  5
1FC
  8
0
  6
CONTINUOUS
 62
   253
 10
-391.1956492409988
 20
86.349712414681
 30
0.0
 11
-391.248844151781
 21
86.36416150213262
 31
0.0
  0
LINE
  5
1FD
  8
0
  6
CONTINUOUS
 62
   253
 10
-421.9847879691972
 20
144.6529273689775
 30
0.0
 11
-421.9918587084181
 21
144.6325166343888
 31
0.0
  0
LINE
  5
1FE
  8
0
  6
CONTINUOUS
 62
   253
 10
-422.47520950903
 20
144.3240460767264
 30
0.0
 11
-422.4793732477269
 21
144.324031986663
 31
0.0
  0
LINE
  5
1FF
  8
0
  6
CONTINUOUS
 62
   253
 10
-407.8957589998627
 20
218.4133621700022
 30
0.0
 11
-407.8933559887053
 21
218.4344745643921
 31
0.0
  0
LINE
  5
200
  8
0
  6
CONTINUOUS
 62
   253
 10
-407.8897704420571
 20
218.4554862423454
 30
0.0
 11
-407.885010902123
 21
218.4763471456489
 31
0.0
  0
LINE
  5
201
  8
0
  6
CONTINUOUS
 62
   253
 10
-437.4041095751108
 20
144.7437055422411
 30
0.0
 11
-436.9721320197828
 21
144.5132782880985
 31
0.0
  0
LINE
  5
202
  8
0
  6
CONTINUOUS
 62
   253
 10
-422.1575752276145
 20
144.4238309213532
 30
0.0
 11
-422.1771215380344
 21
144.4107229819429
 31
0.0
  0
LINE
  5
203
  8
0
  6
CONTINUOUS
 62
   253
 10
-436.5031813231907
 20
144.3715771866933
 30
0.0
 11
-436.01522688981
 21
144.324031986663
 31
0.0
  0
LINE
  5
204
  8
0
  6
CONTINUOUS
 62
   253
 10
-438.0929856580166
 20
217.7175762822451
 30
0.0
 11
-438.3234876090306
 21
217.2857384495927
 31
0.0
  0
LINE
  5
205
  8
0
  6
CONTINUOUS
 62
   253
 10
-407.3845034294994
 20
144.324031986663
 30
0.0
 11
-407.3886671681963
 21
144.3240460767264
 31
0.0
  0
LINE
  5
206
  8
0
  6
CONTINUOUS
 62
   253
 10
-407.8969737505965
 20
218.3921993573358
 30
0.0
 11
-407.8957589998627
 21
218.4133621700022
 31
0.0
  0
LINE
  5
207
  8
0
  6
CONTINUOUS
 62
   253
 10
-422.2397080707099
 20
144.3764744956441
 30
0.0
 11
-422.2617204287613
 21
144.366840777594
 31
0.0
  0
LINE
  5
208
  8
0
  6
CONTINUOUS
 62
   253
 10
-436.9721320197828
 20
218.6366566561738
 30
0.0
 11
-437.4041095751108
 21
218.4062294020312
 31
0.0
  0
LINE
  5
209
  8
0
  6
CONTINUOUS
 62
   253
 10
-407.8066033725311
 20
144.5179628225277
 30
0.0
 11
-407.820119026132
 21
144.5358830572465
 31
0.0
  0
LINE
  5
20A
  8
0
  6
CONTINUOUS
 62
   253
 10
-391.3986419390149
 20
146.332995559271
 30
0.0
 11
-391.3510811440119
 21
146.8207922616099
 31
0.0
  0
LINE
  5
20B
  8
0
  6
CONTINUOUS
 62
   253
 10
-438.4652347382114
 20
146.332995559271
 30
0.0
 11
-438.3234876090306
 21
145.8641964946796
 31
0.0
  0
LINE
  5
20C
  8
0
  6
CONTINUOUS
 62
   253
 10
-422.4793732477269
 20
144.324031986663
 30
0.0
 11
-436.01522688981
 21
144.324031986663
 31
0.0
  0
LINE
  5
20D
  8
0
  6
CONTINUOUS
 62
   253
 10
-392.0813153437414
 20
218.0959055812078
 30
0.0
 11
-392.4597671021156
 21
218.4062294020312
 31
0.0
  0
LINE
  5
20E
  8
0
  6
CONTINUOUS
 62
   253
 10
-437.782561333485
 20
218.0959055812078
 30
0.0
 11
-438.0929856580166
 21
217.7175762822451
 31
0.0
  0
LINE
  5
20F
  8
0
  6
CONTINUOUS
 62
   253
 10
-393.8486497874163
 20
144.324031986663
 30
0.0
 11
-407.3845034294994
 21
144.324031986663
 31
0.0
  0
LINE
  5
210
  8
0
  6
CONTINUOUS
 62
   253
 10
-407.8933559887053
 20
218.4344745643921
 30
0.0
 11
-407.8897704420571
 21
218.4554862423454
 31
0.0
  0
ARC
  5
211
  8
0
  6
CONTINUOUS
 62
     7
 10
-427.4319383386131
 20
74.16953605823154
 30
0.0
 40
3.000000000000001
 50
270.0
 51
0.0
  0
LINE
  5
212
  8
0
  6
CONTINUOUS
 62
   253
 10
-391.3510811440119
 20
216.3291426826625
 30
0.0
 11
-391.398641939015
 21
216.8169393850012
 31
0.0
  0
LINE
  5
213
  8
0
  6
CONTINUOUS
 62
   253
 10
-436.01522688981
 20
218.8259029576093
 30
0.0
 11
-436.5031813231907
 21
218.778357757579
 31
0.0
  0
LINE
  5
214
  8
0
  6
CONTINUOUS
 62
   253
 10
-407.3845034294994
 20
218.8259029576093
 30
0.0
 11
-393.8486497874163
 21
218.8259029576093
 31
0.0
  0
LINE
  5
215
  8
0
  6
CONTINUOUS
 62
   253
 10
-391.7708910192097
 20
145.4323586620272
 30
0.0
 11
-391.5403890681957
 21
145.8641964946796
 31
0.0
  0
LINE
  5
216
  8
0
  6
CONTINUOUS
 62
   253
 10
-422.2182369362363
 20
144.3870165299674
 30
0.0
 11
-422.2397080707099
 21
144.3764744956441
 31
0.0
  0
LINE
  5
217
  8
0
  6
CONTINUOUS
 62
   253
 10
-421.9669029266299
 20
144.7577355869365
 30
0.0
 11
-421.9681176773636
 21
144.73657277427
 31
0.0
  0
LINE
  5
218
  8
0
  6
CONTINUOUS
 62
   253
 10
-407.885010902123
 20
144.6735877986234
 30
0.0
 11
-407.8897704420571
 21
144.6944487019268
 31
0.0
  0
LINE
  5
219
  8
0
  6
CONTINUOUS
 62
   253
 10
-407.8545009324519
 20
144.5926380457655
 30
0.0
 11
-407.8638155297866
 21
144.6124042213832
 31
0.0
  0
LINE
  5
21A
  8
0
  6
CONTINUOUS
 62
   253
 10
-422.0717648143882
 20
144.5006138223481
 30
0.0
 11
-422.0871976556066
 21
144.4838773889589
 31
0.0
  0
LINE
  5
21B
  8
0
  6
CONTINUOUS
 62
   253
 10
-422.0312500532737
 20
144.5543318333445
 30
0.0
 11
-422.0437576510944
 21
144.5358830572465
 31
0.0
  0
LINE
  5
21C
  8
0
  6
CONTINUOUS
 62
   253
 10
-391.5403890681957
 20
217.2857384495926
 30
0.0
 11
-391.7708910192097
 21
217.7175762822451
 31
0.0
  0
LINE
  5
21D
  8
0
  6
CONTINUOUS
 62
   253
 10
-393.3606953540356
 20
144.3715771866933
 30
0.0
 11
-392.8917446574436
 21
144.5132782880985
 31
0.0
  0
LINE
  5
21E
  8
0
  6
CONTINUOUS
 62
   253
 10
-407.8638155297866
 20
144.6124042213832
 30
0.0
 11
-407.8720179688081
 21
144.6325166343888
 31
0.0
  0
LINE
  5
21F
  8
0
  6
CONTINUOUS
 62
   253
 10
-436.9721320197828
 20
144.5132782880985
 30
0.0
 11
-436.5031813231907
 21
144.3715771866933
 31
0.0
  0
LINE
  5
220
  8
0
  6
CONTINUOUS
 62
   253
 10
-436.01522688981
 20
218.8259029576093
 30
0.0
 11
-422.4793732477269
 21
218.8259029576093
 31
0.0
  0
LINE
  5
221
  8
0
  6
CONTINUOUS
 62
   253
 10
-436.5031813231907
 20
218.778357757579
 30
0.0
 11
-436.9721320197828
 21
218.6366566561738
 31
0.0
  0
LINE
  5
222
  8
0
  6
CONTINUOUS
 62
   253
 10
-391.7708910192097
 20
217.7175762822451
 30
0.0
 11
-392.0813153437414
 21
218.0959055812078
 31
0.0
  0
LINE
  5
223
  8
0
  6
CONTINUOUS
 62
   253
 10
-422.4668838881619
 20
219.8247966090265
 30
0.0
 11
-422.4793732477269
 21
219.8248486557235
 31
0.0
  0
LINE
  5
224
  8
0
  6
CONTINUOUS
 62
   253
 10
-407.8720179688081
 20
144.6325166343888
 30
0.0
 11
-407.879088708029
 21
144.6529273689775
 31
0.0
  0
LINE
  5
225
  8
0
  6
CONTINUOUS
 62
   253
 10
-438.4652347382114
 20
216.8169393850012
 30
0.0
 11
-438.5127955332145
 21
216.3291426826625
 31
0.0
  0
LINE
  5
226
  8
0
  6
CONTINUOUS
 62
   253
 10
-438.0929856580166
 20
145.4323586620272
 30
0.0
 11
-437.782561333485
 21
145.0540293630645
 31
0.0
  0
LINE
  5
227
  8
0
  6
CONTINUOUS
 62
   253
 10
-407.8897704420571
 20
144.6944487019268
 30
0.0
 11
-407.8933559887053
 21
144.7154603798801
 31
0.0
  0
LINE
  5
228
  8
0
  6
CONTINUOUS
 62
   253
 10
-407.8326266239526
 20
144.5543318333445
 30
0.0
 11
-407.8440963678971
 21
144.5732651984646
 31
0.0
  0
LINE
  5
229
  8
0
  6
CONTINUOUS
 62
   253
 10
-437.782561333485
 20
145.0540293630645
 30
0.0
 11
-437.4041095751108
 21
144.7437055422411
 31
0.0
  0
LINE
  5
22A
  8
0
  6
CONTINUOUS
 62
   253
 10
-393.8486497874163
 20
144.324031986663
 30
0.0
 11
-393.3606953540356
 21
144.3715771866933
 31
0.0
  0
LINE
  5
22B
  8
0
  6
CONTINUOUS
 62
   253
 10
-392.4597671021156
 20
144.7437055422411
 30
0.0
 11
-392.0813153437414
 21
145.0540293630645
 31
0.0
  0
LINE
  5
22C
  8
0
  6
CONTINUOUS
 62
   253
 10
-392.0813153437414
 20
145.0540293630645
 30
0.0
 11
-391.7708910192097
 21
145.4323586620272
 31
0.0
  0
LINE
  5
22D
  8
0
  6
CONTINUOUS
 62
   253
 10
-407.8957589998627
 20
144.73657277427
 30
0.0
 11
-407.8969737505965
 21
144.7577355869365
 31
0.0
  0
LINE
  5
22E
  8
0
  6
CONTINUOUS
 62
   253
 10
-393.3606953540356
 20
218.7783577575789
 30
0.0
 11
-393.8486497874163
 21
218.8259029576093
 31
0.0
  0
LINE
  5
22F
  8
0
  6
CONTINUOUS
 62
   253
 10
-438.3234876090306
 20
145.8641964946796
 30
0.0
 11
-438.0929856580166
 21
145.4323586620272
 31
0.0
  0
LINE
  5
230
  8
0
  6
CONTINUOUS
 62
   253
 10
-392.4597671021156
 20
218.4062294020312
 30
0.0
 11
-392.8917446574436
 21
218.6366566561738
 31
0.0
  0
LINE
  5
231
  8
0
  6
CONTINUOUS
 62
   253
 10
-392.8917446574436
 20
218.6366566561738
 30
0.0
 11
-393.3606953540356
 21
218.7783577575789
 31
0.0
  0
LINE
  5
232
  8
0
  6
CONTINUOUS
 62
   253
 10
-407.8440963678971
 20
144.5732651984646
 30
0.0
 11
-407.8545009324519
 21
144.5926380457655
 31
0.0
  0
LINE
  5
233
  8
0
  6
CONTINUOUS
 62
   253
 10
-437.4041095751108
 20
218.4062294020312
 30
0.0
 11
-437.782561333485
 21
218.0959055812078
 31
0.0
  0
LINE
  5
234
  8
0
  6
CONTINUOUS
 62
   253
 10
-407.8933559887053
 20
144.7154603798801
 30
0.0
 11
-407.8957589998627
 21
144.73657277427
 31
0.0
  0
LINE
  5
235
  8
0
  6
CONTINUOUS
 62
   253
 10
-407.879088708029
 20
144.6529273689775
 30
0.0
 11
-407.885010902123
 21
144.6735877986234
 31
0.0
  0
LINE
  5
236
  8
0
  6
CONTINUOUS
 62
   253
 10
-392.8917446574436
 20
144.5132782880985
 30
0.0
 11
-392.4597671021156
 21
144.7437055422411
 31
0.0
  0
LINE
  5
237
  8
0
  6
CONTINUOUS
 62
   253
 10
-391.398641939015
 20
216.8169393850012
 30
0.0
 11
-391.5403890681957
 21
217.2857384495926
 31
0.0
  0
LINE
  5
238
  8
0
  6
CONTINUOUS
 62
   253
 10
-438.3234876090306
 20
217.2857384495927
 30
0.0
 11
-438.4652347382114
 21
216.8169393850012
 31
0.0
  0
ARC
  5
239
  8
0
  6
CONTINUOUS
 62
     7
 10
-430.4319383386131
 20
74.16953605823154
 30
0.0
 40
3.000000000000001
 50
180.0
 51
270.0
  0
LINE
  5
23A
  8
0
  6
CONTINUOUS
 62
   253
 10
-407.820119026132
 20
144.5358830572465
 30
0.0
 11
-407.8326266239526
 21
144.5543318333445
 31
0.0
  0
LINE
  5
23B
  8
0
  6
CONTINUOUS
 62
   253
 10
-438.5127955332145
 20
146.8207922616098
 30
0.0
 11
-438.4652347382114
 21
146.332995559271
 31
0.0
  0
LINE
  5
23C
  8
0
  6
CONTINUOUS
 62
   253
 10
-391.5403890681957
 20
145.8641964946796
 30
0.0
 11
-391.3986419390149
 21
146.332995559271
 31
0.0
  0
LINE
  5
23D
  8
0
  6
CONTINUOUS
 62
   253
 10
-422.4507983996028
 20
218.825187578651
 30
0.0
 11
-422.4264256122373
 21
218.8234547387886
 31
0.0
  0
LINE
  5
23E
  8
0
  6
CONTINUOUS
 62
   253
 10
-407.556718795034
 20
218.7995470671456
 30
0.0
 11
-407.5334019498254
 21
218.8063270521793
 31
0.0
  0
LINE
  5
23F
  8
0
  6
CONTINUOUS
 62
   253
 10
-422.0093757447744
 20
144.5926380457655
 30
0.0
 11
-422.0197803093292
 21
144.5732651984646
 31
0.0
  0
LINE
  5
240
  8
0
  6
CONTINUOUS
 62
   253
 10
-422.3780270369327
 20
144.3330215771116
 30
0.0
 11
-422.4021492126523
 21
144.3292404679966
 31
0.0
  0
LINE
  5
241
  8
0
  6
CONTINUOUS
 62
   253
 10
-407.5334019498254
 20
218.8063270521793
 30
0.0
 11
-407.509760123486
 21
218.8121204195564
 31
0.0
  0
LINE
  5
242
  8
0
  6
CONTINUOUS
 62
   253
 10
-422.1207381088064
 20
144.452400159669
 30
0.0
 11
-422.1387658140253
 21
144.4377343551069
 31
0.0
  0
LINE
  5
243
  8
0
  6
CONTINUOUS
 62
   253
 10
-422.1035350611555
 20
218.6821415490398
 30
0.0
 11
-422.0871976556066
 21
218.6660575553134
 31
0.0
  0
LINE
  5
244
  8
0
  6
CONTINUOUS
 62
   253
 10
-422.0437576510944
 20
144.5358830572465
 30
0.0
 11
-422.0572733046952
 21
144.5179628225277
 31
0.0
  0
LINE
  5
245
  8
0
  6
CONTINUOUS
 62
   253
 10
-422.0197803093292
 20
144.5732651984646
 30
0.0
 11
-422.0312500532737
 21
144.5543318333445
 31
0.0
  0
LINE
  5
246
  8
0
  6
CONTINUOUS
 62
   253
 10
-422.0000611474397
 20
144.6124042213832
 30
0.0
 11
-422.0093757447744
 21
144.5926380457655
 31
0.0
  0
LINE
  5
247
  8
0
  6
CONTINUOUS
 62
   253
 10
-421.9741062351692
 20
144.6944487019268
 30
0.0
 11
-421.9788657751033
 21
144.6735877986234
 31
0.0
  0
LINE
  5
248
  8
0
  6
CONTINUOUS
 62
   253
 10
-422.0871976556066
 20
144.4838773889589
 30
0.0
 11
-422.1035350611555
 21
144.4677933952325
 31
0.0
  0
LINE
  5
249
  8
0
  6
CONTINUOUS
 62
   253
 10
-407.8638155297866
 20
218.537530722889
 30
0.0
 11
-407.8545009324519
 21
218.5572968985068
 31
0.0
  0
LINE
  5
24A
  8
0
  6
CONTINUOUS
 62
   253
 10
-421.9918587084181
 20
144.6325166343888
 30
0.0
 11
-422.0000611474397
 21
144.6124042213832
 31
0.0
  0
LINE
  5
24B
  8
0
  6
CONTINUOUS
 62
   253
 10
-421.9788657751033
 20
144.6735877986234
 30
0.0
 11
-421.9847879691972
 21
144.6529273689775
 31
0.0
  0
LINE
  5
24C
  8
0
  6
CONTINUOUS
 62
   253
 10
-422.1387658140253
 20
144.4377343551069
 30
0.0
 11
-422.1575752276145
 21
144.4238309213532
 31
0.0
  0
LINE
  5
24D
  8
0
  6
CONTINUOUS
 62
   253
 10
-422.2182369362363
 20
218.7629184143049
 30
0.0
 11
-422.1973581781629
 21
218.7514931790466
 31
0.0
  0
LINE
  5
24E
  8
0
  6
CONTINUOUS
 62
   253
 10
-422.1973581781629
 20
144.3984417652256
 30
0.0
 11
-422.2182369362363
 21
144.3870165299674
 31
0.0
  0
LINE
  5
24F
  8
0
  6
CONTINUOUS
 62
   253
 10
-422.0572733046952
 20
144.5179628225277
 30
0.0
 11
-422.0717648143882
 21
144.5006138223481
 31
0.0
  0
LINE
  5
250
  8
0
  6
CONTINUOUS
 62
   253
 10
-407.8720179688081
 20
218.5174183098834
 30
0.0
 11
-407.8638155297866
 21
218.537530722889
 31
0.0
  0
LINE
  5
251
  8
0
  6
CONTINUOUS
 62
   253
 10
-422.1387658140253
 20
218.7122005891653
 30
0.0
 11
-422.1207381088064
 21
218.6975347846033
 31
0.0
  0
LINE
  5
252
  8
0
  6
CONTINUOUS
 62
   253
 10
-421.9681176773636
 20
144.73657277427
 30
0.0
 11
-421.970520688521
 21
144.7154603798801
 31
0.0
  0
LINE
  5
253
  8
0
  6
CONTINUOUS
 62
   253
 10
-407.4858496402937
 20
218.8169133671607
 30
0.0
 11
-407.461727464574
 21
218.8206944762757
 31
0.0
  0
LINE
  5
254
  8
0
  6
CONTINUOUS
 62
   253
 10
-421.970520688521
 20
144.7154603798801
 30
0.0
 11
-421.9741062351692
 21
144.6944487019268
 31
0.0
  0
LINE
  5
255
  8
0
  6
CONTINUOUS
 62
   253
 10
-422.3541165537403
 20
144.3378145247159
 30
0.0
 11
-422.3780270369327
 21
144.3330215771116
 31
0.0
  0
LINE
  5
256
  8
0
  6
CONTINUOUS
 62
   253
 10
-422.1771215380344
 20
144.4107229819429
 30
0.0
 11
-422.1973581781629
 21
144.3984417652256
 31
0.0
  0
LINE
  5
257
  8
0
  6
CONTINUOUS
 62
   253
 10
-422.2617204287613
 20
144.366840777594
 30
0.0
 11
-422.2842215681573
 21
144.3581383271835
 31
0.0
  0
LINE
  5
258
  8
0
  6
CONTINUOUS
 62
   253
 10
-422.330474727401
 20
144.343607892093
 30
0.0
 11
-422.3541165537403
 21
144.3378145247159
 31
0.0
  0
LINE
  5
259
  8
0
  6
CONTINUOUS
 62
   253
 10
-422.4264256122373
 20
144.3264802054837
 30
0.0
 11
-422.4507983996028
 21
144.3247473656213
 31
0.0
  0
LINE
  5
25A
  8
0
  6
CONTINUOUS
 62
   253
 10
-422.3071578821924
 20
144.3503878771267
 30
0.0
 11
-422.330474727401
 21
144.343607892093
 31
0.0
  0
LINE
  5
25B
  8
0
  6
CONTINUOUS
 62
   253
 10
-422.2842215681573
 20
144.3581383271835
 30
0.0
 11
-422.3071578821924
 21
144.3503878771267
 31
0.0
  0
LINE
  5
25C
  8
0
  6
CONTINUOUS
 62
   253
 10
-422.1035350611555
 20
144.4677933952325
 30
0.0
 11
-422.1207381088064
 21
144.452400159669
 31
0.0
  0
LINE
  5
25D
  8
0
  6
CONTINUOUS
 62
   253
 10
-422.4021492126523
 20
144.3292404679966
 30
0.0
 11
-422.4264256122373
 21
144.3264802054837
 31
0.0
  0
LINE
  5
25E
  8
0
  6
CONTINUOUS
 62
   253
 10
-422.4507983996028
 20
144.3247473656213
 30
0.0
 11
-422.47520950903
 21
144.3240460767264
 31
0.0
  0
TEXT
  5
25F
  8
0
  6
CONTINUOUS
 62
     7
 10
-347.8085893564467
 20
61.24523004524097
 30
0.0
 40
5.0
  1
SB-1UAD
  0
ENDSEC
  0
EOF
