  0
SECTION
  2
HEADER
  9
$ACADVER
  1
AC1004
  9
$INSBASE
 10
0.0
 20
0.0
  9
$EXTMIN
 10
408.5
 20
-21.32954545454544
  9
$EXTMAX
 10
649.25
 20
291.5
  9
$LIMMIN
 10
0.0
 20
0.0
  9
$LIMMAX
 10
12.0
 20
9.0
  9
$ORTHOMODE
 70
     0
  9
$REGENMODE
 70
     1
  9
$FILLMODE
 70
     1
  9
$QTEXTMODE
 70
     0
  9
$DRAGMODE
 70
     2
  9
$LTSCALE
 40
1.0
  9
$OSMODE
 70
    37
  9
$ATTMODE
 70
     1
  9
$TEXTSIZE
 40
0.2
  9
$TRACEWID
 40
0.05
  9
$TEXTSTYLE
  7
STANDARD
  9
$CLAYER
  8
0
  9
$CELTYPE
  6
BYLAYER
  9
$CECOLOR
 62
   256
  9
$DIMSCALE
 40
1.0
  9
$DIMASZ
 40
3.0
  9
$DIMEXO
 40
0.0625
  9
$DIMDLI
 40
0.38
  9
$DIMRND
 40
0.0
  9
$DIMDLE
 40
0.0
  9
$DIMEXE
 40
1.5
  9
$DIMTP
 40
0.0
  9
$DIMTM
 40
0.0
  9
$DIMTXT
 40
3.0
  9
$DIMCEN
 40
0.09
  9
$DIMTSZ
 40
0.0
  9
$DIMTOL
 70
     0
  9
$DIMLIM
 70
     0
  9
$DIMTIH
 70
     1
  9
$DIMTOH
 70
     1
  9
$DIMSE1
 70
     0
  9
$DIMSE2
 70
     0
  9
$DIMTAD
 70
     1
  9
$DIMZIN
 70
     0
  9
$DIMBLK
  1

  9
$DIMASO
 70
     1
  9
$DIMSHO
 70
     1
  9
$DIMPOST
  1

  9
$DIMAPOST
  1

  9
$DIMALT
 70
     0
  9
$DIMALTD
 70
     2
  9
$DIMALTF
 40
25.4
  9
$DIMLFAC
 40
1.0
  9
$DIMTOFL
 70
     0
  9
$DIMTVP
 40
0.0
  9
$DIMTIX
 70
     0
  9
$DIMSOXD
 70
     0
  9
$DIMSAH
 70
     0
  9
$DIMBLK1
  1

  9
$DIMBLK2
  1

  9
$LUNITS
 70
     2
  9
$LUPREC
 70
     4
  9
$SKETCHINC
 40
0.1
  9
$FILLETRAD
 40
0.5
  9
$AUNITS
 70
     0
  9
$AUPREC
 70
     0
  9
$MENU
  1
.
  9
$ELEVATION
 40
0.0
  9
$THICKNESS
 40
0.0
  9
$LIMCHECK
 70
     0
  9
$CHAMFERA
 40
0.0
  9
$CHAMFERB
 40
0.0
  9
$SKPOLY
 70
     0
  9
$TDCREATE
 40
2460357.578727361
  9
$TDUPDATE
 40
2460357.578727523
  9
$TDINDWG
 40
0.0000000116
  9
$TDUSRTIMER
 40
0.0000000116
  9
$USRTIMER
 70
     1
  9
$ANGBASE
 50
0.0
  9
$ANGDIR
 70
     0
  9
$PDMODE
 70
     0
  9
$PDSIZE
 40
0.0
  9
$PLINEWID
 40
0.0
  9
$COORDS
 70
     1
  9
$SPLFRAME
 70
     0
  9
$SPLINETYPE
 70
     6
  9
$SPLINESEGS
 70
     8
  9
$ATTDIA
 70
     0
  9
$ATTREQ
 70
     1
  9
$SURFTAB1
 70
     6
  9
$SURFTAB2
 70
     6
  9
$SURFTYPE
 70
     6
  9
$SURFU
 70
     6
  9
$SURFV
 70
     6
  9
$UCSNAME
  2

  9
$UCSORG
 10
0.0
 20
0.0
 30
0.0
  9
$UCSXDIR
 10
1.0
 20
0.0
 30
0.0
  9
$UCSYDIR
 10
0.0
 20
1.0
 30
0.0
  9
$USERI1
 70
     0
  9
$USERI2
 70
     0
  9
$USERI3
 70
     0
  9
$USERI4
 70
     0
  9
$USERI5
 70
     0
  9
$USERR1
 40
0.0
  9
$USERR2
 40
0.0
  9
$USERR3
 40
0.0
  9
$USERR4
 40
0.0
  9
$USERR5
 40
0.0
  9
$WORLDVIEW
 70
     1
  0
ENDSEC
  0
SECTION
  2
TABLES
  0
TABLE
  2
LTYPE
 70
     2
  0
LTYPE
  2
CONTINUOUS
 70
     0
  3
Solid line
 72
    65
 73
     0
 40
0.0
  0
LTYPE
  2
CENTER
 70
     0
  3

 72
    65
 73
     0
 40
0.0
  0
ENDTAB
  0
TABLE
  2
LAYER
 70
     1
  0
LAYER
  2
0
 70
     0
 62
     7
  6
CONTINUOUS
  0
ENDTAB
  0
TABLE
  2
STYLE
 70
     2
  0
STYLE
  2
STANDARD
 70
     0
 40
0.0
 41
1.0
 50
0.0
 71
     0
 42
0.2
  3
txt
  4

  0
STYLE
  2
ＭＳ_ゴシック
 70
     0
 40
0.0
 41
1.0
 50
0.0
 71
     0
 42
0.2
  3
ＭＳ ゴシック.shx
  4

  0
ENDTAB
  0
TABLE
  2
VIEW
 70
     0
  0
ENDTAB
  0
ENDSEC
  0
SECTION
  2
BLOCKS
  0
BLOCK
  8
0
  2
D_FRAME_VIEW_1510
 70
     0
 10
0.0
 20
0.0
  0
LINE
  8
0
  6
CONTINUOUS
 62
     7
 10
465.0
 20
291.5
 11
515.5000000000001
 21
291.5
  0
ARC
  8
0
  6
CONTINUOUS
 62
     7
 10
515.5000000000001
 20
285.4999999999999
 40
5.999999999999894
 50
0.0
 51
90.0
  0
LINE
  8
0
  6
CONTINUOUS
 62
     7
 10
521.5000000000001
 20
285.4999999999999
 11
521.5000000000001
 21
217.0
  0
LINE
  8
0
  6
CONTINUOUS
 62
     7
 10
520.0
 20
217.0
 11
515.7
 21
219.4826061575154
  0
LINE
  8
0
  6
CONTINUOUS
 62
     7
 10
515.7
 20
219.4826061575154
 11
515.7
 21
217.0
  0
LINE
  8
0
  6
CONTINUOUS
 62
     7
 10
501.5000000000001
 20
217.0
 11
501.5000000000001
 21
267.5322848191329
  0
POLYLINE
  8
0
  6
CONTINUOUS
 62
     7
 66
     1
  0
VERTEX
  8
0
  6
CONTINUOUS
 62
     7
 10
501.5
 20
267.5322848191329
  0
VERTEX
  8
0
  6
CONTINUOUS
 62
     7
 10
501.4571292689788
 20
267.9950400543296
  0
VERTEX
  8
0
  6
CONTINUOUS
 62
     7
 10
501.3299873955777
 20
268.441924365353
  0
VERTEX
  8
0
  6
CONTINUOUS
 62
     7
 10
501.1229349118419
 20
268.8576111465264
  0
VERTEX
  8
0
  6
CONTINUOUS
 62
     7
 10
500.843073010841
 20
269.2278437609023
  0
VERTEX
  8
0
  6
CONTINUOUS
 62
     7
 10
500.5
 20
269.5399244942196
  0
SEQEND
  8
0
  6
CONTINUOUS
 62
     7
  0
LINE
  8
0
  6
CONTINUOUS
 62
     7
 10
500.5000000000001
 20
269.5399244942196
 11
500.5000000000001
 21
273.3125018489486
  0
ARC
  8
0
  6
CONTINUOUS
 62
     7
 10
495.3784458723264
 20
273.0229178183917
 40
5.129734456426067
 50
3.236184679018026
 51
25.71883969284517
  0
ARC
  8
0
  6
CONTINUOUS
 62
     7
 10
503.7879933429941
 20
272.9799433977859
 40
5.298440215666186
 50
154.6435306330511
 51
176.4014449950915
  0
LINE
  8
0
  6
CONTINUOUS
 62
     7
 10
498.5000000000001
 20
270.0418344129913
 11
498.5000000000001
 21
273.3125018489486
  0
LINE
  8
0
  6
CONTINUOUS
 62
     7
 10
498.5000000000001
 20
270.0418344129913
 11
466.0
 21
270.0418344129913
  0
LINE
  8
0
  6
CONTINUOUS
 62
     7
 10
466.0
 20
270.0418344129913
 11
466.0
 21
273.3125018489486
  0
ARC
  8
0
  6
CONTINUOUS
 62
     7
 10
460.8784458723254
 20
273.0229178183916
 40
5.129734456427015
 50
3.23618467901859
 51
25.71883969284138
  0
LINE
  8
0
  6
CONTINUOUS
 62
     7
 10
467.4826061575154
 20
285.7
 11
465.0
 21
285.7
  0
LINE
  8
0
  6
CONTINUOUS
 62
     7
 10
465.0
 20
289.9999999999999
 11
467.4826061575154
 21
285.7
  0
LINE
  8
0
  6
CONTINUOUS
 62
     7
 10
465.0
 20
285.7
 11
462.5173938424846
 21
285.7
  0
ARC
  8
0
  6
CONTINUOUS
 62
     7
 10
469.287993342993
 20
272.979943397786
 40
5.298440215665135
 50
154.643530633047
 51
176.401444995092
  0
LINE
  8
0
  6
CONTINUOUS
 62
     7
 10
464.0
 20
270.0418344129913
 11
464.0
 21
273.3125018489486
  0
LINE
  8
0
  6
CONTINUOUS
 62
     7
 10
464.0
 20
270.0418344129913
 11
431.5000000000001
 21
270.0418344129913
  0
LINE
  8
0
  6
CONTINUOUS
 62
     7
 10
431.5000000000001
 20
270.0418344129913
 11
431.5
 21
273.3125018489486
  0
ARC
  8
0
  6
CONTINUOUS
 62
     7
 10
426.3784458723276
 20
273.0229178183923
 40
5.129734456424702
 50
3.236184679011829
 51
25.71883969284467
  0
ARC
  8
0
  6
CONTINUOUS
 62
     7
 10
434.787993342993
 20
272.979943397786
 40
5.298440215665135
 50
154.643530633047
 51
176.401444995092
  0
LINE
  8
0
  6
CONTINUOUS
 62
     7
 10
429.5000000000001
 20
269.5399244942196
 11
429.5000000000001
 21
273.3125018489486
  0
POLYLINE
  8
0
  6
CONTINUOUS
 62
     7
 66
     1
  0
VERTEX
  8
0
  6
CONTINUOUS
 62
     7
 10
429.5000000000001
 20
269.5399244942196
  0
VERTEX
  8
0
  6
CONTINUOUS
 62
     7
 10
429.1569269891591
 20
269.2278437609023
  0
VERTEX
  8
0
  6
CONTINUOUS
 62
     7
 10
428.8770650881582
 20
268.8576111465264
  0
VERTEX
  8
0
  6
CONTINUOUS
 62
     7
 10
428.6700126044223
 20
268.441924365353
  0
VERTEX
  8
0
  6
CONTINUOUS
 62
     7
 10
428.5428707310213
 20
267.9950400543296
  0
VERTEX
  8
0
  6
CONTINUOUS
 62
     7
 10
428.5000000000001
 20
267.5322848191329
  0
SEQEND
  8
0
  6
CONTINUOUS
 62
     7
  0
LINE
  8
0
  6
CONTINUOUS
 62
     7
 10
428.5000000000001
 20
267.5322848191329
 11
428.5000000000001
 21
217.0
  0
LINE
  8
0
  6
CONTINUOUS
 62
     7
 10
414.3
 20
219.4826061575154
 11
414.3
 21
217.0
  0
LINE
  8
0
  6
CONTINUOUS
 62
     7
 10
410.0
 20
217.0
 11
414.3
 21
219.4826061575154
  0
LINE
  8
0
  6
CONTINUOUS
 62
     7
 10
408.5
 20
217.0
 11
408.5
 21
285.4999999999999
  0
ARC
  8
0
  6
CONTINUOUS
 62
     7
 10
414.5
 20
285.4999999999999
 40
6.000000000000005
 50
90.0
 51
180.0
  0
LINE
  8
0
  6
CONTINUOUS
 62
     7
 10
414.5
 20
291.5
 11
465.0
 21
291.5
  0
LINE
  8
0
  6
CONTINUOUS
 62
     7
 10
462.5173938424846
 20
285.7
 11
465.0
 21
289.9999999999999
  0
LINE
  8
0
  6
CONTINUOUS
 62
     7
 10
462.5173938424846
 20
94.29999999999997
 11
465.0
 21
89.99999999999997
  0
LINE
  8
0
  6
CONTINUOUS
 62
     7
 10
465.0
 20
88.5
 11
414.5
 21
88.5
  0
ARC
  8
0
  6
CONTINUOUS
 62
     7
 10
414.5
 20
94.5
 40
6.000000000000005
 50
180.0
 51
270.0
  0
LINE
  8
0
  6
CONTINUOUS
 62
     7
 10
410.0
 20
163.0
 11
414.3
 21
160.5173938424846
  0
LINE
  8
0
  6
CONTINUOUS
 62
     7
 10
414.3
 20
160.5173938424846
 11
414.3
 21
163.0
  0
POLYLINE
  8
0
  6
CONTINUOUS
 62
     7
 66
     1
  0
VERTEX
  8
0
  6
CONTINUOUS
 62
     7
 10
428.5000000000001
 20
112.4677151808671
  0
VERTEX
  8
0
  6
CONTINUOUS
 62
     7
 10
428.5428707310213
 20
112.0049599456704
  0
VERTEX
  8
0
  6
CONTINUOUS
 62
     7
 10
428.6700126044223
 20
111.5580756346471
  0
VERTEX
  8
0
  6
CONTINUOUS
 62
     7
 10
428.8770650881582
 20
111.1423888534736
  0
VERTEX
  8
0
  6
CONTINUOUS
 62
     7
 10
429.156926989159
 20
110.7721562390977
  0
VERTEX
  8
0
  6
CONTINUOUS
 62
     7
 10
429.5000000000001
 20
110.4600755057804
  0
SEQEND
  8
0
  6
CONTINUOUS
 62
     7
  0
LINE
  8
0
  6
CONTINUOUS
 62
     7
 10
429.5000000000001
 20
110.4600755057804
 11
429.5000000000001
 21
106.6874981510514
  0
ARC
  8
0
  6
CONTINUOUS
 62
     7
 10
434.6215541276718
 20
106.9770821816076
 40
5.129734456424089
 50
183.2361846790117
 51
205.7188396928479
  0
ARC
  8
0
  6
CONTINUOUS
 62
     7
 10
426.2120066570054
 20
107.0200566022142
 40
5.298440215666747
 50
334.6435306330523
 51
356.4014449950908
  0
LINE
  8
0
  6
CONTINUOUS
 62
     7
 10
431.5000000000001
 20
109.9581655870087
 11
431.5
 21
106.6874981510514
  0
LINE
  8
0
  6
CONTINUOUS
 62
     7
 10
431.5000000000001
 20
109.9581655870087
 11
464.0
 21
109.9581655870087
  0
LINE
  8
0
  6
CONTINUOUS
 62
     7
 10
464.0
 20
109.9581655870087
 11
464.0
 21
106.6874981510514
  0
ARC
  8
0
  6
CONTINUOUS
 62
     7
 10
469.121554127675
 20
106.9770821816085
 40
5.129734456427352
 50
183.2361846790193
 51
205.718839692841
  0
LINE
  8
0
  6
CONTINUOUS
 62
     7
 10
465.0
 20
94.29999999999997
 11
462.5173938424846
 21
94.29999999999997
  0
LINE
  8
0
  6
CONTINUOUS
 62
     7
 10
408.5
 20
94.5
 11
408.5
 21
163.0
  0
LINE
  8
0
  6
CONTINUOUS
 62
     7
 10
428.5000000000001
 20
163.0
 11
428.5000000000001
 21
112.4677151808671
  0
ARC
  8
0
  6
CONTINUOUS
 62
     7
 10
460.7120066570065
 20
107.0200566022141
 40
5.298440215665685
 50
334.6435306330485
 51
356.4014449950916
  0
LINE
  8
0
  6
CONTINUOUS
 62
     7
 10
466.0
 20
109.9581655870087
 11
466.0
 21
106.6874981510514
  0
LINE
  8
0
  6
CONTINUOUS
 62
     7
 10
466.0
 20
109.9581655870087
 11
498.5000000000001
 21
109.9581655870087
  0
LINE
  8
0
  6
CONTINUOUS
 62
     7
 10
498.5000000000001
 20
109.9581655870087
 11
498.5000000000001
 21
106.6874981510514
  0
ARC
  8
0
  6
CONTINUOUS
 62
     7
 10
503.6215541276727
 20
106.9770821816077
 40
5.129734456425038
 50
183.2361846790124
 51
205.7188396928443
  0
ARC
  8
0
  6
CONTINUOUS
 62
     7
 10
495.2120066570076
 20
107.0200566022139
 40
5.298440215664571
 50
334.6435306330445
 51
356.4014449950924
  0
LINE
  8
0
  6
CONTINUOUS
 62
     7
 10
500.5000000000001
 20
110.4600755057804
 11
500.5000000000001
 21
106.6874981510514
  0
POLYLINE
  8
0
  6
CONTINUOUS
 62
     7
 66
     1
  0
VERTEX
  8
0
  6
CONTINUOUS
 62
     7
 10
500.5
 20
110.4600755057804
  0
VERTEX
  8
0
  6
CONTINUOUS
 62
     7
 10
500.843073010841
 20
110.7721562390977
  0
VERTEX
  8
0
  6
CONTINUOUS
 62
     7
 10
501.1229349118419
 20
111.1423888534736
  0
VERTEX
  8
0
  6
CONTINUOUS
 62
     7
 10
501.3299873955777
 20
111.558075634647
  0
VERTEX
  8
0
  6
CONTINUOUS
 62
     7
 10
501.4571292689788
 20
112.0049599456703
  0
VERTEX
  8
0
  6
CONTINUOUS
 62
     7
 10
501.5
 20
112.4677151808671
  0
SEQEND
  8
0
  6
CONTINUOUS
 62
     7
  0
LINE
  8
0
  6
CONTINUOUS
 62
     7
 10
515.7
 20
160.5173938424846
 11
515.7
 21
163.0
  0
LINE
  8
0
  6
CONTINUOUS
 62
     7
 10
520.0
 20
163.0
 11
515.7
 21
160.5173938424846
  0
ARC
  8
0
  6
CONTINUOUS
 62
     7
 10
515.5000000000001
 20
94.5
 40
6.000000000000005
 50
270.0
 51
0.0
  0
LINE
  8
0
  6
CONTINUOUS
 62
     7
 10
515.5000000000001
 20
88.5
 11
465.0
 21
88.5
  0
LINE
  8
0
  6
CONTINUOUS
 62
     7
 10
465.0
 20
89.99999999999997
 11
467.4826061575154
 21
94.29999999999998
  0
LINE
  8
0
  6
CONTINUOUS
 62
     7
 10
467.4826061575154
 20
94.29999999999998
 11
465.0
 21
94.29999999999997
  0
LINE
  8
0
  6
CONTINUOUS
 62
     7
 10
501.5000000000001
 20
112.4677151808671
 11
501.5000000000001
 21
163.0
  0
LINE
  8
0
  6
CONTINUOUS
 62
     7
 10
521.5000000000001
 20
163.0
 11
521.5000000000001
 21
94.5
  0
LINE
  8
0
  6
CONTINUOUS
 62
     7
 10
520.0
 20
190.0
 11
515.7
 21
192.4826061575154
  0
LINE
  8
0
  6
CONTINUOUS
 62
     7
 10
515.7
 20
192.4826061575154
 11
515.7
 21
190.0
  0
LINE
  8
0
  6
CONTINUOUS
 62
     7
 10
515.7
 20
217.0
 11
515.7
 21
214.5173938424846
  0
LINE
  8
0
  6
CONTINUOUS
 62
     7
 10
515.7
 20
214.5173938424846
 11
520.0
 21
217.0
  0
LINE
  8
0
  6
CONTINUOUS
 62
     7
 10
501.5000000000001
 20
190.0
 11
501.5000000000001
 21
217.0
  0
LINE
  8
0
  6
CONTINUOUS
 62
     7
 10
521.5000000000001
 20
217.0
 11
521.5000000000001
 21
190.0
  0
LINE
  8
0
  6
CONTINUOUS
 62
     7
 10
515.7
 20
163.0
 11
515.7
 21
165.4826061575154
  0
LINE
  8
0
  6
CONTINUOUS
 62
     7
 10
515.7
 20
190.0
 11
515.7
 21
187.5173938424846
  0
LINE
  8
0
  6
CONTINUOUS
 62
     7
 10
515.7
 20
187.5173938424846
 11
520.0
 21
190.0
  0
LINE
  8
0
  6
CONTINUOUS
 62
     7
 10
515.7
 20
165.4826061575154
 11
520.0
 21
163.0
  0
LINE
  8
0
  6
CONTINUOUS
 62
     7
 10
501.5000000000001
 20
163.0
 11
501.5000000000001
 21
190.0
  0
LINE
  8
0
  6
CONTINUOUS
 62
     7
 10
521.5000000000001
 20
190.0
 11
521.5000000000001
 21
163.0
  0
ARC
  8
0
  6
CONTINUOUS
 62
     7
 10
431.0119245834671
 20
115.6156476653483
 40
2.511965216856764
 50
179.6741085764032
 51
269.7280094220019
  0
POLYLINE
  8
0
  6
CONTINUOUS
 62
     7
 66
     1
  0
VERTEX
  8
0
  6
CONTINUOUS
 62
     7
 10
430.0000000000001
 20
113.2297782094541
  0
VERTEX
  8
0
  6
CONTINUOUS
 62
     7
 10
430.489225890777
 20
113.0732044642338
  0
VERTEX
  8
0
  6
CONTINUOUS
 62
     7
 10
431.0000000000001
 20
113.0202688104161
  0
SEQEND
  8
0
  6
CONTINUOUS
 62
     7
  0
LINE
  8
0
  6
CONTINUOUS
 62
     7
 10
430.0000000000001
 20
113.2297782094541
 11
429.5004387301389
 21
113.4799280091025
  0
LINE
  8
0
  6
CONTINUOUS
 62
     7
 10
429.5000000000001
 20
110.4600755057804
 11
429.5000000000001
 21
113.4784343974248
  0
LINE
  8
0
  6
CONTINUOUS
 62
     7
 10
414.3
 20
192.4826061575154
 11
414.3
 21
190.0
  0
LINE
  8
0
  6
CONTINUOUS
 62
     7
 10
410.0
 20
190.0
 11
414.3
 21
192.4826061575154
  0
LINE
  8
0
  6
CONTINUOUS
 62
     7
 10
414.3
 20
214.5173938424846
 11
410.0
 21
217.0
  0
LINE
  8
0
  6
CONTINUOUS
 62
     7
 10
414.3
 20
217.0
 11
414.3
 21
214.5173938424846
  0
LINE
  8
0
  6
CONTINUOUS
 62
     7
 10
408.5
 20
190.0
 11
408.5
 21
217.0
  0
LINE
  8
0
  6
CONTINUOUS
 62
     7
 10
428.5000000000001
 20
217.0
 11
428.5000000000001
 21
190.0
  0
LINE
  8
0
  6
CONTINUOUS
 62
     7
 10
414.3
 20
165.4826061575154
 11
410.0
 21
163.0
  0
LINE
  8
0
  6
CONTINUOUS
 62
     7
 10
414.3
 20
187.5173938424846
 11
410.0
 21
190.0
  0
LINE
  8
0
  6
CONTINUOUS
 62
     7
 10
414.3
 20
190.0
 11
414.3
 21
187.5173938424846
  0
LINE
  8
0
  6
CONTINUOUS
 62
     7
 10
414.3
 20
163.0
 11
414.3
 21
165.4826061575154
  0
LINE
  8
0
  6
CONTINUOUS
 62
     7
 10
408.5
 20
163.0
 11
408.5
 21
190.0
  0
LINE
  8
0
  6
CONTINUOUS
 62
     7
 10
428.5000000000001
 20
190.0
 11
428.5000000000001
 21
163.0
  0
ARC
  8
0
  6
CONTINUOUS
 62
     7
 10
498.9872263433348
 20
115.6164879243676
 40
2.512809639157196
 50
270.2912595353785
 51
0.3066224662187551
  0
LINE
  8
0
  6
CONTINUOUS
 62
     7
 10
500.5002711613249
 20
113.4785692493075
 11
500.0
 21
113.2297782094541
  0
POLYLINE
  8
0
  6
CONTINUOUS
 62
     7
 66
     1
  0
VERTEX
  8
0
  6
CONTINUOUS
 62
     7
 10
499.0
 20
113.0202688104161
  0
VERTEX
  8
0
  6
CONTINUOUS
 62
     7
 10
499.5107741092231
 20
113.0732044642338
  0
VERTEX
  8
0
  6
CONTINUOUS
 62
     7
 10
500.0
 20
113.2297782094541
  0
SEQEND
  8
0
  6
CONTINUOUS
 62
     7
  0
LINE
  8
0
  6
CONTINUOUS
 62
     7
 10
500.5000000000001
 20
113.4784343974248
 11
500.5000000000001
 21
110.4600755057804
  0
LINE
  8
0
  6
CONTINUOUS
 62
     7
 10
431.0000000000001
 20
113.1037107523253
 11
433.8381284561505
 21
113.1037107523253
  0
LINE
  8
0
  6
CONTINUOUS
 62
     7
 10
461.162803409128
 20
113.1037107523253
 11
468.8398042961915
 21
113.1037107523253
  0
LINE
  8
0
  6
CONTINUOUS
 62
     7
 10
496.1566084888316
 20
113.1037107523253
 11
499.0000000000002
 21
113.1037107523253
  0
LINE
  8
0
  6
CONTINUOUS
 62
     7
 10
499.0
 20
113.020268810416
 11
498.5000000000001
 21
112.976524478653
  0
LINE
  8
0
  6
CONTINUOUS
 62
     7
 10
466.0
 20
112.976524478653
 11
465.5
 21
113.020268810416
  0
LINE
  8
0
  6
CONTINUOUS
 62
     7
 10
465.5
 20
113.020268810416
 11
464.5
 21
113.020268810416
  0
LINE
  8
0
  6
CONTINUOUS
 62
     7
 10
464.5
 20
113.020268810416
 11
464.0
 21
112.976524478653
  0
LINE
  8
0
  6
CONTINUOUS
 62
     7
 10
431.5000000000001
 20
112.976524478653
 11
431.0000000000001
 21
113.020268810416
  0
LINE
  8
0
  6
CONTINUOUS
 62
     7
 10
466.0
 20
109.9581655870087
 11
466.0
 21
112.976524478653
  0
LINE
  8
0
  6
CONTINUOUS
 62
     7
 10
498.5000000000001
 20
112.976524478653
 11
498.5000000000001
 21
109.9581655870087
  0
LINE
  8
0
  6
CONTINUOUS
 62
     7
 10
464.0
 20
112.976524478653
 11
464.0
 21
109.9581655870087
  0
LINE
  8
0
  6
CONTINUOUS
 62
     7
 10
431.5000000000001
 20
109.9581655870087
 11
431.5000000000001
 21
112.976524478653
  0
ARC
  8
0
  6
CONTINUOUS
 62
     7
 10
431.0127736566651
 20
264.3835120756326
 40
2.512809639157057
 50
90.29125953537728
 51
180.3066224662219
  0
LINE
  8
0
  6
CONTINUOUS
 62
     7
 10
429.4997288386751
 20
266.5214307506924
 11
430.0000000000001
 21
266.7702217905459
  0
POLYLINE
  8
0
  6
CONTINUOUS
 62
     7
 66
     1
  0
VERTEX
  8
0
  6
CONTINUOUS
 62
     7
 10
431.0000000000001
 20
266.979731189584
  0
VERTEX
  8
0
  6
CONTINUOUS
 62
     7
 10
430.489225890777
 20
266.9267955357662
  0
VERTEX
  8
0
  6
CONTINUOUS
 62
     7
 10
430.0000000000001
 20
266.7702217905459
  0
SEQEND
  8
0
  6
CONTINUOUS
 62
     7
  0
LINE
  8
0
  6
CONTINUOUS
 62
     7
 10
429.5000000000001
 20
266.5215656025752
 11
429.5000000000001
 21
269.5399244942196
  0
ARC
  8
0
  6
CONTINUOUS
 62
     7
 10
498.9880754165329
 20
264.3843523346517
 40
2.511965216856763
 50
359.6741085764042
 51
89.72800942200321
  0
POLYLINE
  8
0
  6
CONTINUOUS
 62
     7
 66
     1
  0
VERTEX
  8
0
  6
CONTINUOUS
 62
     7
 10
500.0000000000001
 20
266.7702217905459
  0
VERTEX
  8
0
  6
CONTINUOUS
 62
     7
 10
499.5107741092231
 20
266.9267955357662
  0
VERTEX
  8
0
  6
CONTINUOUS
 62
     7
 10
499.0
 20
266.979731189584
  0
SEQEND
  8
0
  6
CONTINUOUS
 62
     7
  0
LINE
  8
0
  6
CONTINUOUS
 62
     7
 10
500.0
 20
266.7702217905459
 11
500.4995612698611
 21
266.5200719908975
  0
LINE
  8
0
  6
CONTINUOUS
 62
     7
 10
500.5000000000001
 20
269.5399244942196
 11
500.5000000000001
 21
266.5215656025752
  0
LINE
  8
0
  6
CONTINUOUS
 62
     7
 10
499.0
 20
266.8962892476746
 11
496.1603751025493
 21
266.8962892476746
  0
LINE
  8
0
  6
CONTINUOUS
 62
     7
 10
468.8383763011994
 20
266.8962892476746
 11
461.156254894705
 21
266.8962892476746
  0
LINE
  8
0
  6
CONTINUOUS
 62
     7
 10
433.837447104404
 20
266.8962892476746
 11
430.9999999999998
 21
266.8962892476746
  0
LINE
  8
0
  6
CONTINUOUS
 62
     7
 10
431.0000000000001
 20
266.979731189584
 11
431.5000000000001
 21
267.023475521347
  0
LINE
  8
0
  6
CONTINUOUS
 62
     7
 10
464.0
 20
267.023475521347
 11
464.5
 21
266.979731189584
  0
LINE
  8
0
  6
CONTINUOUS
 62
     7
 10
465.5
 20
266.979731189584
 11
464.5
 21
266.979731189584
  0
LINE
  8
0
  6
CONTINUOUS
 62
     7
 10
465.5
 20
266.979731189584
 11
466.0
 21
267.023475521347
  0
LINE
  8
0
  6
CONTINUOUS
 62
     7
 10
498.5000000000001
 20
267.023475521347
 11
499.0
 21
266.979731189584
  0
LINE
  8
0
  6
CONTINUOUS
 62
     7
 10
498.5000000000001
 20
267.023475521347
 11
498.5000000000001
 21
270.0418344129913
  0
LINE
  8
0
  6
CONTINUOUS
 62
     7
 10
431.5000000000001
 20
270.0418344129913
 11
431.5000000000001
 21
267.023475521347
  0
LINE
  8
0
  6
CONTINUOUS
 62
     7
 10
466.0
 20
270.0418344129913
 11
466.0
 21
267.023475521347
  0
LINE
  8
0
  6
CONTINUOUS
 62
     7
 10
464.0
 20
267.023475521347
 11
464.0
 21
270.0418344129913
  0
POLYLINE
  8
0
  6
CONTINUOUS
 62
     7
 66
     1
  0
VERTEX
  8
0
  6
CONTINUOUS
 62
     7
 10
499.9999999999999
 20
110.9803370483789
  0
VERTEX
  8
0
  6
CONTINUOUS
 62
     7
 10
500.097545161008
 20
110.9899078492728
  0
VERTEX
  8
0
  6
CONTINUOUS
 62
     7
 10
500.1913417161825
 20
111.0182524514432
  0
VERTEX
  8
0
  6
CONTINUOUS
 62
     7
 10
500.2777851165098
 20
111.0642815877247
  0
VERTEX
  8
0
  6
CONTINUOUS
 62
     7
 10
500.3535533905933
 20
111.1262263842234
  0
VERTEX
  8
0
  6
CONTINUOUS
 62
     7
 10
500.4157348061512
 20
111.201706337149
  0
VERTEX
  8
0
  6
CONTINUOUS
 62
     7
 10
500.4619397662556
 20
111.28782079424
  0
VERTEX
  8
0
  6
CONTINUOUS
 62
     7
 10
500.4903926402015
 20
111.3812604252041
  0
VERTEX
  8
0
  6
CONTINUOUS
 62
     7
 10
500.4999999999999
 20
111.4784343974248
  0
SEQEND
  8
0
  6
CONTINUOUS
 62
     7
  0
POLYLINE
  8
0
  6
CONTINUOUS
 62
     7
 66
     1
  0
VERTEX
  8
0
  6
CONTINUOUS
 62
     7
 10
465.4999999999999
 20
110.9803370483789
  0
VERTEX
  8
0
  6
CONTINUOUS
 62
     7
 10
465.597545161008
 20
110.9899078492727
  0
VERTEX
  8
0
  6
CONTINUOUS
 62
     7
 10
465.6913417161825
 20
111.0182524514431
  0
VERTEX
  8
0
  6
CONTINUOUS
 62
     7
 10
465.7777851165098
 20
111.0642815877247
  0
VERTEX
  8
0
  6
CONTINUOUS
 62
     7
 10
465.8535533905933
 20
111.1262263842234
  0
VERTEX
  8
0
  6
CONTINUOUS
 62
     7
 10
465.9157348061513
 20
111.2017063371489
  0
VERTEX
  8
0
  6
CONTINUOUS
 62
     7
 10
465.9619397662557
 20
111.28782079424
  0
VERTEX
  8
0
  6
CONTINUOUS
 62
     7
 10
465.9903926402016
 20
111.3812604252041
  0
VERTEX
  8
0
  6
CONTINUOUS
 62
     7
 10
466.0
 20
111.4784343974248
  0
SEQEND
  8
0
  6
CONTINUOUS
 62
     7
  0
POLYLINE
  8
0
  6
CONTINUOUS
 62
     7
 66
     1
  0
VERTEX
  8
0
  6
CONTINUOUS
 62
     7
 10
431.0
 20
110.9803370483788
  0
VERTEX
  8
0
  6
CONTINUOUS
 62
     7
 10
431.0975451610081
 20
110.9899078492726
  0
VERTEX
  8
0
  6
CONTINUOUS
 62
     7
 10
431.1913417161826
 20
111.0182524514431
  0
VERTEX
  8
0
  6
CONTINUOUS
 62
     7
 10
431.2777851165099
 20
111.0642815877246
  0
VERTEX
  8
0
  6
CONTINUOUS
 62
     7
 10
431.3535533905934
 20
111.1262263842234
  0
VERTEX
  8
0
  6
CONTINUOUS
 62
     7
 10
431.4157348061514
 20
111.2017063371489
  0
VERTEX
  8
0
  6
CONTINUOUS
 62
     7
 10
431.4619397662558
 20
111.28782079424
  0
VERTEX
  8
0
  6
CONTINUOUS
 62
     7
 10
431.4903926402017
 20
111.3812604252041
  0
VERTEX
  8
0
  6
CONTINUOUS
 62
     7
 10
431.5000000000001
 20
111.4784343974248
  0
SEQEND
  8
0
  6
CONTINUOUS
 62
     7
  0
POLYLINE
  8
0
  6
CONTINUOUS
 62
     7
 66
     1
  0
VERTEX
  8
0
  6
CONTINUOUS
 62
     7
 10
467.2143771238487
 20
111.719986337835
  0
VERTEX
  8
0
  6
CONTINUOUS
 62
     7
 10
467.2872732179529
 20
111.581481027394
  0
VERTEX
  8
0
  6
CONTINUOUS
 62
     7
 10
467.4697619721584
 20
111.4686120574223
  0
SEQEND
  8
0
  6
CONTINUOUS
 62
     7
  0
ARC
  8
0
  6
CONTINUOUS
 62
     7
 10
479.7194076373543
 20
175.4188143086628
 40
65.11284195070448
 50
259.1563566167406
 51
272.6324940501111
  0
ARC
  8
0
  6
CONTINUOUS
 62
     7
 10
485.3174325563882
 20
177.2482578280299
 40
66.92438359446999
 50
267.7671493291836
 51
280.442792429754
  0
POLYLINE
  8
0
  6
CONTINUOUS
 62
     7
 66
     1
  0
VERTEX
  8
0
  6
CONTINUOUS
 62
     7
 10
497.4477242796517
 20
111.4323848017736
  0
VERTEX
  8
0
  6
CONTINUOUS
 62
     7
 10
497.5518975650652
 20
111.4790857932755
  0
VERTEX
  8
0
  6
CONTINUOUS
 62
     7
 10
497.6497045407482
 20
111.5340942404952
  0
VERTEX
  8
0
  6
CONTINUOUS
 62
     7
 10
497.7719449796507
 20
111.6550123214058
  0
VERTEX
  8
0
  6
CONTINUOUS
 62
     7
 10
497.7856228034448
 20
111.7199873549901
  0
SEQEND
  8
0
  6
CONTINUOUS
 62
     7
  0
POLYLINE
  8
0
  6
CONTINUOUS
 62
     7
 66
     1
  0
VERTEX
  8
0
  6
CONTINUOUS
 62
     7
 10
467.2143769774174
 20
268.2800157111035
  0
VERTEX
  8
0
  6
CONTINUOUS
 62
     7
 10
467.2753459287399
 20
268.4074198392086
  0
VERTEX
  8
0
  6
CONTINUOUS
 62
     7
 10
467.4438417488964
 20
268.5187944548318
  0
SEQEND
  8
0
  6
CONTINUOUS
 62
     7
  0
ARC
  8
0
  6
CONTINUOUS
 62
     7
 10
479.2466843573742
 20
209.0503085824411
 40
60.6284413917696
 50
87.56725757720427
 51
101.2257393792759
  0
ARC
  8
0
  6
CONTINUOUS
 62
     7
 10
484.6974722537946
 20
195.2392209170542
 40
74.44051545709945
 50
80.18043598439249
 51
92.21518013005732
  0
POLYLINE
  8
0
  6
CONTINUOUS
 62
     7
 66
     1
  0
VERTEX
  8
0
  6
CONTINUOUS
 62
     7
 10
497.3930016602883
 20
268.5891621208992
  0
VERTEX
  8
0
  6
CONTINUOUS
 62
     7
 10
497.5259194292796
 20
268.5334136657
  0
VERTEX
  8
0
  6
CONTINUOUS
 62
     7
 10
497.631714263228
 20
268.4772515172955
  0
VERTEX
  8
0
  6
CONTINUOUS
 62
     7
 10
497.7608285567557
 20
268.3643739014739
  0
VERTEX
  8
0
  6
CONTINUOUS
 62
     7
 10
497.7856228425155
 20
268.2800131915888
  0
SEQEND
  8
0
  6
CONTINUOUS
 62
     7
  0
POLYLINE
  8
0
  6
CONTINUOUS
 62
     7
 66
     1
  0
VERTEX
  8
0
  6
CONTINUOUS
 62
     7
 10
462.7856230225826
 20
268.2800157111035
  0
VERTEX
  8
0
  6
CONTINUOUS
 62
     7
 10
462.7246540712599
 20
268.4074198392087
  0
VERTEX
  8
0
  6
CONTINUOUS
 62
     7
 10
462.5561582511033
 20
268.5187944548318
  0
SEQEND
  8
0
  6
CONTINUOUS
 62
     7
  0
ARC
  8
0
  6
CONTINUOUS
 62
     7
 10
450.7533156426261
 20
209.0503085824519
 40
60.62844139175885
 50
78.77426062072274
 51
92.4327424227976
  0
ARC
  8
0
  6
CONTINUOUS
 62
     7
 10
445.3025277462051
 20
195.2392209170391
 40
74.44051545711454
 50
87.7848198699437
 51
99.81956401560277
  0
POLYLINE
  8
0
  6
CONTINUOUS
 62
     7
 66
     1
  0
VERTEX
  8
0
  6
CONTINUOUS
 62
     7
 10
432.6069983397148
 20
268.5891621209
  0
VERTEX
  8
0
  6
CONTINUOUS
 62
     7
 10
432.4740805707232
 20
268.5334136657008
  0
VERTEX
  8
0
  6
CONTINUOUS
 62
     7
 10
432.3682857367743
 20
268.4772515172965
  0
VERTEX
  8
0
  6
CONTINUOUS
 62
     7
 10
432.2391714432452
 20
268.3643739014749
  0
VERTEX
  8
0
  6
CONTINUOUS
 62
     7
 10
432.2143771574845
 20
268.2800131915889
  0
SEQEND
  8
0
  6
CONTINUOUS
 62
     7
  0
POLYLINE
  8
0
  6
CONTINUOUS
 62
     7
 66
     1
  0
VERTEX
  8
0
  6
CONTINUOUS
 62
     7
 10
462.7856228761513
 20
111.7199863378351
  0
VERTEX
  8
0
  6
CONTINUOUS
 62
     7
 10
462.7127267820495
 20
111.581481027396
  0
VERTEX
  8
0
  6
CONTINUOUS
 62
     7
 10
462.5302380278454
 20
111.468612057424
  0
SEQEND
  8
0
  6
CONTINUOUS
 62
     7
  0
ARC
  8
0
  6
CONTINUOUS
 62
     7
 10
450.2805923626597
 20
175.4188143084511
 40
65.11284195049298
 50
267.3675059498821
 51
280.8436433832859
  0
ARC
  8
0
  6
CONTINUOUS
 62
     7
 10
444.6825674436244
 20
177.2482578282097
 40
66.92438359464983
 50
259.5572075702654
 51
272.2328506708131
  0
POLYLINE
  8
0
  6
CONTINUOUS
 62
     7
 66
     1
  0
VERTEX
  8
0
  6
CONTINUOUS
 62
     7
 10
432.5522757203506
 20
111.4323848017725
  0
VERTEX
  8
0
  6
CONTINUOUS
 62
     7
 10
432.4481024349365
 20
111.4790857932744
  0
VERTEX
  8
0
  6
CONTINUOUS
 62
     7
 10
432.3502954592532
 20
111.5340942404941
  0
VERTEX
  8
0
  6
CONTINUOUS
 62
     7
 10
432.2280550203499
 20
111.6550123214045
  0
VERTEX
  8
0
  6
CONTINUOUS
 62
     7
 10
432.2143771965552
 20
111.7199873549901
  0
SEQEND
  8
0
  6
CONTINUOUS
 62
     7
  0
POLYLINE
  8
0
  6
CONTINUOUS
 62
     7
 66
     1
  0
VERTEX
  8
0
  6
CONTINUOUS
 62
     7
 10
435.9643045587763
 20
267.2820422621297
  0
VERTEX
  8
0
  6
CONTINUOUS
 62
     7
 10
436.0106458949036
 20
267.3784764078861
  0
VERTEX
  8
0
  6
CONTINUOUS
 62
     7
 10
436.1369708547316
 20
267.461988386903
  0
SEQEND
  8
0
  6
CONTINUOUS
 62
     7
  0
ARC
  8
0
  6
CONTINUOUS
 62
     7
 10
446.9866537889182
 20
204.1740952041739
 40
64.2111598032687
 50
86.16779960669237
 51
99.72786861674979
  0
ARC
  8
0
  6
CONTINUOUS
 62
     7
 10
451.8057843396363
 20
235.8473109815515
 40
32.39866818291171
 50
77.46064085713897
 51
90.93308070382488
  0
POLYLINE
  8
0
  6
CONTINUOUS
 62
     7
 66
     1
  0
VERTEX
  8
0
  6
CONTINUOUS
 62
     7
 10
458.8398665132752
 20
267.473176787896
  0
VERTEX
  8
0
  6
CONTINUOUS
 62
     7
 10
458.9795074264257
 20
267.3876068805005
  0
VERTEX
  8
0
  6
CONTINUOUS
 62
     7
 10
459.0356953041455
 20
267.2820403441295
  0
SEQEND
  8
0
  6
CONTINUOUS
 62
     7
  0
POLYLINE
  8
0
  6
CONTINUOUS
 62
     7
 66
     1
  0
VERTEX
  8
0
  6
CONTINUOUS
 62
     7
 10
494.0356954412237
 20
267.2820422621292
  0
VERTEX
  8
0
  6
CONTINUOUS
 62
     7
 10
493.9893541050958
 20
267.3784764078865
  0
VERTEX
  8
0
  6
CONTINUOUS
 62
     7
 10
493.8630291452675
 20
267.4619883869035
  0
SEQEND
  8
0
  6
CONTINUOUS
 62
     7
  0
ARC
  8
0
  6
CONTINUOUS
 62
     7
 10
483.0133462110758
 20
204.1740952040494
 40
64.21115980339275
 50
80.27213138326464
 51
93.83220039330098
  0
ARC
  8
0
  6
CONTINUOUS
 62
     7
 10
478.1942156603518
 20
235.8473109816708
 40
32.39866818279221
 50
89.06691929616252
 51
102.5393591428909
  0
POLYLINE
  8
0
  6
CONTINUOUS
 62
     7
 66
     1
  0
VERTEX
  8
0
  6
CONTINUOUS
 62
     7
 10
471.1601334867223
 20
267.4731767878949
  0
VERTEX
  8
0
  6
CONTINUOUS
 62
     7
 10
471.0204925735728
 20
267.3876068804996
  0
VERTEX
  8
0
  6
CONTINUOUS
 62
     7
 10
470.9643046958545
 20
267.28204034413
  0
SEQEND
  8
0
  6
CONTINUOUS
 62
     7
  0
POLYLINE
  8
0
  6
CONTINUOUS
 62
     7
 66
     1
  0
VERTEX
  8
0
  6
CONTINUOUS
 62
     7
 10
435.9643047846553
 20
112.717960898058
  0
VERTEX
  8
0
  6
CONTINUOUS
 62
     7
 10
436.0403487252291
 20
112.5962576490424
  0
VERTEX
  8
0
  6
CONTINUOUS
 62
     7
 10
436.1933455301406
 20
112.5118582749921
  0
SEQEND
  8
0
  6
CONTINUOUS
 62
     7
  0
ARC
  8
0
  6
CONTINUOUS
 62
     7
 10
447.4244358202744
 20
183.0037048982726
 40
71.3809346356942
 50
260.9474547071931
 51
274.0474797138713
  0
ARC
  8
0
  6
CONTINUOUS
 62
     7
 10
452.6157532316201
 20
139.1156018621369
 40
27.31522922726935
 50
269.6790079637295
 51
283.0924200848604
  0
POLYLINE
  8
0
  6
CONTINUOUS
 62
     7
 66
     1
  0
VERTEX
  8
0
  6
CONTINUOUS
 62
     7
 10
458.8032659826565
 20
112.5104062474824
  0
VERTEX
  8
0
  6
CONTINUOUS
 62
     7
 10
458.9589646832736
 20
112.5957174174081
  0
VERTEX
  8
0
  6
CONTINUOUS
 62
     7
 10
459.029882887227
 20
112.6795681216335
  0
VERTEX
  8
0
  6
CONTINUOUS
 62
     7
 10
459.0356952193517
 20
112.717960842011
  0
SEQEND
  8
0
  6
CONTINUOUS
 62
     7
  0
POLYLINE
  8
0
  6
CONTINUOUS
 62
     7
 66
     1
  0
VERTEX
  8
0
  6
CONTINUOUS
 62
     7
 10
494.0356952153447
 20
112.7179608980575
  0
VERTEX
  8
0
  6
CONTINUOUS
 62
     7
 10
493.9596512747638
 20
112.5962576490369
  0
VERTEX
  8
0
  6
CONTINUOUS
 62
     7
 10
493.8066544698475
 20
112.5118582749869
  0
SEQEND
  8
0
  6
CONTINUOUS
 62
     7
  0
ARC
  8
0
  6
CONTINUOUS
 62
     7
 10
482.5755641797064
 20
183.0037048989017
 40
71.38093463632175
 50
265.9525202861403
 51
279.0525452927325
  0
ARC
  8
0
  6
CONTINUOUS
 62
     7
 10
477.3842467683216
 20
139.1156018616308
 40
27.31522922676108
 50
256.9075799149962
 51
270.3209920362958
  0
POLYLINE
  8
0
  6
CONTINUOUS
 62
     7
 66
     1
  0
VERTEX
  8
0
  6
CONTINUOUS
 62
     7
 10
471.1967340173337
 20
112.5104062474868
  0
VERTEX
  8
0
  6
CONTINUOUS
 62
     7
 10
471.041035316721
 20
112.5957174174124
  0
VERTEX
  8
0
  6
CONTINUOUS
 62
     7
 10
470.9701171127715
 20
112.6795681216381
  0
VERTEX
  8
0
  6
CONTINUOUS
 62
     7
 10
470.9643047806484
 20
112.7179608420115
  0
SEQEND
  8
0
  6
CONTINUOUS
 62
     7
  0
ARC
  8
0
  6
CONTINUOUS
 62
     7
 10
484.4628729810545
 20
248.0205443335716
 40
18.58191115139033
 50
80.68975358052921
 51
91.42737802916213
  0
POLYLINE
  8
0
  6
CONTINUOUS
 62
     7
 66
     1
  0
VERTEX
  8
0
  6
CONTINUOUS
 62
     7
 10
487.4690601720431
 20
266.3576722605644
  0
VERTEX
  8
0
  6
CONTINUOUS
 62
     7
 10
487.566580124795
 20
266.2992364362327
  0
VERTEX
  8
0
  6
CONTINUOUS
 62
     7
 10
487.5707486220377
 20
266.2844795269578
  0
SEQEND
  8
0
  6
CONTINUOUS
 62
     7
  0
LINE
  8
0
  6
CONTINUOUS
 62
     7
 10
484.0000000000001
 20
266.5966895376114
 11
481.0000000000001
 21
266.5966895376114
  0
ARC
  8
0
  6
CONTINUOUS
 62
     7
 10
480.5371270189469
 20
248.0205443335527
 40
18.58191115140911
 50
88.57262197084361
 51
99.31024641946655
  0
POLYLINE
  8
0
  6
CONTINUOUS
 62
     7
 66
     1
  0
VERTEX
  8
0
  6
CONTINUOUS
 62
     7
 10
477.5309398279567
 20
266.3576722605644
  0
VERTEX
  8
0
  6
CONTINUOUS
 62
     7
 10
477.4334198752051
 20
266.2992364362327
  0
VERTEX
  8
0
  6
CONTINUOUS
 62
     7
 10
477.4292513779623
 20
266.2844795269578
  0
SEQEND
  8
0
  6
CONTINUOUS
 62
     7
  0
LINE
  8
0
  6
CONTINUOUS
 62
     7
 10
452.5707486220377
 20
266.2844795269578
 11
452.463170127765
 21
266.3597438933664
  0
ARC
  8
0
  6
CONTINUOUS
 62
     7
 10
449.4479615546957
 20
247.7169239874568
 40
18.88507921040554
 50
80.81278632337484
 51
91.35920605258892
  0
LINE
  8
0
  6
CONTINUOUS
 62
     7
 10
449.0
 20
266.5966895376114
 11
446.0
 21
266.5966895376114
  0
ARC
  8
0
  6
CONTINUOUS
 62
     7
 10
445.5371270189467
 20
248.0205443335567
 40
18.58191115140514
 50
88.57262197084262
 51
99.31024641946749
  0
POLYLINE
  8
0
  6
CONTINUOUS
 62
     7
 66
     1
  0
VERTEX
  8
0
  6
CONTINUOUS
 62
     7
 10
442.5309398279568
 20
266.3576722605644
  0
VERTEX
  8
0
  6
CONTINUOUS
 62
     7
 10
442.433419875205
 20
266.2992364362327
  0
VERTEX
  8
0
  6
CONTINUOUS
 62
     7
 10
442.4292513779623
 20
266.2844795269578
  0
SEQEND
  8
0
  6
CONTINUOUS
 62
     7
  0
ARC
  8
0
  6
CONTINUOUS
 62
     7
 10
445.5545445936617
 20
133.0875731203672
 40
19.68930234689202
 50
261.3626197389117
 51
271.29638379879
  0
POLYLINE
  8
0
  6
CONTINUOUS
 62
     7
 66
     1
  0
VERTEX
  8
0
  6
CONTINUOUS
 62
     7
 10
442.5975975913279
 20
113.6215747813989
  0
VERTEX
  8
0
  6
CONTINUOUS
 62
     7
 10
442.4859491549378
 20
113.6608576695351
  0
VERTEX
  8
0
  6
CONTINUOUS
 62
     7
 10
442.4292513779623
 20
113.7155204730422
  0
SEQEND
  8
0
  6
CONTINUOUS
 62
     7
  0
LINE
  8
0
  6
CONTINUOUS
 62
     7
 10
446.0
 20
113.4033104623885
 11
449.0
 21
113.4033104623885
  0
ARC
  8
0
  6
CONTINUOUS
 62
     7
 10
449.445455406337
 20
133.0875731203951
 40
19.68930234691993
 50
268.7036162012159
 51
278.6373802610813
  0
POLYLINE
  8
0
  6
CONTINUOUS
 62
     7
 66
     1
  0
VERTEX
  8
0
  6
CONTINUOUS
 62
     7
 10
452.4024024086726
 20
113.6215747813989
  0
VERTEX
  8
0
  6
CONTINUOUS
 62
     7
 10
452.5140508450623
 20
113.6608576695351
  0
VERTEX
  8
0
  6
CONTINUOUS
 62
     7
 10
452.5707486220377
 20
113.7155204730422
  0
SEQEND
  8
0
  6
CONTINUOUS
 62
     7
  0
LINE
  8
0
  6
CONTINUOUS
 62
     7
 10
477.4292513779623
 20
113.7155204730422
 11
477.5422033545289
 21
113.6384258046712
  0
ARC
  8
0
  6
CONTINUOUS
 62
     7
 10
480.5270382969231
 20
131.9916892556961
 40
18.59439482575503
 50
260.762724148809
 51
271.4575162352038
  0
LINE
  8
0
  6
CONTINUOUS
 62
     7
 10
481.0000000000001
 20
113.4033104623885
 11
484.0000000000001
 21
113.4033104623885
  0
ARC
  8
0
  6
CONTINUOUS
 62
     7
 10
484.4454554063389
 20
133.0875731203655
 40
19.68930234689037
 50
268.7036162012084
 51
278.6373802610885
  0
POLYLINE
  8
0
  6
CONTINUOUS
 62
     7
 66
     1
  0
VERTEX
  8
0
  6
CONTINUOUS
 62
     7
 10
487.4024024086725
 20
113.6215747813988
  0
VERTEX
  8
0
  6
CONTINUOUS
 62
     7
 10
487.5140508450623
 20
113.6608576695351
  0
VERTEX
  8
0
  6
CONTINUOUS
 62
     7
 10
487.5707486220377
 20
113.7155204730422
  0
SEQEND
  8
0
  6
CONTINUOUS
 62
     7
  0
LINE
  8
0
  6
CONTINUOUS
 62
     7
 10
443.4662575430688
 20
115.2041262878014
 11
443.5792009779075
 21
115.2688376029761
  0
ARC
  8
0
  6
CONTINUOUS
 62
     7
 10
445.7124521142363
 20
101.1285084150812
 40
14.30033810623653
 50
88.84783208885614
 51
98.57911234295858
  0
ARC
  8
0
  6
CONTINUOUS
 62
     7
 10
449.2883224963729
 20
101.3988470200601
 40
14.03007110894025
 50
81.1736062774354
 51
91.17752968077936
  0
POLYLINE
  8
0
  6
CONTINUOUS
 62
     7
 66
     1
  0
VERTEX
  8
0
  6
CONTINUOUS
 62
     7
 10
451.4411114050358
 20
115.262771256605
  0
VERTEX
  8
0
  6
CONTINUOUS
 62
     7
 10
451.5326600958632
 20
115.2104392861116
  0
VERTEX
  8
0
  6
CONTINUOUS
 62
     7
 10
451.5337424569312
 20
115.2041262878014
  0
SEQEND
  8
0
  6
CONTINUOUS
 62
     7
  0
LINE
  8
0
  6
CONTINUOUS
 62
     7
 10
478.4662575430689
 20
115.2041262878014
 11
478.5584906791327
 21
115.2626459387153
  0
ARC
  8
0
  6
CONTINUOUS
 62
     7
 10
480.6961973844284
 20
101.635670845526
 40
13.79363041944607
 50
88.73796710786826
 51
98.91550960675272
  0
ARC
  8
0
  6
CONTINUOUS
 62
     7
 10
484.3849075432208
 20
103.5567651529678
 40
11.87542957186845
 50
79.78393283095511
 51
91.85740151948971
  0
LINE
  8
0
  6
CONTINUOUS
 62
     7
 10
486.4911423584921
 20
115.243920598984
 11
486.5337424569312
 21
115.2041262878014
  0
LINE
  8
0
  6
CONTINUOUS
 62
     7
 10
486.5337424569312
 20
264.7958737121986
 11
486.4203422045986
 21
264.7310328495166
  0
ARC
  8
0
  6
CONTINUOUS
 62
     7
 10
484.2864066167713
 20
278.8945488235117
 40
14.32336782459392
 50
268.8542510189058
 51
278.5679835231824
  0
ARC
  8
0
  6
CONTINUOUS
 62
     7
 10
480.7103805172106
 20
278.5675485381415
 40
13.99650055830752
 50
261.1533034584454
 51
271.1856648283164
  0
POLYLINE
  8
0
  6
CONTINUOUS
 62
     7
 66
     1
  0
VERTEX
  8
0
  6
CONTINUOUS
 62
     7
 10
478.5578419031128
 20
264.7375591891391
  0
VERTEX
  8
0
  6
CONTINUOUS
 62
     7
 10
478.4673249784618
 20
264.7896044529625
  0
VERTEX
  8
0
  6
CONTINUOUS
 62
     7
 10
478.4662575430689
 20
264.7958737121986
  0
SEQEND
  8
0
  6
CONTINUOUS
 62
     7
  0
LINE
  8
0
  6
CONTINUOUS
 62
     7
 10
451.5337424569312
 20
264.7958737121986
 11
451.4425540163053
 21
264.7376846142142
  0
ARC
  8
0
  6
CONTINUOUS
 62
     7
 10
449.3051742091682
 20
278.329980708645
 40
13.75932067940262
 50
268.7291067268064
 51
278.9365448878341
  0
ARC
  8
0
  6
CONTINUOUS
 62
     7
 10
445.6162981653384
 20
276.4630109102267
 40
11.8951563082317
 50
259.796023690154
 51
271.8485095495543
  0
LINE
  8
0
  6
CONTINUOUS
 62
     7
 10
443.5090350310875
 20
264.7559965307919
 11
443.4662575430688
 21
264.7958737121986
  0
LINE
  8
0
  6
CONTINUOUS
 62
     7
 10
448.9999999999943
 20
115.4297605578096
 11
448.9999999999943
 21
115.4204404898224
  0
LINE
  8
0
  6
CONTINUOUS
 62
     7
 10
452.5313065071909
 20
114.2774226190111
 11
452.53064315611
 21
114.2832921024181
  0
LINE
  8
0
  6
CONTINUOUS
 62
     7
 10
477.4693568620967
 20
114.2832921830181
 11
477.4686934928091
 21
114.2774226190111
  0
LINE
  8
0
  6
CONTINUOUS
 62
     7
 10
481.0000000000057
 20
264.5702394421905
 11
481.0000000000057
 21
264.5795595101744
  0
LINE
  8
0
  6
CONTINUOUS
 62
     7
 10
477.4686934928091
 20
265.7225773809889
 11
477.4693229418355
 21
265.7168599464452
  0
LINE
  8
0
  6
CONTINUOUS
 62
     7
 10
452.5306770390703
 20
265.7168598596722
 11
452.5313065071909
 21
265.7225773809889
  0
ARC
  8
0
  6
CONTINUOUS
 62
     7
 10
499.0
 20
264.1999093082074
 40
0.8967456166468768
 50
359.9999999999991
 51
90.0
  0
ARC
  8
0
  6
CONTINUOUS
 62
     7
 10
431.0000000000001
 20
115.8000906917926
 40
0.8967456166468907
 50
180.0
 51
270.0
  0
ARC
  8
0
  6
CONTINUOUS
 62
     7
 10
499.0
 20
115.8000906917926
 40
0.8967456166468907
 50
269.9999999999991
 51
0.0
  0
ARC
  8
0
  6
CONTINUOUS
 62
     7
 10
431.0000000000001
 20
264.1999093082074
 40
0.8967456166468768
 50
90.0
 51
180.0000000000009
  0
LINE
  8
0
  6
CONTINUOUS
 62
     7
 10
431.0000000000001
 20
265.0966549248543
 11
442.750886068508
 21
265.0966549248543
  0
LINE
  8
0
  6
CONTINUOUS
 62
     7
 10
452.2564125564432
 20
265.0966549248543
 11
477.7410775560604
 21
265.0966549248543
  0
LINE
  8
0
  6
CONTINUOUS
 62
     7
 10
487.2490947593106
 20
265.0966549248543
 11
499.0
 21
265.0966549248543
  0
LINE
  8
0
  6
CONTINUOUS
 62
     7
 10
499.0
 20
114.9033450751457
 11
487.2491265625758
 21
114.9033450751457
  0
LINE
  8
0
  6
CONTINUOUS
 62
     7
 10
477.7436464052745
 20
114.9033450751457
 11
452.2588200799701
 21
114.9033450751457
  0
LINE
  8
0
  6
CONTINUOUS
 62
     7
 10
442.7508933739039
 20
114.9033450751457
 11
431.0000000000001
 21
114.9033450751457
  0
LINE
  8
0
  6
CONTINUOUS
 62
     7
 10
499.8967456166469
 20
115.8000906917926
 11
499.8967456166469
 21
264.1999093082073
  0
LINE
  8
0
  6
CONTINUOUS
 62
     7
 10
430.1032543833531
 20
115.8000906917926
 11
430.1032543833531
 21
264.1999093082073
  0
ARC
  8
0
  6
CONTINUOUS
 62
     7
 10
499.0
 20
115.9750680188445
 40
0.8967456166468768
 50
269.9999999999995
 51
359.9999999999991
  0
ARC
  8
0
  6
CONTINUOUS
 62
     7
 10
431.0000000000001
 20
264.0249319811555
 40
0.8967456166468768
 50
90.0
 51
179.9999999999991
  0
ARC
  8
0
  6
CONTINUOUS
 62
     7
 10
499.0
 20
264.0249319811555
 40
0.8967456166468768
 50
0.0000000000008867
 51
90.0
  0
ARC
  8
0
  6
CONTINUOUS
 62
     7
 10
431.0000000000001
 20
115.9750680188445
 40
0.8967456166468768
 50
180.0000000000009
 51
270.0000000000005
  0
LINE
  8
0
  6
CONTINUOUS
 62
     7
 10
499.0
 20
115.0783224021976
 11
487.0409133779228
 21
115.0783224021976
  0
LINE
  8
0
  6
CONTINUOUS
 62
     7
 10
477.9541654445945
 20
115.0783224021976
 11
452.0506264554415
 21
115.0783224021976
  0
LINE
  8
0
  6
CONTINUOUS
 62
     7
 10
442.9591154894363
 20
115.0783224021976
 11
431.0000000000001
 21
115.0783224021976
  0
LINE
  8
0
  6
CONTINUOUS
 62
     7
 10
431.0000000000001
 20
264.9216775978024
 11
442.9591140884489
 21
264.9216775978024
  0
LINE
  8
0
  6
CONTINUOUS
 62
     7
 10
452.04599160921
 20
264.9216775978024
 11
477.9492864688033
 21
264.9216775978024
  0
LINE
  8
0
  6
CONTINUOUS
 62
     7
 10
487.0408578390391
 20
264.9216775978024
 11
499.0
 21
264.9216775978024
  0
ARC
  8
0
  6
CONTINUOUS
 62
     7
 10
499.0
 20
116.1500453458963
 40
0.8967456166468629
 50
269.9999999999995
 51
0.0
  0
ARC
  8
0
  6
CONTINUOUS
 62
     7
 10
431.0000000000001
 20
263.8499546541037
 40
0.8967456166468768
 50
90.0
 51
180.0
  0
ARC
  8
0
  6
CONTINUOUS
 62
     7
 10
431.0000000000001
 20
116.1500453458963
 40
0.8967456166468629
 50
180.0
 51
270.0000000000005
  0
ARC
  8
0
  6
CONTINUOUS
 62
     7
 10
499.0
 20
263.8499546541037
 40
0.8967456166468768
 50
359.9999999999991
 51
90.0
  0
LINE
  8
0
  6
CONTINUOUS
 62
     7
 10
499.0
 20
115.2532997292494
 11
486.6010550475164
 21
115.2532997292494
  0
LINE
  8
0
  6
CONTINUOUS
 62
     7
 10
478.3942730323408
 20
115.2532997292494
 11
451.6114615097225
 21
115.2532997292494
  0
LINE
  8
0
  6
CONTINUOUS
 62
     7
 10
443.4033736210769
 20
115.2532997292494
 11
431.0000000000001
 21
115.2532997292494
  0
LINE
  8
0
  6
CONTINUOUS
 62
     7
 10
431.0000000000001
 20
264.7467002707506
 11
443.3990748621107
 21
264.7467002707506
  0
LINE
  8
0
  6
CONTINUOUS
 62
     7
 10
451.6059076318094
 20
264.7467002707506
 11
478.3887599431864
 21
264.7467002707506
  0
LINE
  8
0
  6
CONTINUOUS
 62
     7
 10
486.5964930326122
 20
264.7467002707506
 11
499.0
 21
264.7467002707506
  0
ARC
  8
0
  6
CONTINUOUS
 62
     7
 10
431.0000000000001
 20
263.6749773270519
 40
0.8967456166468768
 50
89.99999999999955
 51
180.0
  0
ARC
  8
0
  6
CONTINUOUS
 62
     7
 10
499.0
 20
116.3250226729482
 40
0.8967456166468629
 50
270.0000000000013
 51
0.0
  0
ARC
  8
0
  6
CONTINUOUS
 62
     7
 10
499.0
 20
263.6749773270519
 40
0.8967456166468768
 50
0.0
 51
90.00000000000044
  0
ARC
  8
0
  6
CONTINUOUS
 62
     7
 10
431.0000000000001
 20
116.3250226729482
 40
0.8967456166468629
 50
180.0
 51
270.0000000000005
  0
LINE
  8
0
  6
CONTINUOUS
 62
     7
 10
431.0000000000001
 20
264.5717229436987
 11
445.9446873063523
 21
264.5717229436987
  0
LINE
  8
0
  6
CONTINUOUS
 62
     7
 10
449.0596938347976
 20
264.5717229436987
 11
481.0000000000049
 21
264.5717229436987
  0
LINE
  8
0
  6
CONTINUOUS
 62
     7
 10
484.0563009144651
 20
264.5717229436987
 11
499.0
 21
264.5717229436987
  0
LINE
  8
0
  6
CONTINUOUS
 62
     7
 10
499.0000000000001
 20
115.4282770563013
 11
484.0554355418917
 21
115.4282770563013
  0
LINE
  8
0
  6
CONTINUOUS
 62
     7
 10
480.9403895744059
 20
115.4282770563013
 11
448.9999999999951
 21
115.4282770563013
  0
LINE
  8
0
  6
CONTINUOUS
 62
     7
 10
445.9435740327869
 20
115.4282770563013
 11
431.0000000000001
 21
115.4282770563013
  0
POLYLINE
  8
0
  6
CONTINUOUS
 62
     7
 66
     1
  0
VERTEX
  8
0
  6
CONTINUOUS
 62
     7
 10
497.7810262467736
 20
111.7854709385603
  0
VERTEX
  8
0
  6
CONTINUOUS
 62
     7
 10
497.7597723961246
 20
111.9371426269445
  0
VERTEX
  8
0
  6
CONTINUOUS
 62
     7
 10
497.7222598317506
 20
112.0721373968989
  0
VERTEX
  8
0
  6
CONTINUOUS
 62
     7
 10
497.6739200200451
 20
112.1898567172349
  0
VERTEX
  8
0
  6
CONTINUOUS
 62
     7
 10
497.6095426357156
 20
112.3068537599962
  0
VERTEX
  8
0
  6
CONTINUOUS
 62
     7
 10
497.5433908123181
 20
112.4017859517182
  0
VERTEX
  8
0
  6
CONTINUOUS
 62
     7
 10
497.4561900561637
 20
112.5031270183393
  0
VERTEX
  8
0
  6
CONTINUOUS
 62
     7
 10
497.3151905720591
 20
112.6306631115978
  0
SEQEND
  8
0
  6
CONTINUOUS
 62
     7
  0
ARC
  8
0
  6
CONTINUOUS
 62
     7
 10
493.5062277510817
 20
104.5605218872065
 40
8.923865594752508
 50
64.73352465095633
 51
88.67052919965053
  0
ARC
  8
0
  6
CONTINUOUS
 62
     7
 10
471.0745905528976
 20
106.6316346453506
 40
6.853829942509292
 50
88.21324692789821
 51
120.9426218094166
  0
POLYLINE
  8
0
  6
CONTINUOUS
 62
     7
 66
     1
  0
VERTEX
  8
0
  6
CONTINUOUS
 62
     7
 10
467.550492271647
 20
112.510045670868
  0
VERTEX
  8
0
  6
CONTINUOUS
 62
     7
 10
467.452272838088
 20
112.3961066860577
  0
VERTEX
  8
0
  6
CONTINUOUS
 62
     7
 10
467.376886510653
 20
112.284657274478
  0
VERTEX
  8
0
  6
CONTINUOUS
 62
     7
 10
467.3059329478824
 20
112.1452162492979
  0
VERTEX
  8
0
  6
CONTINUOUS
 62
     7
 10
467.2595997814256
 20
112.0148750061203
  0
VERTEX
  8
0
  6
CONTINUOUS
 62
     7
 10
467.227633206096
 20
111.8662795555852
  0
VERTEX
  8
0
  6
CONTINUOUS
 62
     7
 10
467.2189742916336
 20
111.7854786669405
  0
SEQEND
  8
0
  6
CONTINUOUS
 62
     7
  0
LINE
  8
0
  6
CONTINUOUS
 62
     7
 10
467.219016567832
 20
111.7860797785581
 11
467.2143493868634
 21
111.719591191171
  0
LINE
  8
0
  6
CONTINUOUS
 62
     7
 10
497.7856506131366
 20
111.719591191171
 11
497.780983432168
 21
111.7860797785581
  0
POLYLINE
  8
0
  6
CONTINUOUS
 62
     7
 66
     1
  0
VERTEX
  8
0
  6
CONTINUOUS
 62
     7
 10
467.2189769410276
 20
268.2144834106954
  0
VERTEX
  8
0
  6
CONTINUOUS
 62
     7
 10
467.2392585835835
 20
268.0674959116643
  0
VERTEX
  8
0
  6
CONTINUOUS
 62
     7
 10
467.2750160716658
 20
267.9358297797297
  0
VERTEX
  8
0
  6
CONTINUOUS
 62
     7
 10
467.3213927647173
 20
267.82009652012
  0
VERTEX
  8
0
  6
CONTINUOUS
 62
     7
 10
467.3843112452898
 20
267.7030729421901
  0
VERTEX
  8
0
  6
CONTINUOUS
 62
     7
 10
467.4602017010218
 20
267.5935946703669
  0
VERTEX
  8
0
  6
CONTINUOUS
 62
     7
 10
467.5604647107314
 20
267.4798090738832
  0
VERTEX
  8
0
  6
CONTINUOUS
 62
     7
 10
467.6671064128355
 20
267.3834465900599
  0
VERTEX
  8
0
  6
CONTINUOUS
 62
     7
 10
467.7673157056905
 20
267.3086712608332
  0
VERTEX
  8
0
  6
CONTINUOUS
 62
     7
 10
467.9136013561688
 20
267.2190376086627
  0
SEQEND
  8
0
  6
CONTINUOUS
 62
     7
  0
ARC
  8
0
  6
CONTINUOUS
 62
     7
 10
471.9011900235984
 20
277.942154188619
 40
11.4405459908147
 50
249.6014206094105
 51
266.9128627332726
  0
ARC
  8
0
  6
CONTINUOUS
 62
     7
 10
493.5892201617966
 20
274.8856187748004
 40
8.368917888195321
 50
270.8192600122138
 51
296.9568558450783
  0
POLYLINE
  8
0
  6
CONTINUOUS
 62
     7
 66
     1
  0
VERTEX
  8
0
  6
CONTINUOUS
 62
     7
 10
497.3830133025406
 20
267.4259994665114
  0
VERTEX
  8
0
  6
CONTINUOUS
 62
     7
 10
497.4952627157228
 20
267.5395816009418
  0
VERTEX
  8
0
  6
CONTINUOUS
 62
     7
 10
497.5710703292026
 20
267.6357217789145
  0
VERTEX
  8
0
  6
CONTINUOUS
 62
     7
 10
497.6493016172183
 20
267.7617988314249
  0
VERTEX
  8
0
  6
CONTINUOUS
 62
     7
 10
497.7128960042031
 20
267.902113890673
  0
VERTEX
  8
0
  6
CONTINUOUS
 62
     7
 10
497.7565094584596
 20
268.048074369622
  0
VERTEX
  8
0
  6
CONTINUOUS
 62
     7
 10
497.7810225869673
 20
268.214476673227
  0
SEQEND
  8
0
  6
CONTINUOUS
 62
     7
  0
LINE
  8
0
  6
CONTINUOUS
 62
     7
 10
497.780983425922
 20
268.2139201324615
 11
497.78565060419
 21
268.2804086813773
  0
LINE
  8
0
  6
CONTINUOUS
 62
     7
 10
467.21434939581
 20
268.2804086813773
 11
467.219016574078
 21
268.2139201324615
  0
POLYLINE
  8
0
  6
CONTINUOUS
 62
     7
 66
     1
  0
VERTEX
  8
0
  6
CONTINUOUS
 62
     7
 10
432.2189774130327
 20
268.2144766732266
  0
VERTEX
  8
0
  6
CONTINUOUS
 62
     7
 10
432.2403574054146
 20
268.062378232443
  0
VERTEX
  8
0
  6
CONTINUOUS
 62
     7
 10
432.278091811473
 20
267.9270849171606
  0
VERTEX
  8
0
  6
CONTINUOUS
 62
     7
 10
432.3266485170616
 20
267.8092074516103
  0
VERTEX
  8
0
  6
CONTINUOUS
 62
     7
 10
432.3916466325593
 20
267.6914426150558
  0
VERTEX
  8
0
  6
CONTINUOUS
 62
     7
 10
432.4683531036079
 20
267.5832769263973
  0
SEQEND
  8
0
  6
CONTINUOUS
 62
     7
  0
ARC
  8
0
  6
CONTINUOUS
 62
     7
 10
435.1739981237059
 20
270.8049911741535
 40
4.207131762730646
 50
229.9759448017947
 51
274.4533041499124
  0
POLYLINE
  8
0
  6
CONTINUOUS
 62
     7
 66
     1
  0
VERTEX
  8
0
  6
CONTINUOUS
 62
     7
 10
435.5006675410567
 20
266.6105609672309
  0
VERTEX
  8
0
  6
CONTINUOUS
 62
     7
 10
435.901638017926
 20
266.5612188196752
  0
VERTEX
  8
0
  6
CONTINUOUS
 62
     7
 10
436.2867394646394
 20
266.5180263937455
  0
SEQEND
  8
0
  6
CONTINUOUS
 62
     7
  0
ARC
  8
0
  6
CONTINUOUS
 62
     7
 10
458.96319644321
 20
273.242265886813
 40
6.72935916532723
 50
267.8431477394016
 51
301.1179866218838
  0
POLYLINE
  8
0
  6
CONTINUOUS
 62
     7
 66
     1
  0
VERTEX
  8
0
  6
CONTINUOUS
 62
     7
 10
462.4409434434344
 20
267.4812286036145
  0
VERTEX
  8
0
  6
CONTINUOUS
 62
     7
 10
462.540480428453
 20
267.5944719575825
  0
VERTEX
  8
0
  6
CONTINUOUS
 62
     7
 10
462.6177464471943
 20
267.7064398038349
  0
VERTEX
  8
0
  6
CONTINUOUS
 62
     7
 10
462.6909500529258
 20
267.8475347602194
  0
VERTEX
  8
0
  6
CONTINUOUS
 62
     7
 10
462.7389456533124
 20
267.9801126481228
  0
VERTEX
  8
0
  6
CONTINUOUS
 62
     7
 10
462.772089771766
 20
268.1318162989759
  0
VERTEX
  8
0
  6
CONTINUOUS
 62
     7
 10
462.7810230589724
 20
268.2144834106954
  0
SEQEND
  8
0
  6
CONTINUOUS
 62
     7
  0
LINE
  8
0
  6
CONTINUOUS
 62
     7
 10
462.7809834259221
 20
268.2139201324627
 11
462.7856506041901
 21
268.280408681377
  0
LINE
  8
0
  6
CONTINUOUS
 62
     7
 10
432.21434939581
 20
268.280408681377
 11
432.219016574078
 21
268.2139201324627
  0
POLYLINE
  8
0
  6
CONTINUOUS
 62
     7
 66
     1
  0
VERTEX
  8
0
  6
CONTINUOUS
 62
     7
 10
462.7810257083664
 20
111.7854786669404
  0
VERTEX
  8
0
  6
CONTINUOUS
 62
     7
 10
462.7565730330003
 20
111.9517874612698
  0
VERTEX
  8
0
  6
CONTINUOUS
 62
     7
 10
462.7129342201556
 20
112.0980196948713
  0
VERTEX
  8
0
  6
CONTINUOUS
 62
     7
 10
462.657152891918
 20
112.2235359231359
  0
VERTEX
  8
0
  6
CONTINUOUS
 62
     7
 10
462.5840927193075
 20
112.3457058195093
  0
VERTEX
  8
0
  6
CONTINUOUS
 62
     7
 10
462.510859597435
 20
112.4421888124771
  0
SEQEND
  8
0
  6
CONTINUOUS
 62
     7
  0
ARC
  8
0
  6
CONTINUOUS
 62
     7
 10
461.3586693390551
 20
111.4398571349721
 40
1.527157877639211
 50
41.02117876780858
 51
65.60065745338001
  0
ARC
  8
0
  6
CONTINUOUS
 62
     7
 10
457.935348058332
 20
101.0007422690801
 40
12.50529649636446
 50
71.08306064613461
 51
86.41858811463302
  0
ARC
  8
0
  6
CONTINUOUS
 62
     7
 10
436.3067024802371
 20
105.8651854686727
 40
7.617002479499488
 50
90.13761374068373
 51
119.8644457173226
  0
POLYLINE
  8
0
  6
CONTINUOUS
 62
     7
 66
     1
  0
VERTEX
  8
0
  6
CONTINUOUS
 62
     7
 10
432.5138183782789
 20
112.4706950600528
  0
VERTEX
  8
0
  6
CONTINUOUS
 62
     7
 10
432.4230686642026
 20
112.3560922151307
  0
VERTEX
  8
0
  6
CONTINUOUS
 62
     7
 10
432.3559036469109
 20
112.2480294307599
  0
VERTEX
  8
0
  6
CONTINUOUS
 62
     7
 10
432.2940254608615
 20
112.1161639451429
  0
VERTEX
  8
0
  6
CONTINUOUS
 62
     7
 10
432.2541193218544
 20
111.9951504239698
  0
VERTEX
  8
0
  6
CONTINUOUS
 62
     7
 10
432.2266017398376
 20
111.8589685542037
  0
VERTEX
  8
0
  6
CONTINUOUS
 62
     7
 10
432.2189737532264
 20
111.7854709385602
  0
SEQEND
  8
0
  6
CONTINUOUS
 62
     7
  0
LINE
  8
0
  6
CONTINUOUS
 62
     7
 10
432.219016567832
 20
111.786079778558
 11
432.2143493868635
 21
111.7195911911709
  0
LINE
  8
0
  6
CONTINUOUS
 62
     7
 10
462.7856506131366
 20
111.7195911911709
 11
462.7809834321681
 21
111.786079778558
  0
POLYLINE
  8
0
  6
CONTINUOUS
 62
     7
 66
     1
  0
VERTEX
  8
0
  6
CONTINUOUS
 62
     7
 10
435.968907091451
 20
267.2164736907457
  0
VERTEX
  8
0
  6
CONTINUOUS
 62
     7
 10
435.9878977906799
 20
267.0771213390187
  0
VERTEX
  8
0
  6
CONTINUOUS
 62
     7
 10
436.0213171381878
 20
266.9517818993342
  0
VERTEX
  8
0
  6
CONTINUOUS
 62
     7
 10
436.0648104081307
 20
266.8410946589199
  0
VERTEX
  8
0
  6
CONTINUOUS
 62
     7
 10
436.1211197312647
 20
266.7336398358168
  0
VERTEX
  8
0
  6
CONTINUOUS
 62
     7
 10
436.1803953990521
 20
266.6439165988183
  0
VERTEX
  8
0
  6
CONTINUOUS
 62
     7
 10
436.2472705834357
 20
266.5605928530352
  0
VERTEX
  8
0
  6
CONTINUOUS
 62
     7
 10
436.3463407648909
 20
266.4604046580541
  0
VERTEX
  8
0
  6
CONTINUOUS
 62
     7
 10
436.43577832632
 20
266.386826904876
  0
VERTEX
  8
0
  6
CONTINUOUS
 62
     7
 10
436.6312886603756
 20
266.262947251858
  0
SEQEND
  8
0
  6
CONTINUOUS
 62
     7
  0
ARC
  8
0
  6
CONTINUOUS
 62
     7
 10
440.3495030690505
 20
276.9980368360839
 40
11.36077756010713
 50
250.8959189559886
 51
268.7053349893393
  0
LINE
  8
0
  6
CONTINUOUS
 62
     7
 10
440.092814885289
 20
265.6401594839308
 11
440.2541970514288
 21
265.6269326565871
  0
ARC
  8
0
  6
CONTINUOUS
 62
     7
 10
454.5193747906595
 20
277.921698252325
 40
12.28785925791799
 50
271.784893182939
 51
287.9695075309814
  0
POLYLINE
  8
0
  6
CONTINUOUS
 62
     7
 66
     1
  0
VERTEX
  8
0
  6
CONTINUOUS
 62
     7
 10
458.3103121307828
 20
266.2332304645583
  0
VERTEX
  8
0
  6
CONTINUOUS
 62
     7
 10
458.4733904649794
 20
266.325575851136
  0
VERTEX
  8
0
  6
CONTINUOUS
 62
     7
 10
458.5780961056087
 20
266.4002039525147
  0
VERTEX
  8
0
  6
CONTINUOUS
 62
     7
 10
458.6912797528253
 20
266.4996544266168
  0
VERTEX
  8
0
  6
CONTINUOUS
 62
     7
 10
458.8049210392676
 20
266.6284039334098
  0
VERTEX
  8
0
  6
CONTINUOUS
 62
     7
 10
458.893151033909
 20
266.7619519748097
  0
VERTEX
  8
0
  6
CONTINUOUS
 62
     7
 10
458.966732416721
 20
266.9200388196633
  0
VERTEX
  8
0
  6
CONTINUOUS
 62
     7
 10
459.0085267777619
 20
267.0613216970766
  0
VERTEX
  8
0
  6
CONTINUOUS
 62
     7
 10
459.0310959215554
 20
267.2165168998215
  0
SEQEND
  8
0
  6
CONTINUOUS
 62
     7
  0
LINE
  8
0
  6
CONTINUOUS
 62
     7
 10
459.0310558885022
 20
267.2159472982918
 11
459.035723066708
 21
267.2824358463206
  0
LINE
  8
0
  6
CONTINUOUS
 62
     7
 10
435.964276933292
 20
267.2824358463216
 11
435.9689441114978
 21
267.2159472982927
  0
POLYLINE
  8
0
  6
CONTINUOUS
 62
     7
 66
     1
  0
VERTEX
  8
0
  6
CONTINUOUS
 62
     7
 10
470.9689040784447
 20
267.2165168998217
  0
VERTEX
  8
0
  6
CONTINUOUS
 62
     7
 10
470.9859886055752
 20
267.0866730990425
  0
VERTEX
  8
0
  6
CONTINUOUS
 62
     7
 10
471.0157284219082
 20
266.9690147258914
  0
VERTEX
  8
0
  6
CONTINUOUS
 62
     7
 10
471.0545667812435
 20
266.8641031858583
  0
VERTEX
  8
0
  6
CONTINUOUS
 62
     7
 10
471.1076457558924
 20
266.7568040359709
  0
VERTEX
  8
0
  6
CONTINUOUS
 62
     7
 10
471.164267030405
 20
266.6665021694128
  0
VERTEX
  8
0
  6
CONTINUOUS
 62
     7
 10
471.2354325630436
 20
266.5742429796472
  0
VERTEX
  8
0
  6
CONTINUOUS
 62
     7
 10
471.32930440799
 20
266.4761335290435
  0
VERTEX
  8
0
  6
CONTINUOUS
 62
     7
 10
471.5399453216965
 20
266.3159068924061
  0
VERTEX
  8
0
  6
CONTINUOUS
 62
     7
 10
471.7159744398438
 20
266.2208389015056
  0
SEQEND
  8
0
  6
CONTINUOUS
 62
     7
  0
ARC
  8
0
  6
CONTINUOUS
 62
     7
 10
475.5859543462813
 20
278.5354492560508
 40
12.90838381287534
 50
252.5541928731129
 51
268.1649188203367
  0
ARC
  8
0
  6
CONTINUOUS
 62
     7
 10
489.907676469875
 20
274.6463896594628
 40
9.019429056553822
 50
269.0686241361241
 51
294.1677571790792
  0
POLYLINE
  8
0
  6
CONTINUOUS
 62
     7
 66
     1
  0
VERTEX
  8
0
  6
CONTINUOUS
 62
     7
 10
493.6003180282856
 20
266.4175076681286
  0
VERTEX
  8
0
  6
CONTINUOUS
 62
     7
 10
493.7081657262621
 20
266.5162173532939
  0
VERTEX
  8
0
  6
CONTINUOUS
 62
     7
 10
493.8048365051975
 20
266.6279980383238
  0
VERTEX
  8
0
  6
CONTINUOUS
 62
     7
 10
493.8845139657008
 20
266.7467471975526
  0
VERTEX
  8
0
  6
CONTINUOUS
 62
     7
 10
493.9533405476048
 20
266.8857449857911
  0
VERTEX
  8
0
  6
CONTINUOUS
 62
     7
 10
493.9955664961075
 20
267.0092119844896
  0
VERTEX
  8
0
  6
CONTINUOUS
 62
     7
 10
494.0235697013714
 20
267.1446340146294
  0
VERTEX
  8
0
  6
CONTINUOUS
 62
     7
 10
494.0310929085491
 20
267.2164736907457
  0
SEQEND
  8
0
  6
CONTINUOUS
 62
     7
  0
LINE
  8
0
  6
CONTINUOUS
 62
     7
 10
494.0310558885022
 20
267.2159472982918
 11
494.035723066708
 21
267.2824358463205
  0
LINE
  8
0
  6
CONTINUOUS
 62
     7
 10
470.964276933292
 20
267.2824358463215
 11
470.9689441114978
 21
267.2159472982927
  0
ARC
  8
0
  6
CONTINUOUS
 62
     7
 10
457.943703423348
 20
112.7061416579157
 40
1.090139583618415
 50
4.071384937753709
 51
27.58391163742111
  0
POLYLINE
  8
0
  6
CONTINUOUS
 62
     7
 66
     1
  0
VERTEX
  8
0
  6
CONTINUOUS
 62
     7
 10
458.9099308036509
 20
113.210927712918
  0
VERTEX
  8
0
  6
CONTINUOUS
 62
     7
 10
458.8320177268407
 20
113.3389782836646
  0
VERTEX
  8
0
  6
CONTINUOUS
 62
     7
 10
458.7517628191308
 20
113.440606083179
  0
VERTEX
  8
0
  6
CONTINUOUS
 62
     7
 10
458.6674704027822
 20
113.5268413789513
  0
VERTEX
  8
0
  6
CONTINUOUS
 62
     7
 10
458.5288378831419
 20
113.6384595488192
  0
VERTEX
  8
0
  6
CONTINUOUS
 62
     7
 10
458.3760342482989
 20
113.7322974477161
  0
SEQEND
  8
0
  6
CONTINUOUS
 62
     7
  0
ARC
  8
0
  6
CONTINUOUS
 62
     7
 10
454.6754008686883
 20
103.1742918072257
 40
11.18776879073365
 50
70.68418299268842
 51
88.80788831477174
  0
ARC
  8
0
  6
CONTINUOUS
 62
     7
 10
439.7414044253881
 20
107.4254918678212
 40
6.961636723475396
 50
86.03896543327514
 51
119.98467532592
  0
POLYLINE
  8
0
  6
CONTINUOUS
 62
     7
 66
     1
  0
VERTEX
  8
0
  6
CONTINUOUS
 62
     7
 10
436.2621987285328
 20
113.4553769072403
  0
VERTEX
  8
0
  6
CONTINUOUS
 62
     7
 10
436.1781462721183
 20
113.3521779890569
  0
VERTEX
  8
0
  6
CONTINUOUS
 62
     7
 10
436.1141244438683
 20
113.2536322930527
  0
VERTEX
  8
0
  6
CONTINUOUS
 62
     7
 10
436.0560372396952
 20
113.1385103932705
  0
VERTEX
  8
0
  6
CONTINUOUS
 62
     7
 10
436.0088697820389
 20
113.0076843236524
  0
VERTEX
  8
0
  6
CONTINUOUS
 62
     7
 10
435.9773381003629
 20
112.8620283967977
  0
VERTEX
  8
0
  6
CONTINUOUS
 62
     7
 10
435.968914589886
 20
112.7836325387868
  0
SEQEND
  8
0
  6
CONTINUOUS
 62
     7
  0
LINE
  8
0
  6
CONTINUOUS
 62
     7
 10
435.9689441000714
 20
112.784052538927
 11
435.9642769243261
 21
112.7175640259511
  0
LINE
  8
0
  6
CONTINUOUS
 62
     7
 10
459.035723075674
 20
112.7175640259502
 11
459.0310558999287
 21
112.7840525389261
  0
LINE
  8
0
  6
CONTINUOUS
 62
     7
 10
470.9689441000714
 20
112.784052538927
 11
470.9642769243265
 21
112.7175640259568
  0
LINE
  8
0
  6
CONTINUOUS
 62
     7
 10
494.0357230756736
 20
112.7175640259558
 11
494.0310558999287
 21
112.7840525389261
  0
POLYLINE
  8
0
  6
CONTINUOUS
 62
     7
 66
     1
  0
VERTEX
  8
0
  6
CONTINUOUS
 62
     7
 10
494.031085410114
 20
112.7836325387867
  0
VERTEX
  8
0
  6
CONTINUOUS
 62
     7
 10
494.0124250560644
 20
112.9213863809044
  0
VERTEX
  8
0
  6
CONTINUOUS
 62
     7
 10
493.9797312230885
 20
113.0452463978665
  0
VERTEX
  8
0
  6
CONTINUOUS
 62
     7
 10
493.9300584006009
 20
113.1702375407319
  0
VERTEX
  8
0
  6
CONTINUOUS
 62
     7
 10
493.865247842079
 20
113.2889127007125
  0
VERTEX
  8
0
  6
CONTINUOUS
 62
     7
 10
493.7999399753561
 20
113.3823834474198
  0
VERTEX
  8
0
  6
CONTINUOUS
 62
     7
 10
493.7091636754204
 20
113.4863343439094
  0
VERTEX
  8
0
  6
CONTINUOUS
 62
     7
 10
493.51082430778
 20
113.65120488883
  0
SEQEND
  8
0
  6
CONTINUOUS
 62
     7
  0
ARC
  8
0
  6
CONTINUOUS
 62
     7
 10
489.8647292556482
 20
104.7235033476491
 40
9.643540010679905
 50
67.78477594790927
 51
90.2558363378521
  0
ARC
  8
0
  6
CONTINUOUS
 62
     7
 10
474.9594888679627
 20
106.0029499367963
 40
8.361420886339397
 50
88.84600243577138
 51
115.4734635642222
  0
POLYLINE
  8
0
  6
CONTINUOUS
 62
     7
 66
     1
  0
VERTEX
  8
0
  6
CONTINUOUS
 62
     7
 10
471.3633001081232
 20
113.5515117628739
  0
VERTEX
  8
0
  6
CONTINUOUS
 62
     7
 10
471.2503850443013
 20
113.4390312117251
  0
VERTEX
  8
0
  6
CONTINUOUS
 62
     7
 10
471.1494238463577
 20
113.3076476348723
  0
VERTEX
  8
0
  6
CONTINUOUS
 62
     7
 10
471.0677573359309
 20
113.162263453863
  0
VERTEX
  8
0
  6
CONTINUOUS
 62
     7
 10
471.0103515013212
 20
113.011417826332
  0
VERTEX
  8
0
  6
CONTINUOUS
 62
     7
 10
470.977508329467
 20
112.8628870418722
  0
VERTEX
  8
0
  6
CONTINUOUS
 62
     7
 10
470.9689081060324
 20
112.7835407905679
  0
SEQEND
  8
0
  6
CONTINUOUS
 62
     7
  0
POLYLINE
  8
0
  6
CONTINUOUS
 62
     7
 66
     1
  0
VERTEX
  8
0
  6
CONTINUOUS
 62
     7
 10
487.5156983916235
 20
114.3059441899856
  0
VERTEX
  8
0
  6
CONTINUOUS
 62
     7
 10
487.4957266023281
 20
114.4341032020254
  0
VERTEX
  8
0
  6
CONTINUOUS
 62
     7
 10
487.4618641764989
 20
114.5518041981293
  0
VERTEX
  8
0
  6
CONTINUOUS
 62
     7
 10
487.4072215252363
 20
114.6779421286509
  0
VERTEX
  8
0
  6
CONTINUOUS
 62
     7
 10
487.3391742396524
 20
114.7911609695222
  0
VERTEX
  8
0
  6
CONTINUOUS
 62
     7
 10
487.2586117019029
 20
114.8931709496918
  0
VERTEX
  8
0
  6
CONTINUOUS
 62
     7
 10
487.1764407568829
 20
114.9752025380032
  0
VERTEX
  8
0
  6
CONTINUOUS
 62
     7
 10
487.0956248453903
 20
115.0407109310593
  0
VERTEX
  8
0
  6
CONTINUOUS
 62
     7
 10
486.9937694450785
 20
115.1071370838836
  0
SEQEND
  8
0
  6
CONTINUOUS
 62
     7
  0
ARC
  8
0
  6
CONTINUOUS
 62
     7
 10
485.7538012037512
 20
112.1820367418226
 40
3.1770636208024
 50
67.02760987004898
 51
88.76782770214066
  0
LINE
  8
0
  6
CONTINUOUS
 62
     7
 10
485.8221201632768
 20
115.3583657188644
 11
483.9999999999968
 21
115.4204405719876
  0
LINE
  8
0
  6
CONTINUOUS
 62
     7
 10
445.999999999996
 20
115.4204405719876
 11
444.182446900539
 21
115.3587278975852
  0
ARC
  8
0
  6
CONTINUOUS
 62
     7
 10
444.1456708775607
 20
112.714633497996
 40
2.644350141302173
 50
89.20313925087437
 51
116.7547646989777
  0
POLYLINE
  8
0
  6
CONTINUOUS
 62
     7
 66
     1
  0
VERTEX
  8
0
  6
CONTINUOUS
 62
     7
 10
442.9552566364806
 20
115.0758835068766
  0
VERTEX
  8
0
  6
CONTINUOUS
 62
     7
 10
442.850158059849
 20
114.998212832195
  0
VERTEX
  8
0
  6
CONTINUOUS
 62
     7
 10
442.7670591315876
 20
114.9207815629054
  0
VERTEX
  8
0
  6
CONTINUOUS
 62
     7
 10
442.6861485912611
 20
114.826145630899
  0
VERTEX
  8
0
  6
CONTINUOUS
 62
     7
 10
442.6135845869647
 20
114.7162206827672
  0
VERTEX
  8
0
  6
CONTINUOUS
 62
     7
 10
442.5548738844874
 20
114.5957216035614
  0
VERTEX
  8
0
  6
CONTINUOUS
 62
     7
 10
442.5141727466972
 20
114.474559461222
  0
VERTEX
  8
0
  6
CONTINUOUS
 62
     7
 10
442.4892200644325
 20
114.3497390497448
  0
VERTEX
  8
0
  6
CONTINUOUS
 62
     7
 10
442.4843016083766
 20
114.3059441899855
  0
SEQEND
  8
0
  6
CONTINUOUS
 62
     7
  0
POLYLINE
  8
0
  6
CONTINUOUS
 62
     7
 66
     1
  0
VERTEX
  8
0
  6
CONTINUOUS
 62
     7
 10
442.484304140774
 20
265.6940534932208
  0
VERTEX
  8
0
  6
CONTINUOUS
 62
     7
 10
442.5042672178217
 20
265.5659372749182
  0
VERTEX
  8
0
  6
CONTINUOUS
 62
     7
 10
442.5381124206527
 20
265.4482723621804
  0
VERTEX
  8
0
  6
CONTINUOUS
 62
     7
 10
442.5927271283917
 20
265.3221677405686
  0
VERTEX
  8
0
  6
CONTINUOUS
 62
     7
 10
442.6607414084233
 20
265.2089718741231
  0
VERTEX
  8
0
  6
CONTINUOUS
 62
     7
 10
442.7412686276926
 20
265.106974467585
  0
VERTEX
  8
0
  6
CONTINUOUS
 62
     7
 10
442.8234087656414
 20
265.0249449815617
  0
VERTEX
  8
0
  6
CONTINUOUS
 62
     7
 10
442.9042007402767
 20
264.9594309413655
  0
VERTEX
  8
0
  6
CONTINUOUS
 62
     7
 10
443.0060378417461
 20
264.8929892960596
  0
SEQEND
  8
0
  6
CONTINUOUS
 62
     7
  0
ARC
  8
0
  6
CONTINUOUS
 62
     7
 10
444.2464936430896
 20
267.8190060354783
 40
3.17809763135825
 50
247.0259650616981
 51
268.7602584997447
  0
LINE
  8
0
  6
CONTINUOUS
 62
     7
 10
444.1777326955387
 20
264.6416523430894
 11
446.0000000000033
 21
264.5795594280124
  0
LINE
  8
0
  6
CONTINUOUS
 62
     7
 10
484.000000000004
 20
264.5795594280124
 11
485.8181408987862
 21
264.6413249462383
  0
ARC
  8
0
  6
CONTINUOUS
 62
     7
 10
485.8544741636488
 20
267.2849596507821
 40
2.643884369106194
 50
269.2125948145255
 51
296.7608350714199
  0
POLYLINE
  8
0
  6
CONTINUOUS
 62
     7
 66
     1
  0
VERTEX
  8
0
  6
CONTINUOUS
 62
     7
 10
487.04492884574
 20
264.924251662256
  0
VERTEX
  8
0
  6
CONTINUOUS
 62
     7
 10
487.1500010644393
 20
265.0019335760055
  0
VERTEX
  8
0
  6
CONTINUOUS
 62
     7
 10
487.2330707806825
 20
265.0793655017706
  0
VERTEX
  8
0
  6
CONTINUOUS
 62
     7
 10
487.3139473456608
 20
265.1739925450855
  0
VERTEX
  8
0
  6
CONTINUOUS
 62
     7
 10
487.3864771123891
 20
265.2838978184192
  0
VERTEX
  8
0
  6
CONTINUOUS
 62
     7
 10
487.4451581524734
 20
265.4043672977887
  0
VERTEX
  8
0
  6
CONTINUOUS
 62
     7
 10
487.4858383709056
 20
265.525493846684
  0
VERTEX
  8
0
  6
CONTINUOUS
 62
     7
 10
487.5107791827796
 20
265.650273558325
  0
VERTEX
  8
0
  6
CONTINUOUS
 62
     7
 10
487.515695859226
 20
265.6940534932208
  0
SEQEND
  8
0
  6
CONTINUOUS
 62
     7
  0
POLYLINE
  8
0
  6
CONTINUOUS
 62
     7
 66
     1
  0
VERTEX
  8
0
  6
CONTINUOUS
 62
     7
 10
452.5306434519266
 20
114.2832907927048
  0
VERTEX
  8
0
  6
CONTINUOUS
 62
     7
 10
452.5104455639723
 20
114.4217938445482
  0
VERTEX
  8
0
  6
CONTINUOUS
 62
     7
 10
452.474618016744
 20
114.5473859808917
  0
VERTEX
  8
0
  6
CONTINUOUS
 62
     7
 10
452.4214694351803
 20
114.6705733333888
  0
VERTEX
  8
0
  6
CONTINUOUS
 62
     7
 10
452.355998128009
 20
114.7811361800972
  0
VERTEX
  8
0
  6
CONTINUOUS
 62
     7
 10
452.2800630865415
 20
114.8797943855603
  0
SEQEND
  8
0
  6
CONTINUOUS
 62
     7
  0
ARC
  8
0
  6
CONTINUOUS
 62
     7
 10
451.4511048724315
 20
114.1548567611553
 40
1.101229440225064
 50
41.17023103283359
 51
68.94150174770084
  0
ARC
  8
0
  6
CONTINUOUS
 62
     7
 10
450.6851986242178
 20
111.4879538212256
 40
3.872890480349655
 50
72.54652365070915
 51
88.02644758881621
  0
LINE
  8
0
  6
CONTINUOUS
 62
     7
 10
450.8185739108791
 20
115.3585470193918
 11
448.9999999999962
 21
115.4204405719876
  0
LINE
  8
0
  6
CONTINUOUS
 62
     7
 10
480.9999999999966
 20
115.4204405719876
 11
479.1940624024928
 21
115.3597201260855
  0
ARC
  8
0
  6
CONTINUOUS
 62
     7
 10
479.2010210211838
 20
112.3792396876762
 40
2.980488561647936
 50
90.13376996294608
 51
113.6240853005928
  0
POLYLINE
  8
0
  6
CONTINUOUS
 62
     7
 66
     1
  0
VERTEX
  8
0
  6
CONTINUOUS
 62
     7
 10
478.0066373022871
 20
115.1099464822898
  0
VERTEX
  8
0
  6
CONTINUOUS
 62
     7
 10
477.8921101789543
 20
115.0357634738512
  0
VERTEX
  8
0
  6
CONTINUOUS
 62
     7
 10
477.7918796074456
 20
114.9521889688018
  0
VERTEX
  8
0
  6
CONTINUOUS
 62
     7
 10
477.7218153172373
 20
114.8796746913799
  0
VERTEX
  8
0
  6
CONTINUOUS
 62
     7
 10
477.6422506411391
 20
114.7768265758323
  0
VERTEX
  8
0
  6
CONTINUOUS
 62
     7
 10
477.5747181071147
 20
114.6618724320575
  0
VERTEX
  8
0
  6
CONTINUOUS
 62
     7
 10
477.5207102967539
 20
114.5332978786373
  0
VERTEX
  8
0
  6
CONTINUOUS
 62
     7
 10
477.4878606497655
 20
114.4135242784417
  0
VERTEX
  8
0
  6
CONTINUOUS
 62
     7
 10
477.4693565480747
 20
114.2832907927102
  0
SEQEND
  8
0
  6
CONTINUOUS
 62
     7
  0
POLYLINE
  8
0
  6
CONTINUOUS
 62
     7
 66
     1
  0
VERTEX
  8
0
  6
CONTINUOUS
 62
     7
 10
477.4693226556126
 20
265.716861247325
  0
VERTEX
  8
0
  6
CONTINUOUS
 62
     7
 10
477.4894405254397
 20
265.5785770142522
  0
VERTEX
  8
0
  6
CONTINUOUS
 62
     7
 10
477.5251322221857
 20
265.4531906091362
  0
VERTEX
  8
0
  6
CONTINUOUS
 62
     7
 10
477.5780748762903
 20
265.3302082295723
  0
VERTEX
  8
0
  6
CONTINUOUS
 62
     7
 10
477.6432804755794
 20
265.2198286850546
  0
VERTEX
  8
0
  6
CONTINUOUS
 62
     7
 10
477.7188864335712
 20
265.1213305671517
  0
SEQEND
  8
0
  6
CONTINUOUS
 62
     7
  0
ARC
  8
0
  6
CONTINUOUS
 62
     7
 10
478.5481470848381
 20
265.8443584865519
 40
1.100201163411343
 50
221.0849989170885
 51
248.7891663545575
  0
ARC
  8
0
  6
CONTINUOUS
 62
     7
 10
479.3111864432205
 20
268.486821776144
 40
3.847509302919495
 50
252.4355839179015
 51
268.0538756233446
  0
LINE
  8
0
  6
CONTINUOUS
 62
     7
 10
479.180525999913
 20
264.6415317110635
 11
481.0000000000039
 21
264.5795594280124
  0
LINE
  8
0
  6
CONTINUOUS
 62
     7
 10
449.0000000000034
 20
264.5795594280124
 11
450.8061697596965
 21
264.6402989889525
  0
ARC
  8
0
  6
CONTINUOUS
 62
     7
 10
450.7998261572461
 20
267.6191653280267
 40
2.978873093530718
 50
270.1220132280289
 51
293.599965074171
  0
POLYLINE
  8
0
  6
CONTINUOUS
 62
     7
 66
     1
  0
VERTEX
  8
0
  6
CONTINUOUS
 62
     7
 10
451.9924134543882
 20
264.8894363220525
  0
VERTEX
  8
0
  6
CONTINUOUS
 62
     7
 10
452.1067975594056
 20
264.9633536530618
  0
VERTEX
  8
0
  6
CONTINUOUS
 62
     7
 10
452.2071130101609
 20
265.0467879175794
  0
VERTEX
  8
0
  6
CONTINUOUS
 62
     7
 10
452.2773226078629
 20
265.1192696988163
  0
VERTEX
  8
0
  6
CONTINUOUS
 62
     7
 10
452.3571219730131
 20
265.2221722189939
  0
VERTEX
  8
0
  6
CONTINUOUS
 62
     7
 10
452.4249023022904
 20
265.3372893451193
  0
VERTEX
  8
0
  6
CONTINUOUS
 62
     7
 10
452.4791319715234
 20
265.4661385377007
  0
VERTEX
  8
0
  6
CONTINUOUS
 62
     7
 10
452.5121170397865
 20
265.5862315645354
  0
VERTEX
  8
0
  6
CONTINUOUS
 62
     7
 10
452.5306773443863
 20
265.7168612473198
  0
SEQEND
  8
0
  6
CONTINUOUS
 62
     7
  0
LINE
  8
0
  6
CONTINUOUS
 62
     7
 10
487.5709207714817
 20
113.7139886272179
 11
487.5310055059882
 21
114.2826212207597
  0
LINE
  8
0
  6
CONTINUOUS
 62
     7
 10
442.4689944940118
 20
114.2826212207596
 11
442.4290792285184
 21
113.7139886272179
  0
LINE
  8
0
  6
CONTINUOUS
 62
     7
 10
442.4290790486329
 20
266.2860139354288
 11
442.4689945003101
 21
265.7173786895151
  0
LINE
  8
0
  6
CONTINUOUS
 62
     7
 10
487.5310054996899
 20
265.7173786895151
 11
487.5709209513671
 21
266.2860139354286
  0
LINE
  8
0
  6
CONTINUOUS
 62
     7
 10
452.570920762147
 20
113.7139887602002
 11
452.5310054925052
 21
114.2826214128382
  0
LINE
  8
0
  6
CONTINUOUS
 62
     7
 10
477.468994507551
 20
114.2826214136383
 11
477.4290792284376
 21
113.7139886260675
  0
LINE
  8
0
  6
CONTINUOUS
 62
     7
 10
477.4290790302606
 20
266.2860141971611
 11
477.468994516298
 21
265.7173784617516
  0
LINE
  8
0
  6
CONTINUOUS
 62
     7
 10
452.5310054838109
 20
265.7173784633034
 11
452.5709209514618
 21
266.2860139367779
  0
LINE
  8
0
  6
CONTINUOUS
 62
     7
 10
481.0000000000057
 20
264.5702394421904
 11
484.0000000000059
 21
264.5702394421904
  0
LINE
  8
0
  6
CONTINUOUS
 62
     7
 10
448.9999999999943
 20
115.4297605578096
 11
445.9999999999941
 21
115.4297605578096
  0
LINE
  8
0
  6
CONTINUOUS
 62
     7
 10
483.999999999995
 20
115.4297605578096
 11
480.9999999999948
 21
115.4297605578096
  0
LINE
  8
0
  6
CONTINUOUS
 62
     7
 10
446.0000000000052
 20
264.5702394421904
 11
449.0000000000053
 21
264.5702394421904
  0
ENDBLK
  8
0
  0
BLOCK
  8
0
  2
D_FRAME_VIEW_2115
 70
     0
 10
0.0
 20
0.0
  0
LINE
  8
0
  6
CONTINUOUS
 62
     7
 10
414.5
 20
48.74999999999998
 11
408.5
 21
48.74999999999998
  0
LINE
  8
0
  6
CONTINUOUS
 62
     7
 10
408.5
 20
48.74999999999998
 11
408.5
 21
49.24999999999998
  0
LINE
  8
0
  6
CONTINUOUS
 62
     7
 10
408.5
 20
49.24999999999998
 11
414.5
 21
49.24999999999998
  0
LINE
  8
0
  6
CONTINUOUS
 62
     7
 10
521.5000000000001
 20
49.24999999999998
 11
521.5000000000001
 21
48.74999999999998
  0
LINE
  8
0
  6
CONTINUOUS
 62
     7
 10
521.5000000000001
 20
48.74999999999998
 11
515.5000000000001
 21
48.74999999999998
  0
LINE
  8
0
  6
CONTINUOUS
 62
     7
 10
515.5000000000001
 20
49.24999999999998
 11
521.5000000000001
 21
49.24999999999998
  0
LINE
  8
0
  6
CONTINUOUS
 62
     7
 10
515.5000000000001
 20
49.24999999999997
 11
465.0
 21
49.24999999999997
  0
LINE
  8
0
  6
CONTINUOUS
 62
     7
 10
515.5000000000001
 20
48.74999999999997
 11
414.5
 21
48.74999999999997
  0
LINE
  8
0
  6
CONTINUOUS
 62
     7
 10
465.0
 20
49.24999999999997
 11
414.5
 21
49.24999999999997
  0
LINE
  8
0
  6
CONTINUOUS
 62
     7
 10
429.0000000000001
 20
48.74999999999995
 11
429.0000000000001
 21
46.09862297099062
  0
LINE
  8
0
  6
CONTINUOUS
 62
     7
 10
463.5
 20
48.74999999999995
 11
463.5
 21
46.09862297099062
  0
LINE
  8
0
  6
CONTINUOUS
 62
     7
 10
498.0000000000001
 20
48.74999999999995
 11
498.0000000000001
 21
46.09862297099062
  0
LINE
  8
0
  6
CONTINUOUS
 62
     7
 10
432.0000000000001
 20
46.09862297099061
 11
432.0000000000001
 21
48.74999999999995
  0
LINE
  8
0
  6
CONTINUOUS
 62
     7
 10
466.5
 20
46.09862297099061
 11
466.5
 21
48.74999999999995
  0
LINE
  8
0
  6
CONTINUOUS
 62
     7
 10
501.0
 20
46.09862297099061
 11
501.0
 21
48.74999999999995
  0
LINE
  8
0
  6
CONTINUOUS
 62
     7
 10
498.0000000000001
 20
14.74999999999999
 11
498.0000000000001
 21
46.09862297099062
  0
LINE
  8
0
  6
CONTINUOUS
 62
     7
 10
466.5
 20
46.09862297099061
 11
466.5
 21
14.74999999999998
  0
LINE
  8
0
  6
CONTINUOUS
 62
     7
 10
432.0000000000001
 20
46.09862297099061
 11
432.0000000000001
 21
14.74999999999998
  0
LINE
  8
0
  6
CONTINUOUS
 62
     7
 10
463.5
 20
14.74999999999999
 11
463.5
 21
46.09862297099062
  0
LINE
  8
0
  6
CONTINUOUS
 62
     7
 10
501.0
 20
46.09862297099061
 11
501.0
 21
14.74999999999998
  0
LINE
  8
0
  6
CONTINUOUS
 62
     7
 10
429.0000000000001
 20
14.74999999999999
 11
429.0000000000001
 21
46.09862297099062
  0
LINE
  8
0
  6
CONTINUOUS
 62
     7
 10
431.0000000000001
 20
13.07138375953965
 11
499.0
 21
13.07138375953965
  0
LINE
  8
0
  6
CONTINUOUS
 62
     7
 10
491.352604827361
 20
41.04706152635264
 11
491.2065985690674
 21
41.15474173954807
  0
ARC
  8
0
  6
CONTINUOUS
 62
     7
 10
482.5010634502482
 20
29.20996303919683
 40
14.78053043382941
 50
53.914869193305
 51
87.21145009142165
  0
LINE
  8
0
  6
CONTINUOUS
 62
     7
 10
483.2201387036604
 20
43.97299154574953
 11
482.5000000000001
 21
43.99070886655705
  0
LINE
  8
0
  6
CONTINUOUS
 62
     7
 10
482.5000000000001
 20
43.99070886655705
 11
481.7521993970124
 21
43.97160535913318
  0
ARC
  8
0
  6
CONTINUOUS
 62
     7
 10
482.4985370086211
 20
29.21247635496858
 40
14.77798730518045
 50
92.89485931191393
 51
123.0343199424864
  0
LINE
  8
0
  6
CONTINUOUS
 62
     7
 10
474.4424458333137
 20
41.60151601779998
 11
473.666552623861
 21
41.06134756040843
  0
LINE
  8
0
  6
CONTINUOUS
 62
     7
 10
456.3334673247408
 20
41.06133270931595
 11
456.2298098943596
 21
41.13780662782914
  0
ARC
  8
0
  6
CONTINUOUS
 62
     7
 10
447.4982599073547
 20
29.20236676889038
 40
14.78832951356944
 50
53.8121040767972
 51
88.44832307921334
  0
LINE
  8
0
  6
CONTINUOUS
 62
     7
 10
447.8987065884562
 20
43.98527352830356
 11
447.5000000000001
 21
43.99070886655705
  0
LINE
  8
0
  6
CONTINUOUS
 62
     7
 10
447.5000000000001
 20
43.99070886655705
 11
446.7791635654723
 21
43.97295722256172
  0
ARC
  8
0
  6
CONTINUOUS
 62
     7
 10
447.4986882656549
 20
29.21059440344329
 40
14.77988740814567
 50
92.79041571982735
 51
126.1972412736071
  0
LINE
  8
0
  6
CONTINUOUS
 62
     7
 10
438.7701772667061
 20
41.137797241439
 11
438.6409093942847
 21
41.04221409947237
  0
LINE
  8
0
  6
CONTINUOUS
 62
     7
 10
438.635596871298
 20
41.03824073609974
 11
438.7701533534797
 21
41.13782898929049
  0
ARC
  8
0
  6
CONTINUOUS
 62
     7
 10
447.4966757467394
 20
29.22204674442109
 40
14.76949760781345
 50
92.78478452981682
 51
126.2171804213539
  0
LINE
  8
0
  6
CONTINUOUS
 62
     7
 10
446.7791067199925
 20
43.97410267839385
 11
447.5
 21
43.99186268385389
  0
ARC
  8
0
  6
CONTINUOUS
 62
     9
 10
447.4999932377938
 20
29.20916072624839
 40
14.78190301760261
 50
126.8469089768009
 51
53.253284118007
  0
ARC
  8
0
  6
CONTINUOUS
 62
     7
 10
447.4996023896824
 20
29.2121000323623
 40
14.7797217751015
 50
53.79402433617543
 51
88.56058317119289
  0
LINE
  8
0
  6
CONTINUOUS
 62
     7
 10
456.229833678377
 20
41.13783847471073
 11
456.3436905563741
 21
41.05372380637699
  0
LINE
  8
0
  6
CONTINUOUS
 62
     7
 10
473.6336771090714
 20
41.03680282651641
 11
474.4423250150821
 21
41.60169971132362
  0
ARC
  8
0
  6
CONTINUOUS
 62
     9
 10
482.500000000161
 20
29.20905846534346
 40
14.78198965911959
 50
126.8559891888671
 51
53.14400841768445
  0
ARC
  8
0
  6
CONTINUOUS
 62
     7
 10
482.5021510530357
 20
29.21881378571089
 40
14.77278414860109
 50
53.89805794893753
 51
87.2139894284087
  0
LINE
  8
0
  6
CONTINUOUS
 62
     7
 10
491.2066262381079
 20
41.15477890184715
 11
491.3663233853376
 21
41.03680245613857
  0
LINE
  8
0
  6
CONTINUOUS
 62
     7
 10
502.0
 20
48.74999999999998
 11
502.0
 21
12.89660893554019
  0
ARC
  8
0
  6
CONTINUOUS
 62
     7
 10
499.2634194461635
 20
-13.15175616839191
 40
26.22446295893389
 50
84.29288410264824
 51
90.57553423869462
  0
POLYLINE
  8
0
  6
CONTINUOUS
 62
     7
 66
     1
  0
VERTEX
  8
0
  6
CONTINUOUS
 62
     7
 10
501.8712673896081
 20
12.94271808552567
  0
VERTEX
  8
0
  6
CONTINUOUS
 62
     7
 10
501.9854927119499
 20
12.91183464987809
  0
VERTEX
  8
0
  6
CONTINUOUS
 62
     7
 10
502.0
 20
12.89660893554018
  0
SEQEND
  8
0
  6
CONTINUOUS
 62
     7
  0
LINE
  8
0
  6
CONTINUOUS
 62
     7
 10
428.0000000000001
 20
12.89660893554018
 11
428.1215494344945
 21
12.94139184281701
  0
ARC
  8
0
  6
CONTINUOUS
 62
     7
 10
430.6940397825502
 20
-12.08784536601978
 40
25.16108944078257
 50
89.30326303031109
 51
95.86822136775326
  0
LINE
  8
0
  6
CONTINUOUS
 62
     7
 10
428.0000000000001
 20
12.89660893554018
 11
428.0000000000001
 21
48.74999999999998
  0
ARC
  8
0
  6
CONTINUOUS
 62
     7
 10
431.0000000000001
 20
14.74999999999998
 40
1.000000000000001
 50
270.0
 51
0.0
  0
LINE
  8
0
  6
CONTINUOUS
 62
     7
 10
500.0
 20
13.74999999999998
 11
499.0000000000001
 21
13.74999999999998
  0
LINE
  8
0
  6
CONTINUOUS
 62
     7
 10
465.5
 20
13.74999999999998
 11
464.5
 21
13.74999999999998
  0
ARC
  8
0
  6
CONTINUOUS
 62
     7
 10
430.0000000000001
 20
14.74999999999999
 40
1.000000000000001
 50
180.0
 51
270.0
  0
ARC
  8
0
  6
CONTINUOUS
 62
     7
 10
465.5
 20
14.74999999999998
 40
1.000000000000001
 50
270.0
 51
0.0
  0
ARC
  8
0
  6
CONTINUOUS
 62
     7
 10
499.0000000000001
 20
14.74999999999999
 40
1.000000000000001
 50
180.0
 51
270.0
  0
LINE
  8
0
  6
CONTINUOUS
 62
     7
 10
431.0000000000001
 20
13.74999999999998
 11
430.0000000000001
 21
13.74999999999998
  0
ARC
  8
0
  6
CONTINUOUS
 62
     7
 10
500.0
 20
14.74999999999998
 40
1.000000000000001
 50
270.0
 51
0.0
  0
ARC
  8
0
  6
CONTINUOUS
 62
     7
 10
464.5
 20
14.74999999999999
 40
1.000000000000001
 50
180.0
 51
270.0
  0
ARC
  8
0
  6
CONTINUOUS
 62
     7
 10
482.5021096487503
 20
29.210634041299
 40
11.02965242832575
 50
53.22375169940486
 51
85.49830149176319
  0
LINE
  8
0
  6
CONTINUOUS
 62
     7
 10
482.5000000000001
 20
40.24070886655705
 11
482.2963026928777
 21
40.23880738785789
  0
ARC
  8
0
  6
CONTINUOUS
 62
     7
 10
482.5014792198627
 20
29.20229432321125
 40
11.03842008773636
 50
91.06504608342864
 51
125.7460335503189
  0
LINE
  8
0
  6
CONTINUOUS
 62
     7
 10
476.0529061650262
 20
38.16123530916362
 11
475.9133494639809
 21
38.05918041522812
  0
ARC
  8
0
  6
CONTINUOUS
 62
     7
 10
447.4997199634877
 20
29.20551988013843
 40
11.03516919999477
 50
53.35153720657381
 51
88.83639684120722
  0
LINE
  8
0
  6
CONTINUOUS
 62
     7
 10
447.7238145686873
 20
40.23841346615809
 11
447.5
 21
40.24070886655704
  0
LINE
  8
0
  6
CONTINUOUS
 62
     7
 10
447.5
 20
40.24070886655704
 11
447.1474404210976
 21
40.2350161654205
  0
ARC
  8
0
  6
CONTINUOUS
 62
     7
 10
447.5006229806339
 20
29.20433450259608
 40
11.03633434918186
 50
91.83388115912143
 51
126.7680693229153
  0
LINE
  8
0
  6
CONTINUOUS
 62
     7
 10
475.8951255928247
 20
38.04561225708122
 11
476.0528673573672
 21
38.1612882275366
  0
ARC
  8
0
  6
CONTINUOUS
 62
     7
 10
482.499334997992
 20
29.21450830565496
 40
11.02732134347263
 50
91.0550880300708
 51
125.7740681761602
  0
LINE
  8
0
  6
CONTINUOUS
 62
     7
 10
482.296280998258
 20
40.2399600009552
 11
482.5000000000001
 21
40.24186268385388
  0
ARC
  8
0
  6
CONTINUOUS
 62
     9
 10
482.4999737988976
 20
29.20920617392035
 40
11.03207978519565
 50
127.2680496909958
 51
53.22328087823928
  0
LINE
  8
0
  6
CONTINUOUS
 62
     7
 10
482.5000000000001
 20
40.24186268385388
 11
483.3679027641754
 21
40.20739223002959
  0
ARC
  8
0
  6
CONTINUOUS
 62
     7
 10
447.498057521642
 20
29.21742960560903
 40
11.02431488890536
 50
91.82273586441681
 51
126.7941232211784
  0
LINE
  8
0
  6
CONTINUOUS
 62
     7
 10
454.1048730740513
 20
38.04561325289096
 11
454.1804438629787
 21
37.9886597018922
  0
LINE
  8
0
  6
CONTINUOUS
 62
     7
 10
447.5
 20
40.24186268385388
 11
447.7238383969827
 21
40.23956583007438
  0
ARC
  8
0
  6
CONTINUOUS
 62
     7
 10
447.5006494083274
 20
29.21420058020216
 40
11.02762405134247
 50
53.73009058835873
 51
88.84030683233915
  0
LINE
  8
0
  6
CONTINUOUS
 62
     7
 10
454.0244797552178
 20
38.10510209932493
 11
454.1048730740513
 21
38.04561325289096
  0
ARC
  8
0
  6
CONTINUOUS
 62
     9
 10
447.5000262133295
 20
29.20920916215459
 40
11.03207739972144
 50
126.7767401071853
 51
52.73194096170653
  0
LINE
  8
0
  6
CONTINUOUS
 62
     7
 10
475.8195561370265
 20
37.98865970189595
 11
475.8951255928247
 21
38.04561225708122
  0
LINE
  8
0
  6
CONTINUOUS
 62
     7
 10
431.0000000000001
 20
11.49661991691269
 11
429.3961476021666
 21
11.49661991691269
  0
LINE
  8
0
  6
CONTINUOUS
 62
     7
 10
429.3961476021666
 20
11.49661991691266
 11
428.0000000000001
 21
12.89276751907924
  0
LINE
  8
0
  6
CONTINUOUS
 62
     7
 10
500.6038523978335
 20
11.49661991691266
 11
502.0
 21
12.89276751907924
  0
LINE
  8
0
  6
CONTINUOUS
 62
     7
 10
499.0
 20
11.49661991691269
 11
500.6038523978335
 21
11.49661991691269
  0
LINE
  8
0
  6
CONTINUOUS
 62
     7
 10
499.0
 20
11.49661991691269
 11
431.0000000000001
 21
11.49661991691269
  0
LINE
  8
0
  6
CONTINUOUS
 62
     7
 10
446.0
 20
32.23191848934074
 11
446.0
 21
32.23973752095585
  0
LINE
  8
0
  6
CONTINUOUS
 62
     7
 10
484.0000000000001
 20
32.23191848934074
 11
484.0000000000001
 21
32.23973752095585
  0
LINE
  8
0
  6
CONTINUOUS
 62
     7
 10
449.0
 20
32.23191848934074
 11
449.0
 21
32.23964023492503
  0
LINE
  8
0
  6
CONTINUOUS
 62
     7
 10
481.0000000000001
 20
32.23191848934074
 11
481.0000000000001
 21
32.23964023492502
  0
LINE
  8
0
  6
CONTINUOUS
 62
     7
 10
449.0
 20
32.23199464176255
 11
446.0
 21
32.23199464176255
  0
LINE
  8
0
  6
CONTINUOUS
 62
     7
 10
484.0000000000001
 20
32.23199464176255
 11
481.0000000000001
 21
32.23199464176255
  0
LINE
  8
0
  6
CONTINUOUS
 62
     7
 10
501.6009128048473
 20
10.4995595098988
 11
499.0
 21
10.58410858043861
  0
LINE
  8
0
  6
CONTINUOUS
 62
     7
 10
501.6009128048473
 20
10.4995595098988
 11
500.6038523978335
 21
11.49661991691266
  0
LINE
  8
0
  6
CONTINUOUS
 62
     7
 10
499.0
 20
9.496619916912662
 11
500.6038523978335
 21
9.496619916912662
  0
LINE
  8
0
  6
CONTINUOUS
 62
     7
 10
500.6038523978335
 20
9.496619916912662
 11
501.6038523978335
 21
10.49661991691268
  0
LINE
  8
0
  6
CONTINUOUS
 62
     7
 10
431.0000000000001
 20
10.58410858043861
 11
428.3990871951527
 21
10.4995595098988
  0
LINE
  8
0
  6
CONTINUOUS
 62
     7
 10
428.3990871951527
 20
10.4995595098988
 11
429.3961476021666
 21
11.49661991691266
  0
LINE
  8
0
  6
CONTINUOUS
 62
     7
 10
431.0000000000001
 20
9.496619916912662
 11
429.3961476021666
 21
9.496619916912662
  0
LINE
  8
0
  6
CONTINUOUS
 62
     7
 10
429.3961476021666
 20
9.496619916912662
 11
428.3961476021666
 21
10.49661991691268
  0
ARC
  8
0
  6
CONTINUOUS
 62
     9
 10
446.0185191014265
 20
29.1989029475021
 40
3.051061854705512
 50
127.2262780735496
 51
179.8017121563711
  0
ARC
  8
0
  6
CONTINUOUS
 62
     9
 10
483.9815777642161
 20
29.19895174556505
 40
3.05096482114917
 50
0.1973777383886954
 51
52.77340043924307
  0
ARC
  8
0
  6
CONTINUOUS
 62
     9
 10
481.0197321356692
 20
29.198298509707
 40
3.052277032522224
 50
127.2375204472156
 51
179.7904448311461
  0
ARC
  8
0
  6
CONTINUOUS
 62
     9
 10
448.981577231646
 20
29.19895148203657
 40
3.05096535462389
 50
0.1973826528538325
 51
52.77339128571082
  0
LINE
  8
0
  6
CONTINUOUS
 62
     7
 10
499.0
 20
10.58410858043861
 11
431.0000000000001
 21
10.58410858043861
  0
LINE
  8
0
  6
CONTINUOUS
 62
     7
 10
499.0
 20
9.496619916912662
 11
431.0000000000001
 21
9.496619916912662
  0
LINE
  8
0
  6
CONTINUOUS
 62
     7
 10
501.6009128048473
 20
8.499559509898814
 11
499.0
 21
8.584108580438599
  0
LINE
  8
0
  6
CONTINUOUS
 62
     7
 10
501.6009128048473
 20
8.499559509898814
 11
500.6038523978335
 21
9.496619916912662
  0
LINE
  8
0
  6
CONTINUOUS
 62
     7
 10
499.0
 20
7.496619916912659
 11
500.6038523978335
 21
7.496619916912659
  0
LINE
  8
0
  6
CONTINUOUS
 62
     7
 10
500.6038523978335
 20
7.496619916912667
 11
501.6038523978335
 21
8.496619916912696
  0
LINE
  8
0
  6
CONTINUOUS
 62
     7
 10
431.0000000000001
 20
7.496619916912659
 11
429.3961476021666
 21
7.496619916912659
  0
LINE
  8
0
  6
CONTINUOUS
 62
     7
 10
429.3961476021666
 20
7.496619916912667
 11
428.3961476021666
 21
8.496619916912696
  0
LINE
  8
0
  6
CONTINUOUS
 62
     7
 10
431.0000000000001
 20
8.584108580438613
 11
428.3990871951527
 21
8.499559509898814
  0
LINE
  8
0
  6
CONTINUOUS
 62
     7
 10
428.3990871951527
 20
8.499559509898814
 11
429.3961476021666
 21
9.496619916912662
  0
LINE
  8
0
  6
CONTINUOUS
 62
     7
 10
499.0
 20
7.496619916912659
 11
431.0000000000001
 21
7.496619916912659
  0
LINE
  8
0
  6
CONTINUOUS
 62
     7
 10
499.0
 20
8.584108580438599
 11
431.0000000000001
 21
8.584108580438613
  0
LINE
  8
0
  6
CONTINUOUS
 62
     7
 10
501.6009128048473
 20
6.499559509898798
 11
499.0
 21
6.584108580438584
  0
LINE
  8
0
  6
CONTINUOUS
 62
     7
 10
501.6009128048473
 20
6.499559509898798
 11
500.6038523978335
 21
7.496619916912667
  0
LINE
  8
0
  6
CONTINUOUS
 62
     7
 10
499.0
 20
5.496619916912658
 11
500.6038523978335
 21
5.496619916912658
  0
LINE
  8
0
  6
CONTINUOUS
 62
     7
 10
500.6038523978335
 20
5.496619916912658
 11
501.6038523978335
 21
6.49661991691268
  0
LINE
  8
0
  6
CONTINUOUS
 62
     7
 10
431.0000000000001
 20
6.584108580438598
 11
428.3990871951527
 21
6.499559509898798
  0
LINE
  8
0
  6
CONTINUOUS
 62
     7
 10
428.3990871951527
 20
6.499559509898798
 11
429.3961476021666
 21
7.496619916912667
  0
LINE
  8
0
  6
CONTINUOUS
 62
     7
 10
431.0000000000001
 20
5.496619916912658
 11
429.3961476021666
 21
5.496619916912658
  0
LINE
  8
0
  6
CONTINUOUS
 62
     7
 10
429.3961476021666
 20
5.496619916912658
 11
428.3961476021666
 21
6.49661991691268
  0
ARC
  8
0
  6
CONTINUOUS
 62
     9
 10
448.9999965973772
 20
29.20958913802747
 40
3.032527887350377
 50
270.0000642882549
 51
359.9975972692898
  0
ARC
  8
0
  6
CONTINUOUS
 62
     9
 10
480.9999891052088
 20
29.20957484002993
 40
3.032513589370466
 50
180.0021325981829
 51
270.0002058442818
  0
ARC
  8
0
  6
CONTINUOUS
 62
     9
 10
483.9999820369883
 20
29.2096036990107
 40
3.032542448384893
 50
270.0003393867615
 51
359.9973221707831
  0
ARC
  8
0
  6
CONTINUOUS
 62
     9
 10
446.0000454717471
 20
29.20963120886876
 40
3.032569958530643
 50
180.0031975616942
 51
269.9991408807703
  0
LINE
  8
0
  6
CONTINUOUS
 62
     7
 10
499.0
 20
6.584108580438584
 11
431.0000000000001
 21
6.584108580438598
  0
LINE
  8
0
  6
CONTINUOUS
 62
     7
 10
499.0
 20
5.496619916912658
 11
431.0000000000001
 21
5.496619916912658
  0
LINE
  8
0
  6
CONTINUOUS
 62
     7
 10
501.6009128048473
 20
4.499559509898783
 11
499.0000000000001
 21
4.584108580438555
  0
LINE
  8
0
  6
CONTINUOUS
 62
     7
 10
501.6009128048473
 20
4.499559509898783
 11
500.6038523978335
 21
5.496619916912658
  0
LINE
  8
0
  6
CONTINUOUS
 62
     7
 10
499.0000000000001
 20
3.496619916912656
 11
500.6038523978335
 21
3.496619916912656
  0
LINE
  8
0
  6
CONTINUOUS
 62
     7
 10
500.6038523978335
 20
3.496619916912642
 11
501.6038523978335
 21
4.496619916912664
  0
LINE
  8
0
  6
CONTINUOUS
 62
     7
 10
430.9999999999999
 20
3.496619916912656
 11
429.3961476021666
 21
3.496619916912656
  0
LINE
  8
0
  6
CONTINUOUS
 62
     7
 10
429.3961476021666
 20
3.496619916912663
 11
428.3961476021666
 21
4.496619916912664
  0
LINE
  8
0
  6
CONTINUOUS
 62
     7
 10
431.0000000000001
 20
4.584108580438555
 11
428.3990871951527
 21
4.499559509898783
  0
LINE
  8
0
  6
CONTINUOUS
 62
     7
 10
428.3990871951527
 20
4.499559509898783
 11
429.3961476021666
 21
5.496619916912658
  0
LINE
  8
0
  6
CONTINUOUS
 62
     7
 10
499.0000000000001
 20
3.496619916912663
 11
430.9999999999999
 21
3.496619916912663
  0
LINE
  8
0
  6
CONTINUOUS
 62
     7
 10
499.0000000000001
 20
4.584108580438555
 11
431.0000000000001
 21
4.584108580438555
  0
LINE
  8
0
  6
CONTINUOUS
 62
     9
 10
484.0000000000001
 20
26.17706125067903
 11
481.0000000000005
 21
26.17706125067903
  0
LINE
  8
0
  6
CONTINUOUS
 62
     9
 10
449.0
 20
26.17706125067903
 11
446.0000000000005
 21
26.17706125067903
  0
LINE
  8
0
  6
CONTINUOUS
 62
     7
 10
429.3961476021666
 20
1.749999999999981
 11
429.3961476021666
 21
3.496619916912663
  0
LINE
  8
0
  6
CONTINUOUS
 62
     7
 10
500.6038523978335
 20
1.749999999999981
 11
500.6038523978335
 21
3.496619916912642
  0
ARC
  8
0
  6
CONTINUOUS
 62
     7
 10
499.6038523978335
 20
1.749999999999981
 40
1.000000000000001
 50
270.0
 51
0.0
  0
LINE
  8
0
  6
CONTINUOUS
 62
     7
 10
499.6038523978335
 20
0.7499999999999798
 11
499.0000000000001
 21
0.7499999999999798
  0
LINE
  8
0
  6
CONTINUOUS
 62
     7
 10
499.0000000000001
 20
0.7499999999999798
 11
430.9999999999999
 21
0.7499999999999798
  0
LINE
  8
0
  6
CONTINUOUS
 62
     7
 10
430.9999999999999
 20
0.7499999999999798
 11
430.3961476021666
 21
0.7499999999999798
  0
ARC
  8
0
  6
CONTINUOUS
 62
     7
 10
430.3961476021666
 20
1.749999999999981
 40
1.000000000000001
 50
180.0
 51
270.0
  0
LINE
  8
0
  6
CONTINUOUS
 62
     7
 10
473.6336995506769
 20
41.0368196386982
 11
473.6308933984153
 21
41.03471738152695
  0
LINE
  8
0
  6
CONTINUOUS
 62
     7
 10
491.3691066424054
 20
41.03471735094566
 11
491.366300490131
 21
41.03681960812663
  0
LINE
  8
0
  6
CONTINUOUS
 62
     7
 10
438.6336995506384
 20
41.03681963866865
 11
438.6308933983768
 21
41.03471738149742
  0
LINE
  8
0
  6
CONTINUOUS
 62
     7
 10
456.3691066423726
 20
41.03471735097099
 11
456.3663004900981
 21
41.03681960815192
  0
LINE
  8
0
  6
CONTINUOUS
 62
     7
 10
475.8951507191717
 20
38.04563106242177
 11
475.8923497625597
 21
38.0435326917759
  0
LINE
  8
0
  6
CONTINUOUS
 62
     7
 10
489.1076502788649
 20
38.04353266083313
 11
489.1048493222352
 21
38.0456310314921
  0
LINE
  8
0
  6
CONTINUOUS
 62
     7
 10
440.8951507191918
 20
38.04563106243706
 11
440.8923497625799
 21
38.04353269179138
  0
LINE
  8
0
  6
CONTINUOUS
 62
     7
 10
454.1076502789278
 20
38.04353266078611
 11
454.1048493222984
 21
38.04563103144493
  0
ARC
  8
0
  6
CONTINUOUS
 62
     7
 10
446.0177139180352
 20
29.1504723967074
 40
3.089329395411684
 50
90.32853029692694
 51
127.2292361360256
  0
ARC
  8
0
  6
CONTINUOUS
 62
     7
 10
483.9822860819645
 20
29.15047239670707
 40
3.089329395412026
 50
52.77076386377485
 51
89.67146970306796
  0
ARC
  8
0
  6
CONTINUOUS
 62
     7
 10
448.9584914443381
 20
29.08049205832921
 40
3.159531620883987
 50
53.19308545822435
 51
89.24725125213679
  0
ARC
  8
0
  6
CONTINUOUS
 62
     7
 10
481.0415085556618
 20
29.08049205832927
 40
3.159531620883906
 50
90.75274874786224
 51
126.8069145417755
  0
ENDBLK
  8
0
  0
BLOCK
  8
0
  2
D_FRAME_VIEW_1961
 70
     0
 10
0.0
 20
0.0
  0
LINE
  8
0
  6
CONTINUOUS
 62
     7
 10
600.7499999999999
 20
291.5
 11
601.2499999999999
 21
291.5
  0
LINE
  8
0
  6
CONTINUOUS
 62
     7
 10
601.2499999999999
 20
291.5
 11
601.2499999999999
 21
285.4999999999999
  0
LINE
  8
0
  6
CONTINUOUS
 62
     7
 10
600.75
 20
285.4999999999999
 11
600.75
 21
291.5
  0
LINE
  8
0
  6
CONTINUOUS
 62
     7
 10
601.2499999999999
 20
285.4999999999999
 11
601.2499999999999
 21
94.5
  0
LINE
  8
0
  6
CONTINUOUS
 62
     7
 10
600.75
 20
190.0
 11
600.75
 21
163.0
  0
LINE
  8
0
  6
CONTINUOUS
 62
     7
 10
600.75
 20
163.0
 11
600.75
 21
94.5
  0
LINE
  8
0
  6
CONTINUOUS
 62
     7
 10
600.75
 20
285.4999999999999
 11
600.75
 21
217.0
  0
LINE
  8
0
  6
CONTINUOUS
 62
     7
 10
600.75
 20
217.0
 11
600.75
 21
190.0
  0
LINE
  8
0
  6
CONTINUOUS
 62
     7
 10
601.2499999999999
 20
88.5
 11
600.75
 21
88.5
  0
LINE
  8
0
  6
CONTINUOUS
 62
     7
 10
601.2499999999999
 20
94.5
 11
601.2499999999999
 21
88.5
  0
LINE
  8
0
  6
CONTINUOUS
 62
     7
 10
600.75
 20
88.5
 11
600.75
 21
94.5
  0
LINE
  8
0
  6
CONTINUOUS
 62
     7
 10
637.1072324809207
 20
264.1999093082073
 11
637.1033910644597
 21
264.3517752202681
  0
LINE
  8
0
  6
CONTINUOUS
 62
     7
 10
637.1033910644597
 20
264.3517752202681
 11
636.9286162404602
 21
267.3785255486678
  0
LINE
  8
0
  6
CONTINUOUS
 62
     7
 10
638.5033800830872
 20
265.8037617060408
 11
636.9286162404602
 21
267.3785255486678
  0
LINE
  8
0
  6
CONTINUOUS
 62
     7
 10
638.5033800830872
 20
264.1999093082073
 11
638.5033800830872
 21
265.8037617060408
  0
LINE
  8
0
  6
CONTINUOUS
 62
     7
 10
601.2499999999999
 20
269.7331498812795
 11
635.25
 21
266.7585353213983
  0
POLYLINE
  8
0
  6
CONTINUOUS
 62
     7
 66
     1
  0
VERTEX
  8
0
  6
CONTINUOUS
 62
     7
 10
636.25
 20
267.2656685208286
  0
VERTEX
  8
0
  6
CONTINUOUS
 62
     7
 10
636.2140059028959
 20
267.1598229597487
  0
VERTEX
  8
0
  6
CONTINUOUS
 62
     7
 10
636.132497329609
 20
267.061695134173
  0
VERTEX
  8
0
  6
CONTINUOUS
 62
     7
 10
636.0359494909811
 20
266.9809037534556
  0
VERTEX
  8
0
  6
CONTINUOUS
 62
     7
 10
635.9446461960368
 20
266.9209622017119
  0
VERTEX
  8
0
  6
CONTINUOUS
 62
     7
 10
635.836845525176
 20
266.8644200522965
  0
SEQEND
  8
0
  6
CONTINUOUS
 62
     7
  0
ARC
  8
0
  6
CONTINUOUS
 62
     7
 10
635.3466580515862
 20
267.9020078245206
 40
1.147550497509026
 50
265.1682580242843
 51
295.2874502809287
  0
LINE
  8
0
  6
CONTINUOUS
 62
     7
 10
636.25
 20
267.4378967765927
 11
636.9286162404602
 21
267.3785255486678
  0
LINE
  8
0
  6
CONTINUOUS
 62
     7
 10
637.1033910644597
 20
115.6482247797319
 11
637.1072324809207
 21
115.8000906917926
  0
LINE
  8
0
  6
CONTINUOUS
 62
     7
 10
638.5033800830872
 20
114.1962382939592
 11
638.5033800830872
 21
115.8000906917926
  0
LINE
  8
0
  6
CONTINUOUS
 62
     7
 10
638.5033800830872
 20
114.1962382939592
 11
636.9286162404602
 21
112.6214744513322
  0
LINE
  8
0
  6
CONTINUOUS
 62
     7
 10
636.9286162404602
 20
112.6214744513322
 11
637.1033910644597
 21
115.6482247797319
  0
POLYLINE
  8
0
  6
CONTINUOUS
 62
     7
 66
     1
  0
VERTEX
  8
0
  6
CONTINUOUS
 62
     7
 10
635.25
 20
113.2414646786017
  0
VERTEX
  8
0
  6
CONTINUOUS
 62
     7
 10
635.3510249168751
 20
113.2457157849133
  0
VERTEX
  8
0
  6
CONTINUOUS
 62
     7
 10
635.4531919966443
 20
113.2406785708185
  0
VERTEX
  8
0
  6
CONTINUOUS
 62
     7
 10
635.5633396375895
 20
113.2246546140511
  0
SEQEND
  8
0
  6
CONTINUOUS
 62
     7
  0
ARC
  8
0
  6
CONTINUOUS
 62
     7
 10
635.3263652716779
 20
112.0323977733743
 40
1.215579378008575
 50
56.80427837822344
 51
78.75833343709502
  0
POLYLINE
  8
0
  6
CONTINUOUS
 62
     7
 66
     1
  0
VERTEX
  8
0
  6
CONTINUOUS
 62
     7
 10
635.9918958797908
 20
113.049600916264
  0
VERTEX
  8
0
  6
CONTINUOUS
 62
     7
 10
636.0862924601495
 20
112.9798361257948
  0
VERTEX
  8
0
  6
CONTINUOUS
 62
     7
 10
636.1664584532996
 20
112.9028870511087
  0
VERTEX
  8
0
  6
CONTINUOUS
 62
     7
 10
636.2335542470179
 20
112.8036635984522
  0
VERTEX
  8
0
  6
CONTINUOUS
 62
     7
 10
636.25
 20
112.7343314791715
  0
SEQEND
  8
0
  6
CONTINUOUS
 62
     7
  0
LINE
  8
0
  6
CONTINUOUS
 62
     7
 10
635.25
 20
113.2414646786017
 11
601.2499999999999
 21
110.2668501187204
  0
LINE
  8
0
  6
CONTINUOUS
 62
     7
 10
636.9286162404602
 20
112.6214744513322
 11
636.25
 21
112.5621032234073
  0
LINE
  8
0
  6
CONTINUOUS
 62
     7
 10
637.1072324809207
 20
115.8000906917926
 11
637.1072324809207
 21
264.1999093082073
  0
LINE
  8
0
  6
CONTINUOUS
 62
     7
 10
638.5033800830872
 20
115.8000906917926
 11
638.5033800830872
 21
264.1999093082073
  0
LINE
  8
0
  6
CONTINUOUS
 62
     7
 10
646.5033800830872
 20
114.8961476021666
 11
646.5033800830872
 21
116.5
  0
LINE
  8
0
  6
CONTINUOUS
 62
     7
 10
646.5033800830872
 20
114.8961476021666
 11
645.4158914195614
 21
113.8086589386407
  0
LINE
  8
0
  6
CONTINUOUS
 62
     7
 10
645.5004404901011
 20
116.3250226729482
 11
645.4158914195614
 21
113.8086589386407
  0
LINE
  8
0
  6
CONTINUOUS
 62
     7
 10
645.5033800830872
 20
116.5
 11
645.5004404901011
 21
116.3250226729482
  0
LINE
  8
0
  6
CONTINUOUS
 62
     7
 10
639.5004404901011
 20
115.8000906917926
 11
639.4158914195614
 21
113.2837269574851
  0
LINE
  8
0
  6
CONTINUOUS
 62
     7
 10
639.4158914195614
 20
113.2837269574851
 11
638.5033800830872
 21
114.1962382939592
  0
LINE
  8
0
  6
CONTINUOUS
 62
     7
 10
641.5004404901011
 20
115.9750680188444
 11
641.4158914195614
 21
113.458704284537
  0
LINE
  8
0
  6
CONTINUOUS
 62
     7
 10
641.4158914195614
 20
113.458704284537
 11
640.5033800830872
 21
114.371215621011
  0
LINE
  8
0
  6
CONTINUOUS
 62
     7
 10
640.5033800830872
 20
114.371215621011
 11
640.5033800830872
 21
115.9750680188444
  0
LINE
  8
0
  6
CONTINUOUS
 62
     7
 10
645.4158914195614
 20
113.8086589386407
 11
644.5033800830872
 21
114.7211702751148
  0
LINE
  8
0
  6
CONTINUOUS
 62
     7
 10
644.5033800830872
 20
114.7211702751148
 11
644.5033800830872
 21
116.3250226729482
  0
LINE
  8
0
  6
CONTINUOUS
 62
     7
 10
640.5033800830872
 20
114.371215621011
 11
639.4158914195614
 21
113.2837269574851
  0
LINE
  8
0
  6
CONTINUOUS
 62
     7
 10
639.5033800830872
 20
115.9750680188444
 11
639.5004404901011
 21
115.8000906917926
  0
LINE
  8
0
  6
CONTINUOUS
 62
     7
 10
642.5033800830872
 20
114.5461929480629
 11
642.5033800830872
 21
116.1500453458963
  0
LINE
  8
0
  6
CONTINUOUS
 62
     7
 10
642.5033800830872
 20
114.5461929480629
 11
641.4158914195614
 21
113.458704284537
  0
LINE
  8
0
  6
CONTINUOUS
 62
     7
 10
641.5033800830872
 20
116.1500453458963
 11
641.5004404901011
 21
115.9750680188444
  0
LINE
  8
0
  6
CONTINUOUS
 62
     7
 10
643.5004404901011
 20
116.1500453458963
 11
643.4158914195614
 21
113.6336816115888
  0
LINE
  8
0
  6
CONTINUOUS
 62
     7
 10
643.4158914195614
 20
113.6336816115888
 11
642.5033800830872
 21
114.5461929480629
  0
LINE
  8
0
  6
CONTINUOUS
 62
     7
 10
644.5033800830872
 20
114.7211702751148
 11
643.4158914195614
 21
113.6336816115888
  0
LINE
  8
0
  6
CONTINUOUS
 62
     7
 10
643.5033800830872
 20
116.3250226729482
 11
643.5004404901011
 21
116.1500453458963
  0
LINE
  8
0
  6
CONTINUOUS
 62
     7
 10
640.5033800830872
 20
264.0249319811555
 11
640.5033800830872
 21
265.6287843789889
  0
LINE
  8
0
  6
CONTINUOUS
 62
     7
 10
639.5004404901011
 20
264.1999093082073
 11
639.5033800830872
 21
264.0249319811555
  0
LINE
  8
0
  6
CONTINUOUS
 62
     7
 10
639.4158914195614
 20
266.716273042515
 11
639.5004404901011
 21
264.1999093082073
  0
LINE
  8
0
  6
CONTINUOUS
 62
     7
 10
640.5033800830872
 20
265.6287843789889
 11
639.4158914195614
 21
266.716273042515
  0
LINE
  8
0
  6
CONTINUOUS
 62
     7
 10
643.4158914195614
 20
266.3663183884112
 11
643.5004404901011
 21
263.8499546541037
  0
LINE
  8
0
  6
CONTINUOUS
 62
     7
 10
642.5033800830872
 20
263.8499546541037
 11
642.5033800830872
 21
265.4538070519371
  0
LINE
  8
0
  6
CONTINUOUS
 62
     7
 10
643.4158914195614
 20
266.3663183884112
 11
642.5033800830872
 21
265.4538070519371
  0
LINE
  8
0
  6
CONTINUOUS
 62
     7
 10
641.4158914195614
 20
266.5412957154631
 11
641.5004404901011
 21
264.0249319811555
  0
LINE
  8
0
  6
CONTINUOUS
 62
     7
 10
641.4158914195614
 20
266.5412957154631
 11
640.5033800830872
 21
265.6287843789889
  0
LINE
  8
0
  6
CONTINUOUS
 62
     7
 10
639.4158914195614
 20
266.716273042515
 11
638.5033800830872
 21
265.8037617060408
  0
LINE
  8
0
  6
CONTINUOUS
 62
     7
 10
641.5004404901011
 20
264.0249319811555
 11
641.5033800830872
 21
263.8499546541037
  0
LINE
  8
0
  6
CONTINUOUS
 62
     7
 10
642.5033800830872
 20
265.4538070519371
 11
641.4158914195614
 21
266.5412957154631
  0
LINE
  8
0
  6
CONTINUOUS
 62
     7
 10
644.5033800830872
 20
263.6749773270519
 11
644.5033800830872
 21
265.2788297248853
  0
LINE
  8
0
  6
CONTINUOUS
 62
     7
 10
643.5004404901011
 20
263.8499546541037
 11
643.5033800830872
 21
263.6749773270519
  0
LINE
  8
0
  6
CONTINUOUS
 62
     7
 10
644.5033800830872
 20
265.2788297248853
 11
643.4158914195614
 21
266.3663183884112
  0
LINE
  8
0
  6
CONTINUOUS
 62
     7
 10
646.5033800830872
 20
263.5
 11
646.5033800830872
 21
265.1038523978334
  0
LINE
  8
0
  6
CONTINUOUS
 62
     7
 10
645.5004404901011
 20
263.6749773270519
 11
645.5033800830872
 21
263.5
  0
LINE
  8
0
  6
CONTINUOUS
 62
     7
 10
645.4158914195614
 20
266.1913410613594
 11
645.5004404901011
 21
263.6749773270519
  0
LINE
  8
0
  6
CONTINUOUS
 62
     7
 10
646.5033800830872
 20
265.1038523978334
 11
645.4158914195614
 21
266.1913410613594
  0
LINE
  8
0
  6
CONTINUOUS
 62
     7
 10
645.4158914195614
 20
266.1913410613594
 11
644.5033800830872
 21
265.2788297248853
  0
LINE
  8
0
  6
CONTINUOUS
 62
     7
 10
645.5033800830872
 20
263.5
 11
645.5033800830872
 21
116.5
  0
LINE
  8
0
  6
CONTINUOUS
 62
     7
 10
644.5033800830872
 20
116.3250226729482
 11
644.5033800830872
 21
263.6749773270519
  0
LINE
  8
0
  6
CONTINUOUS
 62
     7
 10
639.5033800830872
 20
264.0249319811555
 11
639.5033800830872
 21
115.9750680188444
  0
LINE
  8
0
  6
CONTINUOUS
 62
     7
 10
641.5033800830872
 20
263.8499546541037
 11
641.5033800830872
 21
116.1500453458963
  0
LINE
  8
0
  6
CONTINUOUS
 62
     7
 10
640.5033800830872
 20
115.9750680188444
 11
640.5033800830872
 21
264.0249319811555
  0
LINE
  8
0
  6
CONTINUOUS
 62
     7
 10
643.5033800830872
 20
263.6749773270519
 11
643.5033800830872
 21
116.3250226729482
  0
LINE
  8
0
  6
CONTINUOUS
 62
     7
 10
642.5033800830872
 20
116.1500453458963
 11
642.5033800830872
 21
263.8499546541037
  0
LINE
  8
0
  6
CONTINUOUS
 62
     7
 10
646.5033800830872
 20
116.5
 11
646.5033800830872
 21
263.5
  0
ARC
  8
0
  6
CONTINUOUS
 62
     7
 10
604.2499999999999
 20
104.7510064779477
 40
3.000000000000003
 50
95.00000000000003
 51
180.0
  0
ARC
  8
0
  6
CONTINUOUS
 62
     7
 10
604.2499999999999
 20
275.2489935220522
 40
3.000000000000003
 50
180.0
 51
265.0
  0
LINE
  8
0
  6
CONTINUOUS
 62
     7
 10
603.988532771757
 20
272.260409427777
 11
635.3371557427477
 21
269.517760300667
  0
LINE
  8
0
  6
CONTINUOUS
 62
     7
 10
636.25
 20
112.7343314791715
 11
636.25
 21
111.4784343974248
  0
LINE
  8
0
  6
CONTINUOUS
 62
     7
 10
636.25
 20
268.5215656025752
 11
636.25
 21
267.2656685208286
  0
ARC
  8
0
  6
CONTINUOUS
 62
     7
 10
635.25
 20
111.4784343974248
 40
1.000000000000001
 50
275.0000000000001
 51
0.0
  0
LINE
  8
0
  6
CONTINUOUS
 62
     7
 10
635.3371557427477
 20
110.482239699333
 11
603.988532771757
 21
107.739590572223
  0
ARC
  8
0
  6
CONTINUOUS
 62
     7
 10
635.25
 20
268.5215656025752
 40
1.000000000000001
 50
0.0000000000000035
 51
84.99999999999986
  0
LINE
  8
0
  6
CONTINUOUS
 62
     7
 10
648.25
 20
114.8961476021666
 11
646.5033800830872
 21
114.8961476021666
  0
LINE
  8
0
  6
CONTINUOUS
 62
     7
 10
649.25
 20
263.5
 11
649.25
 21
116.5
  0
ARC
  8
0
  6
CONTINUOUS
 62
     7
 10
648.25
 20
264.1038523978334
 40
1.000000000000001
 50
0.0
 51
90.0
  0
LINE
  8
0
  6
CONTINUOUS
 62
     7
 10
649.25
 20
264.1038523978334
 11
649.25
 21
263.5
  0
LINE
  8
0
  6
CONTINUOUS
 62
     7
 10
649.25
 20
116.5000000000001
 11
649.25
 21
115.8961476021666
  0
ARC
  8
0
  6
CONTINUOUS
 62
     7
 10
648.25
 20
115.8961476021666
 40
1.000000000000001
 50
270.0
 51
0.0
  0
LINE
  8
0
  6
CONTINUOUS
 62
     7
 10
648.25
 20
265.1038523978334
 11
646.5033800830872
 21
265.1038523978334
  0
ENDBLK
  8
0
  0
ENDSEC
  0
SECTION
  2
ENTITIES
  0
TEXT
  8
0
  6
CONTINUOUS
 62
     7
 10
539.2173971489309
 20
-21.6715799674878
 40
3.0
  1
SB-1YSA-N
  0
LINE
  8
0
  6
CENTER
 62
     1
 10
465.0000000000001
 20
88.5
 11
465.0000000000001
 21
291.5
  0
LINE
  8
0
  6
CENTER
 62
     1
 10
465.0
 20
0.7499999999999798
 11
465.0
 21
49.24999999999997
  0
LINE
  8
0
  6
CENTER
 62
     1
 10
408.5
 20
190.0
 11
521.5000000000001
 21
190.0
  0
LINE
  8
0
  6
CENTER
 62
     1
 10
649.25
 20
190.0
 11
600.75
 21
190.0
  0
INSERT
  8
0
  6
CONTINUOUS
 62
     7
  2
D_FRAME_VIEW_1510
 10
0.0
 20
0.0
 30
0.0
  0
INSERT
  8
0
  6
CONTINUOUS
 62
     7
  2
D_FRAME_VIEW_2115
 10
0.0
 20
0.0
 30
0.0
  0
INSERT
  8
0
  6
CONTINUOUS
 62
     7
  2
D_FRAME_VIEW_1961
 10
0.0
 20
0.0
 30
0.0
  0
ENDSEC
  0
EOF
