  0
SECTION
  2
HEADER
  9
$ACADVER
  1
AC1004
  9
$INSBASE
 10
0.0
 20
0.0
  9
$EXTMIN
 10
372.0
 20
-69.32954545454547
  9
$EXTMAX
 10
647.0
 20
280.0
  9
$LIMMIN
 10
0.0
 20
0.0
  9
$LIMMAX
 10
12.0
 20
9.0
  9
$ORTHOMODE
 70
     0
  9
$REGENMODE
 70
     1
  9
$FILLMODE
 70
     1
  9
$QTEXTMODE
 70
     0
  9
$DRAGMODE
 70
     2
  9
$LTSCALE
 40
1.0
  9
$OSMODE
 70
    37
  9
$ATTMODE
 70
     1
  9
$TEXTSIZE
 40
0.2
  9
$TRACEWID
 40
0.05
  9
$TEXTSTYLE
  7
STANDARD
  9
$CLAYER
  8
0
  9
$CELTYPE
  6
BYLAYER
  9
$CECOLOR
 62
   256
  9
$DIMSCALE
 40
1.0
  9
$DIMASZ
 40
3.0
  9
$DIMEXO
 40
0.0625
  9
$DIMDLI
 40
0.38
  9
$DIMRND
 40
0.0
  9
$DIMDLE
 40
0.0
  9
$DIMEXE
 40
1.5
  9
$DIMTP
 40
0.0
  9
$DIMTM
 40
0.0
  9
$DIMTXT
 40
3.0
  9
$DIMCEN
 40
0.09
  9
$DIMTSZ
 40
0.0
  9
$DIMTOL
 70
     0
  9
$DIMLIM
 70
     0
  9
$DIMTIH
 70
     1
  9
$DIMTOH
 70
     1
  9
$DIMSE1
 70
     0
  9
$DIMSE2
 70
     0
  9
$DIMTAD
 70
     1
  9
$DIMZIN
 70
     0
  9
$DIMBLK
  1

  9
$DIMASO
 70
     1
  9
$DIMSHO
 70
     1
  9
$DIMPOST
  1

  9
$DIMAPOST
  1

  9
$DIMALT
 70
     0
  9
$DIMALTD
 70
     2
  9
$DIMALTF
 40
25.4
  9
$DIMLFAC
 40
1.0
  9
$DIMTOFL
 70
     0
  9
$DIMTVP
 40
0.0
  9
$DIMTIX
 70
     0
  9
$DIMSOXD
 70
     0
  9
$DIMSAH
 70
     0
  9
$DIMBLK1
  1

  9
$DIMBLK2
  1

  9
$LUNITS
 70
     2
  9
$LUPREC
 70
     4
  9
$SKETCHINC
 40
0.1
  9
$FILLETRAD
 40
0.5
  9
$AUNITS
 70
     0
  9
$AUPREC
 70
     0
  9
$MENU
  1
.
  9
$ELEVATION
 40
0.0
  9
$THICKNESS
 40
0.0
  9
$LIMCHECK
 70
     0
  9
$CHAMFERA
 40
0.0
  9
$CHAMFERB
 40
0.0
  9
$SKPOLY
 70
     0
  9
$TDCREATE
 40
2460613.401379086
  9
$TDUPDATE
 40
2460613.401379248
  9
$TDINDWG
 40
0.0000000116
  9
$TDUSRTIMER
 40
0.0000000116
  9
$USRTIMER
 70
     1
  9
$ANGBASE
 50
0.0
  9
$ANGDIR
 70
     0
  9
$PDMODE
 70
     0
  9
$PDSIZE
 40
0.0
  9
$PLINEWID
 40
0.0
  9
$COORDS
 70
     1
  9
$SPLFRAME
 70
     0
  9
$SPLINETYPE
 70
     6
  9
$SPLINESEGS
 70
     8
  9
$ATTDIA
 70
     0
  9
$ATTREQ
 70
     1
  9
$SURFTAB1
 70
     6
  9
$SURFTAB2
 70
     6
  9
$SURFTYPE
 70
     6
  9
$SURFU
 70
     6
  9
$SURFV
 70
     6
  9
$UCSNAME
  2

  9
$UCSORG
 10
0.0
 20
0.0
 30
0.0
  9
$UCSXDIR
 10
1.0
 20
0.0
 30
0.0
  9
$UCSYDIR
 10
0.0
 20
1.0
 30
0.0
  9
$USERI1
 70
     0
  9
$USERI2
 70
     0
  9
$USERI3
 70
     0
  9
$USERI4
 70
     0
  9
$USERI5
 70
     0
  9
$USERR1
 40
0.0
  9
$USERR2
 40
0.0
  9
$USERR3
 40
0.0
  9
$USERR4
 40
0.0
  9
$USERR5
 40
0.0
  9
$WORLDVIEW
 70
     1
  0
ENDSEC
  0
SECTION
  2
TABLES
  0
TABLE
  2
LTYPE
 70
     2
  0
LTYPE
  2
CONTINUOUS
 70
     0
  3
Solid line
 72
    65
 73
     0
 40
0.0
  0
LTYPE
  2
CENTER
 70
     0
  3

 72
    65
 73
     0
 40
0.0
  0
ENDTAB
  0
TABLE
  2
LAYER
 70
     2
  0
LAYER
  2
0
 70
     0
 62
     7
  6
CONTINUOUS
  0
LAYER
  2
1
 70
     0
 62
     7
  6
CONTINUOUS
  0
ENDTAB
  0
TABLE
  2
STYLE
 70
     2
  0
STYLE
  2
STANDARD
 70
     0
 40
0.0
 41
1.0
 50
0.0
 71
     0
 42
0.2
  3
txt
  4

  0
STYLE
  2
ＭＳ_ゴシック
 70
     0
 40
0.0
 41
1.0
 50
0.0
 71
     0
 42
0.2
  3
ＭＳ ゴシック.shx
  4

  0
ENDTAB
  0
TABLE
  2
VIEW
 70
     0
  0
ENDTAB
  0
ENDSEC
  0
SECTION
  2
BLOCKS
  0
BLOCK
  8
0
  2
D_FRAME_VIEW_1979
 70
     0
 10
0.0
 20
0.0
  0
LINE
  8
1
  6
CONTINUOUS
 62
     7
 10
580.67
 20
265.7500000000001
 11
580.67
 21
55.74999999999999
  0
LINE
  8
1
  6
CONTINUOUS
 62
     7
 10
580.8299999999999
 20
265.7500000000001
 11
580.83
 21
251.4461524227066
  0
LINE
  8
1
  6
CONTINUOUS
 62
     7
 10
580.67
 20
270.7500000000001
 11
580.67
 21
265.7500000000001
  0
LINE
  8
1
  6
CONTINUOUS
 62
     7
 10
580.67
 20
270.75
 11
580.8299999999999
 21
270.75
  0
LINE
  8
1
  6
CONTINUOUS
 62
     7
 10
580.8299999999999
 20
270.7500000000001
 11
580.8299999999999
 21
265.7500000000001
  0
LINE
  8
1
  6
CONTINUOUS
 62
     7
 10
580.67
 20
50.75
 11
580.83
 21
50.75
  0
LINE
  8
1
  6
CONTINUOUS
 62
     7
 10
580.67
 20
55.74999999999999
 11
580.67
 21
50.75
  0
LINE
  8
1
  6
CONTINUOUS
 62
     7
 10
581.33
 20
246.25
 11
581.33
 21
55.24999999999999
  0
LINE
  8
1
  6
CONTINUOUS
 62
     7
 10
580.83
 20
123.75
 11
580.83
 21
55.24999999999999
  0
LINE
  8
1
  6
CONTINUOUS
 62
     7
 10
580.83
 20
150.75
 11
580.83
 21
123.75
  0
LINE
  8
1
  6
CONTINUOUS
 62
     7
 10
580.83
 20
177.75
 11
580.83
 21
150.75
  0
LINE
  8
1
  6
CONTINUOUS
 62
     7
 10
580.83
 20
246.25
 11
580.83
 21
177.75
  0
LINE
  8
1
  6
CONTINUOUS
 62
     7
 10
581.33
 20
49.24999999999999
 11
580.83
 21
49.24999999999999
  0
LINE
  8
1
  6
CONTINUOUS
 62
     7
 10
580.83
 20
49.24999999999999
 11
580.83
 21
55.24999999999999
  0
LINE
  8
1
  6
CONTINUOUS
 62
     7
 10
581.33
 20
55.24999999999999
 11
581.33
 21
49.24999999999999
  0
LINE
  8
1
  6
CONTINUOUS
 62
     7
 10
580.8299999999999
 20
252.25
 11
581.33
 21
252.25
  0
LINE
  8
1
  6
CONTINUOUS
 62
     7
 10
580.83
 20
246.25
 11
580.83
 21
251.4461524227066
  0
LINE
  8
1
  6
CONTINUOUS
 62
     7
 10
581.33
 20
252.25
 11
581.33
 21
246.25
  0
LINE
  8
1
  6
CONTINUOUS
 62
     7
 10
581.33
 20
230.4831498812795
 11
615.33
 21
227.5085353213983
  0
POLYLINE
  8
1
  6
CONTINUOUS
 62
     7
 66
     1
  0
VERTEX
  8
1
  6
CONTINUOUS
 62
     7
 10
616.33
 20
228.0156685208285
  0
VERTEX
  8
1
  6
CONTINUOUS
 62
     7
 10
616.294005902896
 20
227.9098229597487
  0
VERTEX
  8
1
  6
CONTINUOUS
 62
     7
 10
616.212497329609
 20
227.811695134173
  0
VERTEX
  8
1
  6
CONTINUOUS
 62
     7
 10
616.1159494909813
 20
227.7309037534556
  0
VERTEX
  8
1
  6
CONTINUOUS
 62
     7
 10
616.0246461960369
 20
227.6709622017119
  0
VERTEX
  8
1
  6
CONTINUOUS
 62
     7
 10
615.9168455251761
 20
227.6144200522965
  0
SEQEND
  8
1
  6
CONTINUOUS
 62
     7
  0
ARC
  8
1
  6
CONTINUOUS
 62
     7
 10
615.4266580515862
 20
228.6520078245214
 40
1.147550497509873
 50
265.1682580242989
 51
295.287450280921
  0
LINE
  8
1
  6
CONTINUOUS
 62
     7
 10
616.33
 20
228.1878967765927
 11
617.0086162404604
 21
228.1285255486678
  0
LINE
  8
1
  6
CONTINUOUS
 62
     7
 10
617.1833910644598
 20
225.1017752202681
 11
617.0086162404604
 21
228.1285255486678
  0
LINE
  8
1
  6
CONTINUOUS
 62
     7
 10
617.1872324809208
 20
224.9499093082074
 11
617.1833910644598
 21
225.1017752202681
  0
LINE
  8
1
  6
CONTINUOUS
 62
     7
 10
618.5833800830873
 20
226.5537617060408
 11
617.0086162404604
 21
228.1285255486678
  0
LINE
  8
1
  6
CONTINUOUS
 62
     7
 10
618.5833800830873
 20
224.9499093082074
 11
618.5833800830873
 21
226.5537617060408
  0
LINE
  8
1
  6
CONTINUOUS
 62
     7
 10
617.1833910644598
 20
76.39822477973193
 11
617.1872324809208
 21
76.55009069179259
  0
LINE
  8
1
  6
CONTINUOUS
 62
     7
 10
618.5833800830873
 20
74.94623829395915
 11
618.5833800830873
 21
76.55009069179259
  0
LINE
  8
1
  6
CONTINUOUS
 62
     7
 10
618.5833800830873
 20
74.94623829395915
 11
617.0086162404604
 21
73.3714744513322
  0
LINE
  8
1
  6
CONTINUOUS
 62
     7
 10
617.0086162404604
 20
73.3714744513322
 11
617.1833910644598
 21
76.39822477973193
  0
POLYLINE
  8
1
  6
CONTINUOUS
 62
     7
 66
     1
  0
VERTEX
  8
1
  6
CONTINUOUS
 62
     7
 10
615.33
 20
73.99146467860173
  0
VERTEX
  8
1
  6
CONTINUOUS
 62
     7
 10
615.4310249168751
 20
73.99571578491326
  0
VERTEX
  8
1
  6
CONTINUOUS
 62
     7
 10
615.5331919966443
 20
73.99067857081845
  0
VERTEX
  8
1
  6
CONTINUOUS
 62
     7
 10
615.6433396375895
 20
73.97465461405109
  0
SEQEND
  8
1
  6
CONTINUOUS
 62
     7
  0
ARC
  8
1
  6
CONTINUOUS
 62
     7
 10
615.406365271678
 20
72.78239777337431
 40
1.215579378008575
 50
56.80427837822344
 51
78.75833343709502
  0
POLYLINE
  8
1
  6
CONTINUOUS
 62
     7
 66
     1
  0
VERTEX
  8
1
  6
CONTINUOUS
 62
     7
 10
616.071895879791
 20
73.79960091626397
  0
VERTEX
  8
1
  6
CONTINUOUS
 62
     7
 10
616.1662924601495
 20
73.72983612579476
  0
VERTEX
  8
1
  6
CONTINUOUS
 62
     7
 10
616.2464584532996
 20
73.65288705110866
  0
VERTEX
  8
1
  6
CONTINUOUS
 62
     7
 10
616.3135542470179
 20
73.55366359845223
  0
VERTEX
  8
1
  6
CONTINUOUS
 62
     7
 10
616.33
 20
73.48433147917146
  0
SEQEND
  8
1
  6
CONTINUOUS
 62
     7
  0
LINE
  8
1
  6
CONTINUOUS
 62
     7
 10
615.33
 20
73.99146467860173
 11
581.33
 21
71.01685011872044
  0
LINE
  8
1
  6
CONTINUOUS
 62
     7
 10
617.0086162404604
 20
73.3714744513322
 11
616.33
 21
73.31210322340725
  0
LINE
  8
1
  6
CONTINUOUS
 62
     7
 10
617.1872324809208
 20
76.55009069179259
 11
617.1872324809208
 21
224.9499093082073
  0
LINE
  8
1
  6
CONTINUOUS
 62
     7
 10
618.5833800830873
 20
76.55009069179259
 11
618.5833800830873
 21
224.9499093082073
  0
LINE
  8
1
  6
CONTINUOUS
 62
     7
 10
620.5833800830873
 20
75.12121562101102
 11
620.5833800830873
 21
76.72506801884442
  0
LINE
  8
1
  6
CONTINUOUS
 62
     7
 10
620.5833800830873
 20
75.12121562101102
 11
619.4958914195614
 21
74.03372695748507
  0
LINE
  8
1
  6
CONTINUOUS
 62
     7
 10
619.5804404901012
 20
76.55009069179259
 11
619.4958914195614
 21
74.03372695748507
  0
LINE
  8
1
  6
CONTINUOUS
 62
     7
 10
619.5833800830873
 20
76.72506801884442
 11
619.5804404901012
 21
76.55009069179259
  0
LINE
  8
1
  6
CONTINUOUS
 62
     7
 10
626.5833800830874
 20
75.64614760216655
 11
626.5833800830874
 21
77.25000000000004
  0
LINE
  8
1
  6
CONTINUOUS
 62
     7
 10
626.5833800830874
 20
75.64614760216656
 11
625.4958914195614
 21
74.55865893864065
  0
LINE
  8
1
  6
CONTINUOUS
 62
     7
 10
625.5804404901012
 20
77.07502267294817
 11
625.4958914195614
 21
74.55865893864065
  0
LINE
  8
1
  6
CONTINUOUS
 62
     7
 10
625.5833800830874
 20
77.25000000000004
 11
625.5804404901012
 21
77.07502267294817
  0
LINE
  8
1
  6
CONTINUOUS
 62
     7
 10
622.5833800830874
 20
75.2961929480629
 11
622.5833800830874
 21
76.90004534589632
  0
LINE
  8
1
  6
CONTINUOUS
 62
     7
 10
622.5833800830874
 20
75.2961929480629
 11
621.4958914195614
 21
74.20870428453696
  0
LINE
  8
1
  6
CONTINUOUS
 62
     7
 10
621.5804404901012
 20
76.72506801884442
 11
621.4958914195614
 21
74.20870428453696
  0
LINE
  8
1
  6
CONTINUOUS
 62
     7
 10
621.5833800830874
 20
76.90004534589632
 11
621.5804404901012
 21
76.72506801884442
  0
LINE
  8
1
  6
CONTINUOUS
 62
     7
 10
619.4958914195614
 20
74.03372695748507
 11
618.5833800830873
 21
74.94623829395915
  0
LINE
  8
1
  6
CONTINUOUS
 62
     7
 10
621.4958914195614
 20
74.20870428453696
 11
620.5833800830873
 21
75.12121562101102
  0
LINE
  8
1
  6
CONTINUOUS
 62
     7
 10
625.4958914195614
 20
74.55865893864065
 11
624.5833800830874
 21
75.47117027511476
  0
LINE
  8
1
  6
CONTINUOUS
 62
     7
 10
624.5833800830874
 20
75.47117027511476
 11
624.5833800830874
 21
77.07502267294817
  0
LINE
  8
1
  6
CONTINUOUS
 62
     7
 10
623.5804404901012
 20
76.90004534589632
 11
623.4958914195614
 21
74.38368161158883
  0
LINE
  8
1
  6
CONTINUOUS
 62
     7
 10
623.4958914195614
 20
74.38368161158883
 11
622.5833800830874
 21
75.2961929480629
  0
LINE
  8
1
  6
CONTINUOUS
 62
     7
 10
624.5833800830874
 20
75.47117027511476
 11
623.4958914195614
 21
74.38368161158883
  0
LINE
  8
1
  6
CONTINUOUS
 62
     7
 10
623.5833800830874
 20
77.07502267294817
 11
623.5804404901012
 21
76.90004534589632
  0
LINE
  8
1
  6
CONTINUOUS
 62
     7
 10
624.5833800830874
 20
224.4249773270519
 11
624.5833800830874
 21
226.0288297248853
  0
LINE
  8
1
  6
CONTINUOUS
 62
     7
 10
623.5804404901012
 20
224.5999546541037
 11
623.5833800830874
 21
224.4249773270519
  0
LINE
  8
1
  6
CONTINUOUS
 62
     7
 10
623.4958914195614
 20
227.1163183884112
 11
623.5804404901012
 21
224.5999546541037
  0
LINE
  8
1
  6
CONTINUOUS
 62
     7
 10
624.5833800830874
 20
226.0288297248852
 11
623.4958914195614
 21
227.1163183884112
  0
LINE
  8
1
  6
CONTINUOUS
 62
     7
 10
621.4958914195614
 20
227.2912957154631
 11
621.5804404901012
 21
224.7749319811556
  0
LINE
  8
1
  6
CONTINUOUS
 62
     7
 10
620.5833800830873
 20
224.7749319811556
 11
620.5833800830873
 21
226.3787843789889
  0
LINE
  8
1
  6
CONTINUOUS
 62
     7
 10
621.4958914195614
 20
227.2912957154631
 11
620.5833800830873
 21
226.3787843789889
  0
LINE
  8
1
  6
CONTINUOUS
 62
     7
 10
622.5833800830874
 20
224.5999546541037
 11
622.5833800830874
 21
226.2038070519371
  0
LINE
  8
1
  6
CONTINUOUS
 62
     7
 10
621.5804404901012
 20
224.7749319811556
 11
621.5833800830874
 21
224.5999546541037
  0
LINE
  8
1
  6
CONTINUOUS
 62
     7
 10
622.5833800830874
 20
226.2038070519371
 11
621.4958914195614
 21
227.2912957154631
  0
LINE
  8
1
  6
CONTINUOUS
 62
     7
 10
619.5804404901012
 20
224.9499093082074
 11
619.5833800830873
 21
224.7749319811555
  0
LINE
  8
1
  6
CONTINUOUS
 62
     7
 10
619.4958914195614
 20
227.4662730425149
 11
619.5804404901012
 21
224.9499093082074
  0
LINE
  8
1
  6
CONTINUOUS
 62
     7
 10
620.5833800830873
 20
226.3787843789889
 11
619.4958914195614
 21
227.4662730425149
  0
LINE
  8
1
  6
CONTINUOUS
 62
     7
 10
619.4958914195614
 20
227.4662730425149
 11
618.5833800830873
 21
226.5537617060408
  0
LINE
  8
1
  6
CONTINUOUS
 62
     7
 10
623.4958914195614
 20
227.1163183884112
 11
622.5833800830874
 21
226.2038070519371
  0
LINE
  8
1
  6
CONTINUOUS
 62
     7
 10
626.5833800830874
 20
224.25
 11
626.5833800830874
 21
225.8538523978334
  0
LINE
  8
1
  6
CONTINUOUS
 62
     7
 10
625.5804404901012
 20
224.4249773270519
 11
625.5833800830874
 21
224.25
  0
LINE
  8
1
  6
CONTINUOUS
 62
     7
 10
625.4958914195614
 20
226.9413410613594
 11
625.5804404901012
 21
224.4249773270519
  0
LINE
  8
1
  6
CONTINUOUS
 62
     7
 10
626.5833800830874
 20
225.8538523978334
 11
625.4958914195614
 21
226.9413410613594
  0
LINE
  8
1
  6
CONTINUOUS
 62
     7
 10
625.4958914195614
 20
226.9413410613594
 11
624.5833800830874
 21
226.0288297248852
  0
LINE
  8
1
  6
CONTINUOUS
 62
     7
 10
625.5833800830874
 20
224.25
 11
625.5833800830874
 21
77.25000000000004
  0
LINE
  8
1
  6
CONTINUOUS
 62
     7
 10
624.5833800830874
 20
77.07502267294817
 11
624.5833800830874
 21
224.4249773270519
  0
LINE
  8
1
  6
CONTINUOUS
 62
     7
 10
619.5833800830873
 20
224.7749319811555
 11
619.5833800830873
 21
76.72506801884442
  0
LINE
  8
1
  6
CONTINUOUS
 62
     7
 10
621.5833800830874
 20
224.5999546541037
 11
621.5833800830874
 21
76.90004534589632
  0
LINE
  8
1
  6
CONTINUOUS
 62
     7
 10
620.5833800830873
 20
76.72506801884442
 11
620.5833800830873
 21
224.7749319811556
  0
LINE
  8
1
  6
CONTINUOUS
 62
     7
 10
623.5833800830874
 20
224.4249773270519
 11
623.5833800830874
 21
77.07502267294817
  0
LINE
  8
1
  6
CONTINUOUS
 62
     7
 10
622.5833800830874
 20
76.90004534589632
 11
622.5833800830874
 21
224.5999546541037
  0
LINE
  8
1
  6
CONTINUOUS
 62
     7
 10
626.5833800830874
 20
77.25000000000004
 11
626.5833800830874
 21
224.25
  0
ARC
  8
1
  6
CONTINUOUS
 62
     7
 10
584.33
 20
65.50100647794771
 40
3.000000000000003
 50
95.00000000000003
 51
180.0
  0
ARC
  8
1
  6
CONTINUOUS
 62
     7
 10
584.33
 20
235.9989935220522
 40
3.000000000000003
 50
180.0
 51
265.0
  0
LINE
  8
1
  6
CONTINUOUS
 62
     7
 10
616.33
 20
73.48433147917146
 11
616.33
 21
72.22843439742475
  0
LINE
  8
1
  6
CONTINUOUS
 62
     7
 10
615.4171557427477
 20
71.23223969933301
 11
584.0685327717571
 21
68.48959057222295
  0
LINE
  8
1
  6
CONTINUOUS
 62
     7
 10
616.33
 20
229.2715656025752
 11
616.33
 21
228.0156685208285
  0
LINE
  8
1
  6
CONTINUOUS
 62
     7
 10
584.0685327717571
 20
233.010409427777
 11
615.4171557427477
 21
230.267760300667
  0
ARC
  8
1
  6
CONTINUOUS
 62
     7
 10
615.33
 20
229.2715656025752
 40
1.000000000000001
 50
0.0000000000000035
 51
84.99999999999986
  0
ARC
  8
1
  6
CONTINUOUS
 62
     7
 10
615.33
 20
72.22843439742475
 40
1.000000000000001
 50
275.0000000000001
 51
0.0
  0
LINE
  8
1
  6
CONTINUOUS
 62
     7
 10
628.33
 20
75.64614760216656
 11
626.5833800830874
 21
75.64614760216656
  0
LINE
  8
1
  6
CONTINUOUS
 62
     7
 10
629.33
 20
224.25
 11
629.33
 21
77.25000000000004
  0
ARC
  8
1
  6
CONTINUOUS
 62
     7
 10
628.33
 20
224.8538523978334
 40
1.000000000000001
 50
0.0
 51
90.0
  0
LINE
  8
1
  6
CONTINUOUS
 62
     7
 10
629.33
 20
224.8538523978334
 11
629.33
 21
224.25
  0
LINE
  8
1
  6
CONTINUOUS
 62
     7
 10
629.33
 20
77.25000000000006
 11
629.33
 21
76.64614760216656
  0
ARC
  8
1
  6
CONTINUOUS
 62
     7
 10
628.33
 20
76.64614760216656
 40
1.000000000000001
 50
270.0
 51
0.0
  0
LINE
  8
1
  6
CONTINUOUS
 62
     7
 10
628.33
 20
225.8538523978334
 11
626.5833800830874
 21
225.8538523978334
  0
ENDBLK
  8
0
  0
BLOCK
  8
0
  2
D_FRAME_VIEW_2138
 70
     0
 10
0.0
 20
0.0
  0
LINE
  8
1
  6
CONTINUOUS
 62
     7
 10
396.5
 20
4.329999999999998
 11
396.5
 21
4.169999999999998
  0
LINE
  8
1
  6
CONTINUOUS
 62
     7
 10
401.4999999999999
 20
4.329999999999998
 11
396.5
 21
4.329999999999998
  0
LINE
  8
1
  6
CONTINUOUS
 62
     7
 10
498.5
 20
4.329999999999997
 11
401.4999999999999
 21
4.329999999999997
  0
LINE
  8
1
  6
CONTINUOUS
 62
     7
 10
503.5000000000001
 20
4.329999999999998
 11
503.5000000000001
 21
4.169999999999998
  0
LINE
  8
1
  6
CONTINUOUS
 62
     7
 10
503.5000000000001
 20
4.329999999999998
 11
498.5
 21
4.329999999999998
  0
LINE
  8
1
  6
CONTINUOUS
 62
     7
 10
393.5
 20
3.670000000000004
 11
393.5
 21
4.170000000000004
  0
LINE
  8
1
  6
CONTINUOUS
 62
     7
 10
399.5
 20
3.670000000000004
 11
393.5
 21
3.670000000000004
  0
LINE
  8
1
  6
CONTINUOUS
 62
     7
 10
393.5
 20
4.170000000000004
 11
399.5
 21
4.170000000000004
  0
LINE
  8
1
  6
CONTINUOUS
 62
     7
 10
500.5000000000001
 20
4.169999999999997
 11
450.0
 21
4.169999999999999
  0
LINE
  8
1
  6
CONTINUOUS
 62
     7
 10
500.5000000000001
 20
3.669999999999997
 11
399.5
 21
3.669999999999997
  0
LINE
  8
1
  6
CONTINUOUS
 62
     7
 10
450.0
 20
4.169999999999999
 11
399.5
 21
4.169999999999997
  0
LINE
  8
1
  6
CONTINUOUS
 62
     7
 10
506.4999999999999
 20
4.170000000000004
 11
506.4999999999999
 21
3.670000000000004
  0
LINE
  8
1
  6
CONTINUOUS
 62
     7
 10
500.5000000000001
 20
4.170000000000004
 11
506.4999999999999
 21
4.170000000000004
  0
LINE
  8
1
  6
CONTINUOUS
 62
     7
 10
506.4999999999999
 20
3.670000000000004
 11
500.5000000000001
 21
3.670000000000004
  0
LINE
  8
1
  6
CONTINUOUS
 62
     7
 10
483.0000000000001
 20
3.669999999999975
 11
483.0000000000001
 21
1.01862297099064
  0
LINE
  8
1
  6
CONTINUOUS
 62
     7
 10
486.0000000000001
 20
1.018622970990638
 11
486.0000000000001
 21
3.669999999999973
  0
LINE
  8
1
  6
CONTINUOUS
 62
     7
 10
448.5
 20
3.669999999999975
 11
448.5
 21
1.01862297099064
  0
LINE
  8
1
  6
CONTINUOUS
 62
     7
 10
414.0
 20
3.669999999999975
 11
414.0
 21
1.01862297099064
  0
LINE
  8
1
  6
CONTINUOUS
 62
     7
 10
417.0000000000001
 20
1.018622970990638
 11
417.0000000000001
 21
3.669999999999973
  0
LINE
  8
1
  6
CONTINUOUS
 62
     7
 10
451.5
 20
1.018622970990638
 11
451.5
 21
3.669999999999973
  0
LINE
  8
1
  6
CONTINUOUS
 62
     7
 10
417.0000000000001
 20
1.018622970990639
 11
417.0000000000001
 21
-30.33
  0
LINE
  8
1
  6
CONTINUOUS
 62
     7
 10
486.0000000000001
 20
1.018622970990639
 11
486.0000000000001
 21
-30.33
  0
LINE
  8
1
  6
CONTINUOUS
 62
     7
 10
414.0
 20
-30.32999999999999
 11
414.0
 21
1.018622970990642
  0
LINE
  8
1
  6
CONTINUOUS
 62
     7
 10
483.0000000000001
 20
-30.32999999999999
 11
483.0000000000001
 21
1.018622970990642
  0
LINE
  8
1
  6
CONTINUOUS
 62
     7
 10
451.5
 20
1.018622970990639
 11
451.5
 21
-30.33
  0
LINE
  8
1
  6
CONTINUOUS
 62
     7
 10
448.5
 20
-30.32999999999999
 11
448.5
 21
1.018622970990642
  0
LINE
  8
1
  6
CONTINUOUS
 62
     7
 10
476.3526101624209
 20
-4.032942458772069
 11
476.2789145363246
 21
-3.978247748623831
  0
ARC
  8
1
  6
CONTINUOUS
 62
     7
 10
467.5025298205676
 20
-15.86613708112144
 40
14.77656392605135
 50
53.56293299254378
 51
87.2166642707929
  0
LINE
  8
1
  6
CONTINUOUS
 62
     7
 10
468.2200689568158
 20
-1.107005025047332
 11
467.5
 21
-1.089291133442925
  0
ARC
  8
1
  6
CONTINUOUS
 62
     7
 10
467.5000060697632
 20
-15.87669558742136
 40
14.78658471026126
 50
126.6837982253031
 51
53.22375207760268
  0
LINE
  8
1
  6
CONTINUOUS
 62
     7
 10
467.5
 20
-1.089291133442925
 11
466.7525220588905
 21
-1.108378171000348
  0
ARC
  8
1
  6
CONTINUOUS
 62
     7
 10
467.4990299094236
 20
-15.87007717400254
 40
14.78056262211096
 50
92.8950152535162
 51
125.5831743811909
  0
LINE
  8
1
  6
CONTINUOUS
 62
     7
 10
458.898454526945
 20
-3.849464272970968
 11
458.6665239997945
 21
-4.018673749303725
  0
LINE
  8
1
  6
CONTINUOUS
 62
     7
 10
416.0
 20
-32.00861624046032
 11
484.0
 21
-32.00861624046032
  0
LINE
  8
1
  6
CONTINUOUS
 62
     7
 10
441.3334670542202
 20
-4.01866708928981
 11
441.2265846975529
 21
-3.939836137092113
  0
ARC
  8
1
  6
CONTINUOUS
 62
     7
 10
432.4978470258245
 20
-15.87883025434171
 40
14.78953825761885
 50
53.82902734114374
 51
88.475422900312
  0
LINE
  8
1
  6
CONTINUOUS
 62
     7
 10
432.8913337863643
 20
-1.094527428612956
 11
432.5000000000001
 21
-1.089291133442925
  0
ARC
  8
1
  6
CONTINUOUS
 62
     7
 10
432.499993886814
 20
-15.87665087901187
 40
14.78654887918735
 50
126.7764193596221
 51
53.31614136298947
  0
LINE
  8
1
  6
CONTINUOUS
 62
     7
 10
432.5000000000001
 20
-1.089291133442925
 11
431.7790773123916
 21
-1.107047022755718
  0
ARC
  8
1
  6
CONTINUOUS
 62
     7
 10
432.4980293064015
 20
-15.86708029202148
 40
14.77753274669093
 50
92.78863755451363
 51
125.4987333445579
  0
LINE
  8
1
  6
CONTINUOUS
 62
     7
 10
423.916938328973
 20
-3.836271852160979
 11
423.6473758078295
 21
-4.032952938578179
  0
LINE
  8
1
  6
CONTINUOUS
 62
     7
 10
458.6562977010798
 20
-4.02628495550385
 11
458.9075741043475
 21
-3.842853811773311
  0
ARC
  8
1
  6
CONTINUOUS
 62
     7
 10
467.4976568540632
 20
-15.86023068726219
 40
14.77182685433659
 50
92.73847003715741
 51
125.557379461493
  0
LINE
  8
1
  6
CONTINUOUS
 62
     7
 10
467.4999999999999
 20
-1.088137316146086
 11
468.2201257440223
 21
-1.105859551546945
  0
ARC
  8
1
  6
CONTINUOUS
 62
     7
 10
467.5020333545809
 20
-15.86176212318539
 40
14.77336513403292
 50
53.55130420157667
 51
87.21391290833827
  0
LINE
  8
1
  6
CONTINUOUS
 62
     7
 10
476.2789302526401
 20
-3.978227370246757
 11
476.3644020488995
 21
-4.041758455260441
  0
LINE
  8
1
  6
CONTINUOUS
 62
     7
 10
423.6336722151032
 20
-4.043200839704451
 11
423.91689110432
 21
-3.83620615229625
  0
ARC
  8
1
  6
CONTINUOUS
 62
     7
 10
432.4980041932023
 20
-15.86123836255122
 40
14.77284337904714
 50
92.78964670024054
 51
125.5118121523806
  0
LINE
  8
1
  6
CONTINUOUS
 62
     7
 10
431.7790204602571
 20
-1.105901568915604
 11
432.5
 21
-1.088137316146086
  0
LINE
  8
1
  6
CONTINUOUS
 62
     7
 10
441.2266088630539
 20
-3.939803433875464
 11
441.3663123911891
 21
-4.043189307821263
  0
LINE
  8
1
  6
CONTINUOUS
 62
     7
 10
487.0
 20
3.67
 11
487.0000000000001
 21
-32.18339106445979
  0
ARC
  8
1
  6
CONTINUOUS
 62
     7
 10
484.3232664057841
 20
-54.64433281351409
 40
22.6380247801068
 50
83.28422670919986
 51
90.81819992772944
  0
LINE
  8
1
  6
CONTINUOUS
 62
     7
 10
486.9706509360847
 20
-32.16163900041744
 11
487.0000000000001
 21
-32.18339106445979
  0
LINE
  8
1
  6
CONTINUOUS
 62
     7
 10
413.0
 20
-32.1833910644598
 11
413.121413693868
 21
-32.13863358816996
  0
ARC
  8
1
  6
CONTINUOUS
 62
     7
 10
415.7019527190236
 20
-57.34082807756953
 40
25.33396512079926
 50
89.32591502476015
 51
95.84633614439304
  0
LINE
  8
1
  6
CONTINUOUS
 62
     7
 10
413.0
 20
-32.1833910644598
 11
413.0
 21
3.669999999999999
  0
LINE
  8
1
  6
CONTINUOUS
 62
     7
 10
416.0
 20
-31.32999999999999
 11
415.0
 21
-31.32999999999999
  0
ARC
  8
1
  6
CONTINUOUS
 62
     7
 10
484.0000000000001
 20
-30.32999999999999
 40
1.000000000000004
 50
180.0
 51
270.0
  0
ARC
  8
1
  6
CONTINUOUS
 62
     7
 10
450.5
 20
-30.33
 40
1.000000000000001
 50
270.0
 51
0.0
  0
ARC
  8
1
  6
CONTINUOUS
 62
     7
 10
415.0
 20
-30.32999999999999
 40
1.000000000000001
 50
180.0
 51
270.0
  0
LINE
  8
1
  6
CONTINUOUS
 62
     7
 10
450.5
 20
-31.32999999999999
 11
449.5
 21
-31.32999999999999
  0
ARC
  8
1
  6
CONTINUOUS
 62
     7
 10
449.5
 20
-30.32999999999999
 40
1.000000000000001
 50
180.0
 51
270.0
  0
ARC
  8
1
  6
CONTINUOUS
 62
     7
 10
416.0
 20
-30.33
 40
1.000000000000001
 50
270.0
 51
0.0
  0
LINE
  8
1
  6
CONTINUOUS
 62
     7
 10
485.0000000000001
 20
-31.32999999999999
 11
484.0000000000001
 21
-31.32999999999999
  0
ARC
  8
1
  6
CONTINUOUS
 62
     7
 10
485.0000000000001
 20
-30.33
 40
0.9999999999999974
 50
270.0
 51
0.0
  0
LINE
  8
1
  6
CONTINUOUS
 62
     7
 10
474.1054586746412
 20
-7.034830647724328
 11
474.0642485451187
 21
-7.004211757109601
  0
ARC
  8
1
  6
CONTINUOUS
 62
     7
 10
467.5016879449182
 20
-15.87026424351788
 40
11.03059782255938
 50
53.49153692019182
 51
85.64400397153521
  0
LINE
  8
1
  6
CONTINUOUS
 62
     7
 10
468.3394977532192
 20
-4.871529632292528
 11
467.5
 21
-4.839291133442929
  0
ARC
  8
1
  6
CONTINUOUS
 62
     7
 10
467.5000061202248
 20
-15.87645871756963
 40
11.03659324130964
 50
126.6411845725917
 51
53.23712284529284
  0
LINE
  8
1
  6
CONTINUOUS
 62
     7
 10
467.5
 20
-4.839291133442929
 11
467.296968859188
 21
-4.841180201094589
  0
ARC
  8
1
  6
CONTINUOUS
 62
     7
 10
467.5012523304875
 20
-15.87704645335957
 40
11.03775682258525
 50
91.06047353873157
 51
125.8256414561011
  0
LINE
  8
1
  6
CONTINUOUS
 62
     7
 10
461.0406259944708
 20
-6.927611665570234
 11
460.913347504847
 21
-7.020821041005019
  0
LINE
  8
1
  6
CONTINUOUS
 62
     7
 10
439.0866614633541
 20
-7.02082770711809
 11
438.9264520650705
 21
-6.903950968236223
  0
ARC
  8
1
  6
CONTINUOUS
 62
     7
 10
432.4980884750804
 20
-15.87897967740159
 40
11.03970102744875
 50
54.38787124540903
 51
88.82423946913826
  0
LINE
  8
1
  6
CONTINUOUS
 62
     7
 10
432.7246170932798
 20
-4.841603016229365
 11
432.5
 21
-4.839291133442936
  0
ARC
  8
1
  6
CONTINUOUS
 62
     7
 10
432.4999940111585
 20
-15.87658502965594
 40
11.03669451790232
 50
126.7625965512674
 51
53.35914930834247
  0
LINE
  8
1
  6
CONTINUOUS
 62
     7
 10
432.5
 20
-4.839291133442936
 11
432.1475164897715
 21
-4.844981379936851
  0
ARC
  8
1
  6
CONTINUOUS
 62
     7
 10
432.5001737272473
 20
-15.87421274358851
 40
11.03486799196535
 50
91.8313959369584
 51
126.3665907790952
  0
LINE
  8
1
  6
CONTINUOUS
 62
     7
 10
425.9570548046414
 20
-6.988499133262257
 11
425.8945241441714
 21
-7.034843475085314
  0
LINE
  8
1
  6
CONTINUOUS
 62
     7
 10
460.8951233107662
 20
-7.034389447558811
 11
461.0405897006431
 21
-6.927562615033167
  0
ARC
  8
1
  6
CONTINUOUS
 62
     7
 10
467.4994837627931
 20
-15.86597282504631
 40
11.02780529337292
 50
91.0523527029204
 51
125.8518706963039
  0
LINE
  8
1
  6
CONTINUOUS
 62
     7
 10
467.2969472352625
 20
-4.840027580145116
 11
467.5
 21
-4.838137316146098
  0
LINE
  8
1
  6
CONTINUOUS
 62
     7
 10
467.5
 20
-4.838137316146098
 11
468.3395855116441
 21
-4.870396093705119
  0
LINE
  8
1
  6
CONTINUOUS
 62
     7
 10
474.0642612040618
 20
-7.00419485634946
 11
474.1048615688402
 21
-7.034378153023459
  0
LINE
  8
1
  6
CONTINUOUS
 62
     7
 10
425.8951331443092
 20
-7.034382102156743
 11
425.991872899676
 21
-6.962934048780001
  0
ARC
  8
1
  6
CONTINUOUS
 62
     7
 10
432.4986324925758
 20
-15.86387388417738
 40
11.02563605209046
 50
91.82511124463377
 51
126.1675277058198
  0
LINE
  8
1
  6
CONTINUOUS
 62
     7
 10
439.1048707723125
 20
-7.034385027769707
 11
439.1804438629787
 21
-7.091340298107769
  0
LINE
  8
1
  6
CONTINUOUS
 62
     7
 10
432.5
 20
-4.838137316146098
 11
432.7246410066433
 21
-4.840450662737434
  0
ARC
  8
1
  6
CONTINUOUS
 62
     7
 10
432.5008734137225
 20
-15.86483474081228
 40
11.02665480717301
 50
54.35683629262365
 51
88.83719776861119
  0
LINE
  8
1
  6
CONTINUOUS
 62
     7
 10
438.9264949996397
 20
-6.903891516399585
 11
439.0244783879611
 21
-6.974896898451023
  0
LINE
  8
1
  6
CONTINUOUS
 62
     7
 10
439.0244783879611
 20
-6.974896898451023
 11
439.1048707723125
 21
-7.034385027769707
  0
LINE
  8
1
  6
CONTINUOUS
 62
     7
 10
460.8195561370264
 20
-7.091340298104019
 11
460.8951233107662
 21
-7.034389447558811
  0
LINE
  8
1
  6
CONTINUOUS
 62
     7
 10
416.0
 20
-33.58338008308728
 11
414.3961476021666
 21
-33.58338008308728
  0
LINE
  8
1
  6
CONTINUOUS
 62
     7
 10
414.3961476021666
 20
-33.58338008308733
 11
413.0
 21
-32.18723248092074
  0
LINE
  8
1
  6
CONTINUOUS
 62
     7
 10
485.6038523978334
 20
-33.58338008308733
 11
487.0
 21
-32.18723248092074
  0
LINE
  8
1
  6
CONTINUOUS
 62
     7
 10
484.0
 20
-33.58338008308728
 11
485.6038523978334
 21
-33.58338008308728
  0
LINE
  8
1
  6
CONTINUOUS
 62
     7
 10
484.0
 20
-33.58338008308728
 11
416.0
 21
-33.58338008308728
  0
LINE
  8
1
  6
CONTINUOUS
 62
     7
 10
431.0
 20
-12.84808151065924
 11
431.0
 21
-12.84026247904412
  0
LINE
  8
1
  6
CONTINUOUS
 62
     7
 10
469.0
 20
-12.84808151065924
 11
469.0
 21
-12.84026247904412
  0
LINE
  8
1
  6
CONTINUOUS
 62
     7
 10
434.0
 20
-12.84808151065924
 11
434.0
 21
-12.84035976507496
  0
LINE
  8
1
  6
CONTINUOUS
 62
     7
 10
466.0
 20
-12.84808151065924
 11
466.0
 21
-12.84035976507496
  0
LINE
  8
1
  6
CONTINUOUS
 62
     7
 10
434.0
 20
-12.84800535823743
 11
431.0
 21
-12.84800535823743
  0
LINE
  8
1
  6
CONTINUOUS
 62
     7
 10
469.0
 20
-12.84800535823743
 11
466.0
 21
-12.84800535823743
  0
LINE
  8
1
  6
CONTINUOUS
 62
     7
 10
486.6009128048473
 20
-34.58044049010117
 11
484.0
 21
-34.49589141956137
  0
LINE
  8
1
  6
CONTINUOUS
 62
     7
 10
486.6009128048473
 20
-34.58044049010117
 11
485.6038523978334
 21
-33.58338008308733
  0
LINE
  8
1
  6
CONTINUOUS
 62
     7
 10
484.0
 20
-35.58338008308731
 11
485.6038523978334
 21
-35.58338008308731
  0
LINE
  8
1
  6
CONTINUOUS
 62
     7
 10
485.6038523978334
 20
-35.58338008308731
 11
486.6038523978334
 21
-34.5833800830873
  0
LINE
  8
1
  6
CONTINUOUS
 62
     7
 10
416.0
 20
-35.58338008308731
 11
414.3961476021666
 21
-35.58338008308731
  0
LINE
  8
1
  6
CONTINUOUS
 62
     7
 10
414.3961476021666
 20
-35.58338008308731
 11
413.3961476021666
 21
-34.5833800830873
  0
LINE
  8
1
  6
CONTINUOUS
 62
     7
 10
416.0
 20
-34.49589141956137
 11
413.3990871951527
 21
-34.58044049010117
  0
LINE
  8
1
  6
CONTINUOUS
 62
     7
 10
413.3990871951527
 20
-34.58044049010117
 11
414.3961476021666
 21
-33.58338008308733
  0
ARC
  8
1
  6
CONTINUOUS
 62
     7
 10
431.0185308944947
 20
-15.88110292991619
 40
3.051073668049157
 50
127.2263848909969
 51
179.8016025520593
  0
ARC
  8
1
  6
CONTINUOUS
 62
     7
 10
468.981579740453
 20
-15.88104727521135
 40
3.050962841550845
 50
0.197359476946815
 51
52.77343134346352
  0
ARC
  8
1
  6
CONTINUOUS
 62
     7
 10
466.0189205689044
 20
-15.88129709729168
 40
3.05146401855437
 50
127.2300014339283
 51
179.7979821278549
  0
ARC
  8
1
  6
CONTINUOUS
 62
     7
 10
433.9814298410122
 20
-15.88112196025467
 40
3.051112998261269
 50
0.1987522566881239
 51
52.77202851129494
  0
LINE
  8
1
  6
CONTINUOUS
 62
     7
 10
484.0
 20
-34.49589141956137
 11
416.0
 21
-34.49589141956137
  0
LINE
  8
1
  6
CONTINUOUS
 62
     7
 10
484.0
 20
-35.58338008308731
 11
416.0
 21
-35.58338008308731
  0
LINE
  8
1
  6
CONTINUOUS
 62
     7
 10
486.6009128048473
 20
-36.58044049010116
 11
484.0
 21
-36.49589141956137
  0
LINE
  8
1
  6
CONTINUOUS
 62
     7
 10
486.6009128048473
 20
-36.58044049010116
 11
485.6038523978334
 21
-35.58338008308731
  0
LINE
  8
1
  6
CONTINUOUS
 62
     7
 10
484.0
 20
-37.58338008308731
 11
485.6038523978334
 21
-37.58338008308731
  0
LINE
  8
1
  6
CONTINUOUS
 62
     7
 10
485.6038523978334
 20
-37.58338008308731
 11
486.6038523978334
 21
-36.58338008308728
  0
LINE
  8
1
  6
CONTINUOUS
 62
     7
 10
416.0
 20
-36.49589141956136
 11
413.3990871951527
 21
-36.58044049010116
  0
LINE
  8
1
  6
CONTINUOUS
 62
     7
 10
413.3990871951527
 20
-36.58044049010116
 11
414.3961476021666
 21
-35.58338008308731
  0
LINE
  8
1
  6
CONTINUOUS
 62
     7
 10
416.0
 20
-37.58338008308731
 11
414.3961476021666
 21
-37.58338008308731
  0
LINE
  8
1
  6
CONTINUOUS
 62
     7
 10
414.3961476021666
 20
-37.58338008308731
 11
413.3961476021666
 21
-36.58338008308728
  0
LINE
  8
1
  6
CONTINUOUS
 62
     7
 10
484.0
 20
-36.49589141956137
 11
416.0
 21
-36.49589141956136
  0
LINE
  8
1
  6
CONTINUOUS
 62
     7
 10
484.0
 20
-37.58338008308731
 11
416.0
 21
-37.58338008308731
  0
LINE
  8
1
  6
CONTINUOUS
 62
     7
 10
484.0
 20
-39.58338008308731
 11
485.6038523978334
 21
-39.58338008308731
  0
LINE
  8
1
  6
CONTINUOUS
 62
     7
 10
486.6009128048473
 20
-38.58044049010118
 11
484.0
 21
-38.49589141956139
  0
LINE
  8
1
  6
CONTINUOUS
 62
     7
 10
485.6038523978334
 20
-39.58338008308731
 11
486.6038523978334
 21
-38.5833800830873
  0
LINE
  8
1
  6
CONTINUOUS
 62
     7
 10
486.6009128048473
 20
-38.58044049010118
 11
485.6038523978334
 21
-37.58338008308731
  0
LINE
  8
1
  6
CONTINUOUS
 62
     7
 10
416.0
 20
-38.49589141956137
 11
413.3990871951527
 21
-38.58044049010118
  0
LINE
  8
1
  6
CONTINUOUS
 62
     7
 10
413.3990871951527
 20
-38.58044049010118
 11
414.3961476021666
 21
-37.58338008308731
  0
LINE
  8
1
  6
CONTINUOUS
 62
     7
 10
416.0
 20
-39.58338008308731
 11
414.3961476021666
 21
-39.58338008308731
  0
LINE
  8
1
  6
CONTINUOUS
 62
     7
 10
414.3961476021666
 20
-39.58338008308731
 11
413.3961476021666
 21
-38.5833800830873
  0
ARC
  8
1
  6
CONTINUOUS
 62
     7
 10
433.999994884118
 20
-15.87040914864334
 40
3.03252960068191
 50
270.0000966580663
 51
359.9975648994777
  0
ARC
  8
1
  6
CONTINUOUS
 62
     7
 10
466.0000705875428
 20
-15.87034367431041
 40
3.032595075832043
 50
180.0036720752644
 51
269.9986663672005
  0
ARC
  8
1
  6
CONTINUOUS
 62
     7
 10
468.9999801816185
 20
-15.87039444554379
 40
3.032544303841923
 50
270.000374441229
 51
359.9972871163151
  0
ARC
  8
1
  6
CONTINUOUS
 62
     7
 10
431.0000478521726
 20
-15.87036641060846
 40
3.032572339090021
 50
180.0032425354918
 51
269.9990959069729
  0
LINE
  8
1
  6
CONTINUOUS
 62
     7
 10
484.0
 20
-38.49589141956139
 11
416.0
 21
-38.49589141956137
  0
LINE
  8
1
  6
CONTINUOUS
 62
     7
 10
484.0
 20
-39.58338008308731
 11
416.0
 21
-39.58338008308731
  0
LINE
  8
1
  6
CONTINUOUS
 62
     7
 10
486.6009128048473
 20
-40.58044049010119
 11
484.0000000000001
 21
-40.49589141956142
  0
LINE
  8
1
  6
CONTINUOUS
 62
     7
 10
486.6009128048473
 20
-40.58044049010119
 11
485.6038523978334
 21
-39.58338008308731
  0
LINE
  8
1
  6
CONTINUOUS
 62
     7
 10
484.0000000000001
 20
-41.58338008308732
 11
485.6038523978334
 21
-41.58338008308732
  0
LINE
  8
1
  6
CONTINUOUS
 62
     7
 10
485.6038523978334
 20
-41.58338008308733
 11
486.6038523978334
 21
-40.58338008308731
  0
LINE
  8
1
  6
CONTINUOUS
 62
     7
 10
415.9999999999999
 20
-41.58338008308732
 11
414.3961476021666
 21
-41.58338008308732
  0
LINE
  8
1
  6
CONTINUOUS
 62
     7
 10
414.3961476021666
 20
-41.58338008308732
 11
413.3961476021666
 21
-40.58338008308731
  0
LINE
  8
1
  6
CONTINUOUS
 62
     7
 10
416.0
 20
-40.49589141956142
 11
413.3990871951527
 21
-40.58044049010119
  0
LINE
  8
1
  6
CONTINUOUS
 62
     7
 10
413.3990871951527
 20
-40.58044049010119
 11
414.3961476021666
 21
-39.58338008308731
  0
LINE
  8
1
  6
CONTINUOUS
 62
     7
 10
484.0000000000001
 20
-41.58338008308732
 11
415.9999999999999
 21
-41.58338008308732
  0
LINE
  8
1
  6
CONTINUOUS
 62
     7
 10
484.0000000000001
 20
-40.49589141956142
 11
416.0
 21
-40.49589141956142
  0
LINE
  8
1
  6
CONTINUOUS
 62
     7
 10
434.0
 20
-18.90293874932095
 11
431.0000000000005
 21
-18.90293874932095
  0
LINE
  8
1
  6
CONTINUOUS
 62
     7
 10
469.0
 20
-18.90293874932095
 11
466.0000000000005
 21
-18.90293874932095
  0
LINE
  8
1
  6
CONTINUOUS
 62
     7
 10
414.3961476021666
 20
-43.32999999999999
 11
414.3961476021666
 21
-41.58338008308732
  0
LINE
  8
1
  6
CONTINUOUS
 62
     7
 10
485.6038523978334
 20
-43.32999999999999
 11
485.6038523978334
 21
-41.58338008308733
  0
LINE
  8
1
  6
CONTINUOUS
 62
     7
 10
415.9999999999999
 20
-44.32999999999999
 11
415.3961476021666
 21
-44.32999999999999
  0
ARC
  8
1
  6
CONTINUOUS
 62
     7
 10
415.3961476021666
 20
-43.32999999999999
 40
1.000000000000001
 50
180.0
 51
270.0
  0
LINE
  8
1
  6
CONTINUOUS
 62
     7
 10
484.0000000000001
 20
-44.32999999999999
 11
415.9999999999999
 21
-44.32999999999999
  0
ARC
  8
1
  6
CONTINUOUS
 62
     7
 10
484.6038523978334
 20
-43.32999999999999
 40
1.000000000000001
 50
270.0
 51
0.0
  0
LINE
  8
1
  6
CONTINUOUS
 62
     7
 10
484.6038523978334
 20
-44.32999999999999
 11
484.0000000000001
 21
-44.32999999999999
  0
LINE
  8
1
  6
CONTINUOUS
 62
     7
 10
423.6336995506384
 20
-4.043180361331324
 11
423.6308933983768
 21
-4.045282618502563
  0
LINE
  8
1
  6
CONTINUOUS
 62
     7
 10
441.3691066423726
 20
-4.045282649028985
 11
441.3663004900981
 21
-4.043180391848059
  0
LINE
  8
1
  6
CONTINUOUS
 62
     7
 10
458.6336995506769
 20
-4.043180361301768
 11
458.6308933984152
 21
-4.045282618473029
  0
LINE
  8
1
  6
CONTINUOUS
 62
     7
 10
476.3691066424054
 20
-4.045282649054309
 11
476.3663004901309
 21
-4.043180391873345
  0
LINE
  8
1
  6
CONTINUOUS
 62
     7
 10
460.8951507191717
 20
-7.034368937578207
 11
460.8923497625597
 21
-7.036467308224076
  0
LINE
  8
1
  6
CONTINUOUS
 62
     7
 10
474.1076502788649
 20
-7.03646733916685
 11
474.1048493222352
 21
-7.034368968507872
  0
LINE
  8
1
  6
CONTINUOUS
 62
     7
 10
425.8951507191918
 20
-7.034368937562917
 11
425.8923497625799
 21
-7.036467308208598
  0
LINE
  8
1
  6
CONTINUOUS
 62
     7
 10
439.1076502789278
 20
-7.036467339213868
 11
439.1048493222984
 21
-7.034368968555049
  0
ARC
  8
1
  6
CONTINUOUS
 62
     7
 10
431.0177139180352
 20
-15.92952760329254
 40
3.08932939541166
 50
90.32853029692694
 51
127.229236136026
  0
ARC
  8
1
  6
CONTINUOUS
 62
     7
 10
468.9822860819646
 20
-15.92952760329267
 40
3.089329395411783
 50
52.77076386377298
 51
89.67146970306895
  0
ARC
  8
1
  6
CONTINUOUS
 62
     7
 10
433.9584914443381
 20
-15.99950794167074
 40
3.159531620883955
 50
53.193085458224
 51
89.24725125213672
  0
ARC
  8
1
  6
CONTINUOUS
 62
     7
 10
466.0415085556618
 20
-15.99950794167063
 40
3.15953162088385
 50
90.75274874786224
 51
126.8069145417762
  0
ENDBLK
  8
0
  0
BLOCK
  8
0
  2
D_FRAME_VIEW_1523
 70
     0
 10
0.0
 20
0.0
  0
LINE
  8
1
  6
CONTINUOUS
 62
     7
 10
488.0
 20
234.75
 11
488.0
 21
66.75
  0
ARC
  8
1
  6
CONTINUOUS
 62
     7
 10
486.0
 20
234.75
 40
2.000000000000002
 50
0.0
 51
90.0000000000004
  0
LINE
  8
1
  6
CONTINUOUS
 62
     7
 10
414.0
 20
236.75
 11
486.0
 21
236.75
  0
ARC
  8
1
  6
CONTINUOUS
 62
     7
 10
414.0
 20
234.75
 40
2.000000000000002
 50
90.0
 51
180.0000000000008
  0
LINE
  8
1
  6
CONTINUOUS
 62
     7
 10
412.0
 20
66.74999999999999
 11
412.0
 21
234.7499999999999
  0
ARC
  8
1
  6
CONTINUOUS
 62
     7
 10
414.0
 20
66.74999999999999
 40
2.000000000000002
 50
180.0
 51
270.0
  0
LINE
  8
1
  6
CONTINUOUS
 62
     7
 10
486.0
 20
64.74999999999997
 11
413.9999999999999
 21
64.74999999999997
  0
ARC
  8
1
  6
CONTINUOUS
 62
     7
 10
486.0
 20
66.74999999999999
 40
2.000000000000002
 50
270.0
 51
0.0000000000003979
  0
LINE
  8
1
  6
CONTINUOUS
 62
     7
 10
396.5
 20
55.74999999999999
 11
396.5
 21
245.75
  0
ARC
  8
1
  6
CONTINUOUS
 62
     7
 10
401.5
 20
245.75
 40
4.999999999999997
 50
90.00000000000006
 51
180.0
  0
LINE
  8
1
  6
CONTINUOUS
 62
     7
 10
401.5
 20
250.75
 11
478.4999999999999
 21
250.75
  0
ARC
  8
1
  6
CONTINUOUS
 62
     7
 10
478.5
 20
255.75
 40
5.000000000000004
 50
269.9999999999998
 51
0.0
  0
LINE
  8
1
  6
CONTINUOUS
 62
     7
 10
483.5000000000001
 20
255.75
 11
483.5000000000001
 21
265.75
  0
LINE
  8
1
  6
CONTINUOUS
 62
     7
 10
503.5000000000001
 20
265.7500000000001
 11
503.5000000000001
 21
55.75000000000002
  0
ARC
  8
1
  6
CONTINUOUS
 62
     7
 10
498.5
 20
55.74999999999999
 40
4.99999999999999
 50
270.0
 51
0.0
  0
LINE
  8
1
  6
CONTINUOUS
 62
     7
 10
498.5
 20
50.75
 11
401.4999999999999
 21
50.74999999999997
  0
ARC
  8
1
  6
CONTINUOUS
 62
     7
 10
401.5
 20
55.74999999999999
 40
5.000000000000004
 50
180.0
 51
269.9999999999999
  0
ARC
  8
1
  6
CONTINUOUS
 62
     7
 10
498.5000000000001
 20
265.7500000000001
 40
5.000000000000004
 50
0.0
 51
89.99999999999966
  0
LINE
  8
1
  6
CONTINUOUS
 62
     7
 10
488.5000000000001
 20
270.75
 11
498.5000000000001
 21
270.75
  0
ARC
  8
1
  6
CONTINUOUS
 62
     7
 10
488.5000000000001
 20
265.75
 40
5.000000000000004
 50
90.0
 51
180.0000000000003
  0
ARC
  8
1
  6
CONTINUOUS
 62
     7
 10
454.2879933429936
 20
233.7299433977859
 40
5.298440215665737
 50
154.6435306330486
 51
176.4014449950913
  0
LINE
  8
1
  6
CONTINUOUS
 62
     7
 10
449.0
 20
230.7918344129913
 11
449.0
 21
234.0625018489486
  0
LINE
  8
1
  6
CONTINUOUS
 62
     7
 10
449.0
 20
230.7918344129913
 11
416.5
 21
230.7918344129913
  0
LINE
  8
1
  6
CONTINUOUS
 62
     7
 10
416.5
 20
230.7918344129913
 11
416.5
 21
234.0625018489486
  0
ARC
  8
1
  6
CONTINUOUS
 62
     7
 10
411.3784458723262
 20
233.7729178183918
 40
5.129734456426276
 50
3.236184679016787
 51
25.71883969284312
  0
ARC
  8
1
  6
CONTINUOUS
 62
     7
 10
419.7879933429936
 20
233.7299433977859
 40
5.298440215665781
 50
154.6435306330487
 51
176.4014449950912
  0
LINE
  8
1
  6
CONTINUOUS
 62
     7
 10
414.5
 20
230.2899244942196
 11
414.5
 21
234.0625018489486
  0
POLYLINE
  8
1
  6
CONTINUOUS
 62
     7
 66
     1
  0
VERTEX
  8
1
  6
CONTINUOUS
 62
     7
 10
414.5
 20
230.2899244942196
  0
VERTEX
  8
1
  6
CONTINUOUS
 62
     7
 10
414.156926989159
 20
229.9778437609023
  0
VERTEX
  8
1
  6
CONTINUOUS
 62
     7
 10
413.8770650881581
 20
229.6076111465264
  0
VERTEX
  8
1
  6
CONTINUOUS
 62
     7
 10
413.6700126044223
 20
229.1919243653529
  0
VERTEX
  8
1
  6
CONTINUOUS
 62
     7
 10
413.5428707310212
 20
228.7450400543296
  0
VERTEX
  8
1
  6
CONTINUOUS
 62
     7
 10
413.5
 20
228.2822848191329
  0
SEQEND
  8
1
  6
CONTINUOUS
 62
     7
  0
LINE
  8
1
  6
CONTINUOUS
 62
     7
 10
413.5
 20
228.2822848191329
 11
413.5
 21
177.75
  0
LINE
  8
1
  6
CONTINUOUS
 62
     7
 10
395.0
 20
177.75
 11
396.5
 21
178.6160254037844
  0
LINE
  8
1
  6
CONTINUOUS
 62
     7
 10
393.5
 20
177.75
 11
393.5
 21
246.25
  0
ARC
  8
1
  6
CONTINUOUS
 62
     7
 10
399.5
 20
246.25
 40
6.000000000000005
 50
90.0
 51
180.0
  0
LINE
  8
1
  6
CONTINUOUS
 62
     7
 10
399.5
 20
252.25
 11
450.0
 21
252.25
  0
LINE
  8
1
  6
CONTINUOUS
 62
     7
 10
450.0
 20
252.25
 11
482.0707142142714
 21
252.25
  0
ARC
  8
1
  6
CONTINUOUS
 62
     7
 10
500.4999999999999
 20
246.25
 40
5.999999999999998
 50
0.0
 51
59.99999999999984
  0
LINE
  8
1
  6
CONTINUOUS
 62
     7
 10
506.4999999999999
 20
246.25
 11
506.4999999999999
 21
177.75
  0
LINE
  8
1
  6
CONTINUOUS
 62
     7
 10
504.9999999999999
 20
177.75
 11
503.4999999999999
 21
178.6160254037844
  0
LINE
  8
1
  6
CONTINUOUS
 62
     7
 10
486.5000000000001
 20
177.75
 11
486.5000000000001
 21
228.2822848191329
  0
POLYLINE
  8
1
  6
CONTINUOUS
 62
     7
 66
     1
  0
VERTEX
  8
1
  6
CONTINUOUS
 62
     7
 10
486.5
 20
228.2822848191329
  0
VERTEX
  8
1
  6
CONTINUOUS
 62
     7
 10
486.4571292689788
 20
228.7450400543296
  0
VERTEX
  8
1
  6
CONTINUOUS
 62
     7
 10
486.3299873955777
 20
229.1919243653529
  0
VERTEX
  8
1
  6
CONTINUOUS
 62
     7
 10
486.1229349118419
 20
229.6076111465264
  0
VERTEX
  8
1
  6
CONTINUOUS
 62
     7
 10
485.843073010841
 20
229.9778437609023
  0
VERTEX
  8
1
  6
CONTINUOUS
 62
     7
 10
485.5
 20
230.2899244942196
  0
SEQEND
  8
1
  6
CONTINUOUS
 62
     7
  0
LINE
  8
1
  6
CONTINUOUS
 62
     7
 10
485.5000000000001
 20
230.2899244942196
 11
485.5000000000001
 21
234.0625018489486
  0
ARC
  8
1
  6
CONTINUOUS
 62
     7
 10
480.3784458723265
 20
233.7729178183919
 40
5.129734456425869
 50
3.236184679015998
 51
25.71883969284417
  0
ARC
  8
1
  6
CONTINUOUS
 62
     7
 10
488.7879933429936
 20
233.7299433977859
 40
5.298440215665777
 50
154.6435306330487
 51
176.4014449950912
  0
LINE
  8
1
  6
CONTINUOUS
 62
     7
 10
483.5000000000001
 20
230.7918344129913
 11
483.5000000000001
 21
234.0625018489486
  0
LINE
  8
1
  6
CONTINUOUS
 62
     7
 10
483.5000000000001
 20
230.7918344129913
 11
451.0000000000001
 21
230.7918344129913
  0
LINE
  8
1
  6
CONTINUOUS
 62
     7
 10
451.0
 20
230.7918344129913
 11
451.0
 21
234.0625018489486
  0
ARC
  8
1
  6
CONTINUOUS
 62
     7
 10
445.878445872326
 20
233.7729178183918
 40
5.129734456426403
 50
3.236184679017238
 51
25.71883969284301
  0
LINE
  8
1
  6
CONTINUOUS
 62
     7
 10
450.0
 20
49.24999999999999
 11
399.5
 21
49.24999999999999
  0
ARC
  8
1
  6
CONTINUOUS
 62
     7
 10
399.5
 20
55.24999999999999
 40
5.999999999999998
 50
180.0
 51
270.0
  0
LINE
  8
1
  6
CONTINUOUS
 62
     7
 10
395.0
 20
123.75
 11
396.5
 21
122.8839745962155
  0
POLYLINE
  8
1
  6
CONTINUOUS
 62
     7
 66
     1
  0
VERTEX
  8
1
  6
CONTINUOUS
 62
     7
 10
413.5
 20
73.21771518086707
  0
VERTEX
  8
1
  6
CONTINUOUS
 62
     7
 10
413.5428707310212
 20
72.75495994567035
  0
VERTEX
  8
1
  6
CONTINUOUS
 62
     7
 10
413.6700126044223
 20
72.30807563464705
  0
VERTEX
  8
1
  6
CONTINUOUS
 62
     7
 10
413.8770650881581
 20
71.89238885347356
  0
VERTEX
  8
1
  6
CONTINUOUS
 62
     7
 10
414.156926989159
 20
71.52215623909768
  0
VERTEX
  8
1
  6
CONTINUOUS
 62
     7
 10
414.5
 20
71.21007550578038
  0
SEQEND
  8
1
  6
CONTINUOUS
 62
     7
  0
LINE
  8
1
  6
CONTINUOUS
 62
     7
 10
414.5
 20
71.21007550578038
 11
414.5
 21
67.43749815105141
  0
ARC
  8
1
  6
CONTINUOUS
 62
     7
 10
419.6215541276741
 20
67.72708218160824
 40
5.129734456426536
 50
183.2361846790173
 51
205.7188396928427
  0
ARC
  8
1
  6
CONTINUOUS
 62
     7
 10
411.2120066570065
 20
67.77005660221408
 40
5.298440215665665
 50
334.6435306330484
 51
356.4014449950916
  0
LINE
  8
1
  6
CONTINUOUS
 62
     7
 10
416.5
 20
70.70816558700871
 11
416.5
 21
67.43749815105141
  0
LINE
  8
1
  6
CONTINUOUS
 62
     7
 10
416.5
 20
70.70816558700871
 11
449.0000000000001
 21
70.70816558700871
  0
LINE
  8
1
  6
CONTINUOUS
 62
     7
 10
449.0
 20
70.70816558700871
 11
449.0
 21
67.43749815105141
  0
ARC
  8
1
  6
CONTINUOUS
 62
     7
 10
454.1215541276739
 20
67.72708218160817
 40
5.129734456426302
 50
183.2361846790167
 51
205.718839692843
  0
LINE
  8
1
  6
CONTINUOUS
 62
     7
 10
393.5
 20
55.24999999999999
 11
393.5
 21
123.75
  0
LINE
  8
1
  6
CONTINUOUS
 62
     7
 10
413.5
 20
123.75
 11
413.5
 21
73.21771518086707
  0
ARC
  8
1
  6
CONTINUOUS
 62
     7
 10
445.7120066570064
 20
67.7700566022141
 40
5.298440215665741
 50
334.6435306330487
 51
356.4014449950915
  0
LINE
  8
1
  6
CONTINUOUS
 62
     7
 10
451.0
 20
70.70816558700871
 11
451.0
 21
67.43749815105141
  0
LINE
  8
1
  6
CONTINUOUS
 62
     7
 10
451.0
 20
70.70816558700871
 11
483.5000000000001
 21
70.70816558700871
  0
LINE
  8
1
  6
CONTINUOUS
 62
     7
 10
483.5000000000001
 20
70.70816558700871
 11
483.5000000000001
 21
67.43749815105141
  0
ARC
  8
1
  6
CONTINUOUS
 62
     7
 10
488.6215541276741
 20
67.72708218160824
 40
5.129734456426536
 50
183.2361846790173
 51
205.7188396928427
  0
ARC
  8
1
  6
CONTINUOUS
 62
     7
 10
480.2120066570065
 20
67.77005660221408
 40
5.298440215665665
 50
334.6435306330484
 51
356.4014449950916
  0
LINE
  8
1
  6
CONTINUOUS
 62
     7
 10
485.5000000000001
 20
71.21007550578038
 11
485.5000000000001
 21
67.43749815105141
  0
POLYLINE
  8
1
  6
CONTINUOUS
 62
     7
 66
     1
  0
VERTEX
  8
1
  6
CONTINUOUS
 62
     7
 10
485.5
 20
71.2100755057804
  0
VERTEX
  8
1
  6
CONTINUOUS
 62
     7
 10
485.843073010841
 20
71.52215623909768
  0
VERTEX
  8
1
  6
CONTINUOUS
 62
     7
 10
486.1229349118419
 20
71.89238885347356
  0
VERTEX
  8
1
  6
CONTINUOUS
 62
     7
 10
486.3299873955777
 20
72.30807563464704
  0
VERTEX
  8
1
  6
CONTINUOUS
 62
     7
 10
486.4571292689788
 20
72.75495994567034
  0
VERTEX
  8
1
  6
CONTINUOUS
 62
     7
 10
486.5
 20
73.21771518086706
  0
SEQEND
  8
1
  6
CONTINUOUS
 62
     7
  0
LINE
  8
1
  6
CONTINUOUS
 62
     7
 10
504.9999999999999
 20
123.75
 11
503.4999999999999
 21
122.8839745962156
  0
ARC
  8
1
  6
CONTINUOUS
 62
     7
 10
500.5000000000001
 20
55.24999999999999
 40
6.000000000000005
 50
270.0
 51
0.0
  0
LINE
  8
1
  6
CONTINUOUS
 62
     7
 10
500.5000000000001
 20
49.24999999999999
 11
450.0000000000001
 21
49.24999999999999
  0
LINE
  8
1
  6
CONTINUOUS
 62
     7
 10
486.5000000000001
 20
73.21771518086706
 11
486.5000000000001
 21
123.75
  0
LINE
  8
1
  6
CONTINUOUS
 62
     7
 10
506.4999999999999
 20
123.75
 11
506.4999999999999
 21
55.24999999999999
  0
LINE
  8
1
  6
CONTINUOUS
 62
     7
 10
504.9999999999999
 20
150.75
 11
503.4999999999999
 21
151.6160254037844
  0
LINE
  8
1
  6
CONTINUOUS
 62
     7
 10
503.5000000000001
 20
176.8839745962156
 11
505.0
 21
177.75
  0
LINE
  8
1
  6
CONTINUOUS
 62
     7
 10
486.5000000000001
 20
150.75
 11
486.5000000000001
 21
177.75
  0
LINE
  8
1
  6
CONTINUOUS
 62
     7
 10
506.4999999999999
 20
177.75
 11
506.4999999999999
 21
150.75
  0
LINE
  8
1
  6
CONTINUOUS
 62
     7
 10
503.5000000000001
 20
149.8839745962156
 11
505.0
 21
150.75
  0
LINE
  8
1
  6
CONTINUOUS
 62
     7
 10
503.5000000000001
 20
124.6160254037844
 11
505.0
 21
123.75
  0
LINE
  8
1
  6
CONTINUOUS
 62
     7
 10
486.5000000000001
 20
123.75
 11
486.5000000000001
 21
150.75
  0
LINE
  8
1
  6
CONTINUOUS
 62
     7
 10
506.4999999999999
 20
150.75
 11
506.4999999999999
 21
123.75
  0
ARC
  8
1
  6
CONTINUOUS
 62
     7
 10
416.0139166814285
 20
76.36761908345815
 40
2.513946851339752
 50
179.7192970122975
 51
269.6828209861083
  0
POLYLINE
  8
1
  6
CONTINUOUS
 62
     7
 66
     1
  0
VERTEX
  8
1
  6
CONTINUOUS
 62
     7
 10
415.0
 20
73.9797782094541
  0
VERTEX
  8
1
  6
CONTINUOUS
 62
     7
 10
415.4892258907769
 20
73.82320446423378
  0
VERTEX
  8
1
  6
CONTINUOUS
 62
     7
 10
416.0
 20
73.77026881041606
  0
SEQEND
  8
1
  6
CONTINUOUS
 62
     7
  0
LINE
  8
1
  6
CONTINUOUS
 62
     7
 10
415.0
 20
73.97977820945411
 11
414.5004387301389
 21
74.22992800910252
  0
LINE
  8
1
  6
CONTINUOUS
 62
     7
 10
414.5
 20
71.21007550578038
 11
414.5
 21
74.22843439742478
  0
LINE
  8
1
  6
CONTINUOUS
 62
     7
 10
395.0
 20
150.75
 11
396.5
 21
151.6160254037844
  0
LINE
  8
1
  6
CONTINUOUS
 62
     7
 10
396.5
 20
176.8839745962156
 11
395.0
 21
177.75
  0
LINE
  8
1
  6
CONTINUOUS
 62
     7
 10
393.5
 20
150.75
 11
393.5
 21
177.75
  0
LINE
  8
1
  6
CONTINUOUS
 62
     7
 10
413.5
 20
177.75
 11
413.5
 21
150.75
  0
LINE
  8
1
  6
CONTINUOUS
 62
     7
 10
396.5
 20
124.6160254037844
 11
395.0
 21
123.75
  0
LINE
  8
1
  6
CONTINUOUS
 62
     7
 10
396.5
 20
149.8839745962156
 11
394.9999999999999
 21
150.75
  0
LINE
  8
1
  6
CONTINUOUS
 62
     7
 10
393.5
 20
123.75
 11
393.5
 21
150.75
  0
LINE
  8
1
  6
CONTINUOUS
 62
     7
 10
413.5
 20
150.75
 11
413.5
 21
123.75
  0
ARC
  8
1
  6
CONTINUOUS
 62
     7
 10
483.9857559108888
 20
76.367943092341
 40
2.514272688801933
 50
270.3245990613732
 51
0.2732829402257266
  0
LINE
  8
1
  6
CONTINUOUS
 62
     7
 10
485.5002407349912
 20
74.22855411791525
 11
485.0
 21
73.97977820945411
  0
POLYLINE
  8
1
  6
CONTINUOUS
 62
     7
 66
     1
  0
VERTEX
  8
1
  6
CONTINUOUS
 62
     7
 10
484.0
 20
73.77026881041606
  0
VERTEX
  8
1
  6
CONTINUOUS
 62
     7
 10
484.5107741092231
 20
73.82320446423378
  0
VERTEX
  8
1
  6
CONTINUOUS
 62
     7
 10
485.0
 20
73.9797782094541
  0
SEQEND
  8
1
  6
CONTINUOUS
 62
     7
  0
LINE
  8
1
  6
CONTINUOUS
 62
     7
 10
485.5000000000001
 20
74.22843439742479
 11
485.5000000000001
 21
71.21007550578038
  0
LINE
  8
1
  6
CONTINUOUS
 62
     7
 10
416.0
 20
73.85371075232531
 11
418.8381284561505
 21
73.85371075232531
  0
LINE
  8
1
  6
CONTINUOUS
 62
     7
 10
446.162803409128
 20
73.85371075232531
 11
453.8398042961915
 21
73.85371075232531
  0
LINE
  8
1
  6
CONTINUOUS
 62
     7
 10
481.1566084888316
 20
73.85371075232531
 11
484.0000000000002
 21
73.85371075232531
  0
LINE
  8
1
  6
CONTINUOUS
 62
     7
 10
484.0
 20
73.77026881041598
 11
483.5
 21
73.72652447865302
  0
LINE
  8
1
  6
CONTINUOUS
 62
     7
 10
451.0
 20
73.72652447865302
 11
450.5
 21
73.77026881041598
  0
LINE
  8
1
  6
CONTINUOUS
 62
     7
 10
450.5
 20
73.77026881041598
 11
449.5
 21
73.77026881041598
  0
LINE
  8
1
  6
CONTINUOUS
 62
     7
 10
449.5
 20
73.77026881041598
 11
449.0
 21
73.72652447865302
  0
LINE
  8
1
  6
CONTINUOUS
 62
     7
 10
416.5
 20
73.72652447865302
 11
416.0
 21
73.77026881041598
  0
LINE
  8
1
  6
CONTINUOUS
 62
     7
 10
483.5000000000001
 20
73.72652447865302
 11
483.5000000000001
 21
70.70816558700871
  0
LINE
  8
1
  6
CONTINUOUS
 62
     7
 10
451.0
 20
70.70816558700871
 11
451.0
 21
73.72652447865302
  0
LINE
  8
1
  6
CONTINUOUS
 62
     7
 10
449.0
 20
73.72652447865302
 11
449.0
 21
70.70816558700871
  0
LINE
  8
1
  6
CONTINUOUS
 62
     7
 10
416.5
 20
70.70816558700871
 11
416.5
 21
73.72652447865302
  0
ARC
  8
1
  6
CONTINUOUS
 62
     7
 10
416.0142440891112
 20
225.132056907659
 40
2.514272688801947
 50
90.32459906137373
 51
180.2732829402258
  0
LINE
  8
1
  6
CONTINUOUS
 62
     7
 10
414.4997592650088
 20
227.2714458820847
 11
415.0
 21
227.5202217905459
  0
POLYLINE
  8
1
  6
CONTINUOUS
 62
     7
 66
     1
  0
VERTEX
  8
1
  6
CONTINUOUS
 62
     7
 10
416.0
 20
227.7297311895839
  0
VERTEX
  8
1
  6
CONTINUOUS
 62
     7
 10
415.4892258907769
 20
227.6767955357662
  0
VERTEX
  8
1
  6
CONTINUOUS
 62
     7
 10
415.0
 20
227.5202217905459
  0
SEQEND
  8
1
  6
CONTINUOUS
 62
     7
  0
LINE
  8
1
  6
CONTINUOUS
 62
     7
 10
414.5
 20
227.2715656025752
 11
414.5
 21
230.2899244942196
  0
ARC
  8
1
  6
CONTINUOUS
 62
     7
 10
483.9860833185716
 20
225.1323809165418
 40
2.513946851339731
 50
359.7192970122972
 51
89.68282098610877
  0
POLYLINE
  8
1
  6
CONTINUOUS
 62
     7
 66
     1
  0
VERTEX
  8
1
  6
CONTINUOUS
 62
     7
 10
485.0
 20
227.5202217905459
  0
VERTEX
  8
1
  6
CONTINUOUS
 62
     7
 10
484.5107741092231
 20
227.6767955357662
  0
VERTEX
  8
1
  6
CONTINUOUS
 62
     7
 10
484.0
 20
227.7297311895839
  0
SEQEND
  8
1
  6
CONTINUOUS
 62
     7
  0
LINE
  8
1
  6
CONTINUOUS
 62
     7
 10
485.0000000000001
 20
227.5202217905459
 11
485.4995612698612
 21
227.2700719908975
  0
LINE
  8
1
  6
CONTINUOUS
 62
     7
 10
485.5000000000001
 20
230.2899244942196
 11
485.5000000000001
 21
227.2715656025752
  0
LINE
  8
1
  6
CONTINUOUS
 62
     7
 10
484.0
 20
227.6462892476746
 11
481.1603751025493
 21
227.6462892476746
  0
LINE
  8
1
  6
CONTINUOUS
 62
     7
 10
453.8383763011994
 20
227.6462892476746
 11
446.1562548947051
 21
227.6462892476746
  0
LINE
  8
1
  6
CONTINUOUS
 62
     7
 10
418.837447104404
 20
227.6462892476746
 11
415.9999999999998
 21
227.6462892476746
  0
LINE
  8
1
  6
CONTINUOUS
 62
     7
 10
416.0
 20
227.729731189584
 11
416.5
 21
227.773475521347
  0
LINE
  8
1
  6
CONTINUOUS
 62
     7
 10
449.0
 20
227.773475521347
 11
449.5
 21
227.729731189584
  0
LINE
  8
1
  6
CONTINUOUS
 62
     7
 10
450.5
 20
227.729731189584
 11
449.5
 21
227.729731189584
  0
LINE
  8
1
  6
CONTINUOUS
 62
     7
 10
450.5
 20
227.729731189584
 11
451.0
 21
227.773475521347
  0
LINE
  8
1
  6
CONTINUOUS
 62
     7
 10
483.5000000000001
 20
227.773475521347
 11
484.0000000000001
 21
227.729731189584
  0
LINE
  8
1
  6
CONTINUOUS
 62
     7
 10
449.0
 20
227.773475521347
 11
449.0
 21
230.7918344129913
  0
LINE
  8
1
  6
CONTINUOUS
 62
     7
 10
483.5000000000001
 20
227.773475521347
 11
483.5000000000001
 21
230.7918344129913
  0
LINE
  8
1
  6
CONTINUOUS
 62
     7
 10
451.0
 20
230.7918344129913
 11
451.0
 21
227.773475521347
  0
LINE
  8
1
  6
CONTINUOUS
 62
     7
 10
416.5
 20
230.7918344129913
 11
416.5
 21
227.773475521347
  0
POLYLINE
  8
1
  6
CONTINUOUS
 62
     7
 66
     1
  0
VERTEX
  8
1
  6
CONTINUOUS
 62
     7
 10
484.9999999999999
 20
71.73033704837887
  0
VERTEX
  8
1
  6
CONTINUOUS
 62
     7
 10
485.097545161008
 20
71.73990784927268
  0
VERTEX
  8
1
  6
CONTINUOUS
 62
     7
 10
485.1913417161825
 20
71.76825245144313
  0
VERTEX
  8
1
  6
CONTINUOUS
 62
     7
 10
485.2777851165098
 20
71.81428158772465
  0
VERTEX
  8
1
  6
CONTINUOUS
 62
     7
 10
485.3535533905933
 20
71.87622638422339
  0
VERTEX
  8
1
  6
CONTINUOUS
 62
     7
 10
485.4157348061513
 20
71.95170633714892
  0
VERTEX
  8
1
  6
CONTINUOUS
 62
     7
 10
485.4619397662557
 20
72.03782079423998
  0
VERTEX
  8
1
  6
CONTINUOUS
 62
     7
 10
485.4903926402016
 20
72.13126042520408
  0
VERTEX
  8
1
  6
CONTINUOUS
 62
     7
 10
485.5
 20
72.22843439742483
  0
SEQEND
  8
1
  6
CONTINUOUS
 62
     7
  0
POLYLINE
  8
1
  6
CONTINUOUS
 62
     7
 66
     1
  0
VERTEX
  8
1
  6
CONTINUOUS
 62
     7
 10
415.9999999999999
 20
71.73033704837887
  0
VERTEX
  8
1
  6
CONTINUOUS
 62
     7
 10
416.097545161008
 20
71.73990784927268
  0
VERTEX
  8
1
  6
CONTINUOUS
 62
     7
 10
416.1913417161825
 20
71.76825245144313
  0
VERTEX
  8
1
  6
CONTINUOUS
 62
     7
 10
416.2777851165098
 20
71.81428158772465
  0
VERTEX
  8
1
  6
CONTINUOUS
 62
     7
 10
416.3535533905933
 20
71.87622638422339
  0
VERTEX
  8
1
  6
CONTINUOUS
 62
     7
 10
416.4157348061513
 20
71.95170633714892
  0
VERTEX
  8
1
  6
CONTINUOUS
 62
     7
 10
416.4619397662557
 20
72.03782079423998
  0
VERTEX
  8
1
  6
CONTINUOUS
 62
     7
 10
416.4903926402016
 20
72.13126042520408
  0
VERTEX
  8
1
  6
CONTINUOUS
 62
     7
 10
416.5
 20
72.22843439742483
  0
SEQEND
  8
1
  6
CONTINUOUS
 62
     7
  0
POLYLINE
  8
1
  6
CONTINUOUS
 62
     7
 66
     1
  0
VERTEX
  8
1
  6
CONTINUOUS
 62
     7
 10
450.4999999999999
 20
71.73033704837887
  0
VERTEX
  8
1
  6
CONTINUOUS
 62
     7
 10
450.597545161008
 20
71.73990784927268
  0
VERTEX
  8
1
  6
CONTINUOUS
 62
     7
 10
450.6913417161825
 20
71.76825245144313
  0
VERTEX
  8
1
  6
CONTINUOUS
 62
     7
 10
450.7777851165098
 20
71.81428158772465
  0
VERTEX
  8
1
  6
CONTINUOUS
 62
     7
 10
450.8535533905933
 20
71.87622638422339
  0
VERTEX
  8
1
  6
CONTINUOUS
 62
     7
 10
450.9157348061513
 20
71.95170633714892
  0
VERTEX
  8
1
  6
CONTINUOUS
 62
     7
 10
450.9619397662557
 20
72.03782079423996
  0
VERTEX
  8
1
  6
CONTINUOUS
 62
     7
 10
450.9903926402016
 20
72.13126042520408
  0
VERTEX
  8
1
  6
CONTINUOUS
 62
     7
 10
451.0
 20
72.22843439742483
  0
SEQEND
  8
1
  6
CONTINUOUS
 62
     7
  0
POLYLINE
  8
1
  6
CONTINUOUS
 62
     7
 66
     1
  0
VERTEX
  8
1
  6
CONTINUOUS
 62
     7
 10
452.2143774267939
 20
72.46999057518289
  0
VERTEX
  8
1
  6
CONTINUOUS
 62
     7
 10
452.2592725088753
 20
72.36106553689967
  0
VERTEX
  8
1
  6
CONTINUOUS
 62
     7
 10
452.4422659381691
 20
72.23245255084508
  0
SEQEND
  8
1
  6
CONTINUOUS
 62
     7
  0
ARC
  8
1
  6
CONTINUOUS
 62
     7
 10
464.2218499033018
 20
131.4196000307533
 40
60.34796620599589
 50
258.7439209348811
 51
272.4347947962536
  0
ARC
  8
1
  6
CONTINUOUS
 62
     7
 10
469.6882782866835
 20
145.3583080294014
 40
74.28892351004511
 50
267.7607034724384
 51
279.8575801625191
  0
POLYLINE
  8
1
  6
CONTINUOUS
 62
     7
 66
     1
  0
VERTEX
  8
1
  6
CONTINUOUS
 62
     7
 10
482.4065205918786
 20
72.16616043864083
  0
VERTEX
  8
1
  6
CONTINUOUS
 62
     7
 10
482.5518975650651
 20
72.22908579327549
  0
VERTEX
  8
1
  6
CONTINUOUS
 62
     7
 10
482.6621379751747
 20
72.29270321432388
  0
VERTEX
  8
1
  6
CONTINUOUS
 62
     7
 10
482.7768367859174
 20
72.42144023800162
  0
VERTEX
  8
1
  6
CONTINUOUS
 62
     7
 10
482.785622439197
 20
72.46999244889854
  0
SEQEND
  8
1
  6
CONTINUOUS
 62
     7
  0
POLYLINE
  8
1
  6
CONTINUOUS
 62
     7
 66
     1
  0
VERTEX
  8
1
  6
CONTINUOUS
 62
     7
 10
452.2143768847418
 20
229.0300170081296
  0
VERTEX
  8
1
  6
CONTINUOUS
 62
     7
 10
452.2955464674037
 20
229.1750965046724
  0
VERTEX
  8
1
  6
CONTINUOUS
 62
     7
 10
452.3898213032729
 20
229.2394081687012
  0
SEQEND
  8
1
  6
CONTINUOUS
 62
     7
  0
ARC
  8
1
  6
CONTINUOUS
 62
     7
 10
463.0776488043485
 20
180.4097580668945
 40
49.9856417959959
 50
87.77232479490613
 51
102.346188323963
  0
ARC
  8
1
  6
CONTINUOUS
 62
     7
 10
468.8206632164293
 20
145.530339709501
 40
84.91235754162997
 50
80.84351215162154
 51
92.56499188179822
  0
POLYLINE
  8
1
  6
CONTINUOUS
 62
     7
 66
     1
  0
VERTEX
  8
1
  6
CONTINUOUS
 62
     7
 10
482.332892381309
 20
229.3606929610135
  0
VERTEX
  8
1
  6
CONTINUOUS
 62
     7
 10
482.4940127022926
 20
229.2975861358512
  0
VERTEX
  8
1
  6
CONTINUOUS
 62
     7
 10
482.6202113159785
 20
229.2339920644427
  0
VERTEX
  8
1
  6
CONTINUOUS
 62
     7
 10
482.7109072016392
 20
229.1701277128417
  0
VERTEX
  8
1
  6
CONTINUOUS
 62
     7
 10
482.7845462767636
 20
229.0412566351521
  0
VERTEX
  8
1
  6
CONTINUOUS
 62
     7
 10
482.785623261375
 20
229.030019053496
  0
SEQEND
  8
1
  6
CONTINUOUS
 62
     7
  0
POLYLINE
  8
1
  6
CONTINUOUS
 62
     7
 66
     1
  0
VERTEX
  8
1
  6
CONTINUOUS
 62
     7
 10
447.7856229671967
 20
229.0300149360586
  0
VERTEX
  8
1
  6
CONTINUOUS
 62
     7
 10
447.7367967126599
 20
229.1449616721531
  0
VERTEX
  8
1
  6
CONTINUOUS
 62
     7
 10
447.6044155388559
 20
229.2432481568115
  0
SEQEND
  8
1
  6
CONTINUOUS
 62
     7
  0
ARC
  8
1
  6
CONTINUOUS
 62
     7
 10
436.3687283466696
 20
176.136839638023
 40
54.28196102247142
 50
78.05413002273822
 51
92.46350380288122
  0
ARC
  8
1
  6
CONTINUOUS
 62
     7
 10
430.6683712786476
 20
152.3807074757846
 40
78.0605811795674
 50
87.52777065231892
 51
99.62640330513425
  0
POLYLINE
  8
1
  6
CONTINUOUS
 62
     7
 66
     1
  0
VERTEX
  8
1
  6
CONTINUOUS
 62
     7
 10
417.6148388880568
 20
229.3421239532614
  0
VERTEX
  8
1
  6
CONTINUOUS
 62
     7
 10
417.4836077833363
 20
229.2878470540132
  0
VERTEX
  8
1
  6
CONTINUOUS
 62
     7
 10
417.3714519802496
 20
229.229174337711
  0
VERTEX
  8
1
  6
CONTINUOUS
 62
     7
 10
417.2890927983625
 20
229.1701277128428
  0
VERTEX
  8
1
  6
CONTINUOUS
 62
     7
 10
417.2160511819667
 20
229.0596215659494
  0
VERTEX
  8
1
  6
CONTINUOUS
 62
     7
 10
417.2143771743449
 20
229.0300129557166
  0
SEQEND
  8
1
  6
CONTINUOUS
 62
     7
  0
POLYLINE
  8
1
  6
CONTINUOUS
 62
     7
 66
     1
  0
VERTEX
  8
1
  6
CONTINUOUS
 62
     7
 10
447.7856225732061
 20
72.46999057518293
  0
VERTEX
  8
1
  6
CONTINUOUS
 62
     7
 10
447.7407274911267
 20
72.36106553690172
  0
VERTEX
  8
1
  6
CONTINUOUS
 62
     7
 10
447.5577340618346
 20
72.23245255084674
  0
SEQEND
  8
1
  6
CONTINUOUS
 62
     7
  0
ARC
  8
1
  6
CONTINUOUS
 62
     7
 10
435.7781500967126
 20
131.4196000305583
 40
60.3479662058009
 50
267.5652052037409
 51
281.2560790651453
  0
ARC
  8
1
  6
CONTINUOUS
 62
     7
 10
430.3117217133282
 20
145.3583080295856
 40
74.28892351022931
 50
260.1424198374984
 51
272.2392965275601
  0
POLYLINE
  8
1
  6
CONTINUOUS
 62
     7
 66
     1
  0
VERTEX
  8
1
  6
CONTINUOUS
 62
     7
 10
417.5934794081238
 20
72.16616043863966
  0
VERTEX
  8
1
  6
CONTINUOUS
 62
     7
 10
417.4481024349365
 20
72.22908579327442
  0
VERTEX
  8
1
  6
CONTINUOUS
 62
     7
 10
417.3378620248266
 20
72.29270321432271
  0
VERTEX
  8
1
  6
CONTINUOUS
 62
     7
 10
417.2231632140829
 20
72.42144023800023
  0
VERTEX
  8
1
  6
CONTINUOUS
 62
     7
 10
417.214377560803
 20
72.4699924488985
  0
SEQEND
  8
1
  6
CONTINUOUS
 62
     7
  0
POLYLINE
  8
1
  6
CONTINUOUS
 62
     7
 66
     1
  0
VERTEX
  8
1
  6
CONTINUOUS
 62
     7
 10
420.9643045997219
 20
228.032041689157
  0
VERTEX
  8
1
  6
CONTINUOUS
 62
     7
 10
421.0435008946188
 20
228.1561246611226
  0
VERTEX
  8
1
  6
CONTINUOUS
 62
     7
 10
421.1369708547316
 20
228.211988386903
  0
SEQEND
  8
1
  6
CONTINUOUS
 62
     7
  0
ARC
  8
1
  6
CONTINUOUS
 62
     7
 10
432.0204929683404
 20
164.6606538332905
 40
64.47653198755803
 50
86.09692853186938
 51
99.71795083586345
  0
ARC
  8
1
  6
CONTINUOUS
 62
     7
 10
436.7563587279946
 20
195.200040257458
 40
33.78938279785324
 50
78.0208195018655
 51
90.58845552751222
  0
POLYLINE
  8
1
  6
CONTINUOUS
 62
     7
 66
     1
  0
VERTEX
  8
1
  6
CONTINUOUS
 62
     7
 10
443.7695562682405
 20
228.2535945311114
  0
VERTEX
  8
1
  6
CONTINUOUS
 62
     7
 10
443.9266200475147
 20
228.1764897685443
  0
VERTEX
  8
1
  6
CONTINUOUS
 62
     7
 10
444.0138112965782
 20
228.1004360199474
  0
VERTEX
  8
1
  6
CONTINUOUS
 62
     7
 10
444.0356952300222
 20
228.0320393072411
  0
SEQEND
  8
1
  6
CONTINUOUS
 62
     7
  0
POLYLINE
  8
1
  6
CONTINUOUS
 62
     7
 66
     1
  0
VERTEX
  8
1
  6
CONTINUOUS
 62
     7
 10
479.0356955125334
 20
228.0320432601294
  0
VERTEX
  8
1
  6
CONTINUOUS
 62
     7
 10
478.9742358369884
 20
228.1417002236012
  0
VERTEX
  8
1
  6
CONTINUOUS
 62
     7
 10
478.8052391024601
 20
228.2384351856018
  0
SEQEND
  8
1
  6
CONTINUOUS
 62
     7
  0
ARC
  8
1
  6
CONTINUOUS
 62
     7
 10
467.683242224598
 20
159.1947219624035
 40
69.93377689070148
 50
80.84904609577437
 51
93.95133790360502
  0
ARC
  8
1
  6
CONTINUOUS
 62
     7
 10
462.4317087361247
 20
202.7871582817073
 40
26.1786756243751
 50
89.05347250596442
 51
104.0218165267663
  0
POLYLINE
  8
1
  6
CONTINUOUS
 62
     7
 66
     1
  0
VERTEX
  8
1
  6
CONTINUOUS
 62
     7
 10
456.0888423979542
 20
228.185802026253
  0
VERTEX
  8
1
  6
CONTINUOUS
 62
     7
 10
455.9792360033831
 20
228.0891107058364
  0
VERTEX
  8
1
  6
CONTINUOUS
 62
     7
 10
455.9643043768709
 20
228.0320448082642
  0
SEQEND
  8
1
  6
CONTINUOUS
 62
     7
  0
POLYLINE
  8
1
  6
CONTINUOUS
 62
     7
 66
     1
  0
VERTEX
  8
1
  6
CONTINUOUS
 62
     7
 10
420.9643048291311
 20
73.46796152011326
  0
VERTEX
  8
1
  6
CONTINUOUS
 62
     7
 10
421.0076399610157
 20
73.37498006876679
  0
VERTEX
  8
1
  6
CONTINUOUS
 62
     7
 10
421.1583924340058
 20
73.27798358672129
  0
SEQEND
  8
1
  6
CONTINUOUS
 62
     7
  0
ARC
  8
1
  6
CONTINUOUS
 62
     7
 10
432.2347372706393
 20
140.0939435452896
 40
67.72782234890643
 50
260.5874521211839
 51
274.0000333464019
  0
ARC
  8
1
  6
CONTINUOUS
 62
     7
 10
437.3582460631987
 20
100.5669618183325
 40
28.03869561568212
 50
269.184602916181
 51
283.4533214896321
  0
POLYLINE
  8
1
  6
CONTINUOUS
 62
     7
 66
     1
  0
VERTEX
  8
1
  6
CONTINUOUS
 62
     7
 10
443.8815355974231
 20
73.2976540625139
  0
VERTEX
  8
1
  6
CONTINUOUS
 62
     7
 10
444.0094088862242
 20
73.39412728075921
  0
VERTEX
  8
1
  6
CONTINUOUS
 62
     7
 10
444.0356953145231
 20
73.46795951068596
  0
SEQEND
  8
1
  6
CONTINUOUS
 62
     7
  0
POLYLINE
  8
1
  6
CONTINUOUS
 62
     7
 66
     1
  0
VERTEX
  8
1
  6
CONTINUOUS
 62
     7
 10
479.0356951708689
 20
73.4679615201128
  0
VERTEX
  8
1
  6
CONTINUOUS
 62
     7
 10
478.9923600389786
 20
73.37498006876109
  0
VERTEX
  8
1
  6
CONTINUOUS
 62
     7
 10
478.8416075659829
 20
73.27798358671608
  0
SEQEND
  8
1
  6
CONTINUOUS
 62
     7
  0
ARC
  8
1
  6
CONTINUOUS
 62
     7
 10
467.7652627293373
 20
140.0939435459392
 40
67.72782234955437
 50
265.9999666536139
 51
279.4125478787356
  0
ARC
  8
1
  6
CONTINUOUS
 62
     7
 10
462.641753936744
 20
100.5669618178221
 40
28.03869561517001
 50
256.5466785102215
 51
270.8153970838492
  0
POLYLINE
  8
1
  6
CONTINUOUS
 62
     7
 66
     1
  0
VERTEX
  8
1
  6
CONTINUOUS
 62
     7
 10
456.118464402569
 20
73.29765406251826
  0
VERTEX
  8
1
  6
CONTINUOUS
 62
     7
 10
455.9905911137727
 20
73.39412728076363
  0
VERTEX
  8
1
  6
CONTINUOUS
 62
     7
 10
455.9643046854769
 20
73.4679595106864
  0
SEQEND
  8
1
  6
CONTINUOUS
 62
     7
  0
ARC
  8
1
  6
CONTINUOUS
 62
     7
 10
469.5192049987158
 20
210.1606861306278
 40
17.19384444897486
 50
79.99871612616295
 51
91.73043196656198
  0
LINE
  8
1
  6
CONTINUOUS
 62
     7
 10
472.5052641770695
 20
227.0932505412218
 11
472.5707486220377
 21
227.0344795269578
  0
LINE
  8
1
  6
CONTINUOUS
 62
     7
 10
469.0
 20
227.3466895376114
 11
466.0
 21
227.3466895376114
  0
ARC
  8
1
  6
CONTINUOUS
 62
     7
 10
465.480795001285
 20
210.1606861306167
 40
17.1938444489859
 50
88.2695680334418
 51
100.0012838738339
  0
LINE
  8
1
  6
CONTINUOUS
 62
     7
 10
462.4947358229304
 20
227.0932505412217
 11
462.4292513779623
 21
227.0344795269578
  0
LINE
  8
1
  6
CONTINUOUS
 62
     7
 10
437.5707486220377
 20
227.0344795269578
 11
437.4631701277649
 21
227.1097438933665
  0
ARC
  8
1
  6
CONTINUOUS
 62
     7
 10
434.4479615546957
 20
208.4669239874567
 40
18.88507921040566
 50
80.81278632337494
 51
91.35920605258885
  0
LINE
  8
1
  6
CONTINUOUS
 62
     7
 10
434.0
 20
227.3466895376114
 11
431.0
 21
227.3466895376114
  0
ARC
  8
1
  6
CONTINUOUS
 62
     7
 10
430.4807950012852
 20
210.1606861306144
 40
17.19384444898825
 50
88.26956803344274
 51
100.0012838738331
  0
LINE
  8
1
  6
CONTINUOUS
 62
     7
 10
427.4947358229304
 20
227.0932505412217
 11
427.4292513779623
 21
227.0344795269578
  0
ARC
  8
1
  6
CONTINUOUS
 62
     7
 10
430.5678208680275
 20
94.10708682844091
 40
19.95845610433189
 50
261.4581416557523
 51
271.2407761231109
  0
POLYLINE
  8
1
  6
CONTINUOUS
 62
     7
 66
     1
  0
VERTEX
  8
1
  6
CONTINUOUS
 62
     7
 10
427.6033532041003
 20
74.37001760481826
  0
VERTEX
  8
1
  6
CONTINUOUS
 62
     7
 10
427.4859491549378
 20
74.41085766953509
  0
VERTEX
  8
1
  6
CONTINUOUS
 62
     7
 10
427.4292513779623
 20
74.46552047304219
  0
SEQEND
  8
1
  6
CONTINUOUS
 62
     7
  0
LINE
  8
1
  6
CONTINUOUS
 62
     7
 10
431.0
 20
74.15331046238855
 11
434.0
 21
74.15331046238855
  0
ARC
  8
1
  6
CONTINUOUS
 62
     7
 10
434.4321791319707
 20
94.1070868284753
 40
19.95845610436623
 50
268.7592238768961
 51
278.5418583442393
  0
POLYLINE
  8
1
  6
CONTINUOUS
 62
     7
 66
     1
  0
VERTEX
  8
1
  6
CONTINUOUS
 62
     7
 10
437.3966467959001
 20
74.37001760481824
  0
VERTEX
  8
1
  6
CONTINUOUS
 62
     7
 10
437.5140508450623
 20
74.41085766953509
  0
VERTEX
  8
1
  6
CONTINUOUS
 62
     7
 10
437.5707486220377
 20
74.46552047304218
  0
SEQEND
  8
1
  6
CONTINUOUS
 62
     7
  0
LINE
  8
1
  6
CONTINUOUS
 62
     7
 10
462.4292513779623
 20
74.4655204730422
 11
462.5422033545289
 21
74.38842580467123
  0
ARC
  8
1
  6
CONTINUOUS
 62
     7
 10
465.5337187565526
 20
92.83993750556606
 40
18.69244361898155
 50
260.7908543018468
 51
271.4293860821662
  0
LINE
  8
1
  6
CONTINUOUS
 62
     7
 10
466.0
 20
74.15331046238855
 11
469.0
 21
74.15331046238855
  0
ARC
  8
1
  6
CONTINUOUS
 62
     7
 10
469.4321791319729
 20
94.10708682844081
 40
19.9584561043318
 50
268.7592238768877
 51
278.5418583442473
  0
POLYLINE
  8
1
  6
CONTINUOUS
 62
     7
 66
     1
  0
VERTEX
  8
1
  6
CONTINUOUS
 62
     7
 10
472.3966467959
 20
74.37001760481823
  0
VERTEX
  8
1
  6
CONTINUOUS
 62
     7
 10
472.5140508450623
 20
74.41085766953506
  0
VERTEX
  8
1
  6
CONTINUOUS
 62
     7
 10
472.5707486220377
 20
74.46552047304218
  0
SEQEND
  8
1
  6
CONTINUOUS
 62
     7
  0
LINE
  8
1
  6
CONTINUOUS
 62
     7
 10
428.4662575430688
 20
75.9541262878014
 11
428.5753763977557
 21
76.01772981192781
  0
ARC
  8
1
  6
CONTINUOUS
 62
     7
 10
430.7479154906849
 20
61.38245970920321
 40
14.79564317932849
 50
89.02376144362438
 51
98.44363598442236
  0
ARC
  8
1
  6
CONTINUOUS
 62
     7
 10
434.2306590312486
 20
60.77077728633888
 40
15.40690468142735
 50
81.89723254078837
 51
90.85781557084499
  0
POLYLINE
  8
1
  6
CONTINUOUS
 62
     7
 66
     1
  0
VERTEX
  8
1
  6
CONTINUOUS
 62
     7
 10
436.4022476276904
 20
76.02387254043049
  0
VERTEX
  8
1
  6
CONTINUOUS
 62
     7
 10
436.5094079217666
 20
75.9841624883253
  0
VERTEX
  8
1
  6
CONTINUOUS
 62
     7
 10
436.5337424569312
 20
75.95412628780142
  0
SEQEND
  8
1
  6
CONTINUOUS
 62
     7
  0
LINE
  8
1
  6
CONTINUOUS
 62
     7
 10
463.4662575430689
 20
75.9541262878014
 11
463.5626550515072
 21
76.01393708701812
  0
ARC
  8
1
  6
CONTINUOUS
 62
     7
 10
465.7231425972406
 20
61.92660799848455
 40
14.25203660126907
 50
88.88691286823438
 51
98.71916733700118
  0
ARC
  8
1
  6
CONTINUOUS
 62
     7
 10
469.2520845092994
 20
61.38245970897922
 40
14.79564317955241
 50
81.55636401564516
 51
90.97623855635153
  0
POLYLINE
  8
1
  6
CONTINUOUS
 62
     7
 66
     1
  0
VERTEX
  8
1
  6
CONTINUOUS
 62
     7
 10
471.4246236022442
 20
76.01772981192786
  0
VERTEX
  8
1
  6
CONTINUOUS
 62
     7
 10
471.521231033339
 20
75.97555663451772
  0
VERTEX
  8
1
  6
CONTINUOUS
 62
     7
 10
471.5337424569312
 20
75.9541262878014
  0
SEQEND
  8
1
  6
CONTINUOUS
 62
     7
  0
LINE
  8
1
  6
CONTINUOUS
 62
     7
 10
471.5337424569312
 20
225.5458737121986
 11
471.4241794762268
 21
225.4821420177748
  0
ARC
  8
1
  6
CONTINUOUS
 62
     7
 10
469.2509846165859
 20
240.1401679422436
 40
14.8182488810374
 50
269.0295042936514
 51
278.4332243800885
  0
ARC
  8
1
  6
CONTINUOUS
 62
     7
 10
465.7682586749214
 20
240.6973149938716
 40
15.37501681996811
 50
261.8797502378252
 51
270.8636284968654
  0
POLYLINE
  8
1
  6
CONTINUOUS
 62
     7
 66
     1
  0
VERTEX
  8
1
  6
CONTINUOUS
 62
     7
 10
463.5965202942721
 20
225.4764512003703
  0
VERTEX
  8
1
  6
CONTINUOUS
 62
     7
 10
463.4902622305878
 20
225.5160420969228
  0
VERTEX
  8
1
  6
CONTINUOUS
 62
     7
 10
463.4662575430689
 20
225.5458737121986
  0
SEQEND
  8
1
  6
CONTINUOUS
 62
     7
  0
LINE
  8
1
  6
CONTINUOUS
 62
     7
 10
436.5337424569312
 20
225.5458737121986
 11
436.4384113309843
 21
225.4863927161866
  0
ARC
  8
1
  6
CONTINUOUS
 62
     7
 10
434.2781133926952
 20
239.5401046297212
 40
14.21878003665569
 50
268.879247037736
 51
278.7389472056141
  0
ARC
  8
1
  6
CONTINUOUS
 62
     7
 10
430.7490153834297
 20
240.1401679424606
 40
14.81824888125444
 50
261.5667756199754
 51
270.9704957063268
  0
POLYLINE
  8
1
  6
CONTINUOUS
 62
     7
 66
     1
  0
VERTEX
  8
1
  6
CONTINUOUS
 62
     7
 10
428.5758205237732
 20
225.4821420177748
  0
VERTEX
  8
1
  6
CONTINUOUS
 62
     7
 10
428.4788207738073
 20
225.5243992523241
  0
VERTEX
  8
1
  6
CONTINUOUS
 62
     7
 10
428.4662575430688
 20
225.5458737121986
  0
SEQEND
  8
1
  6
CONTINUOUS
 62
     7
  0
LINE
  8
1
  6
CONTINUOUS
 62
     7
 10
433.9999999999943
 20
76.17976055780954
 11
433.9999999999943
 21
76.1704404898224
  0
LINE
  8
1
  6
CONTINUOUS
 62
     7
 10
437.5313065071909
 20
75.02742261901109
 11
437.5306429277496
 21
75.03329311327379
  0
LINE
  8
1
  6
CONTINUOUS
 62
     7
 10
462.4693570990041
 20
75.03329323168933
 11
462.468693492809
 21
75.0274226190111
  0
LINE
  8
1
  6
CONTINUOUS
 62
     7
 10
466.0000000000057
 20
225.3202394421905
 11
466.0000000000057
 21
225.3295595101744
  0
LINE
  8
1
  6
CONTINUOUS
 62
     7
 10
462.4686934928091
 20
226.4725773809889
 11
462.4693231526078
 21
226.4668589886759
  0
LINE
  8
1
  6
CONTINUOUS
 62
     7
 10
437.5306768186364
 20
226.4668588580194
 11
437.531306507191
 21
226.4725773809889
  0
ARC
  8
1
  6
CONTINUOUS
 62
     7
 10
484.0
 20
224.9499093082074
 40
0.8967456166468629
 50
359.9999999999991
 51
90.0
  0
ARC
  8
1
  6
CONTINUOUS
 62
     7
 10
416.0
 20
76.55009069179259
 40
0.8967456166468907
 50
180.0
 51
270.0
  0
ARC
  8
1
  6
CONTINUOUS
 62
     7
 10
416.0
 20
224.9499093082074
 40
0.8967456166468629
 50
90.0
 51
180.0000000000009
  0
ARC
  8
1
  6
CONTINUOUS
 62
     7
 10
484.0
 20
76.55009069179259
 40
0.8967456166468907
 50
269.9999999999991
 51
0.0
  0
LINE
  8
1
  6
CONTINUOUS
 62
     7
 10
416.0
 20
225.8466549248543
 11
427.7508860685081
 21
225.8466549248543
  0
LINE
  8
1
  6
CONTINUOUS
 62
     7
 10
437.2564125564432
 20
225.8466549248543
 11
462.7410775560604
 21
225.8466549248543
  0
LINE
  8
1
  6
CONTINUOUS
 62
     7
 10
472.2490947593106
 20
225.8466549248543
 11
484.0
 21
225.8466549248543
  0
LINE
  8
1
  6
CONTINUOUS
 62
     7
 10
484.0
 20
75.6533450751457
 11
472.2491265625758
 21
75.6533450751457
  0
LINE
  8
1
  6
CONTINUOUS
 62
     7
 10
462.7436464052745
 20
75.6533450751457
 11
437.2588200799701
 21
75.6533450751457
  0
LINE
  8
1
  6
CONTINUOUS
 62
     7
 10
427.7508933739039
 20
75.6533450751457
 11
416.0
 21
75.65334507514571
  0
LINE
  8
1
  6
CONTINUOUS
 62
     7
 10
484.8967456166469
 20
76.55009069179259
 11
484.8967456166469
 21
224.9499093082073
  0
LINE
  8
1
  6
CONTINUOUS
 62
     7
 10
415.1032543833531
 20
76.55009069179259
 11
415.1032543833531
 21
224.9499093082073
  0
ARC
  8
1
  6
CONTINUOUS
 62
     7
 10
416.0
 20
224.7749319811556
 40
0.8967456166468629
 50
90.0
 51
179.9999999999991
  0
ARC
  8
1
  6
CONTINUOUS
 62
     7
 10
484.0
 20
76.72506801884444
 40
0.8967456166468768
 50
269.9999999999995
 51
359.9999999999991
  0
ARC
  8
1
  6
CONTINUOUS
 62
     7
 10
416.0
 20
76.72506801884444
 40
0.8967456166468768
 50
180.0000000000009
 51
270.0000000000005
  0
ARC
  8
1
  6
CONTINUOUS
 62
     7
 10
484.0
 20
224.7749319811556
 40
0.8967456166468629
 50
0.0000000000008867
 51
90.0
  0
LINE
  8
1
  6
CONTINUOUS
 62
     7
 10
484.0
 20
75.82832240219756
 11
472.0409133779227
 21
75.82832240219756
  0
LINE
  8
1
  6
CONTINUOUS
 62
     7
 10
462.9541654445945
 20
75.82832240219756
 11
437.0506264554415
 21
75.82832240219756
  0
LINE
  8
1
  6
CONTINUOUS
 62
     7
 10
427.9591154894363
 20
75.82832240219756
 11
416.0
 21
75.82832240219756
  0
LINE
  8
1
  6
CONTINUOUS
 62
     7
 10
416.0
 20
225.6716775978024
 11
427.9591140884489
 21
225.6716775978024
  0
LINE
  8
1
  6
CONTINUOUS
 62
     7
 10
437.04599160921
 20
225.6716775978024
 11
462.9492864688033
 21
225.6716775978024
  0
LINE
  8
1
  6
CONTINUOUS
 62
     7
 10
472.040857839039
 20
225.6716775978024
 11
484.0000000000001
 21
225.6716775978024
  0
ARC
  8
1
  6
CONTINUOUS
 62
     7
 10
484.0
 20
76.90004534589632
 40
0.8967456166468629
 50
269.9999999999995
 51
0.0
  0
ARC
  8
1
  6
CONTINUOUS
 62
     7
 10
416.0
 20
224.5999546541037
 40
0.8967456166468698
 50
90.0
 51
180.0
  0
ARC
  8
1
  6
CONTINUOUS
 62
     7
 10
484.0
 20
224.5999546541037
 40
0.8967456166468698
 50
359.9999999999991
 51
90.0
  0
ARC
  8
1
  6
CONTINUOUS
 62
     7
 10
416.0
 20
76.90004534589632
 40
0.8967456166468629
 50
180.0
 51
270.0000000000005
  0
LINE
  8
1
  6
CONTINUOUS
 62
     7
 10
484.0
 20
76.00329972924943
 11
471.6010550475164
 21
76.00329972924943
  0
LINE
  8
1
  6
CONTINUOUS
 62
     7
 10
463.3942730323408
 20
76.00329972924943
 11
436.6114615097225
 21
76.00329972924943
  0
LINE
  8
1
  6
CONTINUOUS
 62
     7
 10
428.4033736210769
 20
76.00329972924943
 11
416.0
 21
76.00329972924943
  0
LINE
  8
1
  6
CONTINUOUS
 62
     7
 10
416.0
 20
225.4967002707506
 11
428.3990748621108
 21
225.4967002707506
  0
LINE
  8
1
  6
CONTINUOUS
 62
     7
 10
436.6059076318094
 20
225.4967002707506
 11
463.3887599431864
 21
225.4967002707506
  0
LINE
  8
1
  6
CONTINUOUS
 62
     7
 10
471.5964930326122
 20
225.4967002707506
 11
484.0
 21
225.4967002707506
  0
ARC
  8
1
  6
CONTINUOUS
 62
     7
 10
416.0
 20
224.4249773270519
 40
0.8967456166468698
 50
89.99999999999955
 51
180.0
  0
ARC
  8
1
  6
CONTINUOUS
 62
     7
 10
484.0
 20
77.07502267294817
 40
0.8967456166468629
 50
270.0000000000013
 51
0.0
  0
ARC
  8
1
  6
CONTINUOUS
 62
     7
 10
484.0
 20
224.4249773270519
 40
0.8967456166468698
 50
0.0
 51
90.00000000000044
  0
ARC
  8
1
  6
CONTINUOUS
 62
     7
 10
416.0
 20
77.07502267294817
 40
0.8967456166468629
 50
180.0
 51
270.0000000000005
  0
LINE
  8
1
  6
CONTINUOUS
 62
     7
 10
416.0
 20
225.3217229436987
 11
430.9446873063523
 21
225.3217229436987
  0
LINE
  8
1
  6
CONTINUOUS
 62
     7
 10
434.0596938347976
 20
225.3217229436987
 11
466.000000000005
 21
225.3217229436987
  0
LINE
  8
1
  6
CONTINUOUS
 62
     7
 10
469.0563009144651
 20
225.3217229436987
 11
484.0
 21
225.3217229436987
  0
LINE
  8
1
  6
CONTINUOUS
 62
     7
 10
484.0000000000001
 20
76.1782770563013
 11
469.0554355418918
 21
76.17827705630128
  0
LINE
  8
1
  6
CONTINUOUS
 62
     7
 10
465.9403895744059
 20
76.17827705630128
 11
433.9999999999951
 21
76.17827705630128
  0
LINE
  8
1
  6
CONTINUOUS
 62
     7
 10
430.9435740327869
 20
76.17827705630128
 11
416.0
 21
76.17827705630128
  0
POLYLINE
  8
1
  6
CONTINUOUS
 62
     7
 66
     1
  0
VERTEX
  8
1
  6
CONTINUOUS
 62
     7
 10
482.7810262467736
 20
72.53547093856027
  0
VERTEX
  8
1
  6
CONTINUOUS
 62
     7
 10
482.7597723961246
 20
72.6871426269445
  0
VERTEX
  8
1
  6
CONTINUOUS
 62
     7
 10
482.7222598317506
 20
72.82213739689885
  0
VERTEX
  8
1
  6
CONTINUOUS
 62
     7
 10
482.6739200200451
 20
72.93985671723486
  0
VERTEX
  8
1
  6
CONTINUOUS
 62
     7
 10
482.6095426357156
 20
73.0568537599962
  0
VERTEX
  8
1
  6
CONTINUOUS
 62
     7
 10
482.5433908123181
 20
73.15178595171815
  0
VERTEX
  8
1
  6
CONTINUOUS
 62
     7
 10
482.4561900561637
 20
73.25312701833933
  0
VERTEX
  8
1
  6
CONTINUOUS
 62
     7
 10
482.3151905720591
 20
73.38066311159774
  0
SEQEND
  8
1
  6
CONTINUOUS
 62
     7
  0
ARC
  8
1
  6
CONTINUOUS
 62
     7
 10
478.5062277510816
 20
65.31052188720668
 40
8.92386559475232
 50
64.73352465095599
 51
88.67052919965062
  0
ARC
  8
1
  6
CONTINUOUS
 62
     7
 10
456.0745905528977
 20
67.38163464535062
 40
6.853829942509319
 50
88.2132469278986
 51
120.9426218094167
  0
POLYLINE
  8
1
  6
CONTINUOUS
 62
     7
 66
     1
  0
VERTEX
  8
1
  6
CONTINUOUS
 62
     7
 10
452.550492271647
 20
73.26004567086797
  0
VERTEX
  8
1
  6
CONTINUOUS
 62
     7
 10
452.452272838088
 20
73.14610668605766
  0
VERTEX
  8
1
  6
CONTINUOUS
 62
     7
 10
452.376886510653
 20
73.03465727447795
  0
VERTEX
  8
1
  6
CONTINUOUS
 62
     7
 10
452.3059329478824
 20
72.89521624929792
  0
VERTEX
  8
1
  6
CONTINUOUS
 62
     7
 10
452.2595997814256
 20
72.76487500612033
  0
VERTEX
  8
1
  6
CONTINUOUS
 62
     7
 10
452.2276332060959
 20
72.6162795555852
  0
VERTEX
  8
1
  6
CONTINUOUS
 62
     7
 10
452.2189742916336
 20
72.53547866694049
  0
SEQEND
  8
1
  6
CONTINUOUS
 62
     7
  0
LINE
  8
1
  6
CONTINUOUS
 62
     7
 10
452.2190165678319
 20
72.53607977855805
 11
452.2143493868634
 21
72.46959119117099
  0
LINE
  8
1
  6
CONTINUOUS
 62
     7
 10
482.7856506131366
 20
72.469591191171
 11
482.780983432168
 21
72.53607977855806
  0
POLYLINE
  8
1
  6
CONTINUOUS
 62
     7
 66
     1
  0
VERTEX
  8
1
  6
CONTINUOUS
 62
     7
 10
452.2189769410276
 20
228.9644834106954
  0
VERTEX
  8
1
  6
CONTINUOUS
 62
     7
 10
452.2392585835835
 20
228.8174959116642
  0
VERTEX
  8
1
  6
CONTINUOUS
 62
     7
 10
452.2750160716658
 20
228.6858297797297
  0
VERTEX
  8
1
  6
CONTINUOUS
 62
     7
 10
452.3213927647172
 20
228.57009652012
  0
VERTEX
  8
1
  6
CONTINUOUS
 62
     7
 10
452.3843112452898
 20
228.4530729421901
  0
VERTEX
  8
1
  6
CONTINUOUS
 62
     7
 10
452.4602017010218
 20
228.3435946703669
  0
VERTEX
  8
1
  6
CONTINUOUS
 62
     7
 10
452.5604647107314
 20
228.2298090738832
  0
VERTEX
  8
1
  6
CONTINUOUS
 62
     7
 10
452.6671064128354
 20
228.1334465900598
  0
VERTEX
  8
1
  6
CONTINUOUS
 62
     7
 10
452.7673157056905
 20
228.0586712608332
  0
VERTEX
  8
1
  6
CONTINUOUS
 62
     7
 10
452.9136013561687
 20
227.9690376086627
  0
SEQEND
  8
1
  6
CONTINUOUS
 62
     7
  0
ARC
  8
1
  6
CONTINUOUS
 62
     7
 10
456.9011900235981
 20
238.6921541886178
 40
11.44054599081345
 50
249.6014206094098
 51
266.9128627332735
  0
ARC
  8
1
  6
CONTINUOUS
 62
     7
 10
478.5892201617966
 20
235.6356187748005
 40
8.368917888195433
 50
270.819260012214
 51
296.9568558450783
  0
POLYLINE
  8
1
  6
CONTINUOUS
 62
     7
 66
     1
  0
VERTEX
  8
1
  6
CONTINUOUS
 62
     7
 10
482.3830133025406
 20
228.1759994665113
  0
VERTEX
  8
1
  6
CONTINUOUS
 62
     7
 10
482.4952627157228
 20
228.2895816009418
  0
VERTEX
  8
1
  6
CONTINUOUS
 62
     7
 10
482.5710703292026
 20
228.3857217789144
  0
VERTEX
  8
1
  6
CONTINUOUS
 62
     7
 10
482.6493016172182
 20
228.5117988314249
  0
VERTEX
  8
1
  6
CONTINUOUS
 62
     7
 10
482.7128960042031
 20
228.652113890673
  0
VERTEX
  8
1
  6
CONTINUOUS
 62
     7
 10
482.7565094584596
 20
228.7980743696219
  0
VERTEX
  8
1
  6
CONTINUOUS
 62
     7
 10
482.7810225869673
 20
228.964476673227
  0
SEQEND
  8
1
  6
CONTINUOUS
 62
     7
  0
LINE
  8
1
  6
CONTINUOUS
 62
     7
 10
482.780983425922
 20
228.9639201324615
 11
482.7856506041901
 21
229.0304086813773
  0
LINE
  8
1
  6
CONTINUOUS
 62
     7
 10
452.21434939581
 20
229.0304086813773
 11
452.219016574078
 21
228.9639201324615
  0
POLYLINE
  8
1
  6
CONTINUOUS
 62
     7
 66
     1
  0
VERTEX
  8
1
  6
CONTINUOUS
 62
     7
 10
417.2189774130327
 20
228.9644766732266
  0
VERTEX
  8
1
  6
CONTINUOUS
 62
     7
 10
417.2403574054146
 20
228.812378232443
  0
VERTEX
  8
1
  6
CONTINUOUS
 62
     7
 10
417.278091811473
 20
228.6770849171606
  0
VERTEX
  8
1
  6
CONTINUOUS
 62
     7
 10
417.3266485170616
 20
228.5592074516103
  0
VERTEX
  8
1
  6
CONTINUOUS
 62
     7
 10
417.3916466325593
 20
228.4414426150558
  0
VERTEX
  8
1
  6
CONTINUOUS
 62
     7
 10
417.4683531036079
 20
228.3332769263973
  0
SEQEND
  8
1
  6
CONTINUOUS
 62
     7
  0
ARC
  8
1
  6
CONTINUOUS
 62
     7
 10
420.1739981237059
 20
231.5549911741531
 40
4.207131762730274
 50
229.9759448017916
 51
274.4533041499139
  0
POLYLINE
  8
1
  6
CONTINUOUS
 62
     7
 66
     1
  0
VERTEX
  8
1
  6
CONTINUOUS
 62
     7
 10
420.5006675410567
 20
227.3605609672309
  0
VERTEX
  8
1
  6
CONTINUOUS
 62
     7
 10
420.901638017926
 20
227.3112188196752
  0
VERTEX
  8
1
  6
CONTINUOUS
 62
     7
 10
421.2867394646394
 20
227.2680263937455
  0
SEQEND
  8
1
  6
CONTINUOUS
 62
     7
  0
ARC
  8
1
  6
CONTINUOUS
 62
     7
 10
443.9631964432098
 20
233.9922658868136
 40
6.729359165327807
 50
267.8431477394032
 51
301.1179866218822
  0
POLYLINE
  8
1
  6
CONTINUOUS
 62
     7
 66
     1
  0
VERTEX
  8
1
  6
CONTINUOUS
 62
     7
 10
447.4409434434344
 20
228.2312286036144
  0
VERTEX
  8
1
  6
CONTINUOUS
 62
     7
 10
447.540480428453
 20
228.3444719575825
  0
VERTEX
  8
1
  6
CONTINUOUS
 62
     7
 10
447.6177464471942
 20
228.4564398038349
  0
VERTEX
  8
1
  6
CONTINUOUS
 62
     7
 10
447.6909500529258
 20
228.5975347602194
  0
VERTEX
  8
1
  6
CONTINUOUS
 62
     7
 10
447.7389456533124
 20
228.7301126481229
  0
VERTEX
  8
1
  6
CONTINUOUS
 62
     7
 10
447.7720897717659
 20
228.8818162989759
  0
VERTEX
  8
1
  6
CONTINUOUS
 62
     7
 10
447.7810230589724
 20
228.9644834106954
  0
SEQEND
  8
1
  6
CONTINUOUS
 62
     7
  0
LINE
  8
1
  6
CONTINUOUS
 62
     7
 10
447.7809834259221
 20
228.9639201324627
 11
447.78565060419
 21
229.0304086813771
  0
LINE
  8
1
  6
CONTINUOUS
 62
     7
 10
417.21434939581
 20
229.030408681377
 11
417.219016574078
 21
228.9639201324627
  0
POLYLINE
  8
1
  6
CONTINUOUS
 62
     7
 66
     1
  0
VERTEX
  8
1
  6
CONTINUOUS
 62
     7
 10
447.7810257083664
 20
72.53547866694043
  0
VERTEX
  8
1
  6
CONTINUOUS
 62
     7
 10
447.7565730330003
 20
72.70178746126983
  0
VERTEX
  8
1
  6
CONTINUOUS
 62
     7
 10
447.7129342201556
 20
72.84801969487125
  0
VERTEX
  8
1
  6
CONTINUOUS
 62
     7
 10
447.657152891918
 20
72.9735359231359
  0
VERTEX
  8
1
  6
CONTINUOUS
 62
     7
 10
447.5840927193075
 20
73.09570581950935
  0
VERTEX
  8
1
  6
CONTINUOUS
 62
     7
 10
447.5108595974349
 20
73.19218881247707
  0
SEQEND
  8
1
  6
CONTINUOUS
 62
     7
  0
ARC
  8
1
  6
CONTINUOUS
 62
     7
 10
446.3586693390552
 20
72.18985713497213
 40
1.527157877639109
 50
41.02117876780845
 51
65.60065745338244
  0
ARC
  8
1
  6
CONTINUOUS
 62
     7
 10
442.9353480583319
 20
61.75074226907982
 40
12.50529649636472
 50
71.08306064613468
 51
86.41858811463275
  0
ARC
  8
1
  6
CONTINUOUS
 62
     7
 10
421.306702480237
 20
66.61518546867289
 40
7.617002479499336
 50
90.13761374068338
 51
119.8644457173229
  0
POLYLINE
  8
1
  6
CONTINUOUS
 62
     7
 66
     1
  0
VERTEX
  8
1
  6
CONTINUOUS
 62
     7
 10
417.5138183782789
 20
73.2206950600528
  0
VERTEX
  8
1
  6
CONTINUOUS
 62
     7
 10
417.4230686642026
 20
73.10609221513074
  0
VERTEX
  8
1
  6
CONTINUOUS
 62
     7
 10
417.3559036469108
 20
72.9980294307599
  0
VERTEX
  8
1
  6
CONTINUOUS
 62
     7
 10
417.2940254608615
 20
72.8661639451429
  0
VERTEX
  8
1
  6
CONTINUOUS
 62
     7
 10
417.2541193218544
 20
72.74515042396978
  0
VERTEX
  8
1
  6
CONTINUOUS
 62
     7
 10
417.2266017398375
 20
72.60896855420366
  0
VERTEX
  8
1
  6
CONTINUOUS
 62
     7
 10
417.2189737532264
 20
72.5354709385602
  0
SEQEND
  8
1
  6
CONTINUOUS
 62
     7
  0
LINE
  8
1
  6
CONTINUOUS
 62
     7
 10
417.219016567832
 20
72.53607977855802
 11
417.2143493868635
 21
72.4695911911709
  0
LINE
  8
1
  6
CONTINUOUS
 62
     7
 10
447.7856506131366
 20
72.46959119117089
 11
447.7809834321681
 21
72.53607977855803
  0
LINE
  8
1
  6
CONTINUOUS
 62
     7
 10
444.0310558885022
 20
227.9659472982918
 11
444.035723066708
 21
228.0324358463206
  0
LINE
  8
1
  6
CONTINUOUS
 62
     7
 10
420.964276933292
 20
228.0324358463215
 11
420.9689441114978
 21
227.9659472982927
  0
POLYLINE
  8
1
  6
CONTINUOUS
 62
     7
 66
     1
  0
VERTEX
  8
1
  6
CONTINUOUS
 62
     7
 10
420.968907091451
 20
227.9664736907457
  0
VERTEX
  8
1
  6
CONTINUOUS
 62
     7
 10
420.9878977906799
 20
227.8271213390187
  0
VERTEX
  8
1
  6
CONTINUOUS
 62
     7
 10
421.0213171381878
 20
227.7017818993342
  0
VERTEX
  8
1
  6
CONTINUOUS
 62
     7
 10
421.0648104081307
 20
227.5910946589199
  0
VERTEX
  8
1
  6
CONTINUOUS
 62
     7
 10
421.1211197312647
 20
227.4836398358168
  0
VERTEX
  8
1
  6
CONTINUOUS
 62
     7
 10
421.1803953990521
 20
227.3939165988183
  0
VERTEX
  8
1
  6
CONTINUOUS
 62
     7
 10
421.2472705834357
 20
227.3105928530352
  0
VERTEX
  8
1
  6
CONTINUOUS
 62
     7
 10
421.3463407648909
 20
227.2104046580541
  0
VERTEX
  8
1
  6
CONTINUOUS
 62
     7
 10
421.43577832632
 20
227.136826904876
  0
VERTEX
  8
1
  6
CONTINUOUS
 62
     7
 10
421.6312886603756
 20
227.012947251858
  0
SEQEND
  8
1
  6
CONTINUOUS
 62
     7
  0
ARC
  8
1
  6
CONTINUOUS
 62
     7
 10
425.3495289530232
 20
237.7481301550266
 40
11.36087421100831
 50
250.8959496365303
 51
268.7054443518142
  0
LINE
  8
1
  6
CONTINUOUS
 62
     7
 10
425.0928602648735
 20
226.3901556867124
 11
425.2507599068139
 21
226.3772086953477
  0
ARC
  8
1
  6
CONTINUOUS
 62
     7
 10
439.5194144512701
 20
238.6715455905954
 40
12.28770180717618
 50
271.7850543310965
 51
287.9695512303022
  0
POLYLINE
  8
1
  6
CONTINUOUS
 62
     7
 66
     1
  0
VERTEX
  8
1
  6
CONTINUOUS
 62
     7
 10
443.3103121307828
 20
226.9832304645584
  0
VERTEX
  8
1
  6
CONTINUOUS
 62
     7
 10
443.4733904649794
 20
227.075575851136
  0
VERTEX
  8
1
  6
CONTINUOUS
 62
     7
 10
443.5780961056087
 20
227.1502039525147
  0
VERTEX
  8
1
  6
CONTINUOUS
 62
     7
 10
443.6912797528253
 20
227.2496544266168
  0
VERTEX
  8
1
  6
CONTINUOUS
 62
     7
 10
443.8049210392676
 20
227.3784039334098
  0
VERTEX
  8
1
  6
CONTINUOUS
 62
     7
 10
443.893151033909
 20
227.5119519748096
  0
VERTEX
  8
1
  6
CONTINUOUS
 62
     7
 10
443.966732416721
 20
227.6700388196632
  0
VERTEX
  8
1
  6
CONTINUOUS
 62
     7
 10
444.0085267777619
 20
227.8113216970767
  0
VERTEX
  8
1
  6
CONTINUOUS
 62
     7
 10
444.0310959215554
 20
227.9665168998215
  0
SEQEND
  8
1
  6
CONTINUOUS
 62
     7
  0
POLYLINE
  8
1
  6
CONTINUOUS
 62
     7
 66
     1
  0
VERTEX
  8
1
  6
CONTINUOUS
 62
     7
 10
455.9689040784447
 20
227.9665168998217
  0
VERTEX
  8
1
  6
CONTINUOUS
 62
     7
 10
455.9859886055752
 20
227.8366730990425
  0
VERTEX
  8
1
  6
CONTINUOUS
 62
     7
 10
456.0157284219082
 20
227.7190147258914
  0
VERTEX
  8
1
  6
CONTINUOUS
 62
     7
 10
456.0545667812435
 20
227.6141031858583
  0
VERTEX
  8
1
  6
CONTINUOUS
 62
     7
 10
456.1076457558924
 20
227.5068040359709
  0
VERTEX
  8
1
  6
CONTINUOUS
 62
     7
 10
456.164267030405
 20
227.4165021694128
  0
VERTEX
  8
1
  6
CONTINUOUS
 62
     7
 10
456.2354325630436
 20
227.3242429796472
  0
VERTEX
  8
1
  6
CONTINUOUS
 62
     7
 10
456.32930440799
 20
227.2261335290435
  0
VERTEX
  8
1
  6
CONTINUOUS
 62
     7
 10
456.5399453216965
 20
227.0659068924061
  0
VERTEX
  8
1
  6
CONTINUOUS
 62
     7
 10
456.7159744398438
 20
226.9708389015056
  0
SEQEND
  8
1
  6
CONTINUOUS
 62
     7
  0
ARC
  8
1
  6
CONTINUOUS
 62
     7
 10
460.5970506128538
 20
239.3294883276658
 40
12.95372409384404
 50
252.5657691464435
 51
268.2080505949004
  0
ARC
  8
1
  6
CONTINUOUS
 62
     7
 10
474.8654836255898
 20
235.5175351556518
 40
9.147237127021144
 50
268.8689781133958
 51
294.0982080791935
  0
POLYLINE
  8
1
  6
CONTINUOUS
 62
     7
 66
     1
  0
VERTEX
  8
1
  6
CONTINUOUS
 62
     7
 10
478.6003180282856
 20
227.1675076681285
  0
VERTEX
  8
1
  6
CONTINUOUS
 62
     7
 10
478.7081657262621
 20
227.2662173532939
  0
VERTEX
  8
1
  6
CONTINUOUS
 62
     7
 10
478.8048365051975
 20
227.3779980383238
  0
VERTEX
  8
1
  6
CONTINUOUS
 62
     7
 10
478.8845139657008
 20
227.4967471975527
  0
VERTEX
  8
1
  6
CONTINUOUS
 62
     7
 10
478.9533405476048
 20
227.6357449857911
  0
VERTEX
  8
1
  6
CONTINUOUS
 62
     7
 10
478.9955664961075
 20
227.7592119844896
  0
VERTEX
  8
1
  6
CONTINUOUS
 62
     7
 10
479.0235697013714
 20
227.8946340146294
  0
VERTEX
  8
1
  6
CONTINUOUS
 62
     7
 10
479.0310929085491
 20
227.9664736907456
  0
SEQEND
  8
1
  6
CONTINUOUS
 62
     7
  0
LINE
  8
1
  6
CONTINUOUS
 62
     7
 10
479.0310558885022
 20
227.9659472982918
 11
479.035723066708
 21
228.0324358463206
  0
LINE
  8
1
  6
CONTINUOUS
 62
     7
 10
455.964276933292
 20
228.0324358463215
 11
455.9689441114978
 21
227.9659472982927
  0
ARC
  8
1
  6
CONTINUOUS
 62
     7
 10
442.9437034233489
 20
73.45614165791585
 40
1.090139583617503
 50
4.071384937746812
 51
27.58391163743442
  0
POLYLINE
  8
1
  6
CONTINUOUS
 62
     7
 66
     1
  0
VERTEX
  8
1
  6
CONTINUOUS
 62
     7
 10
443.9099308036509
 20
73.96092771291802
  0
VERTEX
  8
1
  6
CONTINUOUS
 62
     7
 10
443.8320177268407
 20
74.08897828366455
  0
VERTEX
  8
1
  6
CONTINUOUS
 62
     7
 10
443.7517628191308
 20
74.19060608317895
  0
VERTEX
  8
1
  6
CONTINUOUS
 62
     7
 10
443.6674704027822
 20
74.27684137895132
  0
VERTEX
  8
1
  6
CONTINUOUS
 62
     7
 10
443.5288378831419
 20
74.38845954881918
  0
VERTEX
  8
1
  6
CONTINUOUS
 62
     7
 10
443.3760342482988
 20
74.48229744771608
  0
SEQEND
  8
1
  6
CONTINUOUS
 62
     7
  0
ARC
  8
1
  6
CONTINUOUS
 62
     7
 10
439.6440040884385
 20
63.81242638809051
 40
11.30372494106004
 50
70.72155404456109
 51
88.93990857971477
  0
ARC
  8
1
  6
CONTINUOUS
 62
     7
 10
424.7450316679871
 20
68.16739507615272
 40
6.970462673072092
 50
86.0189313700051
 51
119.9772384574315
  0
POLYLINE
  8
1
  6
CONTINUOUS
 62
     7
 66
     1
  0
VERTEX
  8
1
  6
CONTINUOUS
 62
     7
 10
421.2621987285328
 20
74.2053769072403
  0
VERTEX
  8
1
  6
CONTINUOUS
 62
     7
 10
421.1781462721183
 20
74.10217798905688
  0
VERTEX
  8
1
  6
CONTINUOUS
 62
     7
 10
421.1141244438683
 20
74.00363229305272
  0
VERTEX
  8
1
  6
CONTINUOUS
 62
     7
 10
421.0560372396951
 20
73.88851039327048
  0
VERTEX
  8
1
  6
CONTINUOUS
 62
     7
 10
421.0088697820388
 20
73.75768432365234
  0
VERTEX
  8
1
  6
CONTINUOUS
 62
     7
 10
420.9773381003628
 20
73.6120283967977
  0
VERTEX
  8
1
  6
CONTINUOUS
 62
     7
 10
420.968914589886
 20
73.53363253878683
  0
SEQEND
  8
1
  6
CONTINUOUS
 62
     7
  0
LINE
  8
1
  6
CONTINUOUS
 62
     7
 10
420.9689441000713
 20
73.53405253892701
 11
420.9642769243261
 21
73.46756402595109
  0
LINE
  8
1
  6
CONTINUOUS
 62
     7
 10
444.035723075674
 20
73.46756402595018
 11
444.0310558999287
 21
73.5340525389261
  0
LINE
  8
1
  6
CONTINUOUS
 62
     7
 10
455.9689441000714
 20
73.53405253892703
 11
455.9642769243265
 21
73.46756402595675
  0
LINE
  8
1
  6
CONTINUOUS
 62
     7
 10
479.0357230756736
 20
73.46756402595581
 11
479.0310558999287
 21
73.53405253892609
  0
POLYLINE
  8
1
  6
CONTINUOUS
 62
     7
 66
     1
  0
VERTEX
  8
1
  6
CONTINUOUS
 62
     7
 10
479.031085410114
 20
73.5336325387867
  0
VERTEX
  8
1
  6
CONTINUOUS
 62
     7
 10
479.0124250560644
 20
73.67138638090444
  0
VERTEX
  8
1
  6
CONTINUOUS
 62
     7
 10
478.9797312230885
 20
73.79524639786645
  0
VERTEX
  8
1
  6
CONTINUOUS
 62
     7
 10
478.9300584006008
 20
73.92023754073186
  0
VERTEX
  8
1
  6
CONTINUOUS
 62
     7
 10
478.865247842079
 20
74.03891270071249
  0
VERTEX
  8
1
  6
CONTINUOUS
 62
     7
 10
478.7999399753561
 20
74.13238344741977
  0
VERTEX
  8
1
  6
CONTINUOUS
 62
     7
 10
478.7091636754204
 20
74.23633434390939
  0
VERTEX
  8
1
  6
CONTINUOUS
 62
     7
 10
478.51082430778
 20
74.40120488883001
  0
SEQEND
  8
1
  6
CONTINUOUS
 62
     7
  0
ARC
  8
1
  6
CONTINUOUS
 62
     7
 10
474.8499680245981
 20
65.42804015506384
 40
9.691210144528748
 50
67.80560751847618
 51
90.32320648054728
  0
ARC
  8
1
  6
CONTINUOUS
 62
     7
 10
459.9680160585669
 20
66.72969165291218
 40
8.386085908277158
 50
88.80264849702284
 51
115.4577151790406
  0
POLYLINE
  8
1
  6
CONTINUOUS
 62
     7
 66
     1
  0
VERTEX
  8
1
  6
CONTINUOUS
 62
     7
 10
456.3633001081232
 20
74.30151176287393
  0
VERTEX
  8
1
  6
CONTINUOUS
 62
     7
 10
456.2503850443013
 20
74.1890312117251
  0
VERTEX
  8
1
  6
CONTINUOUS
 62
     7
 10
456.1494238463577
 20
74.05764763487228
  0
VERTEX
  8
1
  6
CONTINUOUS
 62
     7
 10
456.0677573359309
 20
73.91226345386302
  0
VERTEX
  8
1
  6
CONTINUOUS
 62
     7
 10
456.0103515013212
 20
73.76141782633196
  0
VERTEX
  8
1
  6
CONTINUOUS
 62
     7
 10
455.9775083294669
 20
73.6128870418722
  0
VERTEX
  8
1
  6
CONTINUOUS
 62
     7
 10
455.9689081060324
 20
73.53354079056791
  0
SEQEND
  8
1
  6
CONTINUOUS
 62
     7
  0
POLYLINE
  8
1
  6
CONTINUOUS
 62
     7
 66
     1
  0
VERTEX
  8
1
  6
CONTINUOUS
 62
     7
 10
472.5156983916234
 20
75.0559441899856
  0
VERTEX
  8
1
  6
CONTINUOUS
 62
     7
 10
472.4957266023281
 20
75.18410320202536
  0
VERTEX
  8
1
  6
CONTINUOUS
 62
     7
 10
472.4618641764989
 20
75.30180419812933
  0
VERTEX
  8
1
  6
CONTINUOUS
 62
     7
 10
472.4072215252363
 20
75.42794212865094
  0
VERTEX
  8
1
  6
CONTINUOUS
 62
     7
 10
472.3391742396524
 20
75.54116096952218
  0
VERTEX
  8
1
  6
CONTINUOUS
 62
     7
 10
472.2586117019029
 20
75.64317094969184
  0
VERTEX
  8
1
  6
CONTINUOUS
 62
     7
 10
472.1764407568829
 20
75.72520253800319
  0
VERTEX
  8
1
  6
CONTINUOUS
 62
     7
 10
472.0956248453903
 20
75.79071093105927
  0
VERTEX
  8
1
  6
CONTINUOUS
 62
     7
 10
471.9937694450785
 20
75.85713708388363
  0
SEQEND
  8
1
  6
CONTINUOUS
 62
     7
  0
ARC
  8
1
  6
CONTINUOUS
 62
     7
 10
470.7501828721532
 20
72.92034004030963
 40
3.18924512063669
 50
67.04977374239253
 51
88.83447661404682
  0
LINE
  8
1
  6
CONTINUOUS
 62
     7
 10
470.8150547256494
 20
76.10892531941522
 11
468.9999999999968
 21
76.17044057198758
  0
LINE
  8
1
  6
CONTINUOUS
 62
     7
 10
430.999999999996
 20
76.17044057198758
 11
429.1849452743523
 21
76.10892531941542
  0
ARC
  8
1
  6
CONTINUOUS
 62
     7
 10
429.1469092029433
 20
73.46143350428163
 40
2.647765029969351
 50
89.17689776166299
 51
116.7475199120096
  0
POLYLINE
  8
1
  6
CONTINUOUS
 62
     7
 66
     1
  0
VERTEX
  8
1
  6
CONTINUOUS
 62
     7
 10
427.9552566364806
 20
75.82588350687658
  0
VERTEX
  8
1
  6
CONTINUOUS
 62
     7
 10
427.850158059849
 20
75.74821283219495
  0
VERTEX
  8
1
  6
CONTINUOUS
 62
     7
 10
427.7670591315876
 20
75.67078156290543
  0
VERTEX
  8
1
  6
CONTINUOUS
 62
     7
 10
427.6861485912611
 20
75.57614563089899
  0
VERTEX
  8
1
  6
CONTINUOUS
 62
     7
 10
427.6135845869647
 20
75.46622068276722
  0
VERTEX
  8
1
  6
CONTINUOUS
 62
     7
 10
427.5548738844874
 20
75.3457216035614
  0
VERTEX
  8
1
  6
CONTINUOUS
 62
     7
 10
427.5141727466972
 20
75.22455946122204
  0
VERTEX
  8
1
  6
CONTINUOUS
 62
     7
 10
427.4892200644325
 20
75.09973904974483
  0
VERTEX
  8
1
  6
CONTINUOUS
 62
     7
 10
427.4843016083766
 20
75.05594418998554
  0
SEQEND
  8
1
  6
CONTINUOUS
 62
     7
  0
POLYLINE
  8
1
  6
CONTINUOUS
 62
     7
 66
     1
  0
VERTEX
  8
1
  6
CONTINUOUS
 62
     7
 10
427.484304140774
 20
226.4440534932208
  0
VERTEX
  8
1
  6
CONTINUOUS
 62
     7
 10
427.5042672178217
 20
226.3159372749181
  0
VERTEX
  8
1
  6
CONTINUOUS
 62
     7
 10
427.5381124206526
 20
226.1982723621804
  0
VERTEX
  8
1
  6
CONTINUOUS
 62
     7
 10
427.5927271283917
 20
226.0721677405686
  0
VERTEX
  8
1
  6
CONTINUOUS
 62
     7
 10
427.6607414084233
 20
225.9589718741231
  0
VERTEX
  8
1
  6
CONTINUOUS
 62
     7
 10
427.7412686276926
 20
225.856974467585
  0
VERTEX
  8
1
  6
CONTINUOUS
 62
     7
 10
427.8234087656413
 20
225.7749449815617
  0
VERTEX
  8
1
  6
CONTINUOUS
 62
     7
 10
427.9042007402767
 20
225.7094309413655
  0
VERTEX
  8
1
  6
CONTINUOUS
 62
     7
 10
428.0060378417461
 20
225.6429892960596
  0
SEQEND
  8
1
  6
CONTINUOUS
 62
     7
  0
ARC
  8
1
  6
CONTINUOUS
 62
     7
 10
429.2502320593936
 20
228.5810934498866
 40
3.190685705293252
 50
247.0488783474318
 51
268.8291533207603
  0
LINE
  8
1
  6
CONTINUOUS
 62
     7
 10
429.185034521439
 20
225.3910739278448
 11
431.0000000000032
 21
225.3295594280124
  0
LINE
  8
1
  6
CONTINUOUS
 62
     7
 10
469.000000000004
 20
225.3295594280124
 11
470.8149654785586
 21
225.3910739278446
  0
ARC
  8
1
  6
CONTINUOUS
 62
     7
 10
470.8529006585275
 20
228.0390253171258
 40
2.648223109535025
 50
269.1792232155493
 51
296.7516256020006
  0
POLYLINE
  8
1
  6
CONTINUOUS
 62
     7
 66
     1
  0
VERTEX
  8
1
  6
CONTINUOUS
 62
     7
 10
472.04492884574
 20
225.674251662256
  0
VERTEX
  8
1
  6
CONTINUOUS
 62
     7
 10
472.1500010644393
 20
225.7519335760055
  0
VERTEX
  8
1
  6
CONTINUOUS
 62
     7
 10
472.2330707806825
 20
225.8293655017706
  0
VERTEX
  8
1
  6
CONTINUOUS
 62
     7
 10
472.3139473456608
 20
225.9239925450856
  0
VERTEX
  8
1
  6
CONTINUOUS
 62
     7
 10
472.3864771123891
 20
226.0338978184192
  0
VERTEX
  8
1
  6
CONTINUOUS
 62
     7
 10
472.4451581524733
 20
226.1543672977886
  0
VERTEX
  8
1
  6
CONTINUOUS
 62
     7
 10
472.4858383709056
 20
226.275493846684
  0
VERTEX
  8
1
  6
CONTINUOUS
 62
     7
 10
472.5107791827796
 20
226.400273558325
  0
VERTEX
  8
1
  6
CONTINUOUS
 62
     7
 10
472.515695859226
 20
226.4440534932208
  0
SEQEND
  8
1
  6
CONTINUOUS
 62
     7
  0
POLYLINE
  8
1
  6
CONTINUOUS
 62
     7
 66
     1
  0
VERTEX
  8
1
  6
CONTINUOUS
 62
     7
 10
437.5306434519266
 20
75.03329079270476
  0
VERTEX
  8
1
  6
CONTINUOUS
 62
     7
 10
437.5104455639723
 20
75.1717938445482
  0
VERTEX
  8
1
  6
CONTINUOUS
 62
     7
 10
437.474618016744
 20
75.29738598089169
  0
VERTEX
  8
1
  6
CONTINUOUS
 62
     7
 10
437.4214694351802
 20
75.42057333338883
  0
VERTEX
  8
1
  6
CONTINUOUS
 62
     7
 10
437.355998128009
 20
75.53113618009716
  0
VERTEX
  8
1
  6
CONTINUOUS
 62
     7
 10
437.2800630865415
 20
75.62979438556026
  0
SEQEND
  8
1
  6
CONTINUOUS
 62
     7
  0
ARC
  8
1
  6
CONTINUOUS
 62
     7
 10
436.4511048724316
 20
74.90485676115563
 40
1.10122944022475
 50
41.17023103282676
 51
68.9415017477001
  0
ARC
  8
1
  6
CONTINUOUS
 62
     7
 10
435.6822499217132
 20
72.22631776507534
 40
3.884875289011494
 50
72.55650937539299
 51
88.07524442381427
  0
LINE
  8
1
  6
CONTINUOUS
 62
     7
 10
435.8127312437784
 20
76.10900119741491
 11
433.9999999999961
 21
76.17044057198758
  0
LINE
  8
1
  6
CONTINUOUS
 62
     7
 10
465.9999999999966
 20
76.17044057198758
 11
464.2007653104122
 21
76.11024049716153
  0
ARC
  8
1
  6
CONTINUOUS
 62
     7
 10
464.2044316277349
 20
73.11906849722362
 40
2.991174246862805
 50
90.07022812588204
 51
113.6058657776502
  0
POLYLINE
  8
1
  6
CONTINUOUS
 62
     7
 66
     1
  0
VERTEX
  8
1
  6
CONTINUOUS
 62
     7
 10
463.0066373022871
 20
75.8599464822898
  0
VERTEX
  8
1
  6
CONTINUOUS
 62
     7
 10
462.8921101789542
 20
75.78576347385119
  0
VERTEX
  8
1
  6
CONTINUOUS
 62
     7
 10
462.7918796074456
 20
75.70218896880185
  0
VERTEX
  8
1
  6
CONTINUOUS
 62
     7
 10
462.7218153172373
 20
75.62967469137992
  0
VERTEX
  8
1
  6
CONTINUOUS
 62
     7
 10
462.6422506411391
 20
75.52682657583232
  0
VERTEX
  8
1
  6
CONTINUOUS
 62
     7
 10
462.5747181071147
 20
75.41187243205748
  0
VERTEX
  8
1
  6
CONTINUOUS
 62
     7
 10
462.5207102967539
 20
75.2832978786373
  0
VERTEX
  8
1
  6
CONTINUOUS
 62
     7
 10
462.4878606497655
 20
75.1635242784417
  0
VERTEX
  8
1
  6
CONTINUOUS
 62
     7
 10
462.4693565480747
 20
75.03329079271018
  0
SEQEND
  8
1
  6
CONTINUOUS
 62
     7
  0
POLYLINE
  8
1
  6
CONTINUOUS
 62
     7
 66
     1
  0
VERTEX
  8
1
  6
CONTINUOUS
 62
     7
 10
462.4693226556126
 20
226.4668612473249
  0
VERTEX
  8
1
  6
CONTINUOUS
 62
     7
 10
462.4894405254397
 20
226.3285770142522
  0
VERTEX
  8
1
  6
CONTINUOUS
 62
     7
 10
462.5251322221857
 20
226.2031906091362
  0
VERTEX
  8
1
  6
CONTINUOUS
 62
     7
 10
462.5780748762903
 20
226.0802082295723
  0
VERTEX
  8
1
  6
CONTINUOUS
 62
     7
 10
462.6432804755794
 20
225.9698286850546
  0
VERTEX
  8
1
  6
CONTINUOUS
 62
     7
 10
462.7188864335712
 20
225.8713305671517
  0
SEQEND
  8
1
  6
CONTINUOUS
 62
     7
  0
ARC
  8
1
  6
CONTINUOUS
 62
     7
 10
463.5481470848385
 20
226.5943584865527
 40
1.100201163412203
 50
221.0849989171022
 51
248.7891663545486
  0
ARC
  8
1
  6
CONTINUOUS
 62
     7
 10
464.3143020749301
 20
229.2490397610524
 40
3.860097959440111
 50
252.4462225777559
 51
268.1056467873847
  0
LINE
  8
1
  6
CONTINUOUS
 62
     7
 10
464.1867000620312
 20
225.3910514273767
 11
466.0000000000039
 21
225.3295594280124
  0
LINE
  8
1
  6
CONTINUOUS
 62
     7
 10
434.0000000000034
 20
225.3295594280124
 11
435.7999474370883
 21
225.3898158306272
  0
ARC
  8
1
  6
CONTINUOUS
 62
     7
 10
435.7966594899743
 20
228.3786071634919
 40
2.988793141387233
 50
270.0630306354377
 51
293.583129650034
  0
POLYLINE
  8
1
  6
CONTINUOUS
 62
     7
 66
     1
  0
VERTEX
  8
1
  6
CONTINUOUS
 62
     7
 10
436.9924134543882
 20
225.6394363220525
  0
VERTEX
  8
1
  6
CONTINUOUS
 62
     7
 10
437.1067975594056
 20
225.7133536530617
  0
VERTEX
  8
1
  6
CONTINUOUS
 62
     7
 10
437.2071130101609
 20
225.7967879175793
  0
VERTEX
  8
1
  6
CONTINUOUS
 62
     7
 10
437.2773226078629
 20
225.8692696988163
  0
VERTEX
  8
1
  6
CONTINUOUS
 62
     7
 10
437.3571219730131
 20
225.9721722189939
  0
VERTEX
  8
1
  6
CONTINUOUS
 62
     7
 10
437.4249023022904
 20
226.0872893451193
  0
VERTEX
  8
1
  6
CONTINUOUS
 62
     7
 10
437.4791319715234
 20
226.2161385377007
  0
VERTEX
  8
1
  6
CONTINUOUS
 62
     7
 10
437.5121170397865
 20
226.3362315645354
  0
VERTEX
  8
1
  6
CONTINUOUS
 62
     7
 10
437.5306773443863
 20
226.4668612473198
  0
SEQEND
  8
1
  6
CONTINUOUS
 62
     7
  0
LINE
  8
1
  6
CONTINUOUS
 62
     7
 10
472.5709207714817
 20
74.46398862721786
 11
472.5310055059882
 21
75.0326212207597
  0
LINE
  8
1
  6
CONTINUOUS
 62
     7
 10
427.4689944940118
 20
75.03262122075962
 11
427.4290792285183
 21
74.4639886272179
  0
LINE
  8
1
  6
CONTINUOUS
 62
     7
 10
427.4290790486329
 20
227.0360139354288
 11
427.4689945003101
 21
226.4673786895151
  0
LINE
  8
1
  6
CONTINUOUS
 62
     7
 10
472.5310054996899
 20
226.4673786895151
 11
472.5709209513671
 21
227.0360139354286
  0
LINE
  8
1
  6
CONTINUOUS
 62
     7
 10
437.5709207621469
 20
74.4639887602002
 11
437.5310054925052
 21
75.03262141283814
  0
LINE
  8
1
  6
CONTINUOUS
 62
     7
 10
462.468994507551
 20
75.03262141363824
 11
462.4290792284376
 21
74.46398862606752
  0
LINE
  8
1
  6
CONTINUOUS
 62
     7
 10
462.4290790302606
 20
227.0360141971611
 11
462.468994516298
 21
226.4673784617515
  0
LINE
  8
1
  6
CONTINUOUS
 62
     7
 10
437.5310054838109
 20
226.4673784633033
 11
437.5709209514617
 21
227.0360139367779
  0
LINE
  8
1
  6
CONTINUOUS
 62
     7
 10
466.0000000000057
 20
225.3202394421904
 11
469.0000000000059
 21
225.3202394421904
  0
LINE
  8
1
  6
CONTINUOUS
 62
     7
 10
433.9999999999943
 20
76.17976055780954
 11
430.9999999999941
 21
76.17976055780954
  0
LINE
  8
1
  6
CONTINUOUS
 62
     7
 10
431.0000000000052
 20
225.3202394421904
 11
434.0000000000053
 21
225.3202394421904
  0
LINE
  8
1
  6
CONTINUOUS
 62
     7
 10
468.9999999999949
 20
76.17976055780954
 11
465.9999999999948
 21
76.17976055780954
  0
ENDBLK
  8
0
  0
ENDSEC
  0
SECTION
  2
ENTITIES
  0
INSERT
  8
1
  6
CONTINUOUS
 62
     7
  2
D_FRAME_VIEW_1979
 10
0.0
 20
0.0
 30
0.0
  0
INSERT
  8
1
  6
CONTINUOUS
 62
     7
  2
D_FRAME_VIEW_2138
 10
0.0
 20
0.0
 30
0.0
  0
INSERT
  8
1
  6
CONTINUOUS
 62
     7
  2
D_FRAME_VIEW_1523
 10
0.0
 20
0.0
 30
0.0
  0
LINE
  8
1
  6
CENTER
 62
     1
 10
415.7204965597106
 20
-15.86708029202148
 11
449.2755620530924
 21
-15.86708029202148
  0
LINE
  8
1
  6
CENTER
 62
     1
 10
432.4980293064015
 20
-32.64461303871241
 11
432.4980293064015
 21
0.9104524546694609
  0
LINE
  8
1
  6
CENTER
 62
     1
 10
450.7184672873126
 20
-15.87007717400254
 11
484.2795925315345
 21
-15.87007717400254
  0
LINE
  8
1
  6
CENTER
 62
     1
 10
467.4990299094236
 20
-32.6506397961135
 11
467.4990299094236
 21
0.910485448108414
  0
LINE
  8
1
  6
CENTER
 62
     1
 10
450.0
 20
-55.99999999999999
 11
450.0
 21
10.00000000000001
  0
LINE
  8
1
  6
CENTER
 62
     1
 10
449.9999999999999
 20
34.0
 11
449.9999999999999
 21
280.0
  0
LINE
  8
1
  6
CENTER
 62
     1
 10
372.0
 20
150.75
 11
522.0
 21
150.75
  0
LINE
  8
1
  6
CENTER
 62
     1
 10
556.9999999999999
 20
150.75
 11
647.0
 21
150.75
  0
TEXT
  8
1
  6
CONTINUOUS
 62
     7
 10
514.9014880580218
 20
-69.67157996748782
 40
3.0
  1
SB-1YSA
  0
ENDSEC
  0
EOF
