  0
SECTION
  2
HEADER
  9
$ACADVER
  1
AC1006
  9
$DWGCODEPAGE
  3
ansi_932
  9
$INSBASE
 10
0.0
 20
0.0
 30
0.0
  9
$EXTMIN
 10
-480.9180784392771
 20
91.45878670748704
  9
$EXTMAX
 10
-307.3246860475514
 20
266.7873424680527
  9
$LIMMIN
 10
0.0
 20
0.0
  9
$LIMMAX
 10
12.0
 20
9.0
  9
$ORTHOMODE
 70
     0
  9
$REGENMODE
 70
     1
  9
$FILLMODE
 70
     1
  9
$QTEXTMODE
 70
     0
  9
$MIRRTEXT
 70
     1
  9
$DRAGMODE
 70
     2
  9
$LTSCALE
 40
1.0
  9
$OSMODE
 70
    37
  9
$ATTMODE
 70
     1
  9
$TEXTSIZE
 40
0.2
  9
$TRACEWID
 40
0.05
  9
$TEXTSTYLE
  7
STANDARD
  9
$CLAYER
  8
0
  9
$CELTYPE
  6
BYLAYER
  9
$CECOLOR
 62
   256
  9
$DIMSCALE
 40
1.0
  9
$DIMASZ
 40
3.0
  9
$DIMEXO
 40
0.0625
  9
$DIMDLI
 40
0.38
  9
$DIMRND
 40
0.0
  9
$DIMDLE
 40
0.0
  9
$DIMEXE
 40
1.5
  9
$DIMTP
 40
0.0
  9
$DIMTM
 40
0.0
  9
$DIMTXT
 40
3.0
  9
$DIMCEN
 40
0.09
  9
$DIMTSZ
 40
0.0
  9
$DIMTOL
 70
     0
  9
$DIMLIM
 70
     0
  9
$DIMTIH
 70
     1
  9
$DIMTOH
 70
     1
  9
$DIMSE1
 70
     0
  9
$DIMSE2
 70
     0
  9
$DIMTAD
 70
     1
  9
$DIMZIN
 70
     0
  9
$DIMBLK
  1

  9
$DIMASO
 70
     1
  9
$DIMSHO
 70
     1
  9
$DIMPOST
  1

  9
$DIMAPOST
  1

  9
$DIMALT
 70
     0
  9
$DIMALTD
 70
     2
  9
$DIMALTF
 40
25.4
  9
$DIMLFAC
 40
1.0
  9
$DIMTOFL
 70
     0
  9
$DIMTVP
 40
0.0
  9
$DIMTIX
 70
     0
  9
$DIMSOXD
 70
     0
  9
$DIMSAH
 70
     0
  9
$DIMBLK1
  1

  9
$DIMBLK2
  1

  9
$LUNITS
 70
     2
  9
$LUPREC
 70
     4
  9
$SKETCHINC
 40
0.1
  9
$FILLETRAD
 40
0.5
  9
$AUNITS
 70
     0
  9
$AUPREC
 70
     0
  9
$MENU
  1
.
  9
$ELEVATION
 40
0.0
  9
$THICKNESS
 40
0.0
  9
$LIMCHECK
 70
     0
  9
$CHAMFERA
 40
0.0
  9
$CHAMFERB
 40
0.0
  9
$SKPOLY
 70
     0
  9
$TDCREATE
 40
2459692.425567165
  9
$TDUPDATE
 40
2459692.425567442
  9
$TDINDWG
 40
0.0000000116
  9
$TDUSRTIMER
 40
0.0000000116
  9
$USRTIMER
 70
     1
  9
$ANGBASE
 50
0.0
  9
$ANGDIR
 70
     0
  9
$PDMODE
 70
     0
  9
$PDSIZE
 40
0.0
  9
$PLINEWID
 40
0.0
  9
$COORDS
 70
     1
  9
$SPLFRAME
 70
     0
  9
$SPLINETYPE
 70
     6
  9
$SPLINESEGS
 70
     8
  9
$ATTDIA
 70
     0
  9
$ATTREQ
 70
     1
  9
$HANDLING
 70
     1
  9
$HANDSEED
  5
3FB
  9
$SURFTAB1
 70
     6
  9
$SURFTAB2
 70
     6
  9
$SURFTYPE
 70
     6
  9
$SURFU
 70
     6
  9
$SURFV
 70
     6
  9
$UCSNAME
  2

  9
$UCSORG
 10
0.0
 20
0.0
 30
0.0
  9
$UCSXDIR
 10
1.0
 20
0.0
 30
0.0
  9
$UCSYDIR
 10
0.0
 20
1.0
 30
0.0
  9
$USERI1
 70
     0
  9
$USERI2
 70
     0
  9
$USERI3
 70
     0
  9
$USERI4
 70
     0
  9
$USERI5
 70
     0
  9
$USERR1
 40
0.0
  9
$USERR2
 40
0.0
  9
$USERR3
 40
0.0
  9
$USERR4
 40
0.0
  9
$USERR5
 40
0.0
  9
$WORLDVIEW
 70
     1
  0
ENDSEC
  0
SECTION
  2
TABLES
  0
TABLE
  2
VPORT
 70
     1
  0
VPORT
  2
*ACTIVE
 70
     0
 10
0.0
 20
0.0
 11
1.0
 21
1.0
 12
-394.1213822434142
 22
179.1230645877699
 13
0.0
 23
0.0
 14
0.5
 24
0.5
 15
0.5
 25
0.5
 16
0.0
 26
0.0
 36
1.0
 17
0.0
 27
0.0
 37
0.0
 40
175.3285557605657
 41
1.6
 42
50.0
 43
0.0
 44
0.0
 50
0.0
 51
0.0
 71
     0
 72
   100
 73
     1
 74
     3
 75
     0
 76
     0
 77
     0
 78
     0
  0
ENDTAB
  0
TABLE
  2
LTYPE
 70
     1
  0
LTYPE
  2
CONTINUOUS
 70
     0
  3
Solid line
 72
    65
 73
     0
 40
0.0
  0
ENDTAB
  0
TABLE
  2
LAYER
 70
     1
  0
LAYER
  2
0
 70
     0
 62
     7
  6
CONTINUOUS
  0
ENDTAB
  0
TABLE
  2
STYLE
 70
     2
  0
STYLE
  2
STANDARD
 70
     0
 40
0.0
 41
1.0
 50
0.0
 71
     0
 42
0.2
  3
txt
  4

  0
STYLE
  2
ＭＳ_ゴシック
 70
     0
 40
0.0
 41
1.0
 50
0.0
 71
     0
 42
0.2
  3
ＭＳ ゴシック.shx
  4

  0
ENDTAB
  0
TABLE
  2
VIEW
 70
     0
  0
ENDTAB
  0
TABLE
  2
UCS
 70
     0
  0
ENDTAB
  0
ENDSEC
  0
SECTION
  2
BLOCKS
  0
ENDSEC
  0
SECTION
  2
ENTITIES
  0
LINE
  5
6F
  8
0
  6
CONTINUOUS
 62
   253
 10
-379.3778847581073
 20
245.3490316520904
 30
0.0
 11
-379.8468354546994
 21
245.4907327534955
 31
0.0
  0
LINE
  5
70
  8
0
  6
CONTINUOUS
 62
   253
 10
-379.3778847581074
 20
171.225653284015
 30
0.0
 11
-378.9459072027794
 21
171.4560805381576
 31
0.0
  0
LINE
  5
71
  8
0
  6
CONTINUOUS
 62
   253
 10
-378.9459072027794
 20
171.4560805381576
 30
0.0
 11
-378.5674554444053
 21
171.766404358981
 31
0.0
  0
LINE
  5
72
  8
0
  6
CONTINUOUS
 62
     7
 10
-373.4180784392769
 20
127.1587867074871
 30
0.0
 11
-367.9180784392769
 21
127.1587867074871
 31
0.0
  0
LINE
  5
73
  8
0
  6
CONTINUOUS
 62
   253
 10
-420.4836774806178
 20
245.5382779535259
 30
0.0
 11
-408.9655133483907
 21
245.5382779535259
 31
0.0
  0
LINE
  5
74
  8
0
  6
CONTINUOUS
 62
   253
 10
-377.8847820396787
 20
243.5293143809178
 30
0.0
 11
-378.0265291688596
 21
243.9981134455092
 31
0.0
  0
LINE
  5
75
  8
0
  6
CONTINUOUS
 62
   253
 10
-378.2570311198735
 20
244.4299512781617
 30
0.0
 11
-378.5674554444053
 21
244.8082805771244
 31
0.0
  0
LINE
  5
76
  8
0
  6
CONTINUOUS
 62
   253
 10
-379.8468354546994
 20
171.0839521826099
 30
0.0
 11
-379.3778847581074
 21
171.225653284015
 31
0.0
  0
LINE
  5
77
  8
0
  6
CONTINUOUS
 62
   253
 10
-378.2570311198735
 20
172.1447336579437
 30
0.0
 11
-378.0265291688596
 21
172.5765714905962
 31
0.0
  0
LINE
  5
78
  8
0
  6
CONTINUOUS
 62
   253
 10
-470.2687014341489
 20
244.8082805771244
 30
0.0
 11
-470.5791257586805
 21
244.4299512781617
 31
0.0
  0
LINE
  5
79
  8
0
  6
CONTINUOUS
 62
     7
 10
-373.4180784392771
 20
127.1587867074871
 30
0.0
 11
-373.4180784392771
 21
127.6587867074871
 31
0.0
  0
LINE
  5
7A
  8
0
  6
CONTINUOUS
 62
   253
 10
-470.8096277096945
 20
243.9981134455092
 30
0.0
 11
-470.9513748388753
 21
243.5293143809178
 31
0.0
  0
LINE
  5
7B
  8
0
  6
CONTINUOUS
 62
   253
 10
-378.5674554444053
 20
171.766404358981
 30
0.0
 11
-378.2570311198735
 21
172.1447336579437
 31
0.0
  0
LINE
  5
7C
  8
0
  6
CONTINUOUS
 62
   253
 10
-470.5791257586805
 20
244.4299512781617
 30
0.0
 11
-470.8096277096945
 21
243.9981134455092
 31
0.0
  0
LINE
  5
7D
  8
0
  6
CONTINUOUS
 62
   253
 10
-378.0265291688596
 20
243.9981134455092
 30
0.0
 11
-378.2570311198735
 21
244.4299512781617
 31
0.0
  0
LINE
  5
7E
  8
0
  6
CONTINUOUS
 62
   253
 10
-408.9655133483907
 20
171.0364069825795
 30
0.0
 11
-420.4836774806178
 21
171.0364069825795
 31
0.0
  0
LINE
  5
7F
  8
0
  6
CONTINUOUS
 62
   253
 10
-393.8706435301632
 20
245.5382779535259
 30
0.0
 11
-380.3347898880801
 21
245.5382779535259
 31
0.0
  0
LINE
  5
80
  8
0
  6
CONTINUOUS
 62
   253
 10
-378.0265291688596
 20
172.5765714905962
 30
0.0
 11
-377.8847820396787
 21
173.0453705551876
 31
0.0
  0
LINE
  5
81
  8
0
  6
CONTINUOUS
 62
     7
 10
-480.918078439277
 20
127.6587867074871
 30
0.0
 11
-480.918078439277
 21
127.1587867074871
 31
0.0
  0
LINE
  5
82
  8
0
  6
CONTINUOUS
 62
   253
 10
-380.3347898880801
 20
171.0364069825795
 30
0.0
 11
-379.8468354546994
 21
171.0839521826099
 31
0.0
  0
LINE
  5
83
  8
0
  6
CONTINUOUS
 62
   253
 10
-377.8372212446757
 20
243.0415176785791
 30
0.0
 11
-377.8847820396787
 21
243.5293143809178
 31
0.0
  0
LINE
  5
84
  8
0
  6
CONTINUOUS
 62
   253
 10
-378.5674554444053
 20
244.8082805771244
 30
0.0
 11
-378.9459072027794
 21
245.1186043979478
 31
0.0
  0
LINE
  5
85
  8
0
  6
CONTINUOUS
 62
   253
 10
-378.9459072027794
 20
245.1186043979478
 30
0.0
 11
-379.3778847581073
 21
245.3490316520904
 31
0.0
  0
LINE
  5
86
  8
0
  6
CONTINUOUS
 62
   253
 10
-377.8847820396787
 20
173.0453705551876
 30
0.0
 11
-377.8372212446757
 21
173.5331672575264
 31
0.0
  0
LINE
  5
87
  8
0
  6
CONTINUOUS
 62
     7
 10
-475.4180784392771
 20
127.1587867074871
 30
0.0
 11
-475.4180784392771
 21
127.6587867074871
 31
0.0
  0
LINE
  5
88
  8
0
  6
CONTINUOUS
 62
     7
 10
-475.4180784392771
 20
127.1587867074871
 30
0.0
 11
-480.9180784392771
 21
127.1587867074871
 31
0.0
  0
LINE
  5
89
  8
0
  6
CONTINUOUS
 62
     7
 10
-367.9180784392771
 20
127.6587867074871
 30
0.0
 11
-367.9180784392771
 21
127.1587867074871
 31
0.0
  0
LINE
  5
8A
  8
0
  6
CONTINUOUS
 62
   253
 10
-440.2292786690838
 20
245.4099097805199
 30
0.0
 11
-440.2112509638649
 21
245.4245755850819
 31
0.0
  0
LINE
  5
8B
  8
0
  6
CONTINUOUS
 62
     7
 10
-475.4180784392771
 20
127.1587867074871
 30
0.0
 11
-480.9180784392771
 21
127.1587867074871
 31
0.0
  0
LINE
  5
8C
  8
0
  6
CONTINUOUS
 62
   253
 10
-439.8831328897282
 20
170.0375133311624
 30
0.0
 11
-439.8706435301633
 21
170.0374612844653
 31
0.0
  0
LINE
  5
8D
  8
0
  6
CONTINUOUS
 62
     7
 10
-480.918078439277
 20
127.6587867074871
 30
0.0
 11
-480.918078439277
 21
127.1587867074871
 31
0.0
  0
LINE
  5
8E
  8
0
  6
CONTINUOUS
 62
   253
 10
-394.3711510027869
 20
245.1887221415655
 30
0.0
 11
-394.3652288086929
 21
245.2093825712113
 31
0.0
  0
LINE
  5
8F
  8
0
  6
CONTINUOUS
 62
   253
 10
-440.2112509638649
 20
245.4245755850819
 30
0.0
 11
-440.1924415502757
 21
245.4384790188357
 31
0.0
  0
LINE
  5
90
  8
0
  6
CONTINUOUS
 62
   253
 10
-440.1924415502757
 20
245.4384790188357
 30
0.0
 11
-440.1728952398557
 21
245.451586958246
 31
0.0
  0
LINE
  5
91
  8
0
  6
CONTINUOUS
 62
     7
 10
-475.4180784392771
 20
127.1587867074871
 30
0.0
 11
-475.4180784392771
 21
127.6587867074871
 31
0.0
  0
LINE
  5
92
  8
0
  6
CONTINUOUS
 62
   253
 10
-454.9655133483908
 20
171.0364069825795
 30
0.0
 11
-468.501366990474
 21
171.0364069825795
 31
0.0
  0
LINE
  5
93
  8
0
  6
CONTINUOUS
 62
   253
 10
-380.3347898880801
 20
171.0364069825795
 30
0.0
 11
-393.8706435301633
 21
171.0364069825795
 31
0.0
  0
LINE
  5
94
  8
0
  6
CONTINUOUS
 62
   253
 10
-439.8706435301633
 20
245.5382779535259
 30
0.0
 11
-428.3524793979363
 21
245.5382779535259
 31
0.0
  0
LINE
  5
95
  8
0
  6
CONTINUOUS
 62
   253
 10
-470.9513748388753
 20
243.5293143809178
 30
0.0
 11
-470.9989356338784
 21
243.0415176785791
 31
0.0
  0
LINE
  5
96
  8
0
  6
CONTINUOUS
 62
   253
 10
-428.3524793979363
 20
171.0364069825795
 30
0.0
 11
-439.8706435301633
 21
171.0364069825795
 31
0.0
  0
LINE
  5
97
  8
0
  6
CONTINUOUS
 62
   253
 10
-379.8468354546994
 20
245.4907327534955
 30
0.0
 11
-380.3347898880801
 21
245.5382779535259
 31
0.0
  0
LINE
  5
98
  8
0
  6
CONTINUOUS
 62
   253
 10
-468.5013669904739
 20
245.5382779535259
 30
0.0
 11
-454.9655133483908
 21
245.5382779535259
 31
0.0
  0
LINE
  5
99
  8
0
  6
CONTINUOUS
 62
   253
 10
-394.1317798416538
 20
245.4752934102215
 30
0.0
 11
-394.1103087071803
 21
245.4858354445448
 31
0.0
  0
LINE
  5
9A
  8
0
  6
CONTINUOUS
 62
   253
 10
-393.8748072688602
 20
245.5382638634624
 30
0.0
 11
-393.8706435301632
 21
245.5382779535259
 31
0.0
  0
LINE
  5
9B
  8
0
  6
CONTINUOUS
 62
   253
 10
-440.2464817167346
 20
245.3945165449564
 30
0.0
 11
-440.2292786690838
 21
245.4099097805199
 31
0.0
  0
LINE
  5
9C
  8
0
  6
CONTINUOUS
 62
   253
 10
-440.3711510027869
 20
245.1887221415655
 30
0.0
 11
-440.365228808693
 21
245.2093825712113
 31
0.0
  0
LINE
  5
9D
  8
0
  6
CONTINUOUS
 62
   253
 10
-394.3187667246165
 20
245.3079781068444
 30
0.0
 11
-394.3062591267959
 21
245.3264268829424
 31
0.0
  0
LINE
  5
9E
  8
0
  6
CONTINUOUS
 62
   253
 10
-394.2112509638649
 20
245.4245755850819
 30
0.0
 11
-394.1924415502757
 21
245.4384790188357
 31
0.0
  0
LINE
  5
9F
  8
0
  6
CONTINUOUS
 62
   253
 10
-393.9959002241499
 20
245.524495415473
 30
0.0
 11
-393.9719897409576
 21
245.5292883630773
 31
0.0
  0
LINE
  5
A0
  8
0
  6
CONTINUOUS
 62
   253
 10
-440.1317798416538
 20
245.4752934102215
 30
0.0
 11
-440.1103087071803
 21
245.4858354445448
 31
0.0
  0
LINE
  5
A1
  8
0
  6
CONTINUOUS
 62
   253
 10
-394.1526585997274
 20
245.4638681749632
 30
0.0
 11
-394.1317798416538
 21
245.4752934102215
 31
0.0
  0
LINE
  5
A2
  8
0
  6
CONTINUOUS
 62
   253
 10
-440.0195420504892
 20
245.5187020480959
 30
0.0
 11
-439.9959002241499
 21
245.524495415473
 31
0.0
  0
LINE
  5
A3
  8
0
  6
CONTINUOUS
 62
   253
 10
-393.9719897409576
 20
245.5292883630773
 30
0.0
 11
-393.9478675652379
 21
245.5330694721923
 31
0.0
  0
LINE
  5
A4
  8
0
  6
CONTINUOUS
 62
   253
 10
-440.3818991005266
 20
245.1257371659188
 30
0.0
 11
-440.3794960893692
 21
245.1468495603087
 31
0.0
  0
LINE
  5
A5
  8
0
  6
CONTINUOUS
 62
   253
 10
-440.365228808693
 20
245.2093825712113
 30
0.0
 11
-440.358158069472
 21
245.2297933058
 31
0.0
  0
LINE
  5
A6
  8
0
  6
CONTINUOUS
 62
   253
 10
-440.0882963491289
 20
245.4954691625948
 30
0.0
 11
-440.0657952097329
 21
245.5041716130054
 31
0.0
  0
LINE
  5
A7
  8
0
  6
CONTINUOUS
 62
   253
 10
-394.3818991005265
 20
245.1257371659188
 30
0.0
 11
-394.3794960893692
 21
245.1468495603087
 31
0.0
  0
LINE
  5
A8
  8
0
  6
CONTINUOUS
 62
   253
 10
-394.0428588956979
 20
245.5119220630621
 30
0.0
 11
-394.0195420504892
 21
245.5187020480959
 31
0.0
  0
LINE
  5
A9
  8
0
  6
CONTINUOUS
 62
   253
 10
-394.2927434731951
 20
245.3443471176612
 30
0.0
 11
-394.278251963502
 21
245.3616961178408
 31
0.0
  0
LINE
  5
AA
  8
0
  6
CONTINUOUS
 62
   253
 10
-393.9478675652379
 20
245.5330694721923
 30
0.0
 11
-393.923591165653
 21
245.5358297347052
 31
0.0
  0
LINE
  5
AB
  8
0
  6
CONTINUOUS
 62
   253
 10
-440.3062591267958
 20
245.3264268829424
 30
0.0
 11
-440.292743473195
 21
245.3443471176612
 31
0.0
  0
LINE
  5
AC
  8
0
  6
CONTINUOUS
 62
   253
 10
-393.923591165653
 20
245.5358297347052
 30
0.0
 11
-393.8992183782874
 21
245.5375625745675
 31
0.0
  0
LINE
  5
AD
  8
0
  6
CONTINUOUS
 62
   253
 10
-394.3499556304505
 20
245.2499057188056
 30
0.0
 11
-394.3406410331158
 21
245.2696718944234
 31
0.0
  0
LINE
  5
AE
  8
0
  6
CONTINUOUS
 62
   253
 10
-394.358158069472
 20
245.2297933058
 30
0.0
 11
-394.3499556304505
 21
245.2499057188056
 31
0.0
  0
LINE
  5
AF
  8
0
  6
CONTINUOUS
 62
   253
 10
-394.3794960893692
 20
245.1468495603087
 30
0.0
 11
-394.375910542721
 21
245.167861238262
 31
0.0
  0
LINE
  5
B0
  8
0
  6
CONTINUOUS
 62
   253
 10
-394.0195420504892
 20
245.5187020480959
 30
0.0
 11
-393.9959002241499
 21
245.524495415473
 31
0.0
  0
LINE
  5
B1
  8
0
  6
CONTINUOUS
 62
   253
 10
-440.3302364685609
 20
245.2890447417242
 30
0.0
 11
-440.3187667246165
 21
245.3079781068444
 31
0.0
  0
LINE
  5
B2
  8
0
  6
CONTINUOUS
 62
   253
 10
-394.3062591267959
 20
245.3264268829424
 30
0.0
 11
-394.2927434731951
 21
245.3443471176612
 31
0.0
  0
LINE
  5
B3
  8
0
  6
CONTINUOUS
 62
   253
 10
-394.375910542721
 20
245.167861238262
 30
0.0
 11
-394.3711510027869
 21
245.1887221415655
 31
0.0
  0
LINE
  5
B4
  8
0
  6
CONTINUOUS
 62
   253
 10
-394.1924415502757
 20
245.4384790188357
 30
0.0
 11
-394.1728952398557
 21
245.451586958246
 31
0.0
  0
LINE
  5
B5
  8
0
  6
CONTINUOUS
 62
   253
 10
-394.278251963502
 20
245.3616961178408
 30
0.0
 11
-394.2628191222835
 21
245.37843255123
 31
0.0
  0
LINE
  5
B6
  8
0
  6
CONTINUOUS
 62
   253
 10
-440.292743473195
 20
245.3443471176612
 30
0.0
 11
-440.2782519635019
 21
245.3616961178408
 31
0.0
  0
LINE
  5
B7
  8
0
  6
CONTINUOUS
 62
   253
 10
-440.3499556304505
 20
245.2499057188056
 30
0.0
 11
-440.3406410331158
 21
245.2696718944234
 31
0.0
  0
LINE
  5
B8
  8
0
  6
CONTINUOUS
 62
   253
 10
-440.358158069472
 20
245.2297933058
 30
0.0
 11
-440.3499556304505
 21
245.2499057188056
 31
0.0
  0
LINE
  5
B9
  8
0
  6
CONTINUOUS
 62
   253
 10
-394.3406410331158
 20
245.2696718944234
 30
0.0
 11
-394.3302364685609
 21
245.2890447417242
 31
0.0
  0
LINE
  5
BA
  8
0
  6
CONTINUOUS
 62
   253
 10
-394.0657952097329
 20
245.5041716130054
 30
0.0
 11
-394.0428588956979
 21
245.5119220630621
 31
0.0
  0
LINE
  5
BB
  8
0
  6
CONTINUOUS
 62
   253
 10
-440.0657952097329
 20
245.5041716130054
 30
0.0
 11
-440.0428588956978
 21
245.5119220630621
 31
0.0
  0
LINE
  5
BC
  8
0
  6
CONTINUOUS
 62
   253
 10
-440.1728952398557
 20
245.451586958246
 30
0.0
 11
-440.1526585997273
 21
245.4638681749632
 31
0.0
  0
LINE
  5
BD
  8
0
  6
CONTINUOUS
 62
   253
 10
-440.1526585997273
 20
245.4638681749632
 30
0.0
 11
-440.1317798416538
 21
245.4752934102215
 31
0.0
  0
LINE
  5
BE
  8
0
  6
CONTINUOUS
 62
   253
 10
-394.3831138512604
 20
245.1045743532524
 30
0.0
 11
-394.3818991005265
 21
245.1257371659188
 31
0.0
  0
LINE
  5
BF
  8
0
  6
CONTINUOUS
 62
   253
 10
-440.3759105427209
 20
245.167861238262
 30
0.0
 11
-440.3711510027869
 21
245.1887221415655
 31
0.0
  0
LINE
  5
C0
  8
0
  6
CONTINUOUS
 62
   253
 10
-440.2782519635019
 20
245.3616961178408
 30
0.0
 11
-440.2628191222835
 21
245.37843255123
 31
0.0
  0
LINE
  5
C1
  8
0
  6
CONTINUOUS
 62
   253
 10
-440.2628191222835
 20
245.37843255123
 30
0.0
 11
-440.2464817167346
 21
245.3945165449564
 31
0.0
  0
LINE
  5
C2
  8
0
  6
CONTINUOUS
 62
   253
 10
-440.0428588956978
 20
245.5119220630621
 30
0.0
 11
-440.0195420504892
 21
245.5187020480959
 31
0.0
  0
LINE
  5
C3
  8
0
  6
CONTINUOUS
 62
   253
 10
-440.1103087071803
 20
245.4858354445448
 30
0.0
 11
-440.0882963491289
 21
245.4954691625948
 31
0.0
  0
LINE
  5
C4
  8
0
  6
CONTINUOUS
 62
   253
 10
-394.1728952398557
 20
245.451586958246
 30
0.0
 11
-394.1526585997274
 21
245.4638681749632
 31
0.0
  0
LINE
  5
C5
  8
0
  6
CONTINUOUS
 62
   253
 10
-394.2628191222835
 20
245.37843255123
 30
0.0
 11
-394.2464817167346
 21
245.3945165449564
 31
0.0
  0
LINE
  5
C6
  8
0
  6
CONTINUOUS
 62
   253
 10
-394.0882963491289
 20
245.4954691625948
 30
0.0
 11
-394.0657952097329
 21
245.5041716130054
 31
0.0
  0
LINE
  5
C7
  8
0
  6
CONTINUOUS
 62
   253
 10
-394.2292786690838
 20
245.4099097805199
 30
0.0
 11
-394.2112509638649
 21
245.4245755850819
 31
0.0
  0
LINE
  5
C8
  8
0
  6
CONTINUOUS
 62
   253
 10
-440.3831138512603
 20
245.1045743532524
 30
0.0
 11
-440.3818991005266
 21
245.1257371659188
 31
0.0
  0
LINE
  5
C9
  8
0
  6
CONTINUOUS
 62
   253
 10
-440.3794960893692
 20
245.1468495603087
 30
0.0
 11
-440.3759105427209
 21
245.167861238262
 31
0.0
  0
LINE
  5
CA
  8
0
  6
CONTINUOUS
 62
   253
 10
-394.2464817167346
 20
245.3945165449564
 30
0.0
 11
-394.2292786690838
 21
245.4099097805199
 31
0.0
  0
LINE
  5
CB
  8
0
  6
CONTINUOUS
 62
   253
 10
-440.3187667246165
 20
245.3079781068444
 30
0.0
 11
-440.3062591267958
 21
245.3264268829424
 31
0.0
  0
LINE
  5
CC
  8
0
  6
CONTINUOUS
 62
   253
 10
-394.3302364685609
 20
245.2890447417242
 30
0.0
 11
-394.3187667246165
 21
245.3079781068444
 31
0.0
  0
LINE
  5
CD
  8
0
  6
CONTINUOUS
 62
   253
 10
-393.8992183782874
 20
245.5375625745675
 30
0.0
 11
-393.8748072688602
 21
245.5382638634624
 31
0.0
  0
LINE
  5
CE
  8
0
  6
CONTINUOUS
 62
   253
 10
-440.7024704217021
 20
244.0358949798475
 30
0.0
 11
-440.578109795263
 21
244.1872550581176
 31
0.0
  0
LINE
  5
CF
  8
0
  6
CONTINUOUS
 62
     7
 10
-401.423078439277
 20
166.5323424680527
 30
0.0
 11
-401.423078439277
 21
164.5373424680527
 31
0.0
  0
LINE
  5
D0
  8
0
  6
CONTINUOUS
 62
     7
 10
-445.4180784392771
 20
166.5323424680527
 30
0.0
 11
-445.4180784392771
 21
166.5423424680527
 31
0.0
  0
LINE
  5
D1
  8
0
  6
CONTINUOUS
 62
     7
 10
-401.4130784392771
 20
166.5423424680527
 30
0.0
 11
-401.4130784392771
 21
168.5373424680527
 31
0.0
  0
LINE
  5
D2
  8
0
  6
CONTINUOUS
 62
   253
 10
-394.3652288086929
 20
245.2093825712113
 30
0.0
 11
-394.358158069472
 21
245.2297933058
 31
0.0
  0
LINE
  5
D3
  8
0
  6
CONTINUOUS
 62
     7
 10
-447.423078439277
 20
166.5323424680527
 30
0.0
 11
-447.423078439277
 21
164.5373424680527
 31
0.0
  0
LINE
  5
D4
  8
0
  6
CONTINUOUS
 62
   253
 10
-408.4267101132783
 20
171.8325701252806
 30
0.0
 11
-408.4267101132783
 21
164.3744969137029
 31
0.0
  0
LINE
  5
D5
  8
0
  6
CONTINUOUS
 62
     7
 10
-447.413078439277
 20
248.0373424680527
 30
0.0
 11
-447.413078439277
 21
250.0323424680527
 31
0.0
  0
LINE
  5
D6
  8
0
  6
CONTINUOUS
 62
   253
 10
-407.9821724003544
 20
172.6630241995134
 30
0.0
 11
-408.133686456852
 21
172.538789956258
 31
0.0
  0
LINE
  5
D7
  8
0
  6
CONTINUOUS
 62
   253
 10
-440.428729118416
 20
244.5472792201281
 30
0.0
 11
-440.4094467652757
 21
244.7421148108249
 31
0.0
  0
LINE
  5
D8
  8
0
  6
CONTINUOUS
 62
   253
 10
-441.909389649872
 20
243.7659465360678
 30
0.0
 11
-441.4094086883399
 21
243.7431691127107
 31
0.0
  0
LINE
  5
D9
  8
0
  6
CONTINUOUS
 62
     7
 10
-445.4180784392771
 20
166.5423424680527
 30
0.0
 11
-447.413078439277
 21
166.5423424680527
 31
0.0
  0
LINE
  5
DA
  8
0
  6
CONTINUOUS
 62
     7
 10
-399.418078439277
 20
166.5323424680527
 30
0.0
 11
-399.418078439277
 21
166.5423424680527
 31
0.0
  0
LINE
  5
DB
  8
0
  6
CONTINUOUS
 62
   253
 10
-395.40940868834
 20
243.7431691127107
 30
0.0
 11
-395.2143748918861
 21
243.7624318698964
 31
0.0
  0
LINE
  5
DC
  8
0
  6
CONTINUOUS
 62
   253
 10
-441.0268323245833
 20
243.8193241535507
 30
0.0
 11
-440.8539844781996
 21
243.9116607365921
 31
0.0
  0
LINE
  5
DD
  8
0
  6
CONTINUOUS
 62
     7
 10
-449.4180784392771
 20
250.0323424680527
 30
0.0
 11
-447.423078439277
 21
250.0323424680527
 31
0.0
  0
LINE
  5
DE
  8
0
  6
CONTINUOUS
 62
   253
 10
-408.9369385002667
 20
171.0371223615379
 30
0.0
 11
-408.9613496096938
 21
171.036421072643
 31
0.0
  0
LINE
  5
DF
  8
0
  6
CONTINUOUS
 62
   253
 10
-440.3406410331158
 20
245.2696718944234
 30
0.0
 11
-440.3302364685609
 21
245.2890447417242
 31
0.0
  0
LINE
  5
E0
  8
0
  6
CONTINUOUS
 62
     7
 10
-447.423078439277
 20
252.0373424680527
 30
0.0
 11
-447.423078439277
 21
250.0423424680527
 31
0.0
  0
LINE
  5
E1
  8
0
  6
CONTINUOUS
 62
     7
 10
-447.423078439277
 20
250.0423424680527
 30
0.0
 11
-449.4180784392771
 21
250.0423424680527
 31
0.0
  0
LINE
  5
E2
  8
0
  6
CONTINUOUS
 62
   253
 10
-440.8539844781996
 20
243.9116607365921
 30
0.0
 11
-440.7024704217021
 21
244.0358949798475
 31
0.0
  0
LINE
  5
E3
  8
0
  6
CONTINUOUS
 62
   253
 10
-441.2143748918861
 20
243.7624318698964
 30
0.0
 11
-441.0268323245833
 21
243.8193241535507
 31
0.0
  0
LINE
  5
E4
  8
0
  6
CONTINUOUS
 62
   253
 10
-407.8093245539708
 20
172.7553607825548
 30
0.0
 11
-407.9821724003544
 21
172.6630241995134
 31
0.0
  0
LINE
  5
E5
  8
0
  6
CONTINUOUS
 62
   253
 10
-394.4094467652758
 20
164.3744969137029
 30
0.0
 11
-394.4094467652758
 21
171.8325701252806
 31
0.0
  0
LINE
  5
E6
  8
0
  6
CONTINUOUS
 62
     7
 10
-447.423078439277
 20
166.5423424680527
 30
0.0
 11
-449.4180784392771
 21
166.5423424680527
 31
0.0
  0
LINE
  5
E7
  8
0
  6
CONTINUOUS
 62
   253
 10
-441.40940868834
 20
243.7431691127107
 30
0.0
 11
-441.2143748918861
 21
243.7624318698964
 31
0.0
  0
LINE
  5
E8
  8
0
  6
CONTINUOUS
 62
   253
 10
-408.2580470832911
 20
172.3874298779879
 30
0.0
 11
-408.3504776001065
 21
172.2147576905869
 31
0.0
  0
LINE
  5
E9
  8
0
  6
CONTINUOUS
 62
   253
 10
-395.0268323245833
 20
243.8193241535507
 30
0.0
 11
-394.8539844781997
 21
243.9116607365921
 31
0.0
  0
LINE
  5
EA
  8
0
  6
CONTINUOUS
 62
     7
 10
-449.4180784392771
 20
166.5323424680527
 30
0.0
 11
-447.423078439277
 21
166.5323424680527
 31
0.0
  0
LINE
  5
EB
  8
0
  6
CONTINUOUS
 62
   253
 10
-394.5781097952631
 20
244.1872550581176
 30
0.0
 11
-394.4856792784476
 21
244.3599272455186
 31
0.0
  0
LINE
  5
EC
  8
0
  6
CONTINUOUS
 62
     7
 10
-447.413078439277
 20
168.5373424680527
 30
0.0
 11
-447.423078439277
 21
168.5373424680527
 31
0.0
  0
LINE
  5
ED
  8
0
  6
CONTINUOUS
 62
     7
 10
-445.4180784392771
 20
250.0323424680527
 30
0.0
 11
-445.4180784392771
 21
250.0423424680527
 31
0.0
  0
LINE
  5
EE
  8
0
  6
CONTINUOUS
 62
     7
 10
-447.423078439277
 20
164.5373424680527
 30
0.0
 11
-447.413078439277
 21
164.5373424680527
 31
0.0
  0
LINE
  5
EF
  8
0
  6
CONTINUOUS
 62
   253
 10
-394.4287291184161
 20
244.5472792201281
 30
0.0
 11
-394.4094467652758
 21
244.7421148108249
 31
0.0
  0
LINE
  5
F0
  8
0
  6
CONTINUOUS
 62
   253
 10
-394.1103087071803
 20
245.4858354445448
 30
0.0
 11
-394.0882963491289
 21
245.4954691625948
 31
0.0
  0
LINE
  5
F1
  8
0
  6
CONTINUOUS
 62
   253
 10
-454.4267101132783
 20
252.2001880224025
 30
0.0
 11
-454.4267101132783
 21
244.7421148108249
 31
0.0
  0
LINE
  5
F2
  8
0
  6
CONTINUOUS
 62
     7
 10
-401.423078439277
 20
168.5373424680527
 30
0.0
 11
-401.423078439277
 21
166.5423424680527
 31
0.0
  0
LINE
  5
F3
  8
0
  6
CONTINUOUS
 62
     7
 10
-445.4180784392771
 20
250.0423424680527
 30
0.0
 11
-447.413078439277
 21
250.0423424680527
 31
0.0
  0
LINE
  5
F4
  8
0
  6
CONTINUOUS
 62
     7
 10
-447.413078439277
 20
166.5423424680527
 30
0.0
 11
-447.413078439277
 21
168.5373424680527
 31
0.0
  0
LINE
  5
F5
  8
0
  6
CONTINUOUS
 62
     7
 10
-447.423078439277
 20
248.0373424680527
 30
0.0
 11
-447.413078439277
 21
248.0373424680527
 31
0.0
  0
LINE
  5
F6
  8
0
  6
CONTINUOUS
 62
     7
 10
-447.413078439277
 20
250.0423424680527
 30
0.0
 11
-447.413078439277
 21
252.0373424680527
 31
0.0
  0
LINE
  5
F7
  8
0
  6
CONTINUOUS
 62
     7
 10
-399.418078439277
 20
166.5423424680527
 30
0.0
 11
-401.4130784392771
 21
166.5423424680527
 31
0.0
  0
LINE
  5
F8
  8
0
  6
CONTINUOUS
 62
   253
 10
-440.4094467652758
 20
244.7421148108249
 30
0.0
 11
-440.4094467652758
 21
252.2001880224025
 31
0.0
  0
LINE
  5
F9
  8
0
  6
CONTINUOUS
 62
   253
 10
-408.3504776001065
 20
172.2147576905869
 30
0.0
 11
-408.407427760138
 21
172.0274057159773
 31
0.0
  0
LINE
  5
FA
  8
0
  6
CONTINUOUS
 62
   253
 10
-394.8539844781997
 20
243.9116607365921
 30
0.0
 11
-394.7024704217021
 21
244.0358949798475
 31
0.0
  0
LINE
  5
FB
  8
0
  6
CONTINUOUS
 62
   253
 10
-406.926767228682
 20
172.8087384000377
 30
0.0
 11
-407.4267481902141
 21
172.8315158233948
 31
0.0
  0
LINE
  5
FC
  8
0
  6
CONTINUOUS
 62
     7
 10
-401.4130784392771
 20
168.5373424680527
 30
0.0
 11
-401.423078439277
 21
168.5373424680527
 31
0.0
  0
LINE
  5
FD
  8
0
  6
CONTINUOUS
 62
     7
 10
-447.423078439277
 20
168.5373424680527
 30
0.0
 11
-447.423078439277
 21
166.5423424680527
 31
0.0
  0
LINE
  5
FE
  8
0
  6
CONTINUOUS
 62
     7
 10
-447.413078439277
 20
250.0323424680527
 30
0.0
 11
-445.4180784392771
 21
250.0323424680527
 31
0.0
  0
LINE
  5
FF
  8
0
  6
CONTINUOUS
 62
     7
 10
-447.413078439277
 20
252.0373424680527
 30
0.0
 11
-447.423078439277
 21
252.0373424680527
 31
0.0
  0
LINE
  5
100
  8
0
  6
CONTINUOUS
 62
   253
 10
-395.2143748918861
 20
243.7624318698964
 30
0.0
 11
-395.0268323245833
 21
243.8193241535507
 31
0.0
  0
LINE
  5
101
  8
0
  6
CONTINUOUS
 62
   253
 10
-408.4267101132783
 20
252.2001880224025
 30
0.0
 11
-408.4267101132783
 21
244.7421148108249
 31
0.0
  0
LINE
  5
102
  8
0
  6
CONTINUOUS
 62
   253
 10
-440.4094467652758
 20
164.3744969137029
 30
0.0
 11
-440.4094467652758
 21
171.8325701252806
 31
0.0
  0
LINE
  5
103
  8
0
  6
CONTINUOUS
 62
     7
 10
-447.423078439277
 20
250.0323424680527
 30
0.0
 11
-447.423078439277
 21
248.0373424680527
 31
0.0
  0
LINE
  5
104
  8
0
  6
CONTINUOUS
 62
     7
 10
-447.413078439277
 20
164.5373424680527
 30
0.0
 11
-447.413078439277
 21
166.5323424680527
 31
0.0
  0
LINE
  5
105
  8
0
  6
CONTINUOUS
 62
   253
 10
-408.407427760138
 20
172.0274057159773
 30
0.0
 11
-408.4267101132783
 21
171.8325701252806
 31
0.0
  0
LINE
  5
106
  8
0
  6
CONTINUOUS
 62
     7
 10
-449.4180784392771
 20
250.0423424680527
 30
0.0
 11
-449.4180784392771
 21
250.0323424680527
 31
0.0
  0
LINE
  5
107
  8
0
  6
CONTINUOUS
 62
   253
 10
-394.4856792784476
 20
244.3599272455186
 30
0.0
 11
-394.4287291184161
 21
244.5472792201281
 31
0.0
  0
LINE
  5
108
  8
0
  6
CONTINUOUS
 62
   253
 10
-440.578109795263
 20
244.1872550581176
 30
0.0
 11
-440.4856792784475
 21
244.3599272455186
 31
0.0
  0
LINE
  5
109
  8
0
  6
CONTINUOUS
 62
   253
 10
-407.4267481902141
 20
172.8315158233948
 30
0.0
 11
-407.621781986668
 21
172.812253066209
 31
0.0
  0
LINE
  5
10A
  8
0
  6
CONTINUOUS
 62
     7
 10
-447.413078439277
 20
166.5323424680527
 30
0.0
 11
-445.4180784392771
 21
166.5323424680527
 31
0.0
  0
LINE
  5
10B
  8
0
  6
CONTINUOUS
 62
   253
 10
-407.621781986668
 20
172.812253066209
 30
0.0
 11
-407.8093245539708
 21
172.7553607825548
 31
0.0
  0
LINE
  5
10C
  8
0
  6
CONTINUOUS
 62
   253
 10
-440.4856792784475
 20
244.3599272455186
 30
0.0
 11
-440.428729118416
 21
244.5472792201281
 31
0.0
  0
LINE
  5
10D
  8
0
  6
CONTINUOUS
 62
     7
 10
-401.4130784392771
 20
164.5373424680527
 30
0.0
 11
-401.4130784392771
 21
166.5323424680527
 31
0.0
  0
LINE
  5
10E
  8
0
  6
CONTINUOUS
 62
   253
 10
-394.7024704217021
 20
244.0358949798475
 30
0.0
 11
-394.5781097952631
 21
244.1872550581176
 31
0.0
  0
LINE
  5
10F
  8
0
  6
CONTINUOUS
 62
   253
 10
-395.909389649872
 20
243.7659465360678
 30
0.0
 11
-395.40940868834
 21
243.7431691127107
 31
0.0
  0
LINE
  5
110
  8
0
  6
CONTINUOUS
 62
   253
 10
-440.4856792784475
 20
172.2147576905868
 30
0.0
 11
-440.5781097952629
 21
172.3874298779879
 31
0.0
  0
LINE
  5
111
  8
0
  6
CONTINUOUS
 62
   253
 10
-454.407427760138
 20
244.5472792201281
 30
0.0
 11
-454.3504776001065
 21
244.3599272455186
 31
0.0
  0
LINE
  5
112
  8
0
  6
CONTINUOUS
 62
   253
 10
-441.0268323245832
 20
172.7553607825548
 30
0.0
 11
-441.214374891886
 21
172.8122530662091
 31
0.0
  0
LINE
  5
113
  8
0
  6
CONTINUOUS
 62
   253
 10
-394.428729118416
 20
172.0274057159773
 30
0.0
 11
-394.4856792784475
 21
172.2147576905868
 31
0.0
  0
LINE
  5
114
  8
0
  6
CONTINUOUS
 62
   253
 10
-441.214374891886
 20
172.8122530662091
 30
0.0
 11
-441.4094086883399
 21
172.8315158233948
 31
0.0
  0
LINE
  5
115
  8
0
  6
CONTINUOUS
 62
   253
 10
-453.4267481902141
 20
172.8315158233947
 30
0.0
 11
-453.6217819866679
 21
172.812253066209
 31
0.0
  0
LINE
  5
116
  8
0
  6
CONTINUOUS
 62
   253
 10
-454.4267101132783
 20
171.8325701252806
 30
0.0
 11
-454.4267101132783
 21
164.3744969137029
 31
0.0
  0
LINE
  5
117
  8
0
  6
CONTINUOUS
 62
   253
 10
-452.9267672286821
 20
172.8087384000377
 30
0.0
 11
-453.4267481902141
 21
172.8315158233948
 31
0.0
  0
LINE
  5
118
  8
0
  6
CONTINUOUS
 62
   253
 10
-394.4094467652758
 20
244.7421148108249
 30
0.0
 11
-394.4094467652758
 21
252.2001880224025
 31
0.0
  0
LINE
  5
119
  8
0
  6
CONTINUOUS
 62
   253
 10
-453.6217819866679
 20
243.7624318698964
 30
0.0
 11
-453.4267481902141
 21
243.7431691127106
 31
0.0
  0
LINE
  5
11A
  8
0
  6
CONTINUOUS
 62
     7
 10
-423.0126180591544
 20
171.1192825047879
 30
0.0
 11
-422.9808260700608
 21
173.5358707782144
 31
0.0
  0
LINE
  5
11B
  8
0
  6
CONTINUOUS
 62
   253
 10
-440.8539844781996
 20
172.6630241995134
 30
0.0
 11
-441.0268323245832
 21
172.7553607825548
 31
0.0
  0
LINE
  5
11C
  8
0
  6
CONTINUOUS
 62
   253
 10
-395.2143748918861
 20
172.8122530662091
 30
0.0
 11
-395.40940868834
 21
172.8315158233948
 31
0.0
  0
LINE
  5
11D
  8
0
  6
CONTINUOUS
 62
   253
 10
-425.7337045109153
 20
252.6933599712108
 30
0.0
 11
-425.7337045109153
 21
163.8813249648946
 31
0.0
  0
LINE
  5
11E
  8
0
  6
CONTINUOUS
 62
   253
 10
-440.428729118416
 20
172.0274057159773
 30
0.0
 11
-440.4856792784475
 21
172.2147576905868
 31
0.0
  0
LINE
  5
11F
  8
0
  6
CONTINUOUS
 62
   253
 10
-407.8093245539708
 20
243.8193241535507
 30
0.0
 11
-407.621781986668
 21
243.7624318698964
 31
0.0
  0
LINE
  5
120
  8
0
  6
CONTINUOUS
 62
   253
 10
-453.9821724003543
 20
172.6630241995133
 30
0.0
 11
-454.1336864568519
 21
172.5387899562579
 31
0.0
  0
LINE
  5
121
  8
0
  6
CONTINUOUS
 62
   253
 10
-453.8093245539707
 20
172.7553607825547
 30
0.0
 11
-453.9821724003543
 21
172.6630241995133
 31
0.0
  0
LINE
  5
122
  8
0
  6
CONTINUOUS
 62
     7
 10
-423.0126180591545
 20
245.4554024313175
 30
0.0
 11
-422.9808260700609
 21
243.038814157891
 31
0.0
  0
LINE
  5
123
  8
0
  6
CONTINUOUS
 62
     7
 10
-423.0126180591544
 20
171.1192825047879
 30
0.0
 11
-423.0126180591544
 21
164.4008298277183
 31
0.0
  0
LINE
  5
124
  8
0
  6
CONTINUOUS
 62
   253
 10
-408.3504776001065
 20
244.3599272455186
 30
0.0
 11
-408.258047083291
 21
244.1872550581176
 31
0.0
  0
LINE
  5
125
  8
0
  6
CONTINUOUS
 62
   253
 10
-454.258047083291
 20
172.3874298779878
 30
0.0
 11
-454.3504776001064
 21
172.2147576905868
 31
0.0
  0
LINE
  5
126
  8
0
  6
CONTINUOUS
 62
     7
 10
-449.4180784392771
 20
166.5423424680527
 30
0.0
 11
-449.4180784392771
 21
166.5323424680527
 31
0.0
  0
LINE
  5
127
  8
0
  6
CONTINUOUS
 62
   253
 10
-454.258047083291
 20
244.1872550581175
 30
0.0
 11
-454.133686456852
 21
244.0358949798474
 31
0.0
  0
LINE
  5
128
  8
0
  6
CONTINUOUS
 62
   253
 10
-452.9267672286821
 20
243.7659465360678
 30
0.0
 11
-441.909389649872
 21
243.7659465360678
 31
0.0
  0
LINE
  5
129
  8
0
  6
CONTINUOUS
 62
     7
 10
-423.0126180591545
 20
252.1738551083871
 30
0.0
 11
-423.0126180591545
 21
245.4554024313175
 31
0.0
  0
LINE
  5
12A
  8
0
  6
CONTINUOUS
 62
   253
 10
-423.1024523676387
 20
163.8813249648946
 30
0.0
 11
-423.1024523676387
 21
252.6933599712109
 31
0.0
  0
LINE
  5
12B
  8
0
  6
CONTINUOUS
 62
   253
 10
-394.4856792784475
 20
172.2147576905868
 30
0.0
 11
-394.578109795263
 21
172.3874298779879
 31
0.0
  0
LINE
  5
12C
  8
0
  6
CONTINUOUS
 62
   253
 10
-394.578109795263
 20
172.3874298779879
 30
0.0
 11
-394.7024704217021
 21
172.538789956258
 31
0.0
  0
LINE
  5
12D
  8
0
  6
CONTINUOUS
 62
     7
 10
-425.8235388193996
 20
171.119282504788
 30
0.0
 11
-425.8553308084932
 21
173.5358707782144
 31
0.0
  0
LINE
  5
12E
  8
0
  6
CONTINUOUS
 62
     7
 10
-423.0289106160969
 20
163.9008488661862
 30
0.0
 11
-423.0126180591544
 21
164.4008298277183
 31
0.0
  0
LINE
  5
12F
  8
0
  6
CONTINUOUS
 62
   253
 10
-408.133686456852
 20
172.538789956258
 30
0.0
 11
-408.2580470832911
 21
172.3874298779879
 31
0.0
  0
LINE
  5
130
  8
0
  6
CONTINUOUS
 62
   253
 10
-454.3504776001065
 20
244.3599272455186
 30
0.0
 11
-454.258047083291
 21
244.1872550581175
 31
0.0
  0
LINE
  5
131
  8
0
  6
CONTINUOUS
 62
   253
 10
-454.8641671375965
 20
245.5292883630773
 30
0.0
 11
-454.8402566544042
 21
245.524495415473
 31
0.0
  0
LINE
  5
132
  8
0
  6
CONTINUOUS
 62
   253
 10
-408.4521704803136
 20
92.02379516040764
 30
0.0
 11
-408.3636654034025
 21
92.143822241604
 31
0.0
  0
LINE
  5
133
  8
0
  6
CONTINUOUS
 62
   253
 10
-454.6632616386983
 20
245.451586958246
 30
0.0
 11
-454.6437153282783
 21
245.4384790188357
 31
0.0
  0
LINE
  5
134
  8
0
  6
CONTINUOUS
 62
   253
 10
-454.6437153282783
 20
245.4384790188357
 30
0.0
 11
-454.6249059146892
 21
245.4245755850819
 31
0.0
  0
ARC
  5
135
  8
0
  6
CONTINUOUS
 62
   253
 10
-409.7691568432688
 20
92.96960459401063
 30
0.0
 40
1.630129651617775
 50
329.5640631825629
 51
3.145945071195968
  0
LINE
  5
136
  8
0
  6
CONTINUOUS
 62
   253
 10
-408.5173901539376
 20
245.3079781068444
 30
0.0
 11
-408.5059204099931
 21
245.2890447417242
 31
0.0
  0
ARC
  5
137
  8
0
  6
CONTINUOUS
 62
   253
 10
-416.8927011931999
 20
101.4464680319326
 30
0.0
 40
3.014534472487149
 50
179.6959914604241
 51
212.8634934689171
  0
LINE
  5
138
  8
0
  6
CONTINUOUS
 62
   253
 10
-393.9787465385649
 20
91.74141940791868
 30
0.0
 11
-393.8529557295803
 21
91.70750599880837
 31
0.0
  0
LINE
  5
139
  8
0
  6
CONTINUOUS
 62
     7
 10
-377.2905838580828
 20
114.1339555070588
 30
0.0
 11
-377.2913079468273
 21
114.1193932778642
 31
0.0
  0
ARC
  5
13A
  8
0
  6
CONTINUOUS
 62
     7
 10
-431.9180784392771
 20
101.4587867074871
 30
0.0
 40
3.000000000000001
 50
270.0
 51
313.0143972901786
  0
ARC
  5
13B
  8
0
  6
CONTINUOUS
 62
     7
 10
-416.918078439277
 20
101.4587867074871
 30
0.0
 40
3.000000000000001
 50
226.9856027098222
 51
270.0
  0
LINE
  5
13C
  8
0
  6
CONTINUOUS
 62
   253
 10
-408.477998809082
 20
245.2297933058
 30
0.0
 11
-408.4709280698611
 21
245.2093825712113
 31
0.0
  0
LINE
  5
13D
  8
0
  6
CONTINUOUS
 62
   253
 10
-454.8882893133161
 20
245.5330694721923
 30
0.0
 11
-454.8641671375965
 21
245.5292883630773
 31
0.0
  0
LINE
  5
13E
  8
0
  6
CONTINUOUS
 62
   253
 10
-454.7478605294252
 20
245.4954691625948
 30
0.0
 11
-454.7258481713738
 21
245.4858354445448
 31
0.0
  0
LINE
  5
13F
  8
0
  6
CONTINUOUS
 62
   253
 10
-454.5733377562705
 20
245.37843255123
 30
0.0
 11
-454.5579049150521
 21
245.3616961178408
 31
0.0
  0
LINE
  5
140
  8
0
  6
CONTINUOUS
 62
   253
 10
-454.5579049150521
 20
245.3616961178408
 30
0.0
 11
-454.543413405359
 21
245.3443471176612
 31
0.0
  0
LINE
  5
141
  8
0
  6
CONTINUOUS
 62
   253
 10
-454.8402566544042
 20
245.524495415473
 30
0.0
 11
-454.8166148280648
 21
245.5187020480959
 31
0.0
  0
LINE
  5
142
  8
0
  6
CONTINUOUS
 62
   253
 10
-408.5059204099931
 20
245.2890447417242
 30
0.0
 11
-408.4955158454383
 21
245.2696718944234
 31
0.0
  0
LINE
  5
143
  8
0
  6
CONTINUOUS
 62
   253
 10
-408.4602463358331
 20
245.167861238262
 30
0.0
 11
-408.4566607891849
 21
245.1468495603087
 31
0.0
  0
LINE
  5
144
  8
0
  6
CONTINUOUS
 62
   253
 10
-408.5549646219123
 20
91.91932793255982
 30
0.0
 11
-408.4521704803136
 21
92.02379516040764
 31
0.0
  0
LINE
  5
145
  8
0
  6
CONTINUOUS
 62
   253
 10
-408.9369385002667
 20
245.5375625745675
 30
0.0
 11
-408.9125657129011
 21
245.5358297347052
 31
0.0
  0
LINE
  5
146
  8
0
  6
CONTINUOUS
 62
   253
 10
-454.8882893133161
 20
171.0416154639131
 30
0.0
 11
-454.9125657129011
 21
171.0388552014003
 31
0.0
  0
LINE
  5
147
  8
0
  6
CONTINUOUS
 62
   253
 10
-454.6834982788267
 20
245.4638681749632
 30
0.0
 11
-454.6632616386983
 21
245.451586958246
 31
0.0
  0
LINE
  5
148
  8
0
  6
CONTINUOUS
 62
   253
 10
-454.9613496096939
 20
245.5382638634624
 30
0.0
 11
-454.9369385002666
 21
245.5375625745675
 31
0.0
  0
LINE
  5
149
  8
0
  6
CONTINUOUS
 62
   253
 10
-454.7043770369002
 20
245.4752934102215
 30
0.0
 11
-454.6834982788267
 21
245.4638681749632
 31
0.0
  0
LINE
  5
14A
  8
0
  6
CONTINUOUS
 62
   253
 10
-408.8641671375966
 20
245.5292883630773
 30
0.0
 11
-408.8402566544042
 21
245.524495415473
 31
0.0
  0
LINE
  5
14B
  8
0
  6
CONTINUOUS
 62
   253
 10
-454.6068782094703
 20
245.4099097805199
 30
0.0
 11
-454.5896751618194
 21
245.3945165449564
 31
0.0
  0
LINE
  5
14C
  8
0
  6
CONTINUOUS
 62
   253
 10
-408.6249059146892
 20
245.4245755850819
 30
0.0
 11
-408.6068782094703
 21
245.4099097805199
 31
0.0
  0
LINE
  5
14D
  8
0
  6
CONTINUOUS
 62
   253
 10
-454.9125657129011
 20
245.5358297347052
 30
0.0
 11
-454.8882893133161
 21
245.5330694721923
 31
0.0
  0
LINE
  5
14E
  8
0
  6
CONTINUOUS
 62
     7
 10
-471.5448147554692
 20
114.1187059553526
 30
0.0
 11
-471.5455730204712
 21
114.1339555070588
 31
0.0
  0
LINE
  5
14F
  8
0
  6
CONTINUOUS
 62
   253
 10
-454.8166148280648
 20
245.5187020480959
 30
0.0
 11
-454.7932979828562
 21
245.5119220630621
 31
0.0
  0
LINE
  5
150
  8
0
  6
CONTINUOUS
 62
   253
 10
-454.7703616688212
 20
245.5041716130054
 30
0.0
 11
-454.7478605294252
 21
245.4954691625948
 31
0.0
  0
LINE
  5
151
  8
0
  6
CONTINUOUS
 62
   253
 10
-454.9125657129011
 20
171.0388552014003
 30
0.0
 11
-454.9369385002666
 21
171.0371223615379
 31
0.0
  0
LINE
  5
152
  8
0
  6
CONTINUOUS
 62
   253
 10
-408.4862012481036
 20
245.2499057188057
 30
0.0
 11
-408.477998809082
 21
245.2297933058
 31
0.0
  0
LINE
  5
153
  8
0
  6
CONTINUOUS
 62
   253
 10
-408.9655133483907
 20
245.5382779535259
 30
0.0
 11
-408.9613496096938
 21
245.5382638634624
 31
0.0
  0
LINE
  5
154
  8
0
  6
CONTINUOUS
 62
   253
 10
-393.8529557295803
 20
91.70750599880837
 30
0.0
 11
-393.7317696672218
 21
91.69308666297727
 31
0.0
  0
LINE
  5
155
  8
0
  6
CONTINUOUS
 62
   253
 10
-408.9613496096938
 20
171.036421072643
 30
0.0
 11
-408.9655133483907
 21
171.0364069825795
 31
0.0
  0
ARC
  5
156
  8
0
  6
CONTINUOUS
 62
   253
 10
-431.8920130389391
 20
101.4895616978983
 30
0.0
 40
2.963173306168625
 50
359.4760121180779
 51
25.52029639760031
  0
ARC
  5
157
  8
0
  6
CONTINUOUS
 62
     7
 10
-419.8636898609636
 20
94.45878670748705
 30
0.0
 40
3.000000000000003
 50
181.8827473288051
 51
270.0
  0
LINE
  5
158
  8
0
  6
CONTINUOUS
 62
     7
 10
-462.918078439277
 20
98.45878670748706
 30
0.0
 11
-459.918078439277
 21
98.45878670748706
 31
0.0
  0
LINE
  5
159
  8
0
  6
CONTINUOUS
 62
   253
 10
-408.4542577780275
 20
245.1257371659188
 30
0.0
 11
-408.4530430272937
 21
245.1045743532524
 31
0.0
  0
LINE
  5
15A
  8
0
  6
CONTINUOUS
 62
   253
 10
-394.0951332439446
 20
91.79180486843727
 30
0.0
 11
-393.9787465385649
 21
91.74141940791868
 31
0.0
  0
ARC
  5
15B
  8
0
  6
CONTINUOUS
 62
     7
 10
-428.9724670175905
 20
94.45878670748705
 30
0.0
 40
3.0
 50
270.0
 51
358.1172526711948
  0
LINE
  5
15C
  8
0
  6
CONTINUOUS
 62
   253
 10
-454.9369385002666
 20
245.5375625745675
 30
0.0
 11
-454.9125657129011
 21
245.5358297347052
 31
0.0
  0
LINE
  5
15D
  8
0
  6
CONTINUOUS
 62
   253
 10
-454.5896751618194
 20
245.3945165449564
 30
0.0
 11
-454.5733377562705
 21
245.37843255123
 31
0.0
  0
LINE
  5
15E
  8
0
  6
CONTINUOUS
 62
   253
 10
-454.9369385002666
 20
171.0371223615379
 30
0.0
 11
-454.9613496096939
 21
171.036421072643
 31
0.0
  0
LINE
  5
15F
  8
0
  6
CONTINUOUS
 62
   253
 10
-408.7043770369002
 20
245.4752934102215
 30
0.0
 11
-408.6834982788267
 21
245.4638681749632
 31
0.0
  0
LINE
  5
160
  8
0
  6
CONTINUOUS
 62
   253
 10
-408.5579049150521
 20
245.3616961178408
 30
0.0
 11
-408.543413405359
 21
245.3443471176612
 31
0.0
  0
LINE
  5
161
  8
0
  6
CONTINUOUS
 62
   253
 10
-408.6437153282783
 20
245.4384790188357
 30
0.0
 11
-408.6249059146892
 21
245.4245755850819
 31
0.0
  0
LINE
  5
162
  8
0
  6
CONTINUOUS
 62
   253
 10
-408.8882893133161
 20
245.5330694721923
 30
0.0
 11
-408.8641671375966
 21
245.5292883630773
 31
0.0
  0
LINE
  5
163
  8
0
  6
CONTINUOUS
 62
   253
 10
-408.9613496096938
 20
245.5382638634624
 30
0.0
 11
-408.9369385002667
 21
245.5375625745675
 31
0.0
  0
LINE
  5
164
  8
0
  6
CONTINUOUS
 62
   253
 10
-408.4650058757672
 20
245.1887221415655
 30
0.0
 11
-408.4602463358331
 21
245.167861238262
 31
0.0
  0
LINE
  5
165
  8
0
  6
CONTINUOUS
 62
   253
 10
-408.4566607891849
 20
245.1468495603087
 30
0.0
 11
-408.4542577780275
 21
245.1257371659188
 31
0.0
  0
LINE
  5
166
  8
0
  6
CONTINUOUS
 62
   253
 10
-393.7317696672218
 20
91.69308666297727
 30
0.0
 11
-393.6907538027305
 21
91.69209686919812
 31
0.0
  0
LINE
  5
167
  8
0
  6
CONTINUOUS
 62
   253
 10
-454.7932979828562
 20
245.5119220630621
 30
0.0
 11
-454.7703616688212
 21
245.5041716130054
 31
0.0
  0
LINE
  5
168
  8
0
  6
CONTINUOUS
 62
   253
 10
-408.543413405359
 20
245.3443471176612
 30
0.0
 11
-408.5298977517583
 21
245.3264268829424
 31
0.0
  0
LINE
  5
169
  8
0
  6
CONTINUOUS
 62
   253
 10
-408.5298977517583
 20
245.3264268829424
 30
0.0
 11
-408.5173901539376
 21
245.3079781068444
 31
0.0
  0
LINE
  5
16A
  8
0
  6
CONTINUOUS
 62
   253
 10
-454.6249059146892
 20
245.4245755850819
 30
0.0
 11
-454.6068782094703
 21
245.4099097805199
 31
0.0
  0
LINE
  5
16B
  8
0
  6
CONTINUOUS
 62
     7
 10
-416.918078439277
 20
98.45878670748706
 30
0.0
 11
-413.918078439277
 21
98.45878670748706
 31
0.0
  0
LINE
  5
16C
  8
0
  6
CONTINUOUS
 62
   253
 10
-408.6691575458469
 20
91.83337397558073
 30
0.0
 11
-408.5549646219123
 21
91.91932793255982
 31
0.0
  0
LINE
  5
16D
  8
0
  6
CONTINUOUS
 62
   253
 10
-454.7258481713738
 20
245.4858354445448
 30
0.0
 11
-454.7043770369002
 21
245.4752934102215
 31
0.0
  0
LINE
  5
16E
  8
0
  6
CONTINUOUS
 62
   253
 10
-394.1924415502757
 20
171.1362059172698
 30
0.0
 11
-394.2112509638649
 21
171.1501093510235
 31
0.0
  0
LINE
  5
16F
  8
0
  6
CONTINUOUS
 62
   253
 10
-394.0657952097329
 20
171.0705133231
 30
0.0
 11
-394.0882963491289
 21
171.0792157735106
 31
0.0
  0
LINE
  5
170
  8
0
  6
CONTINUOUS
 62
   253
 10
-408.7258481713738
 20
245.4858354445448
 30
0.0
 11
-408.7043770369002
 21
245.4752934102215
 31
0.0
  0
LINE
  5
171
  8
0
  6
CONTINUOUS
 62
   253
 10
-408.7478605294251
 20
245.4954691625948
 30
0.0
 11
-408.7258481713738
 21
245.4858354445448
 31
0.0
  0
LINE
  5
172
  8
0
  6
CONTINUOUS
 62
   253
 10
-408.6834982788267
 20
245.4638681749632
 30
0.0
 11
-408.6632616386983
 21
245.451586958246
 31
0.0
  0
LINE
  5
173
  8
0
  6
CONTINUOUS
 62
   253
 10
-454.9655133483908
 20
245.5382779535259
 30
0.0
 11
-454.9613496096939
 21
245.5382638634624
 31
0.0
  0
LINE
  5
174
  8
0
  6
CONTINUOUS
 62
   253
 10
-439.9235911656529
 20
171.0388552014003
 30
0.0
 11
-439.9478675652379
 21
171.0416154639131
 31
0.0
  0
LINE
  5
175
  8
0
  6
CONTINUOUS
 62
   253
 10
-440.2112509638649
 20
171.1501093510235
 30
0.0
 11
-440.2292786690838
 21
171.1647751555856
 31
0.0
  0
LINE
  5
176
  8
0
  6
CONTINUOUS
 62
   253
 10
-454.4650058757672
 20
245.1887221415655
 30
0.0
 11
-454.4602463358331
 21
245.167861238262
 31
0.0
  0
LINE
  5
177
  8
0
  6
CONTINUOUS
 62
   253
 10
-408.6632616386983
 20
245.451586958246
 30
0.0
 11
-408.6437153282783
 21
245.4384790188357
 31
0.0
  0
LINE
  5
178
  8
0
  6
CONTINUOUS
 62
   253
 10
-408.7932979828562
 20
245.5119220630621
 30
0.0
 11
-408.7703616688212
 21
245.5041716130054
 31
0.0
  0
LINE
  5
179
  8
0
  6
CONTINUOUS
 62
   253
 10
-454.543413405359
 20
245.3443471176612
 30
0.0
 11
-454.5298977517582
 21
245.3264268829424
 31
0.0
  0
LINE
  5
17A
  8
0
  6
CONTINUOUS
 62
   253
 10
-394.3711510027869
 20
171.3859627945399
 30
0.0
 11
-394.375910542721
 21
171.4068236978434
 31
0.0
  0
LINE
  5
17B
  8
0
  6
CONTINUOUS
 62
   253
 10
-440.1924415502757
 20
171.1362059172698
 30
0.0
 11
-440.2112509638649
 21
171.1501093510235
 31
0.0
  0
LINE
  5
17C
  8
0
  6
CONTINUOUS
 62
   253
 10
-394.278251963502
 20
171.2129888182646
 30
0.0
 11
-394.2927434731951
 21
171.2303378184443
 31
0.0
  0
LINE
  5
17D
  8
0
  6
CONTINUOUS
 62
   253
 10
-394.365228808693
 20
171.3653023648942
 30
0.0
 11
-394.3711510027869
 21
171.3859627945399
 31
0.0
  0
LINE
  5
17E
  8
0
  6
CONTINUOUS
 62
   253
 10
-454.4709280698611
 20
245.2093825712113
 30
0.0
 11
-454.4650058757672
 21
245.1887221415655
 31
0.0
  0
LINE
  5
17F
  8
0
  6
CONTINUOUS
 62
   253
 10
-394.1103087071803
 20
171.0888494915606
 30
0.0
 11
-394.1317798416538
 21
171.099391525884
 31
0.0
  0
LINE
  5
180
  8
0
  6
CONTINUOUS
 62
   253
 10
-439.9478675652379
 20
171.0416154639131
 30
0.0
 11
-439.9719897409575
 21
171.0453965730281
 31
0.0
  0
LINE
  5
181
  8
0
  6
CONTINUOUS
 62
   253
 10
-393.9959002241499
 20
171.0501895206324
 30
0.0
 11
-394.0195420504892
 21
171.0559828880095
 31
0.0
  0
LINE
  5
182
  8
0
  6
CONTINUOUS
 62
   253
 10
-394.1526585997274
 20
171.1108167611422
 30
0.0
 11
-394.1728952398557
 21
171.1230979778594
 31
0.0
  0
LINE
  5
183
  8
0
  6
CONTINUOUS
 62
   253
 10
-394.0195420504892
 20
171.0559828880095
 30
0.0
 11
-394.0428588956979
 21
171.0627628730433
 31
0.0
  0
LINE
  5
184
  8
0
  6
CONTINUOUS
 62
   253
 10
-393.923591165653
 20
171.0388552014003
 30
0.0
 11
-393.9478675652379
 21
171.0416154639131
 31
0.0
  0
LINE
  5
185
  8
0
  6
CONTINUOUS
 62
   253
 10
-408.5896751618193
 20
245.3945165449564
 30
0.0
 11
-408.5733377562705
 21
245.37843255123
 31
0.0
  0
LINE
  5
186
  8
0
  6
CONTINUOUS
 62
   253
 10
-439.9719897409575
 20
171.0453965730281
 30
0.0
 11
-439.9959002241499
 21
171.0501895206324
 31
0.0
  0
LINE
  5
187
  8
0
  6
CONTINUOUS
 62
   253
 10
-394.3187667246165
 20
171.266706829261
 30
0.0
 11
-394.3302364685609
 21
171.2856401943812
 31
0.0
  0
LINE
  5
188
  8
0
  6
CONTINUOUS
 62
   253
 10
-454.5298977517582
 20
245.3264268829424
 30
0.0
 11
-454.5173901539375
 21
245.3079781068444
 31
0.0
  0
LINE
  5
189
  8
0
  6
CONTINUOUS
 62
   253
 10
-408.8402566544042
 20
245.524495415473
 30
0.0
 11
-408.8166148280649
 21
245.5187020480959
 31
0.0
  0
LINE
  5
18A
  8
0
  6
CONTINUOUS
 62
   253
 10
-440.0428588956978
 20
171.0627628730433
 30
0.0
 11
-440.0657952097329
 21
171.0705133231
 31
0.0
  0
LINE
  5
18B
  8
0
  6
CONTINUOUS
 62
   253
 10
-440.1526585997273
 20
171.1108167611422
 30
0.0
 11
-440.1728952398557
 21
171.1230979778594
 31
0.0
  0
LINE
  5
18C
  8
0
  6
CONTINUOUS
 62
   253
 10
-408.5733377562705
 20
245.37843255123
 30
0.0
 11
-408.5579049150521
 21
245.3616961178408
 31
0.0
  0
LINE
  5
18D
  8
0
  6
CONTINUOUS
 62
   253
 10
-394.2292786690838
 20
171.1647751555856
 30
0.0
 11
-394.2464817167346
 21
171.180168391149
 31
0.0
  0
LINE
  5
18E
  8
0
  6
CONTINUOUS
 62
   253
 10
-454.4955158454383
 20
245.2696718944234
 30
0.0
 11
-454.4862012481036
 21
245.2499057188057
 31
0.0
  0
LINE
  5
18F
  8
0
  6
CONTINUOUS
 62
   253
 10
-454.4566607891849
 20
245.1468495603087
 30
0.0
 11
-454.4542577780275
 21
245.1257371659188
 31
0.0
  0
LINE
  5
190
  8
0
  6
CONTINUOUS
 62
   253
 10
-454.4542577780275
 20
245.1257371659188
 30
0.0
 11
-454.4530430272937
 21
245.1045743532524
 31
0.0
  0
LINE
  5
191
  8
0
  6
CONTINUOUS
 62
   253
 10
-439.9959002241499
 20
171.0501895206324
 30
0.0
 11
-440.0195420504892
 21
171.0559828880095
 31
0.0
  0
LINE
  5
192
  8
0
  6
CONTINUOUS
 62
   253
 10
-454.4862012481036
 20
245.2499057188057
 30
0.0
 11
-454.477998809082
 21
245.2297933058
 31
0.0
  0
LINE
  5
193
  8
0
  6
CONTINUOUS
 62
   253
 10
-454.4602463358331
 20
245.167861238262
 30
0.0
 11
-454.4566607891849
 21
245.1468495603087
 31
0.0
  0
LINE
  5
194
  8
0
  6
CONTINUOUS
 62
   253
 10
-394.3302364685609
 20
171.2856401943812
 30
0.0
 11
-394.3406410331158
 21
171.3050130416821
 31
0.0
  0
LINE
  5
195
  8
0
  6
CONTINUOUS
 62
   253
 10
-454.5059204099931
 20
245.2890447417242
 30
0.0
 11
-454.4955158454383
 21
245.2696718944234
 31
0.0
  0
LINE
  5
196
  8
0
  6
CONTINUOUS
 62
   253
 10
-408.6068782094703
 20
245.4099097805199
 30
0.0
 11
-408.5896751618193
 21
245.3945165449564
 31
0.0
  0
LINE
  5
197
  8
0
  6
CONTINUOUS
 62
   253
 10
-394.375910542721
 20
171.4068236978434
 30
0.0
 11
-394.3794960893692
 21
171.4278353757967
 31
0.0
  0
LINE
  5
198
  8
0
  6
CONTINUOUS
 62
   253
 10
-394.1728952398557
 20
171.1230979778594
 30
0.0
 11
-394.1924415502757
 21
171.1362059172698
 31
0.0
  0
LINE
  5
199
  8
0
  6
CONTINUOUS
 62
   253
 10
-393.8992183782874
 20
171.0371223615379
 30
0.0
 11
-393.923591165653
 21
171.0388552014003
 31
0.0
  0
LINE
  5
19A
  8
0
  6
CONTINUOUS
 62
   253
 10
-393.9719897409576
 20
171.0453965730281
 30
0.0
 11
-393.9959002241499
 21
171.0501895206324
 31
0.0
  0
LINE
  5
19B
  8
0
  6
CONTINUOUS
 62
   253
 10
-393.9478675652379
 20
171.0416154639131
 30
0.0
 11
-393.9719897409576
 21
171.0453965730281
 31
0.0
  0
LINE
  5
19C
  8
0
  6
CONTINUOUS
 62
   253
 10
-394.0428588956979
 20
171.0627628730433
 30
0.0
 11
-394.0657952097329
 21
171.0705133231
 31
0.0
  0
LINE
  5
19D
  8
0
  6
CONTINUOUS
 62
   253
 10
-454.477998809082
 20
245.2297933058
 30
0.0
 11
-454.4709280698611
 21
245.2093825712113
 31
0.0
  0
LINE
  5
19E
  8
0
  6
CONTINUOUS
 62
   253
 10
-394.0882963491289
 20
171.0792157735106
 30
0.0
 11
-394.1103087071803
 21
171.0888494915606
 31
0.0
  0
LINE
  5
19F
  8
0
  6
CONTINUOUS
 62
   253
 10
-394.2628191222835
 20
171.1962523848755
 30
0.0
 11
-394.278251963502
 21
171.2129888182646
 31
0.0
  0
LINE
  5
1A0
  8
0
  6
CONTINUOUS
 62
   253
 10
-454.5173901539375
 20
245.3079781068444
 30
0.0
 11
-454.5059204099931
 21
245.2890447417242
 31
0.0
  0
LINE
  5
1A1
  8
0
  6
CONTINUOUS
 62
   253
 10
-408.4955158454383
 20
245.2696718944234
 30
0.0
 11
-408.4862012481036
 21
245.2499057188057
 31
0.0
  0
LINE
  5
1A2
  8
0
  6
CONTINUOUS
 62
   253
 10
-408.8166148280649
 20
245.5187020480959
 30
0.0
 11
-408.7932979828562
 21
245.5119220630621
 31
0.0
  0
LINE
  5
1A3
  8
0
  6
CONTINUOUS
 62
   253
 10
-454.9613496096939
 20
171.036421072643
 30
0.0
 11
-454.9655133483908
 21
171.0364069825795
 31
0.0
  0
LINE
  5
1A4
  8
0
  6
CONTINUOUS
 62
   253
 10
-408.7703616688212
 20
245.5041716130054
 30
0.0
 11
-408.7478605294251
 21
245.4954691625948
 31
0.0
  0
LINE
  5
1A5
  8
0
  6
CONTINUOUS
 62
   253
 10
-440.1103087071803
 20
171.0888494915606
 30
0.0
 11
-440.1317798416538
 21
171.099391525884
 31
0.0
  0
LINE
  5
1A6
  8
0
  6
CONTINUOUS
 62
   253
 10
-440.1317798416538
 20
171.099391525884
 30
0.0
 11
-440.1526585997273
 21
171.1108167611422
 31
0.0
  0
LINE
  5
1A7
  8
0
  6
CONTINUOUS
 62
   253
 10
-440.1728952398557
 20
171.1230979778594
 30
0.0
 11
-440.1924415502757
 21
171.1362059172698
 31
0.0
  0
LINE
  5
1A8
  8
0
  6
CONTINUOUS
 62
   253
 10
-408.9125657129011
 20
245.5358297347052
 30
0.0
 11
-408.8882893133161
 21
245.5330694721923
 31
0.0
  0
LINE
  5
1A9
  8
0
  6
CONTINUOUS
 62
   253
 10
-408.4709280698611
 20
245.2093825712113
 30
0.0
 11
-408.4650058757672
 21
245.1887221415655
 31
0.0
  0
LINE
  5
1AA
  8
0
  6
CONTINUOUS
 62
   253
 10
-393.8748072688602
 20
171.036421072643
 30
0.0
 11
-393.8992183782874
 21
171.0371223615379
 31
0.0
  0
LINE
  5
1AB
  8
0
  6
CONTINUOUS
 62
   253
 10
-394.3062591267959
 20
171.2482580531631
 30
0.0
 11
-394.3187667246165
 21
171.266706829261
 31
0.0
  0
LINE
  5
1AC
  8
0
  6
CONTINUOUS
 62
   253
 10
-394.358158069472
 20
171.3448916303054
 30
0.0
 11
-394.365228808693
 21
171.3653023648942
 31
0.0
  0
LINE
  5
1AD
  8
0
  6
CONTINUOUS
 62
   253
 10
-394.1317798416538
 20
171.099391525884
 30
0.0
 11
-394.1526585997274
 21
171.1108167611422
 31
0.0
  0
LINE
  5
1AE
  8
0
  6
CONTINUOUS
 62
   253
 10
-394.3794960893692
 20
171.4278353757967
 30
0.0
 11
-394.3818991005265
 21
171.4489477701866
 31
0.0
  0
LINE
  5
1AF
  8
0
  6
CONTINUOUS
 62
   253
 10
-439.8992183782874
 20
171.0371223615379
 30
0.0
 11
-439.9235911656529
 21
171.0388552014003
 31
0.0
  0
LINE
  5
1B0
  8
0
  6
CONTINUOUS
 62
   253
 10
-440.3187667246165
 20
171.266706829261
 30
0.0
 11
-440.3302364685609
 21
171.2856401943812
 31
0.0
  0
LINE
  5
1B1
  8
0
  6
CONTINUOUS
 62
   253
 10
-439.8748072688602
 20
171.036421072643
 30
0.0
 11
-439.8992183782874
 21
171.0371223615379
 31
0.0
  0
LINE
  5
1B2
  8
0
  6
CONTINUOUS
 62
   253
 10
-469.8902496757747
 20
245.1186043979478
 30
0.0
 11
-470.2687014341489
 21
244.8082805771244
 31
0.0
  0
LINE
  5
1B3
  8
0
  6
CONTINUOUS
 62
   253
 10
-426.585876651191
 20
244.8070538932504
 30
0.0
 11
-426.9642719676809
 21
245.1177748371725
 31
0.0
  0
LINE
  5
1B4
  8
0
  6
CONTINUOUS
 62
   253
 10
-440.0882963491289
 20
171.0792157735106
 30
0.0
 11
-440.1103087071803
 21
171.0888494915606
 31
0.0
  0
LINE
  5
1B5
  8
0
  6
CONTINUOUS
 62
   253
 10
-426.2754435811612
 20
244.4283078103443
 30
0.0
 11
-426.585876651191
 21
244.8070538932504
 31
0.0
  0
LINE
  5
1B6
  8
0
  6
CONTINUOUS
 62
   253
 10
-440.3759105427209
 20
171.4068236978434
 30
0.0
 11
-440.3794960893692
 21
171.4278353757967
 31
0.0
  0
LINE
  5
1B7
  8
0
  6
CONTINUOUS
 62
   253
 10
-394.3406410331158
 20
171.3050130416821
 30
0.0
 11
-394.3499556304505
 21
171.3247792172998
 31
0.0
  0
LINE
  5
1B8
  8
0
  6
CONTINUOUS
 62
   253
 10
-425.903028499648
 20
173.0477841377385
 30
0.0
 11
-425.8553308084932
 21
173.5358707782144
 31
0.0
  0
LINE
  5
1B9
  8
0
  6
CONTINUOUS
 62
   253
 10
-468.5013669904739
 20
245.5382779535259
 30
0.0
 11
-468.9893214238546
 21
245.4907327534955
 31
0.0
  0
LINE
  5
1BA
  8
0
  6
CONTINUOUS
 62
   253
 10
-440.3406410331158
 20
171.3050130416821
 30
0.0
 11
-440.3499556304505
 21
171.3247792172998
 31
0.0
  0
LINE
  5
1BB
  8
0
  6
CONTINUOUS
 62
   253
 10
-421.4400410456217
 20
171.226132279372
 30
0.0
 11
-420.9713123971743
 21
171.0841492780565
 31
0.0
  0
LINE
  5
1BC
  8
0
  6
CONTINUOUS
 62
   253
 10
-427.8648444813797
 20
245.4905356580489
 30
0.0
 11
-428.3524793979363
 21
245.5382779535259
 31
0.0
  0
LINE
  5
1BD
  8
0
  6
CONTINUOUS
 62
   253
 10
-440.2464817167346
 20
171.180168391149
 30
0.0
 11
-440.2628191222835
 21
171.1962523848755
 31
0.0
  0
LINE
  5
1BE
  8
0
  6
CONTINUOUS
 62
   253
 10
-440.292743473195
 20
171.2303378184443
 30
0.0
 11
-440.3062591267958
 21
171.2482580531631
 31
0.0
  0
LINE
  5
1BF
  8
0
  6
CONTINUOUS
 62
   253
 10
-440.3499556304505
 20
171.3247792172998
 30
0.0
 11
-440.358158069472
 21
171.3448916303054
 31
0.0
  0
LINE
  5
1C0
  8
0
  6
CONTINUOUS
 62
   253
 10
-426.2754435811611
 20
172.1463771257611
 30
0.0
 11
-426.044879701303
 21
172.5786211959864
 31
0.0
  0
LINE
  5
1C1
  8
0
  6
CONTINUOUS
 62
   253
 10
-440.358158069472
 20
171.3448916303054
 30
0.0
 11
-440.365228808693
 21
171.3653023648942
 31
0.0
  0
LINE
  5
1C2
  8
0
  6
CONTINUOUS
 62
   253
 10
-469.4582721204467
 20
171.225653284015
 30
0.0
 11
-468.9893214238546
 21
171.0839521826099
 31
0.0
  0
LINE
  5
1C3
  8
0
  6
CONTINUOUS
 62
   253
 10
-426.585876651191
 20
171.767631042855
 30
0.0
 11
-426.2754435811611
 21
172.1463771257611
 31
0.0
  0
LINE
  5
1C4
  8
0
  6
CONTINUOUS
 62
   253
 10
-420.4836774806178
 20
245.5382779535259
 30
0.0
 11
-420.9713123971744
 21
245.4905356580489
 31
0.0
  0
LINE
  5
1C5
  8
0
  6
CONTINUOUS
 62
   253
 10
-421.8718849108732
 20
245.1177748371725
 30
0.0
 11
-422.2502802273631
 21
244.8070538932504
 31
0.0
  0
LINE
  5
1C6
  8
0
  6
CONTINUOUS
 62
   253
 10
-440.0657952097329
 20
171.0705133231
 30
0.0
 11
-440.0882963491289
 21
171.0792157735106
 31
0.0
  0
LINE
  5
1C7
  8
0
  6
CONTINUOUS
 62
   253
 10
-394.2464817167346
 20
171.180168391149
 30
0.0
 11
-394.2628191222835
 21
171.1962523848755
 31
0.0
  0
LINE
  5
1C8
  8
0
  6
CONTINUOUS
 62
   253
 10
-394.3818991005265
 20
171.4489477701866
 30
0.0
 11
-394.3831138512604
 21
171.4701105828531
 31
0.0
  0
LINE
  5
1C9
  8
0
  6
CONTINUOUS
 62
   253
 10
-426.9642719676809
 20
245.1177748371725
 30
0.0
 11
-427.3961158329323
 21
245.3485526567334
 31
0.0
  0
LINE
  5
1CA
  8
0
  6
CONTINUOUS
 62
   253
 10
-394.2112509638649
 20
171.1501093510235
 30
0.0
 11
-394.2292786690838
 21
171.1647751555856
 31
0.0
  0
LINE
  5
1CB
  8
0
  6
CONTINUOUS
 62
   253
 10
-440.3062591267958
 20
171.2482580531631
 30
0.0
 11
-440.3187667246165
 21
171.266706829261
 31
0.0
  0
LINE
  5
1CC
  8
0
  6
CONTINUOUS
 62
   253
 10
-422.2502802273631
 20
244.8070538932504
 30
0.0
 11
-422.5607132973929
 21
244.4283078103443
 31
0.0
  0
LINE
  5
1CD
  8
0
  6
CONTINUOUS
 62
   253
 10
-468.9893214238546
 20
245.4907327534955
 30
0.0
 11
-469.4582721204467
 21
245.3490316520904
 31
0.0
  0
LINE
  5
1CE
  8
0
  6
CONTINUOUS
 62
   253
 10
-422.5607132973929
 20
172.1463771257611
 30
0.0
 11
-422.2502802273631
 21
171.767631042855
 31
0.0
  0
LINE
  5
1CF
  8
0
  6
CONTINUOUS
 62
   253
 10
-422.2502802273631
 20
171.767631042855
 30
0.0
 11
-421.8718849108731
 21
171.4569100989329
 31
0.0
  0
LINE
  5
1D0
  8
0
  6
CONTINUOUS
 62
   253
 10
-425.903028499648
 20
243.5269007983669
 30
0.0
 11
-426.0448797013031
 21
243.996063740119
 31
0.0
  0
LINE
  5
1D1
  8
0
  6
CONTINUOUS
 62
   253
 10
-426.0448797013031
 20
243.996063740119
 30
0.0
 11
-426.2754435811612
 21
244.4283078103443
 31
0.0
  0
LINE
  5
1D2
  8
0
  6
CONTINUOUS
 62
   253
 10
-427.3961158329323
 20
171.226132279372
 30
0.0
 11
-426.9642719676809
 21
171.4569100989329
 31
0.0
  0
LINE
  5
1D3
  8
0
  6
CONTINUOUS
 62
   253
 10
-470.2687014341489
 20
171.766404358981
 30
0.0
 11
-469.8902496757747
 21
171.4560805381577
 31
0.0
  0
LINE
  5
1D4
  8
0
  6
CONTINUOUS
 62
   253
 10
-440.0195420504892
 20
171.0559828880095
 30
0.0
 11
-440.0428588956978
 21
171.0627628730433
 31
0.0
  0
LINE
  5
1D5
  8
0
  6
CONTINUOUS
 62
   253
 10
-440.3794960893692
 20
171.4278353757967
 30
0.0
 11
-440.3818991005266
 21
171.4489477701866
 31
0.0
  0
LINE
  5
1D6
  8
0
  6
CONTINUOUS
 62
   253
 10
-427.3961158329323
 20
245.3485526567334
 30
0.0
 11
-427.8648444813797
 21
245.4905356580489
 31
0.0
  0
LINE
  5
1D7
  8
0
  6
CONTINUOUS
 62
   253
 10
-422.933128378906
 20
173.0477841377385
 30
0.0
 11
-422.7912771772509
 21
172.5786211959864
 31
0.0
  0
LINE
  5
1D8
  8
0
  6
CONTINUOUS
 62
   253
 10
-440.2292786690838
 20
171.1647751555856
 30
0.0
 11
-440.2464817167346
 21
171.180168391149
 31
0.0
  0
LINE
  5
1D9
  8
0
  6
CONTINUOUS
 62
   253
 10
-440.3302364685609
 20
171.2856401943812
 30
0.0
 11
-440.3406410331158
 21
171.3050130416821
 31
0.0
  0
LINE
  5
1DA
  8
0
  6
CONTINUOUS
 62
   253
 10
-440.2782519635019
 20
171.2129888182646
 30
0.0
 11
-440.292743473195
 21
171.2303378184443
 31
0.0
  0
LINE
  5
1DB
  8
0
  6
CONTINUOUS
 62
   253
 10
-440.2628191222835
 20
171.1962523848755
 30
0.0
 11
-440.2782519635019
 21
171.2129888182646
 31
0.0
  0
LINE
  5
1DC
  8
0
  6
CONTINUOUS
 62
   253
 10
-439.8706435301633
 20
171.0364069825795
 30
0.0
 11
-439.8748072688602
 21
171.036421072643
 31
0.0
  0
LINE
  5
1DD
  8
0
  6
CONTINUOUS
 62
   253
 10
-426.044879701303
 20
172.5786211959864
 30
0.0
 11
-425.903028499648
 21
173.0477841377385
 31
0.0
  0
LINE
  5
1DE
  8
0
  6
CONTINUOUS
 62
   253
 10
-422.9331283789061
 20
243.5269007983669
 30
0.0
 11
-422.9808260700609
 21
243.038814157891
 31
0.0
  0
LINE
  5
1DF
  8
0
  6
CONTINUOUS
 62
   253
 10
-470.9989356338784
 20
173.5331672575264
 30
0.0
 11
-470.9513748388753
 21
173.0453705551876
 31
0.0
  0
LINE
  5
1E0
  8
0
  6
CONTINUOUS
 62
   253
 10
-420.9713123971743
 20
171.0841492780565
 30
0.0
 11
-420.4836774806178
 21
171.0364069825795
 31
0.0
  0
LINE
  5
1E1
  8
0
  6
CONTINUOUS
 62
   253
 10
-440.365228808693
 20
171.3653023648942
 30
0.0
 11
-440.3711510027869
 21
171.3859627945399
 31
0.0
  0
LINE
  5
1E2
  8
0
  6
CONTINUOUS
 62
   253
 10
-420.9713123971744
 20
245.4905356580489
 30
0.0
 11
-421.4400410456219
 21
245.3485526567334
 31
0.0
  0
LINE
  5
1E3
  8
0
  6
CONTINUOUS
 62
   253
 10
-426.9642719676809
 20
171.4569100989329
 30
0.0
 11
-426.585876651191
 21
171.767631042855
 31
0.0
  0
LINE
  5
1E4
  8
0
  6
CONTINUOUS
 62
   253
 10
-422.791277177251
 20
243.996063740119
 30
0.0
 11
-422.9331283789061
 21
243.5269007983669
 31
0.0
  0
LINE
  5
1E5
  8
0
  6
CONTINUOUS
 62
   253
 10
-394.2927434731951
 20
171.2303378184443
 30
0.0
 11
-394.3062591267959
 21
171.2482580531631
 31
0.0
  0
LINE
  5
1E6
  8
0
  6
CONTINUOUS
 62
   253
 10
-422.5607132973929
 20
244.4283078103443
 30
0.0
 11
-422.791277177251
 21
243.996063740119
 31
0.0
  0
LINE
  5
1E7
  8
0
  6
CONTINUOUS
 62
   253
 10
-421.8718849108731
 20
171.4569100989329
 30
0.0
 11
-421.4400410456217
 21
171.226132279372
 31
0.0
  0
LINE
  5
1E8
  8
0
  6
CONTINUOUS
 62
   253
 10
-469.4582721204467
 20
245.3490316520904
 30
0.0
 11
-469.8902496757747
 21
245.1186043979478
 31
0.0
  0
LINE
  5
1E9
  8
0
  6
CONTINUOUS
 62
   253
 10
-470.9513748388753
 20
173.0453705551876
 30
0.0
 11
-470.8096277096945
 21
172.5765714905962
 31
0.0
  0
LINE
  5
1EA
  8
0
  6
CONTINUOUS
 62
   253
 10
-394.3499556304505
 20
171.3247792172998
 30
0.0
 11
-394.358158069472
 21
171.3448916303054
 31
0.0
  0
LINE
  5
1EB
  8
0
  6
CONTINUOUS
 62
     7
 10
-388.9180784392771
 20
98.45878670748706
 30
0.0
 11
-385.9180784392771
 21
98.45878670748706
 31
0.0
  0
ARC
  5
1EC
  8
0
  6
CONTINUOUS
 62
     7
 10
-388.9180784392771
 20
101.4587867074871
 30
0.0
 40
3.000000000000001
 50
180.0
 51
270.0
  0
ARC
  5
1ED
  8
0
  6
CONTINUOUS
 62
   253
 10
-431.9434366782751
 20
101.4464624811678
 30
0.0
 40
3.014515495132863
 50
327.1363991144074
 51
0.3041159562415033
  0
ARC
  5
1EE
  8
0
  6
CONTINUOUS
 62
     7
 10
-459.918078439277
 20
101.4587867074871
 30
0.0
 40
3.000000000000001
 50
270.0
 51
0.0
  0
LINE
  5
1EF
  8
0
  6
CONTINUOUS
 62
   253
 10
-394.3869657767119
 20
92.02731077371776
 30
0.0
 11
-394.2859010104818
 21
91.92348313059829
 31
0.0
  0
LINE
  5
1F0
  8
0
  6
CONTINUOUS
 62
   253
 10
-409.0236571764579
 20
91.7007604724592
 30
0.0
 11
-408.9023418366914
 21
91.72699024138537
 31
0.0
  0
LINE
  5
1F1
  8
0
  6
CONTINUOUS
 62
     7
 10
-408.1301460512965
 20
94.35824531002966
 30
0.0
 11
-408.1414838233196
 21
93.05906531842702
 31
0.0
  0
ARC
  5
1F2
  8
0
  6
CONTINUOUS
 62
     7
 10
-385.9180784392771
 20
101.4587867074871
 30
0.0
 40
3.000000000000001
 50
0.0
 51
90.0
  0
ARC
  5
1F3
  8
0
  6
CONTINUOUS
 62
     7
 10
-413.918078439277
 20
101.4587867074871
 30
0.0
 40
3.000000000000001
 50
0.0
 51
90.0
  0
ARC
  5
1F4
  8
0
  6
CONTINUOUS
 62
     7
 10
-425.8235388193996
 20
114.1587867074871
 30
0.0
 40
0.5000000000000004
 50
269.9999999999999
 51
358.1172526711948
  0
ARC
  5
1F5
  8
0
  6
CONTINUOUS
 62
     7
 10
-462.918078439277
 20
101.4587867074871
 30
0.0
 40
3.000000000000001
 50
180.0
 51
270.0
  0
LINE
  5
1F6
  8
0
  6
CONTINUOUS
 62
   253
 10
-408.9023418366914
 20
91.72699024138537
 30
0.0
 11
-408.7833744647497
 21
91.77118836333068
 31
0.0
  0
LINE
  5
1F7
  8
0
  6
CONTINUOUS
 62
     7
 10
-419.1042634579315
 20
103.5131953971617
 30
0.0
 11
-419.6182083977399
 21
102.7661880259089
 31
0.0
  0
LINE
  5
1F8
  8
0
  6
CONTINUOUS
 62
   253
 10
-377.3377094849113
 20
113.1864301401186
 30
0.0
 11
-377.3397481120006
 21
113.2420000078175
 31
0.0
  0
LINE
  5
1F9
  8
0
  6
CONTINUOUS
 62
   253
 10
-394.2859010104818
 20
91.92348313059829
 30
0.0
 11
-394.1878949210011
 21
91.84714971886201
 31
0.0
  0
LINE
  5
1FA
  8
0
  6
CONTINUOUS
 62
   253
 10
-394.1878949210011
 20
91.84714971886201
 30
0.0
 11
-394.0951332439446
 21
91.79180486843727
 31
0.0
  0
LINE
  5
1FB
  8
0
  6
CONTINUOUS
 62
     7
 10
-422.8620703235128
 20
94.3602240279223
 30
0.0
 11
-423.4805561471524
 21
113.1752138207479
 31
0.0
  0
LINE
  5
1FC
  8
0
  6
CONTINUOUS
 62
   253
 10
-409.1454030758237
 20
91.69209686919812
 30
0.0
 11
-409.0236571764579
 21
91.7007604724592
 31
0.0
  0
ARC
  5
1FD
  8
0
  6
CONTINUOUS
 62
     7
 10
-413.918078439277
 20
101.4587867074871
 30
0.0
 40
3.000000000000001
 50
270.0
 51
0.0
  0
LINE
  5
1FE
  8
0
  6
CONTINUOUS
 62
     7
 10
-394.6946730552344
 20
93.059065318427
 30
0.0
 11
-394.7060108272575
 21
94.35824531002967
 31
0.0
  0
LINE
  5
1FF
  8
0
  6
CONTINUOUS
 62
   253
 10
-408.7833744647497
 20
91.77118836333068
 30
0.0
 11
-408.6691575458469
 21
91.83337397558073
 31
0.0
  0
LINE
  5
200
  8
0
  6
CONTINUOUS
 62
   253
 10
-394.473458433577
 20
92.14534217450073
 30
0.0
 11
-394.3869657767119
 21
92.02731077371776
 31
0.0
  0
LINE
  5
201
  8
0
  6
CONTINUOUS
 62
   253
 10
-377.4331105832528
 20
113.4560604950272
 30
0.0
 11
-377.4764299238986
 21
113.5050282980822
 31
0.0
  0
ARC
  5
202
  8
0
  6
CONTINUOUS
 62
     7
 10
-381.2726135570075
 20
94.45878670748705
 30
0.0
 40
3.00000000000002
 50
270.0
 51
357.1533830841851
  0
LINE
  5
203
  8
0
  6
CONTINUOUS
 62
     7
 10
-377.2913079468273
 20
114.1193932778642
 30
0.0
 11
-377.3378382138413
 21
113.1836179079153
 31
0.0
  0
ARC
  5
204
  8
0
  6
CONTINUOUS
 62
   253
 10
-416.9394445364049
 20
101.4885200462824
 30
0.0
 40
2.967863084941248
 50
154.500641930326
 51
180.5030495539966
  0
LINE
  5
205
  8
0
  6
CONTINUOUS
 62
     7
 10
-434.9180784392771
 20
98.45878670748706
 30
0.0
 11
-431.9180784392771
 21
98.45878670748706
 31
0.0
  0
LINE
  5
206
  8
0
  6
CONTINUOUS
 62
     7
 10
-413.918078439277
 20
104.4587867074871
 30
0.0
 11
-416.918078439277
 21
104.4587867074871
 31
0.0
  0
ARC
  5
207
  8
0
  6
CONTINUOUS
 62
     7
 10
-462.918078439277
 20
101.4587867074871
 30
0.0
 40
3.000000000000001
 50
90.0
 51
180.0
  0
ARC
  5
208
  8
0
  6
CONTINUOUS
 62
     7
 10
-431.9180784392771
 20
101.4587867074871
 30
0.0
 40
3.000000000000001
 50
43.2201080522108
 51
90.0
  0
LINE
  5
209
  8
0
  6
CONTINUOUS
 62
     7
 10
-429.871532099758
 20
99.26523978977559
 30
0.0
 11
-429.4113498778178
 21
99.8106629502515
 31
0.0
  0
LINE
  5
20A
  8
0
  6
CONTINUOUS
 62
     7
 10
-377.3378382138413
 20
113.1836179079153
 30
0.0
 11
-378.2763153720015
 21
94.30979950491778
 31
0.0
  0
LINE
  5
20B
  8
0
  6
CONTINUOUS
 62
     7
 10
-380.2919707556334
 20
113.6587867074871
 30
0.0
 11
-393.8831328897282
 21
113.6587867074871
 31
0.0
  0
ARC
  5
20C
  8
0
  6
CONTINUOUS
 62
     7
 10
-385.9180784392771
 20
101.4587867074871
 30
0.0
 40
3.000000000000001
 50
270.0
 51
0.0
  0
ARC
  5
20D
  8
0
  6
CONTINUOUS
 62
   253
 10
-392.9729012396717
 20
92.99227063785406
 30
0.0
 40
1.723066950010692
 50
177.7783727783875
 51
209.4407876698116
  0
LINE
  5
20E
  8
0
  6
CONTINUOUS
 62
     7
 10
-423.0289106160969
 20
252.6738360699192
 30
0.0
 11
-423.1024523676387
 21
252.6933599712109
 31
0.0
  0
LINE
  5
20F
  8
0
  6
CONTINUOUS
 62
     7
 10
-424.7342443567323
 20
252.7018001245104
 30
0.0
 11
-425.7337045109153
 21
252.6933599712109
 31
0.0
  0
LINE
  5
210
  8
0
  6
CONTINUOUS
 62
   253
 10
-440.187228471987
 20
252.6158937786283
 30
0.0
 11
-440.2629922714151
 21
252.5537144900739
 31
0.0
  0
LINE
  5
211
  8
0
  6
CONTINUOUS
 62
   253
 10
-440.1007914406169
 20
252.6620992720581
 30
0.0
 11
-440.187228471987
 21
252.6158937786283
 31
0.0
  0
LINE
  5
212
  8
0
  6
CONTINUOUS
 62
   253
 10
-468.5688310433088
 20
252.6738360699192
 30
0.0
 11
-454.9530239888258
 21
252.6738360699192
 31
0.0
  0
LINE
  5
213
  8
0
  6
CONTINUOUS
 62
   253
 10
-394.3251715599695
 20
164.0967342454596
 30
0.0
 11
-394.2629922714151
 21
164.0209704460315
 31
0.0
  0
LINE
  5
214
  8
0
  6
CONTINUOUS
 62
   253
 10
-377.7663397110379
 20
250.1746457460285
 30
0.0
 11
-377.7663397110379
 21
245.8601816037747
 31
0.0
  0
LINE
  5
215
  8
0
  6
CONTINUOUS
 62
   253
 10
-471.0217289721018
 20
250.6622331878227
 30
0.0
 11
-471.0698171675161
 21
250.1746457460285
 31
0.0
  0
LINE
  5
216
  8
0
  6
CONTINUOUS
 62
   253
 10
-379.7793879631705
 20
252.6257823307186
 30
0.0
 11
-380.2673258352452
 21
252.6738360699192
 31
0.0
  0
LINE
  5
217
  8
0
  6
CONTINUOUS
 62
   253
 10
-394.3713770533992
 20
164.1831712768297
 30
0.0
 11
-394.3251715599695
 21
164.0967342454596
 31
0.0
  0
LINE
  5
218
  8
0
  6
CONTINUOUS
 62
   253
 10
-440.0070025829137
 20
252.690555490773
 30
0.0
 11
-440.1007914406169
 21
252.6620992720581
 31
0.0
  0
LINE
  5
219
  8
0
  6
CONTINUOUS
 62
   253
 10
-425.8072462624571
 20
163.9008488661862
 30
0.0
 11
-439.8831328897282
 21
163.9008488661862
 31
0.0
  0
LINE
  5
21A
  8
0
  6
CONTINUOUS
 62
   253
 10
-377.8372212446757
 20
173.5331672575264
 30
0.0
 11
-377.7663397110379
 21
170.7145033323307
 31
0.0
  0
LINE
  5
21B
  8
0
  6
CONTINUOUS
 62
   253
 10
-377.9567610855565
 20
251.1310599303458
 30
0.0
 11
-378.1878724721995
 21
251.5631191330903
 31
0.0
  0
LINE
  5
21C
  8
0
  6
CONTINUOUS
 62
     7
 10
-425.7337045109153
 20
252.6933599712108
 30
0.0
 11
-425.8072462624571
 21
252.6738360699192
 31
0.0
  0
LINE
  5
21D
  8
0
  6
CONTINUOUS
 62
   253
 10
-394.2629922714151
 20
164.0209704460315
 30
0.0
 11
-394.1872284719869
 21
163.9587911574772
 31
0.0
  0
LINE
  5
21E
  8
0
  6
CONTINUOUS
 62
   253
 10
-378.1878724721995
 20
251.5631191330903
 30
0.0
 11
-378.4988854697596
 21
251.9418161344294
 31
0.0
  0
LINE
  5
21F
  8
0
  6
CONTINUOUS
 62
   253
 10
-423.0289106160969
 20
252.6738360699192
 30
0.0
 11
-408.9530239888258
 21
252.6738360699192
 31
0.0
  0
LINE
  5
220
  8
0
  6
CONTINUOUS
 62
   253
 10
-468.5688310433088
 20
252.6738360699192
 30
0.0
 11
-469.0567689153835
 21
252.6257823307186
 31
0.0
  0
LINE
  5
221
  8
0
  6
CONTINUOUS
 62
   253
 10
-394.4094467652757
 20
164.3744969137029
 30
0.0
 11
-394.3998332721142
 21
164.276960134533
 31
0.0
  0
LINE
  5
222
  8
0
  6
CONTINUOUS
 62
   253
 10
-394.1007914406169
 20
163.9125856640474
 30
0.0
 11
-394.0070025829136
 21
163.8841294453324
 31
0.0
  0
LINE
  5
223
  8
0
  6
CONTINUOUS
 62
   253
 10
-440.2629922714151
 20
252.5537144900739
 30
0.0
 11
-440.3251715599695
 21
252.4779506906458
 31
0.0
  0
LINE
  5
224
  8
0
  6
CONTINUOUS
 62
   253
 10
-394.0070025829136
 20
163.8841294453324
 30
0.0
 11
-393.9094658037437
 21
163.8745159521709
 31
0.0
  0
LINE
  5
225
  8
0
  6
CONTINUOUS
 62
   253
 10
-470.8793957929975
 20
251.1310599303458
 30
0.0
 11
-471.0217289721018
 21
250.6622331878227
 31
0.0
  0
LINE
  5
226
  8
0
  6
CONTINUOUS
 62
   253
 10
-393.8831328897282
 20
163.9008488661862
 30
0.0
 11
-393.9094658037437
 21
163.8745159521708
 31
0.0
  0
LINE
  5
227
  8
0
  6
CONTINUOUS
 62
   253
 10
-408.9530239888258
 20
252.6738360699192
 30
0.0
 11
-408.9266910748104
 21
252.7001689839346
 31
0.0
  0
LINE
  5
228
  8
0
  6
CONTINUOUS
 62
   253
 10
-379.3102242896618
 20
164.0911336381739
 30
0.0
 11
-378.8778545961749
 21
164.3220791116632
 31
0.0
  0
LINE
  5
229
  8
0
  6
CONTINUOUS
 62
   253
 10
-440.3251715599695
 20
252.4779506906458
 30
0.0
 11
-440.3713770533992
 21
252.3915136592758
 31
0.0
  0
LINE
  5
22A
  8
0
  6
CONTINUOUS
 62
   253
 10
-439.8831328897282
 20
252.6738360699192
 30
0.0
 11
-425.8072462624571
 21
252.6738360699192
 31
0.0
  0
LINE
  5
22B
  8
0
  6
CONTINUOUS
 62
   253
 10
-440.3998332721142
 20
252.2977248015725
 30
0.0
 11
-440.4094467652758
 21
252.2001880224025
 31
0.0
  0
LINE
  5
22C
  8
0
  6
CONTINUOUS
 62
   253
 10
-439.8831328897282
 20
163.9008488661862
 30
0.0
 11
-439.9094658037437
 21
163.8745159521708
 31
0.0
  0
LINE
  5
22D
  8
0
  6
CONTINUOUS
 62
   253
 10
-470.9989356338783
 20
243.0415176785791
 30
0.0
 11
-471.0698171675161
 21
245.8601816037747
 31
0.0
  0
LINE
  5
22E
  8
0
  6
CONTINUOUS
 62
     7
 10
-424.1019125218218
 20
252.7018001245104
 30
0.0
 11
-424.7342443567323
 21
252.7018001245104
 31
0.0
  0
LINE
  5
22F
  8
0
  6
CONTINUOUS
 62
   253
 10
-393.8831328897282
 20
252.6738360699192
 30
0.0
 11
-380.2673258352452
 21
252.6738360699192
 31
0.0
  0
LINE
  5
230
  8
0
  6
CONTINUOUS
 62
   253
 10
-394.1872284719869
 20
163.9587911574772
 30
0.0
 11
-394.1007914406169
 21
163.9125856640474
 31
0.0
  0
LINE
  5
231
  8
0
  6
CONTINUOUS
 62
   253
 10
-440.3713770533992
 20
252.3915136592758
 30
0.0
 11
-440.3998332721142
 21
252.2977248015725
 31
0.0
  0
LINE
  5
232
  8
0
  6
CONTINUOUS
 62
   253
 10
-379.3102242896618
 20
252.4835512979315
 30
0.0
 11
-379.7793879631705
 21
252.6257823307186
 31
0.0
  0
LINE
  5
233
  8
0
  6
CONTINUOUS
 62
   253
 10
-393.9094658037436
 20
252.7001689839346
 30
0.0
 11
-394.0070025829136
 21
252.690555490773
 31
0.0
  0
LINE
  5
234
  8
0
  6
CONTINUOUS
 62
   253
 10
-469.9583022823791
 20
252.2526058244422
 30
0.0
 11
-470.3372714087945
 21
251.9418161344294
 31
0.0
  0
LINE
  5
235
  8
0
  6
CONTINUOUS
 62
   253
 10
-469.9583022823791
 20
164.3220791116632
 30
0.0
 11
-469.5259325888922
 21
164.0911336381739
 31
0.0
  0
LINE
  5
236
  8
0
  6
CONTINUOUS
 62
   253
 10
-377.1655126672183
 20
165.7985625763343
 30
0.0
 11
-377.1174614701113
 21
166.2861565115906
 31
0.0
  0
LINE
  5
237
  8
0
  6
CONTINUOUS
 62
   253
 10
-470.3372714087945
 20
251.9418161344294
 30
0.0
 11
-470.6482844063545
 21
251.5631191330903
 31
0.0
  0
LINE
  5
238
  8
0
  6
CONTINUOUS
 62
   253
 10
-394.3998332721142
 20
164.276960134533
 30
0.0
 11
-394.3713770533992
 21
164.1831712768297
 31
0.0
  0
LINE
  5
239
  8
0
  6
CONTINUOUS
 62
   253
 10
-439.9094658037437
 20
252.7001689839346
 30
0.0
 11
-439.8831328897282
 21
252.6738360699192
 31
0.0
  0
LINE
  5
23A
  8
0
  6
CONTINUOUS
 62
     7
 10
-374.9180784392771
 20
149.7873424680527
 30
0.0
 11
-473.918078439277
 21
149.7873424680527
 31
0.0
  0
LINE
  5
23B
  8
0
  6
CONTINUOUS
 62
   253
 10
-380.2673258352452
 20
163.9008488661863
 30
0.0
 11
-379.7793879631705
 21
163.9489026053868
 31
0.0
  0
LINE
  5
23C
  8
0
  6
CONTINUOUS
 62
     7
 10
-425.7337045109153
 20
163.8813249648946
 30
0.0
 11
-425.8072462624571
 21
163.9008488661862
 31
0.0
  0
LINE
  5
23D
  8
0
  6
CONTINUOUS
 62
   253
 10
-470.6482844063545
 20
251.5631191330903
 30
0.0
 11
-470.8793957929975
 21
251.1310599303458
 31
0.0
  0
LINE
  5
23E
  8
0
  6
CONTINUOUS
 62
     7
 10
-423.1024523676387
 20
163.8813249648946
 30
0.0
 11
-424.1019125218218
 21
163.872884811595
 31
0.0
  0
LINE
  5
23F
  8
0
  6
CONTINUOUS
 62
   253
 10
-469.5259325888922
 20
164.0911336381739
 30
0.0
 11
-469.0567689153835
 21
163.9489026053868
 31
0.0
  0
LINE
  5
240
  8
0
  6
CONTINUOUS
 62
   253
 10
-377.7663397110379
 20
170.7145033323307
 30
0.0
 11
-377.7663397110379
 21
166.4000391900769
 31
0.0
  0
LINE
  5
241
  8
0
  6
CONTINUOUS
 62
   253
 10
-469.70408492673
 20
163.8352941091396
 30
0.0
 11
-469.2156737992176
 21
163.7873234295848
 31
0.0
  0
LINE
  5
242
  8
0
  6
CONTINUOUS
 62
   253
 10
-470.6482844063545
 20
165.0115658030152
 30
0.0
 11
-470.3372714087945
 21
164.6328688016761
 31
0.0
  0
LINE
  5
243
  8
0
  6
CONTINUOUS
 62
   253
 10
-377.1174614701114
 20
166.2861565115906
 30
0.0
 11
-377.1174614701114
 21
250.2885284245148
 31
0.0
  0
LINE
  5
244
  8
0
  6
CONTINUOUS
 62
   253
 10
-471.0698171675161
 20
245.8601816037747
 30
0.0
 11
-471.0698171675161
 21
250.1746457460285
 31
0.0
  0
LINE
  5
245
  8
0
  6
CONTINUOUS
 62
   253
 10
-454.9266910748104
 20
163.8745159521708
 30
0.0
 11
-454.9530239888258
 21
163.9008488661862
 31
0.0
  0
LINE
  5
246
  8
0
  6
CONTINUOUS
 62
   253
 10
-393.9094658037437
 20
252.7001689839346
 30
0.0
 11
-393.8831328897282
 21
252.6738360699192
 31
0.0
  0
LINE
  5
247
  8
0
  6
CONTINUOUS
 62
   253
 10
-454.9530239888258
 20
252.6738360699192
 30
0.0
 11
-454.9266910748104
 21
252.7001689839346
 31
0.0
  0
LINE
  5
248
  8
0
  6
CONTINUOUS
 62
   253
 10
-454.9530239888258
 20
163.9008488661862
 30
0.0
 11
-468.5688310433088
 21
163.9008488661862
 31
0.0
  0
LINE
  5
249
  8
0
  6
CONTINUOUS
 62
   253
 10
-377.8144279064523
 20
250.6622331878227
 30
0.0
 11
-377.9567610855565
 21
251.1310599303458
 31
0.0
  0
LINE
  5
24A
  8
0
  6
CONTINUOUS
 62
   253
 10
-377.7663397110379
 20
245.8601816037747
 30
0.0
 11
-377.8372212446757
 21
243.0415176785791
 31
0.0
  0
LINE
  5
24B
  8
0
  6
CONTINUOUS
 62
     7
 10
-401.423078439277
 20
164.5373424680527
 30
0.0
 11
-401.4130784392771
 21
164.5373424680527
 31
0.0
  0
LINE
  5
24C
  8
0
  6
CONTINUOUS
 62
   253
 10
-454.4647798251548
 20
252.3915136592758
 30
0.0
 11
-454.5109853185846
 21
252.4779506906458
 31
0.0
  0
LINE
  5
24D
  8
0
  6
CONTINUOUS
 62
   253
 10
-440.187228471987
 20
163.9587911574771
 30
0.0
 11
-440.1007914406169
 21
163.9125856640474
 31
0.0
  0
LINE
  5
24E
  8
0
  6
CONTINUOUS
 62
   253
 10
-394.1872284719869
 20
252.6158937786283
 30
0.0
 11
-394.262992271415
 21
252.5537144900739
 31
0.0
  0
LINE
  5
24F
  8
0
  6
CONTINUOUS
 62
   253
 10
-454.8291542956405
 20
252.6905554907731
 30
0.0
 11
-454.9266910748104
 21
252.7001689839346
 31
0.0
  0
LINE
  5
250
  8
0
  6
CONTINUOUS
 62
   253
 10
-454.7353654379372
 20
163.9125856640474
 30
0.0
 11
-454.6489284065671
 21
163.9587911574771
 31
0.0
  0
LINE
  5
251
  8
0
  6
CONTINUOUS
 62
   253
 10
-471.0698171675161
 20
170.7145033323307
 30
0.0
 11
-470.9989356338783
 21
173.5331672575264
 31
0.0
  0
LINE
  5
252
  8
0
  6
CONTINUOUS
 62
     7
 10
-423.1024523676387
 20
163.8813249648946
 30
0.0
 11
-423.0289106160969
 21
163.9008488661862
 31
0.0
  0
LINE
  5
253
  8
0
  6
CONTINUOUS
 62
   253
 10
-471.0698171675161
 20
166.4000391900769
 30
0.0
 11
-471.0698171675161
 21
170.7145033323307
 31
0.0
  0
LINE
  5
254
  8
0
  6
CONTINUOUS
 62
   253
 10
-378.8778545961749
 20
252.2526058244422
 30
0.0
 11
-379.3102242896618
 21
252.4835512979315
 31
0.0
  0
LINE
  5
255
  8
0
  6
CONTINUOUS
 62
   253
 10
-408.9266910748104
 20
163.8745159521708
 30
0.0
 11
-408.9530239888258
 21
163.9008488661862
 31
0.0
  0
LINE
  5
256
  8
0
  6
CONTINUOUS
 62
   253
 10
-408.5731646071389
 20
252.5537144900739
 30
0.0
 11
-408.6489284065671
 21
252.6158937786283
 31
0.0
  0
LINE
  5
257
  8
0
  6
CONTINUOUS
 62
   253
 10
-454.4363236064398
 20
252.2977248015725
 30
0.0
 11
-454.4647798251548
 21
252.3915136592758
 31
0.0
  0
LINE
  5
258
  8
0
  6
CONTINUOUS
 62
   253
 10
-454.4363236064398
 20
164.276960134533
 30
0.0
 11
-454.4267101132783
 21
164.3744969137029
 31
0.0
  0
LINE
  5
259
  8
0
  6
CONTINUOUS
 62
   253
 10
-454.5109853185846
 20
252.4779506906458
 30
0.0
 11
-454.5731646071389
 21
252.553714490074
 31
0.0
  0
LINE
  5
25A
  8
0
  6
CONTINUOUS
 62
   253
 10
-408.5109853185846
 20
164.0967342454596
 30
0.0
 11
-408.4647798251548
 21
164.1831712768297
 31
0.0
  0
LINE
  5
25B
  8
0
  6
CONTINUOUS
 62
     7
 10
-424.7342443567322
 20
163.872884811595
 30
0.0
 11
-425.7337045109153
 21
163.8813249648946
 31
0.0
  0
LINE
  5
25C
  8
0
  6
CONTINUOUS
 62
   253
 10
-454.5109853185845
 20
164.0967342454596
 30
0.0
 11
-454.4647798251548
 21
164.1831712768297
 31
0.0
  0
LINE
  5
25D
  8
0
  6
CONTINUOUS
 62
   253
 10
-408.4267101132783
 20
252.2001880224024
 30
0.0
 11
-408.4363236064398
 21
252.2977248015725
 31
0.0
  0
LINE
  5
25E
  8
0
  6
CONTINUOUS
 62
     7
 10
-424.1019125218218
 20
163.872884811595
 30
0.0
 11
-424.7342443567322
 21
163.872884811595
 31
0.0
  0
LINE
  5
25F
  8
0
  6
CONTINUOUS
 62
   253
 10
-439.9094658037437
 20
252.7001689839346
 30
0.0
 11
-440.0070025829137
 21
252.690555490773
 31
0.0
  0
LINE
  5
260
  8
0
  6
CONTINUOUS
 62
   253
 10
-380.2673258352452
 20
163.9008488661862
 30
0.0
 11
-393.8831328897282
 21
163.9008488661862
 31
0.0
  0
LINE
  5
261
  8
0
  6
CONTINUOUS
 62
     7
 10
-403.418078439277
 20
166.5323424680527
 30
0.0
 11
-401.423078439277
 21
166.5323424680527
 31
0.0
  0
LINE
  5
262
  8
0
  6
CONTINUOUS
 62
     7
 10
-401.4130784392771
 20
166.5323424680527
 30
0.0
 11
-399.418078439277
 21
166.5323424680527
 31
0.0
  0
LINE
  5
263
  8
0
  6
CONTINUOUS
 62
   253
 10
-394.3713770533992
 20
252.3915136592758
 30
0.0
 11
-394.3998332721142
 21
252.2977248015725
 31
0.0
  0
LINE
  5
264
  8
0
  6
CONTINUOUS
 62
   253
 10
-408.9266910748104
 20
163.8745159521708
 30
0.0
 11
-408.8291542956404
 21
163.8841294453324
 31
0.0
  0
LINE
  5
265
  8
0
  6
CONTINUOUS
 62
   253
 10
-440.4094467652757
 20
164.3744969137029
 30
0.0
 11
-440.3998332721142
 21
164.276960134533
 31
0.0
  0
LINE
  5
266
  8
0
  6
CONTINUOUS
 62
   253
 10
-440.0070025829137
 20
163.8841294453324
 30
0.0
 11
-439.9094658037437
 21
163.8745159521708
 31
0.0
  0
LINE
  5
267
  8
0
  6
CONTINUOUS
 62
   253
 10
-470.3372714087945
 20
164.6328688016761
 30
0.0
 11
-469.9583022823791
 21
164.3220791116632
 31
0.0
  0
LINE
  5
268
  8
0
  6
CONTINUOUS
 62
   253
 10
-408.5109853185845
 20
252.4779506906458
 30
0.0
 11
-408.5731646071389
 21
252.5537144900739
 31
0.0
  0
LINE
  5
269
  8
0
  6
CONTINUOUS
 62
   253
 10
-454.9266910748104
 20
163.8745159521708
 30
0.0
 11
-454.8291542956405
 21
163.8841294453324
 31
0.0
  0
LINE
  5
26A
  8
0
  6
CONTINUOUS
 62
   253
 10
-454.5731646071389
 20
252.553714490074
 30
0.0
 11
-454.6489284065671
 21
252.6158937786283
 31
0.0
  0
LINE
  5
26B
  8
0
  6
CONTINUOUS
 62
   253
 10
-454.6489284065671
 20
252.6158937786283
 30
0.0
 11
-454.7353654379372
 21
252.6620992720581
 31
0.0
  0
LINE
  5
26C
  8
0
  6
CONTINUOUS
 62
   253
 10
-454.8291542956405
 20
163.8841294453324
 30
0.0
 11
-454.7353654379372
 21
163.9125856640474
 31
0.0
  0
LINE
  5
26D
  8
0
  6
CONTINUOUS
 62
     7
 10
-403.418078439277
 20
250.0323424680527
 30
0.0
 11
-401.423078439277
 21
250.0323424680527
 31
0.0
  0
LINE
  5
26E
  8
0
  6
CONTINUOUS
 62
     7
 10
-401.423078439277
 20
166.5423424680527
 30
0.0
 11
-403.418078439277
 21
166.5423424680527
 31
0.0
  0
LINE
  5
26F
  8
0
  6
CONTINUOUS
 62
   253
 10
-394.262992271415
 20
252.5537144900739
 30
0.0
 11
-394.3251715599694
 21
252.4779506906458
 31
0.0
  0
LINE
  5
270
  8
0
  6
CONTINUOUS
 62
   253
 10
-454.5731646071389
 20
164.0209704460315
 30
0.0
 11
-454.5109853185845
 21
164.0967342454596
 31
0.0
  0
LINE
  5
271
  8
0
  6
CONTINUOUS
 62
   253
 10
-408.7353654379371
 20
163.9125856640474
 30
0.0
 11
-408.6489284065671
 21
163.9587911574771
 31
0.0
  0
LINE
  5
272
  8
0
  6
CONTINUOUS
 62
   253
 10
-394.3998332721142
 20
252.2977248015725
 30
0.0
 11
-394.4094467652757
 21
252.2001880224026
 31
0.0
  0
LINE
  5
273
  8
0
  6
CONTINUOUS
 62
   253
 10
-408.4363236064399
 20
164.2769601345329
 30
0.0
 11
-408.4267101132783
 21
164.3744969137029
 31
0.0
  0
LINE
  5
274
  8
0
  6
CONTINUOUS
 62
   253
 10
-408.6489284065671
 20
163.9587911574771
 30
0.0
 11
-408.5731646071389
 21
164.0209704460315
 31
0.0
  0
LINE
  5
275
  8
0
  6
CONTINUOUS
 62
   253
 10
-469.0567689153835
 20
163.9489026053868
 30
0.0
 11
-468.5688310433088
 21
163.9008488661863
 31
0.0
  0
LINE
  5
276
  8
0
  6
CONTINUOUS
 62
   253
 10
-408.4363236064398
 20
252.2977248015725
 30
0.0
 11
-408.4647798251548
 21
252.3915136592757
 31
0.0
  0
LINE
  5
277
  8
0
  6
CONTINUOUS
 62
   253
 10
-378.4988854697596
 20
251.9418161344294
 30
0.0
 11
-378.8778545961749
 21
252.2526058244422
 31
0.0
  0
LINE
  5
278
  8
0
  6
CONTINUOUS
 62
   253
 10
-408.9530239888258
 20
163.9008488661862
 30
0.0
 11
-423.0289106160969
 21
163.9008488661862
 31
0.0
  0
LINE
  5
279
  8
0
  6
CONTINUOUS
 62
     7
 10
-401.423078439277
 20
250.0323424680527
 30
0.0
 11
-401.423078439277
 21
248.0373424680527
 31
0.0
  0
LINE
  5
27A
  8
0
  6
CONTINUOUS
 62
   253
 10
-394.0070025829136
 20
252.690555490773
 30
0.0
 11
-394.1007914406169
 21
252.662099272058
 31
0.0
  0
LINE
  5
27B
  8
0
  6
CONTINUOUS
 62
     7
 10
-401.423078439277
 20
248.0373424680527
 30
0.0
 11
-401.4130784392771
 21
248.0373424680527
 31
0.0
  0
LINE
  5
27C
  8
0
  6
CONTINUOUS
 62
     7
 10
-423.1024523676387
 20
252.6933599712109
 30
0.0
 11
-424.1019125218218
 21
252.7018001245104
 31
0.0
  0
LINE
  5
27D
  8
0
  6
CONTINUOUS
 62
     7
 10
-401.4130784392771
 20
248.0373424680527
 30
0.0
 11
-401.4130784392771
 21
250.0323424680527
 31
0.0
  0
LINE
  5
27E
  8
0
  6
CONTINUOUS
 62
     7
 10
-403.418078439277
 20
166.5423424680527
 30
0.0
 11
-403.418078439277
 21
166.5323424680527
 31
0.0
  0
LINE
  5
27F
  8
0
  6
CONTINUOUS
 62
     7
 10
-401.4130784392771
 20
252.0373424680527
 30
0.0
 11
-401.423078439277
 21
252.0373424680527
 31
0.0
  0
LINE
  5
280
  8
0
  6
CONTINUOUS
 62
   253
 10
-408.4647798251548
 20
252.3915136592757
 30
0.0
 11
-408.5109853185845
 21
252.4779506906458
 31
0.0
  0
LINE
  5
281
  8
0
  6
CONTINUOUS
 62
   253
 10
-377.7663397110379
 20
250.1746457460285
 30
0.0
 11
-377.8144279064523
 21
250.6622331878227
 31
0.0
  0
LINE
  5
282
  8
0
  6
CONTINUOUS
 62
     7
 10
-399.418078439277
 20
250.0423424680527
 30
0.0
 11
-401.4130784392771
 21
250.0423424680527
 31
0.0
  0
LINE
  5
283
  8
0
  6
CONTINUOUS
 62
   253
 10
-408.4647798251548
 20
164.1831712768297
 30
0.0
 11
-408.4363236064399
 21
164.2769601345329
 31
0.0
  0
LINE
  5
284
  8
0
  6
CONTINUOUS
 62
   253
 10
-454.4267101132783
 20
252.2001880224025
 30
0.0
 11
-454.4363236064398
 21
252.2977248015725
 31
0.0
  0
LINE
  5
285
  8
0
  6
CONTINUOUS
 62
   253
 10
-440.3998332721142
 20
164.276960134533
 30
0.0
 11
-440.3713770533992
 21
164.1831712768297
 31
0.0
  0
LINE
  5
286
  8
0
  6
CONTINUOUS
 62
   253
 10
-440.2629922714151
 20
164.0209704460315
 30
0.0
 11
-440.187228471987
 21
163.9587911574771
 31
0.0
  0
LINE
  5
287
  8
0
  6
CONTINUOUS
 62
   253
 10
-454.7353654379372
 20
252.6620992720581
 30
0.0
 11
-454.8291542956405
 21
252.6905554907731
 31
0.0
  0
LINE
  5
288
  8
0
  6
CONTINUOUS
 62
   253
 10
-454.5733377562705
 20
171.1962523848755
 30
0.0
 11
-454.5896751618194
 21
171.180168391149
 31
0.0
  0
LINE
  5
289
  8
0
  6
CONTINUOUS
 62
   253
 10
-454.5298977517582
 20
171.2482580531631
 30
0.0
 11
-454.543413405359
 21
171.2303378184443
 31
0.0
  0
LINE
  5
28A
  8
0
  6
CONTINUOUS
 62
   253
 10
-454.5173901539375
 20
171.266706829261
 30
0.0
 11
-454.5298977517582
 21
171.2482580531631
 31
0.0
  0
LINE
  5
28B
  8
0
  6
CONTINUOUS
 62
   253
 10
-439.9719897409575
 20
245.5292883630773
 30
0.0
 11
-439.9478675652379
 21
245.5330694721923
 31
0.0
  0
LINE
  5
28C
  8
0
  6
CONTINUOUS
 62
   253
 10
-454.4955158454382
 20
171.3050130416821
 30
0.0
 11
-454.5059204099931
 21
171.2856401943812
 31
0.0
  0
LINE
  5
28D
  8
0
  6
CONTINUOUS
 62
   253
 10
-454.7478605294252
 20
171.0792157735106
 30
0.0
 11
-454.7703616688212
 21
171.0705133231
 31
0.0
  0
LINE
  5
28E
  8
0
  6
CONTINUOUS
 62
   253
 10
-454.8166148280648
 20
171.0559828880095
 30
0.0
 11
-454.8402566544042
 21
171.0501895206324
 31
0.0
  0
LINE
  5
28F
  8
0
  6
CONTINUOUS
 62
   253
 10
-454.6834982788267
 20
171.1108167611422
 30
0.0
 11
-454.7043770369002
 21
171.099391525884
 31
0.0
  0
LINE
  5
290
  8
0
  6
CONTINUOUS
 62
   253
 10
-454.477998809082
 20
171.3448916303054
 30
0.0
 11
-454.4862012481036
 21
171.3247792172998
 31
0.0
  0
LINE
  5
291
  8
0
  6
CONTINUOUS
 62
   253
 10
-378.6624698657998
 20
163.9774481974579
 30
0.0
 11
-378.2297134414013
 21
164.2083257969621
 31
0.0
  0
LINE
  5
292
  8
0
  6
CONTINUOUS
 62
   253
 10
-454.543413405359
 20
171.2303378184443
 30
0.0
 11
-454.5579049150521
 21
171.2129888182646
 31
0.0
  0
LINE
  5
293
  8
0
  6
CONTINUOUS
 62
   253
 10
-454.6632616386983
 20
171.1230979778594
 30
0.0
 11
-454.6834982788267
 21
171.1108167611422
 31
0.0
  0
LINE
  5
294
  8
0
  6
CONTINUOUS
 62
   253
 10
-377.3079051145698
 20
165.3297462358038
 30
0.0
 11
-377.1655126672183
 21
165.7985625763343
 31
0.0
  0
LINE
  5
295
  8
0
  6
CONTINUOUS
 62
   253
 10
-377.8144279064523
 20
165.9124517482828
 30
0.0
 11
-377.7663397110379
 21
166.4000391900769
 31
0.0
  0
LINE
  5
296
  8
0
  6
CONTINUOUS
 62
   253
 10
-470.8096277096945
 20
172.5765714905962
 30
0.0
 11
-470.5791257586805
 21
172.1447336579437
 31
0.0
  0
LINE
  5
297
  8
0
  6
CONTINUOUS
 62
   253
 10
-439.9959002241499
 20
245.524495415473
 30
0.0
 11
-439.9719897409575
 21
245.5292883630773
 31
0.0
  0
LINE
  5
298
  8
0
  6
CONTINUOUS
 62
   253
 10
-422.7912771772509
 20
172.5786211959864
 30
0.0
 11
-422.5607132973929
 21
172.1463771257611
 31
0.0
  0
LINE
  5
299
  8
0
  6
CONTINUOUS
 62
   253
 10
-454.7258481713738
 20
171.0888494915606
 30
0.0
 11
-454.7478605294252
 21
171.0792157735106
 31
0.0
  0
LINE
  5
29A
  8
0
  6
CONTINUOUS
 62
   253
 10
-454.7932979828562
 20
171.0627628730433
 30
0.0
 11
-454.8166148280648
 21
171.0559828880095
 31
0.0
  0
LINE
  5
29B
  8
0
  6
CONTINUOUS
 62
   253
 10
-454.5059204099931
 20
171.2856401943812
 30
0.0
 11
-454.5173901539375
 21
171.266706829261
 31
0.0
  0
LINE
  5
29C
  8
0
  6
CONTINUOUS
 62
   253
 10
-439.9235911656529
 20
245.5358297347052
 30
0.0
 11
-439.8992183782874
 21
245.5375625745675
 31
0.0
  0
LINE
  5
29D
  8
0
  6
CONTINUOUS
 62
   253
 10
-378.6624698657998
 20
252.5972367386475
 30
0.0
 11
-379.132071951824
 21
252.7393908269659
 31
0.0
  0
LINE
  5
29E
  8
0
  6
CONTINUOUS
 62
   253
 10
-471.0698171675161
 20
166.4000391900769
 30
0.0
 11
-471.0217289721018
 21
165.9124517482828
 31
0.0
  0
LINE
  5
29F
  8
0
  6
CONTINUOUS
 62
   253
 10
-470.1736870127541
 20
252.5972367386475
 30
0.0
 11
-470.6064434371527
 21
252.3663591391434
 31
0.0
  0
LINE
  5
2A0
  8
0
  6
CONTINUOUS
 62
   253
 10
-454.5896751618194
 20
171.180168391149
 30
0.0
 11
-454.6068782094703
 21
171.1647751555856
 31
0.0
  0
LINE
  5
2A1
  8
0
  6
CONTINUOUS
 62
   253
 10
-422.9808260700609
 20
173.5358707782144
 30
0.0
 11
-422.933128378906
 21
173.0477841377385
 31
0.0
  0
LINE
  5
2A2
  8
0
  6
CONTINUOUS
 62
   253
 10
-454.8641671375965
 20
171.0453965730281
 30
0.0
 11
-454.8882893133161
 21
171.0416154639131
 31
0.0
  0
LINE
  5
2A3
  8
0
  6
CONTINUOUS
 62
   253
 10
-454.5579049150521
 20
171.2129888182646
 30
0.0
 11
-454.5733377562705
 21
171.1962523848755
 31
0.0
  0
LINE
  5
2A4
  8
0
  6
CONTINUOUS
 62
   253
 10
-378.4988854697596
 20
164.6328688016761
 30
0.0
 11
-378.1878724721995
 21
165.0115658030152
 31
0.0
  0
LINE
  5
2A5
  8
0
  6
CONTINUOUS
 62
   253
 10
-454.4530430272937
 20
171.4701105828531
 30
0.0
 11
-454.4542577780275
 21
171.4489477701866
 31
0.0
  0
LINE
  5
2A6
  8
0
  6
CONTINUOUS
 62
   253
 10
-427.8648444813797
 20
171.0841492780565
 30
0.0
 11
-427.3961158329323
 21
171.226132279372
 31
0.0
  0
LINE
  5
2A7
  8
0
  6
CONTINUOUS
 62
   253
 10
-468.9893214238546
 20
171.0839521826099
 30
0.0
 11
-468.5013669904739
 21
171.0364069825796
 31
0.0
  0
LINE
  5
2A8
  8
0
  6
CONTINUOUS
 62
   253
 10
-454.6249059146892
 20
171.1501093510235
 30
0.0
 11
-454.6437153282783
 21
171.1362059172698
 31
0.0
  0
LINE
  5
2A9
  8
0
  6
CONTINUOUS
 62
   253
 10
-378.8778545961749
 20
164.3220791116632
 30
0.0
 11
-378.4988854697596
 21
164.6328688016761
 31
0.0
  0
LINE
  5
2AA
  8
0
  6
CONTINUOUS
 62
   253
 10
-439.8992183782874
 20
245.5375625745675
 30
0.0
 11
-439.8748072688602
 21
245.5382638634624
 31
0.0
  0
LINE
  5
2AB
  8
0
  6
CONTINUOUS
 62
   253
 10
-378.2297134414013
 20
164.2083257969621
 30
0.0
 11
-377.8504241193568
 21
164.5190592903982
 31
0.0
  0
LINE
  5
2AC
  8
0
  6
CONTINUOUS
 62
   253
 10
-469.0567689153835
 20
252.6257823307186
 30
0.0
 11
-469.5259325888922
 21
252.4835512979315
 31
0.0
  0
LINE
  5
2AD
  8
0
  6
CONTINUOUS
 62
   253
 10
-454.4602463358331
 20
171.4068236978434
 30
0.0
 11
-454.4650058757672
 21
171.3859627945399
 31
0.0
  0
LINE
  5
2AE
  8
0
  6
CONTINUOUS
 62
   253
 10
-454.4709280698611
 20
171.3653023648942
 30
0.0
 11
-454.477998809082
 21
171.3448916303054
 31
0.0
  0
LINE
  5
2AF
  8
0
  6
CONTINUOUS
 62
   253
 10
-439.9478675652379
 20
245.5330694721923
 30
0.0
 11
-439.9235911656529
 21
245.5358297347052
 31
0.0
  0
LINE
  5
2B0
  8
0
  6
CONTINUOUS
 62
   253
 10
-439.8748072688602
 20
245.5382638634624
 30
0.0
 11
-439.8706435301633
 21
245.5382779535259
 31
0.0
  0
LINE
  5
2B1
  8
0
  6
CONTINUOUS
 62
   253
 10
-454.4566607891849
 20
171.4278353757967
 30
0.0
 11
-454.4602463358331
 21
171.4068236978434
 31
0.0
  0
LINE
  5
2B2
  8
0
  6
CONTINUOUS
 62
   253
 10
-379.7793879631705
 20
163.9489026053868
 30
0.0
 11
-379.3102242896618
 21
164.0911336381739
 31
0.0
  0
LINE
  5
2B3
  8
0
  6
CONTINUOUS
 62
   253
 10
-454.4862012481036
 20
171.3247792172998
 30
0.0
 11
-454.4955158454382
 21
171.3050130416821
 31
0.0
  0
LINE
  5
2B4
  8
0
  6
CONTINUOUS
 62
   253
 10
-377.9567610855565
 20
165.4436250057596
 30
0.0
 11
-377.8144279064523
 21
165.9124517482828
 31
0.0
  0
LINE
  5
2B5
  8
0
  6
CONTINUOUS
 62
   253
 10
-378.1878724721995
 20
165.0115658030152
 30
0.0
 11
-377.9567610855565
 21
165.4436250057596
 31
0.0
  0
LINE
  5
2B6
  8
0
  6
CONTINUOUS
 62
   253
 10
-471.0217289721018
 20
165.9124517482828
 30
0.0
 11
-470.8793957929975
 21
165.4436250057596
 31
0.0
  0
LINE
  5
2B7
  8
0
  6
CONTINUOUS
 62
   253
 10
-454.6437153282783
 20
171.1362059172698
 30
0.0
 11
-454.6632616386983
 21
171.1230979778594
 31
0.0
  0
LINE
  5
2B8
  8
0
  6
CONTINUOUS
 62
   253
 10
-454.7043770369002
 20
171.099391525884
 30
0.0
 11
-454.7258481713738
 21
171.0888494915606
 31
0.0
  0
LINE
  5
2B9
  8
0
  6
CONTINUOUS
 62
   253
 10
-454.8402566544042
 20
171.0501895206324
 30
0.0
 11
-454.8641671375965
 21
171.0453965730281
 31
0.0
  0
LINE
  5
2BA
  8
0
  6
CONTINUOUS
 62
   253
 10
-428.3524793979363
 20
171.0364069825795
 30
0.0
 11
-427.8648444813797
 21
171.0841492780565
 31
0.0
  0
LINE
  5
2BB
  8
0
  6
CONTINUOUS
 62
   253
 10
-421.4400410456219
 20
245.3485526567334
 30
0.0
 11
-421.8718849108732
 21
245.1177748371725
 31
0.0
  0
LINE
  5
2BC
  8
0
  6
CONTINUOUS
 62
   253
 10
-470.5791257586805
 20
172.1447336579437
 30
0.0
 11
-470.2687014341489
 21
171.766404358981
 31
0.0
  0
LINE
  5
2BD
  8
0
  6
CONTINUOUS
 62
   253
 10
-440.3711510027869
 20
171.3859627945399
 30
0.0
 11
-440.3759105427209
 21
171.4068236978434
 31
0.0
  0
LINE
  5
2BE
  8
0
  6
CONTINUOUS
 62
   253
 10
-440.3818991005266
 20
171.4489477701866
 30
0.0
 11
-440.3831138512603
 21
171.4701105828531
 31
0.0
  0
LINE
  5
2BF
  8
0
  6
CONTINUOUS
 62
   253
 10
-425.8553308084932
 20
243.038814157891
 30
0.0
 11
-425.903028499648
 21
243.5269007983669
 31
0.0
  0
LINE
  5
2C0
  8
0
  6
CONTINUOUS
 62
   253
 10
-454.7703616688212
 20
171.0705133231
 30
0.0
 11
-454.7932979828562
 21
171.0627628730433
 31
0.0
  0
LINE
  5
2C1
  8
0
  6
CONTINUOUS
 62
   253
 10
-454.6068782094703
 20
171.1647751555856
 30
0.0
 11
-454.6249059146892
 21
171.1501093510235
 31
0.0
  0
LINE
  5
2C2
  8
0
  6
CONTINUOUS
 62
   253
 10
-454.4542577780275
 20
171.4489477701866
 30
0.0
 11
-454.4566607891849
 21
171.4278353757967
 31
0.0
  0
LINE
  5
2C3
  8
0
  6
CONTINUOUS
 62
   253
 10
-469.8902496757747
 20
171.4560805381577
 30
0.0
 11
-469.4582721204467
 21
171.225653284015
 31
0.0
  0
LINE
  5
2C4
  8
0
  6
CONTINUOUS
 62
   253
 10
-454.4650058757672
 20
171.3859627945399
 30
0.0
 11
-454.4709280698611
 21
171.3653023648942
 31
0.0
  0
LINE
  5
2C5
  8
0
  6
CONTINUOUS
 62
   253
 10
-471.6706442113357
 20
165.7985625763342
 30
0.0
 11
-471.5282517639842
 21
165.3297462358038
 31
0.0
  0
LINE
  5
2C6
  8
0
  6
CONTINUOUS
 62
   253
 10
-471.6706442113357
 20
250.7761223597712
 30
0.0
 11
-471.7186954084427
 21
250.2885284245148
 31
0.0
  0
ARC
  5
2C7
  8
0
  6
CONTINUOUS
 62
     7
 10
-374.9180784392771
 20
156.7873424680527
 30
0.0
 40
7.000000000000006
 50
270.0
 51
0.0
  0
LINE
  5
2C8
  8
0
  6
CONTINUOUS
 62
   253
 10
-471.2969871189322
 20
251.6769710051213
 30
0.0
 11
-471.5282517639841
 21
251.2449387003016
 31
0.0
  0
LINE
  5
2C9
  8
0
  6
CONTINUOUS
 62
   253
 10
-379.132071951824
 20
163.8352941091396
 30
0.0
 11
-378.6624698657998
 21
163.9774481974579
 31
0.0
  0
LINE
  5
2CA
  8
0
  6
CONTINUOUS
 62
   253
 10
-470.6064434371528
 20
164.208325796962
 30
0.0
 11
-470.1736870127542
 21
163.9774481974579
 31
0.0
  0
LINE
  5
2CB
  8
0
  6
CONTINUOUS
 62
   253
 10
-377.8504241193568
 20
164.5190592903982
 30
0.0
 11
-377.5391697596218
 21
164.8977139309842
 31
0.0
  0
LINE
  5
2CC
  8
0
  6
CONTINUOUS
 62
   253
 10
-469.5259325888922
 20
252.4835512979315
 30
0.0
 11
-469.9583022823791
 21
252.2526058244422
 31
0.0
  0
ARC
  5
2CD
  8
0
  6
CONTINUOUS
 62
     7
 10
-473.918078439277
 20
156.7873424680527
 30
0.0
 40
7.000000000000006
 50
180.0
 51
270.0
  0
LINE
  5
2CE
  8
0
  6
CONTINUOUS
 62
   253
 10
-377.5391697596218
 20
251.6769710051213
 30
0.0
 11
-377.8504241193568
 21
252.0556256457073
 31
0.0
  0
LINE
  5
2CF
  8
0
  6
CONTINUOUS
 62
   253
 10
-471.5282517639842
 20
165.3297462358038
 30
0.0
 11
-471.2969871189323
 21
164.8977139309841
 31
0.0
  0
LINE
  5
2D0
  8
0
  6
CONTINUOUS
 62
   253
 10
-377.5391697596218
 20
164.8977139309842
 30
0.0
 11
-377.3079051145698
 21
165.3297462358038
 31
0.0
  0
LINE
  5
2D1
  8
0
  6
CONTINUOUS
 62
     7
 10
-480.918078439277
 20
156.7873424680527
 30
0.0
 11
-480.918078439277
 21
259.7873424680527
 31
0.0
  0
LINE
  5
2D2
  8
0
  6
CONTINUOUS
 62
   253
 10
-470.8793957929975
 20
165.4436250057596
 30
0.0
 11
-470.6482844063545
 21
165.0115658030152
 31
0.0
  0
LINE
  5
2D3
  8
0
  6
CONTINUOUS
 62
   253
 10
-470.1736870127542
 20
163.9774481974579
 30
0.0
 11
-469.70408492673
 21
163.8352941091396
 31
0.0
  0
LINE
  5
2D4
  8
0
  6
CONTINUOUS
 62
   253
 10
-471.7186954084427
 20
250.2885284245148
 30
0.0
 11
-471.7186954084427
 21
166.2861565115906
 31
0.0
  0
LINE
  5
2D5
  8
0
  6
CONTINUOUS
 62
   253
 10
-470.9857327591972
 20
164.5190592903982
 30
0.0
 11
-470.6064434371528
 21
164.208325796962
 31
0.0
  0
LINE
  5
2D6
  8
0
  6
CONTINUOUS
 62
   253
 10
-377.8504241193568
 20
252.0556256457073
 30
0.0
 11
-378.2297134414013
 21
252.3663591391434
 31
0.0
  0
LINE
  5
2D7
  8
0
  6
CONTINUOUS
 62
   253
 10
-379.6204830793365
 20
252.7873615065207
 30
0.0
 11
-469.2156737992176
 21
252.7873615065207
 31
0.0
  0
LINE
  5
2D8
  8
0
  6
CONTINUOUS
 62
   253
 10
-470.9857327591971
 20
252.0556256457073
 30
0.0
 11
-471.2969871189322
 21
251.6769710051213
 31
0.0
  0
LINE
  5
2D9
  8
0
  6
CONTINUOUS
 62
   253
 10
-471.2969871189323
 20
164.8977139309841
 30
0.0
 11
-470.9857327591972
 21
164.5190592903982
 31
0.0
  0
LINE
  5
2DA
  8
0
  6
CONTINUOUS
 62
     7
 10
-367.9180784392771
 20
259.7873424680527
 30
0.0
 11
-367.9180784392771
 21
156.7873424680527
 31
0.0
  0
LINE
  5
2DB
  8
0
  6
CONTINUOUS
 62
   253
 10
-469.2156737992176
 20
163.7873234295848
 30
0.0
 11
-379.6204830793365
 21
163.7873234295848
 31
0.0
  0
LINE
  5
2DC
  8
0
  6
CONTINUOUS
 62
   253
 10
-471.7186954084427
 20
166.2861565115906
 30
0.0
 11
-471.6706442113357
 21
165.7985625763342
 31
0.0
  0
LINE
  5
2DD
  8
0
  6
CONTINUOUS
 62
   253
 10
-377.3079051145698
 20
251.2449387003016
 30
0.0
 11
-377.5391697596218
 21
251.6769710051213
 31
0.0
  0
ARC
  5
2DE
  8
0
  6
CONTINUOUS
 62
     7
 10
-374.9180784392771
 20
259.7873424680527
 30
0.0
 40
7.000000000000006
 50
0.0
 51
90.0
  0
LINE
  5
2DF
  8
0
  6
CONTINUOUS
 62
   253
 10
-469.70408492673
 20
252.7393908269658
 30
0.0
 11
-470.1736870127541
 21
252.5972367386475
 31
0.0
  0
LINE
  5
2E0
  8
0
  6
CONTINUOUS
 62
   253
 10
-379.6204830793365
 20
163.7873234295848
 30
0.0
 11
-379.132071951824
 21
163.8352941091396
 31
0.0
  0
LINE
  5
2E1
  8
0
  6
CONTINUOUS
 62
   253
 10
-377.1655126672183
 20
250.7761223597712
 30
0.0
 11
-377.3079051145698
 21
251.2449387003016
 31
0.0
  0
LINE
  5
2E2
  8
0
  6
CONTINUOUS
 62
   253
 10
-379.132071951824
 20
252.7393908269659
 30
0.0
 11
-379.6204830793365
 21
252.7873615065206
 31
0.0
  0
LINE
  5
2E3
  8
0
  6
CONTINUOUS
 62
   253
 10
-377.1174614701113
 20
250.2885284245148
 30
0.0
 11
-377.1655126672183
 21
250.7761223597712
 31
0.0
  0
LINE
  5
2E4
  8
0
  6
CONTINUOUS
 62
   253
 10
-471.5282517639841
 20
251.2449387003016
 30
0.0
 11
-471.6706442113357
 21
250.7761223597712
 31
0.0
  0
LINE
  5
2E5
  8
0
  6
CONTINUOUS
 62
   253
 10
-378.2297134414013
 20
252.3663591391434
 30
0.0
 11
-378.6624698657998
 21
252.5972367386475
 31
0.0
  0
LINE
  5
2E6
  8
0
  6
CONTINUOUS
 62
   253
 10
-469.2156737992175
 20
252.7873615065206
 30
0.0
 11
-469.70408492673
 21
252.7393908269658
 31
0.0
  0
LINE
  5
2E7
  8
0
  6
CONTINUOUS
 62
   253
 10
-470.6064434371527
 20
252.3663591391434
 30
0.0
 11
-470.9857327591971
 21
252.0556256457073
 31
0.0
  0
ARC
  5
2E8
  8
0
  6
CONTINUOUS
 62
     7
 10
-467.5635433215465
 20
94.45878670748705
 30
0.0
 40
3.000000000000003
 50
182.8466169158164
 51
270.0
  0
LINE
  5
2E9
  8
0
  6
CONTINUOUS
 62
   253
 10
-439.8955643897087
 20
91.71675865361328
 30
0.0
 11
-439.7725960661915
 21
91.69601291635418
 31
0.0
  0
LINE
  5
2EA
  8
0
  6
CONTINUOUS
 62
   253
 10
-440.2481278260785
 20
91.89161420377175
 30
0.0
 11
-440.1315457011968
 21
91.81178349573457
 31
0.0
  0
ARC
  5
2EB
  8
0
  6
CONTINUOUS
 62
     7
 10
-473.918078439277
 20
259.7873424680527
 30
0.0
 40
6.99999999999995
 50
90.0
 51
180.0
  0
LINE
  5
2EC
  8
0
  6
CONTINUOUS
 62
   253
 10
-454.7833744647497
 20
91.77118836333068
 30
0.0
 11
-454.6691575458469
 21
91.83337397558073
 31
0.0
  0
LINE
  5
2ED
  8
0
  6
CONTINUOUS
 62
     7
 10
-473.918078439277
 20
266.7873424680527
 30
0.0
 11
-374.9180784392771
 21
266.7873424680527
 31
0.0
  0
LINE
  5
2EE
  8
0
  6
CONTINUOUS
 62
   253
 10
-454.5549646219123
 20
91.91932793255982
 30
0.0
 11
-454.4521704803136
 21
92.02379516040764
 31
0.0
  0
LINE
  5
2EF
  8
0
  6
CONTINUOUS
 62
     7
 10
-428.9724670175905
 20
91.45878670748705
 30
0.0
 11
-467.5635433215465
 21
91.45878670748705
 31
0.0
  0
LINE
  5
2F0
  8
0
  6
CONTINUOUS
 62
   253
 10
-455.1454030758236
 20
91.69209686919812
 30
0.0
 11
-455.0236571764578
 21
91.7007604724592
 31
0.0
  0
LINE
  5
2F1
  8
0
  6
CONTINUOUS
 62
   253
 10
-440.1007914406169
 20
163.9125856640474
 30
0.0
 11
-440.0070025829137
 21
163.8841294453324
 31
0.0
  0
LINE
  5
2F2
  8
0
  6
CONTINUOUS
 62
   253
 10
-440.6024847858638
 20
92.41902942709598
 30
0.0
 11
-440.5470713950145
 21
92.2800519691519
 31
0.0
  0
LINE
  5
2F3
  8
0
  6
CONTINUOUS
 62
     7
 10
-403.418078439277
 20
250.0423424680527
 30
0.0
 11
-403.418078439277
 21
250.0323424680527
 31
0.0
  0
LINE
  5
2F4
  8
0
  6
CONTINUOUS
 62
   253
 10
-394.1007914406169
 20
252.662099272058
 30
0.0
 11
-394.1872284719869
 21
252.6158937786283
 31
0.0
  0
LINE
  5
2F5
  8
0
  6
CONTINUOUS
 62
   253
 10
-440.3713770533992
 20
164.1831712768297
 30
0.0
 11
-440.3251715599695
 21
164.0967342454596
 31
0.0
  0
LINE
  5
2F6
  8
0
  6
CONTINUOUS
 62
   253
 10
-408.5731646071389
 20
164.0209704460315
 30
0.0
 11
-408.5109853185846
 21
164.0967342454596
 31
0.0
  0
LINE
  5
2F7
  8
0
  6
CONTINUOUS
 62
     7
 10
-399.418078439277
 20
250.0323424680527
 30
0.0
 11
-399.418078439277
 21
250.0423424680527
 31
0.0
  0
LINE
  5
2F8
  8
0
  6
CONTINUOUS
 62
     7
 10
-401.423078439277
 20
252.0373424680527
 30
0.0
 11
-401.423078439277
 21
250.0423424680527
 31
0.0
  0
ARC
  5
2F9
  8
0
  6
CONTINUOUS
 62
   253
 10
-438.6806430451397
 20
93.02250116815598
 30
0.0
 40
2.01436188870002
 50
178.9599254411403
 51
197.4326531754694
  0
LINE
  5
2FA
  8
0
  6
CONTINUOUS
 62
   253
 10
-408.7353654379372
 20
252.6620992720581
 30
0.0
 11
-408.8291542956405
 21
252.6905554907731
 31
0.0
  0
LINE
  5
2FB
  8
0
  6
CONTINUOUS
 62
     7
 10
-401.423078439277
 20
250.0423424680527
 30
0.0
 11
-403.418078439277
 21
250.0423424680527
 31
0.0
  0
LINE
  5
2FC
  8
0
  6
CONTINUOUS
 62
   253
 10
-440.0190356813685
 20
91.75666324548995
 30
0.0
 11
-439.8955643897087
 21
91.71675865361328
 31
0.0
  0
LINE
  5
2FD
  8
0
  6
CONTINUOUS
 62
     7
 10
-381.2726135570075
 20
91.45878670748705
 30
0.0
 11
-419.8636898609636
 21
91.45878670748705
 31
0.0
  0
LINE
  5
2FE
  8
0
  6
CONTINUOUS
 62
   253
 10
-408.6489284065671
 20
252.6158937786283
 30
0.0
 11
-408.7353654379372
 21
252.6620992720581
 31
0.0
  0
LINE
  5
2FF
  8
0
  6
CONTINUOUS
 62
   253
 10
-440.4447713964402
 20
92.10239234817487
 30
0.0
 11
-440.3552695284252
 21
91.99145810356343
 31
0.0
  0
LINE
  5
300
  8
0
  6
CONTINUOUS
 62
   253
 10
-440.5470713950145
 20
92.2800519691519
 30
0.0
 11
-440.5000737748987
 21
92.18941328020021
 31
0.0
  0
LINE
  5
301
  8
0
  6
CONTINUOUS
 62
   253
 10
-454.9023418366913
 20
91.72699024138537
 30
0.0
 11
-454.7833744647497
 21
91.77118836333068
 31
0.0
  0
LINE
  5
302
  8
0
  6
CONTINUOUS
 62
   253
 10
-439.7725960661915
 20
91.69601291635418
 30
0.0
 11
-439.6907538027304
 21
91.69209686919812
 31
0.0
  0
LINE
  5
303
  8
0
  6
CONTINUOUS
 62
   253
 10
-440.5000737748987
 20
92.18941328020021
 30
0.0
 11
-440.4447713964402
 21
92.10239234817487
 31
0.0
  0
LINE
  5
304
  8
0
  6
CONTINUOUS
 62
   253
 10
-455.0236571764578
 20
91.7007604724592
 30
0.0
 11
-454.9023418366913
 21
91.72699024138537
 31
0.0
  0
LINE
  5
305
  8
0
  6
CONTINUOUS
 62
   253
 10
-454.4521704803136
 20
92.02379516040764
 30
0.0
 11
-454.3636654034025
 21
92.143822241604
 31
0.0
  0
LINE
  5
306
  8
0
  6
CONTINUOUS
 62
   253
 10
-440.1315457011968
 20
91.81178349573457
 30
0.0
 11
-440.0190356813685
 21
91.75666324548995
 31
0.0
  0
LINE
  5
307
  8
0
  6
CONTINUOUS
 62
     7
 10
-454.1301460512965
 20
94.35824531002967
 30
0.0
 11
-454.1414838233196
 21
93.059065318427
 31
0.0
  0
LINE
  5
308
  8
0
  6
CONTINUOUS
 62
     7
 10
-440.6946730552344
 20
93.059065318427
 30
0.0
 11
-440.7060108272576
 21
94.35824531002966
 31
0.0
  0
LINE
  5
309
  8
0
  6
CONTINUOUS
 62
   253
 10
-408.8291542956404
 20
163.8841294453324
 30
0.0
 11
-408.7353654379371
 21
163.9125856640474
 31
0.0
  0
LINE
  5
30A
  8
0
  6
CONTINUOUS
 62
   253
 10
-454.6489284065671
 20
163.9587911574771
 30
0.0
 11
-454.5731646071389
 21
164.0209704460315
 31
0.0
  0
ARC
  5
30B
  8
0
  6
CONTINUOUS
 62
   253
 10
-455.7691568432686
 20
92.9696045940106
 30
0.0
 40
1.630129651617666
 50
329.5640631825617
 51
3.14594507119665
  0
LINE
  5
30C
  8
0
  6
CONTINUOUS
 62
   253
 10
-440.3552695284252
 20
91.99145810356343
 30
0.0
 11
-440.2481278260785
 21
91.89161420377175
 31
0.0
  0
LINE
  5
30D
  8
0
  6
CONTINUOUS
 62
     7
 10
-401.4130784392771
 20
250.0423424680527
 30
0.0
 11
-401.4130784392771
 21
252.0373424680527
 31
0.0
  0
LINE
  5
30E
  8
0
  6
CONTINUOUS
 62
   253
 10
-454.4647798251548
 20
164.1831712768297
 30
0.0
 11
-454.4363236064398
 21
164.276960134533
 31
0.0
  0
LINE
  5
30F
  8
0
  6
CONTINUOUS
 62
   253
 10
-440.3251715599695
 20
164.0967342454596
 30
0.0
 11
-440.2629922714151
 21
164.0209704460315
 31
0.0
  0
LINE
  5
310
  8
0
  6
CONTINUOUS
 62
   253
 10
-454.6691575458469
 20
91.83337397558073
 30
0.0
 11
-454.5549646219123
 21
91.91932793255982
 31
0.0
  0
LINE
  5
311
  8
0
  6
CONTINUOUS
 62
   253
 10
-394.3251715599694
 20
252.4779506906458
 30
0.0
 11
-394.3713770533992
 21
252.3915136592758
 31
0.0
  0
LINE
  5
312
  8
0
  6
CONTINUOUS
 62
   253
 10
-408.8291542956405
 20
252.6905554907731
 30
0.0
 11
-408.9266910748104
 21
252.7001689839346
 31
0.0
  0
LINE
  5
313
  8
0
  6
CONTINUOUS
 62
     7
 10
-401.4130784392771
 20
250.0323424680527
 30
0.0
 11
-399.418078439277
 21
250.0323424680527
 31
0.0
  0
LINE
  5
314
  8
0
  6
CONTINUOUS
 62
     7
 10
-424.0063824743684
 20
117.3495758781434
 30
0.0
 11
-424.0300712777425
 21
117.3535986269566
 31
0.0
  0
LINE
  5
315
  8
0
  6
CONTINUOUS
 62
     7
 10
-423.8923213410698
 20
117.3127377367303
 30
0.0
 11
-423.9143720707721
 21
117.3222827476213
 31
0.0
  0
ARC
  5
316
  8
0
  6
CONTINUOUS
 62
     7
 10
-434.9180784392771
 20
101.4587867074871
 30
0.0
 40
3.000000000000001
 50
180.0
 51
270.0
  0
LINE
  5
317
  8
0
  6
CONTINUOUS
 62
     7
 10
-424.0539259889619
 20
117.3564786731286
 30
0.0
 11
-424.0778915187281
 21
117.3582093655738
 31
0.0
  0
LINE
  5
318
  8
0
  6
CONTINUOUS
 62
   253
 10
-377.7349842524449
 20
113.6534121513882
 30
0.0
 11
-377.7623056521783
 21
113.657388555909
 31
0.0
  0
ARC
  5
319
  8
0
  6
CONTINUOUS
 62
     7
 10
-439.8831328897282
 20
114.6587867074871
 30
0.0
 40
1.000000000000001
 50
180.4999999999989
 51
270.0
  0
LINE
  5
31A
  8
0
  6
CONTINUOUS
 62
     7
 10
-425.3238087423081
 20
114.1423595942263
 30
0.0
 11
-425.3242843944445
 21
114.1278897555511
 31
0.0
  0
LINE
  5
31B
  8
0
  6
CONTINUOUS
 62
   253
 10
-377.3378382138413
 20
113.1836179079153
 30
0.0
 11
-377.3377094849113
 21
113.1864301401186
 31
0.0
  0
LINE
  5
31C
  8
0
  6
CONTINUOUS
 62
     7
 10
-471.4983186647127
 20
113.1836179079152
 30
0.0
 11
-471.5448147554692
 21
114.1187059553526
 31
0.0
  0
ARC
  5
31D
  8
0
  6
CONTINUOUS
 62
     7
 10
-377.7899668889172
 20
114.1587867074871
 30
0.0
 40
0.5000000000000004
 50
269.9999999999992
 51
357.1533830841832
  0
LINE
  5
31E
  8
0
  6
CONTINUOUS
 62
   253
 10
-377.3697134610353
 20
113.3513405532312
 30
0.0
 11
-377.3972038861875
 21
113.4042728066016
 31
0.0
  0
LINE
  5
31F
  8
0
  6
CONTINUOUS
 62
     7
 10
-470.5598415065526
 20
94.30979950491769
 30
0.0
 11
-471.4983186647127
 21
113.1836179079152
 31
0.0
  0
LINE
  5
320
  8
0
  6
CONTINUOUS
 62
   253
 10
-377.5830084506106
 20
113.5906359508168
 30
0.0
 11
-377.6310274501965
 21
113.6175401315155
 31
0.0
  0
LINE
  5
321
  8
0
  6
CONTINUOUS
 62
     7
 10
-440.7060108272576
 20
94.35824531002966
 30
0.0
 11
-440.8830948127924
 21
114.6500601719887
 31
0.0
  0
LINE
  5
322
  8
0
  6
CONTINUOUS
 62
   253
 10
-393.8706435301632
 20
113.1817404229768
 30
0.0
 11
-393.8789700792942
 21
113.1817758791078
 31
0.0
  0
LINE
  5
323
  8
0
  6
CONTINUOUS
 62
   253
 10
-377.7623056521783
 20
113.657388555909
 30
0.0
 11
-377.7899668889172
 21
113.6587867074871
 31
0.0
  0
LINE
  5
324
  8
0
  6
CONTINUOUS
 62
     7
 10
-385.9180784392771
 20
104.4587867074871
 30
0.0
 11
-388.9180784392771
 21
104.4587867074871
 31
0.0
  0
ARC
  5
325
  8
0
  6
CONTINUOUS
 62
     7
 10
-454.9530239888258
 20
114.6587867074871
 30
0.0
 40
1.000000000000001
 50
270.0
 51
359.5000000000011
  0
LINE
  5
326
  8
0
  6
CONTINUOUS
 62
     7
 10
-425.0267064470188
 20
117.2643306949227
 30
0.0
 11
-425.0458518925269
 21
117.2498119542883
 31
0.0
  0
ARC
  5
327
  8
0
  6
CONTINUOUS
 62
     7
 10
-471.0461899896368
 20
114.1587867074871
 30
0.0
 40
0.5000000000000133
 50
182.8466169158164
 51
270.0000000000001
  0
LINE
  5
328
  8
0
  6
CONTINUOUS
 62
     7
 10
-425.3556007314016
 20
113.1752138207479
 30
0.0
 11
-425.9740865550413
 21
94.3602240279223
 31
0.0
  0
ARC
  5
329
  8
0
  6
CONTINUOUS
 62
     7
 10
-423.0126180591544
 20
114.1587867074871
 30
0.0
 40
0.5000000000000004
 50
181.8827473288052
 51
270.0
  0
LINE
  5
32A
  8
0
  6
CONTINUOUS
 62
     7
 10
-429.2179484808141
 20
102.7661880259089
 30
0.0
 11
-429.7318934206225
 21
103.5131953971617
 31
0.0
  0
LINE
  5
32B
  8
0
  6
CONTINUOUS
 62
     7
 10
-377.7899668889172
 20
113.6587867074871
 30
0.0
 11
-380.2919707556334
 21
113.6587867074871
 31
0.0
  0
LINE
  5
32C
  8
0
  6
CONTINUOUS
 62
     7
 10
-424.9217848077819
 20
117.3222827476213
 30
0.0
 11
-424.9438355374842
 21
117.3127377367303
 31
0.0
  0
LINE
  5
32D
  8
0
  6
CONTINUOUS
 62
   253
 10
-377.6310274501965
 20
113.6175401315155
 30
0.0
 11
-377.6817893416626
 21
113.6389630639365
 31
0.0
  0
LINE
  5
32E
  8
0
  6
CONTINUOUS
 62
     7
 10
-394.7060108272576
 20
94.35824531002967
 30
0.0
 11
-394.8830948127924
 21
114.6500601719887
 31
0.0
  0
LINE
  5
32F
  8
0
  6
CONTINUOUS
 62
   253
 10
-377.5267369705318
 20
113.5504386382425
 30
0.0
 11
-377.5830084506106
 21
113.5906359508168
 31
0.0
  0
LINE
  5
330
  8
0
  6
CONTINUOUS
 62
     7
 10
-424.0300712777425
 20
117.3535986269566
 30
0.0
 11
-424.0539259889619
 21
117.3564786731286
 31
0.0
  0
LINE
  5
331
  8
0
  6
CONTINUOUS
 62
     7
 10
-425.2326082121091
 20
116.8992028880815
 30
0.0
 11
-425.2339744338238
 21
116.8752138207479
 31
0.0
  0
LINE
  5
332
  8
0
  6
CONTINUOUS
 62
     7
 10
-423.9143720707721
 20
117.3222827476213
 30
0.0
 11
-423.9368559003257
 21
117.3307573757497
 31
0.0
  0
LINE
  5
333
  8
0
  6
CONTINUOUS
 62
     7
 10
-423.8707546344607
 20
117.3021443860162
 30
0.0
 11
-423.8923213410698
 21
117.3127377367303
 31
0.0
  0
LINE
  5
334
  8
0
  6
CONTINUOUS
 62
     7
 10
-425.2216300110892
 20
116.9703896820311
 30
0.0
 11
-425.2264288655504
 21
116.9468458312591
 31
0.0
  0
LINE
  5
335
  8
0
  6
CONTINUOUS
 62
     7
 10
-425.3242843944445
 20
114.1278897555511
 30
0.0
 11
-425.3556007314016
 21
113.1752138207479
 31
0.0
  0
LINE
  5
336
  8
0
  6
CONTINUOUS
 62
     7
 10
-419.4248070007365
 20
99.81066295025173
 30
0.0
 11
-418.964624778796
 21
99.26523978977558
 31
0.0
  0
ARC
  5
337
  8
0
  6
CONTINUOUS
 62
     7
 10
-408.9530239888258
 20
114.6587867074871
 30
0.0
 40
1.000000000000001
 50
270.0
 51
359.5000000000011
  0
ARC
  5
338
  8
0
  6
CONTINUOUS
 62
     7
 10
-459.918078439277
 20
101.4587867074871
 30
0.0
 40
3.000000000000001
 50
0.0
 51
90.0
  0
ARC
  5
339
  8
0
  6
CONTINUOUS
 62
     7
 10
-416.918078439277
 20
101.4587867074871
 30
0.0
 40
3.000000000000001
 50
90.0
 51
136.7798919477883
  0
LINE
  5
33A
  8
0
  6
CONTINUOUS
 62
     7
 10
-425.0642777216713
 20
117.2343901925973
 30
0.0
 11
-425.0819413824382
 21
117.2181010243674
 31
0.0
  0
LINE
  5
33B
  8
0
  6
CONTINUOUS
 62
     7
 10
-468.5441861229206
 20
113.6587867074871
 30
0.0
 11
-471.0461899896368
 21
113.6587867074871
 31
0.0
  0
LINE
  5
33C
  8
0
  6
CONTINUOUS
 62
   253
 10
-377.3504286078143
 20
113.2969821189144
 30
0.0
 11
-377.3697134610353
 21
113.3513405532312
 31
0.0
  0
LINE
  5
33D
  8
0
  6
CONTINUOUS
 62
     7
 10
-459.918078439277
 20
104.4587867074871
 30
0.0
 11
-462.918078439277
 21
104.4587867074871
 31
0.0
  0
ARC
  5
33E
  8
0
  6
CONTINUOUS
 62
     7
 10
-393.8831328897282
 20
114.6587867074871
 30
0.0
 40
1.000000000000001
 50
180.4999999999989
 51
270.0
  0
LINE
  5
33F
  8
0
  6
CONTINUOUS
 62
     7
 10
-454.9530239888258
 20
113.6587867074871
 30
0.0
 11
-468.5441861229206
 21
113.6587867074871
 31
0.0
  0
LINE
  5
340
  8
0
  6
CONTINUOUS
 62
     7
 10
-453.9530620657616
 20
114.6500601719887
 30
0.0
 11
-454.1301460512965
 21
94.35824531002967
 31
0.0
  0
LINE
  5
341
  8
0
  6
CONTINUOUS
 62
   253
 10
-377.3972038861875
 20
113.4042728066016
 30
0.0
 11
-377.4331105832528
 21
113.4560604950272
 31
0.0
  0
LINE
  5
342
  8
0
  6
CONTINUOUS
 62
     7
 10
-425.0068855990196
 20
117.2779128853906
 30
0.0
 11
-425.0267064470188
 21
117.2643306949227
 31
0.0
  0
LINE
  5
343
  8
0
  6
CONTINUOUS
 62
   253
 10
-377.6817893416626
 20
113.6389630639365
 30
0.0
 11
-377.7349842524449
 21
113.6534121513882
 31
0.0
  0
LINE
  5
344
  8
0
  6
CONTINUOUS
 62
     7
 10
-431.9180784392771
 20
104.4587867074871
 30
0.0
 11
-434.9180784392771
 21
104.4587867074871
 31
0.0
  0
LINE
  5
345
  8
0
  6
CONTINUOUS
 62
     7
 10
-424.7342443567322
 20
117.3587867074871
 30
0.0
 11
-424.7582653598259
 21
117.3582093655738
 31
0.0
  0
LINE
  5
346
  8
0
  6
CONTINUOUS
 62
     7
 10
-425.8235388193996
 20
113.6587867074871
 30
0.0
 11
-439.8831328897282
 21
113.6587867074871
 31
0.0
  0
LINE
  5
347
  8
0
  6
CONTINUOUS
 62
     7
 10
-423.5118500195129
 20
114.1272063588738
 30
0.0
 11
-423.5123481362459
 21
114.1423595942263
 31
0.0
  0
LINE
  5
348
  8
0
  6
CONTINUOUS
 62
     7
 10
-407.9530620657616
 20
114.6500601719887
 30
0.0
 11
-408.1301460512965
 21
94.35824531002966
 31
0.0
  0
ARC
  5
349
  8
0
  6
CONTINUOUS
 62
     7
 10
-388.9180784392771
 20
101.4587867074871
 30
0.0
 40
3.000000000000001
 50
90.0
 51
180.0
  0
LINE
  5
34A
  8
0
  6
CONTINUOUS
 62
     7
 10
-408.9530239888258
 20
113.6587867074871
 30
0.0
 11
-423.0126180591544
 21
113.6587867074871
 31
0.0
  0
LINE
  5
34B
  8
0
  6
CONTINUOUS
 62
     7
 10
-423.4805561471524
 20
113.1752138207479
 30
0.0
 11
-423.5118500195129
 21
114.1272063588738
 31
0.0
  0
LINE
  5
34C
  8
0
  6
CONTINUOUS
 62
   253
 10
-377.4764299238986
 20
113.5050282980822
 30
0.0
 11
-377.5267369705318
 21
113.5504386382425
 31
0.0
  0
ARC
  5
34D
  8
0
  6
CONTINUOUS
 62
     7
 10
-434.9180784392771
 20
101.4587867074871
 30
0.0
 40
3.000000000000001
 50
90.0
 51
180.0
  0
LINE
  5
34E
  8
0
  6
CONTINUOUS
 62
     7
 10
-425.1148208856229
 20
117.1830728552911
 30
0.0
 11
-425.1299607971795
 21
117.1644147473652
 31
0.0
  0
LINE
  5
34F
  8
0
  6
CONTINUOUS
 62
   253
 10
-377.3397481120006
 20
113.2420000078175
 30
0.0
 11
-377.3504286078143
 21
113.2969821189144
 31
0.0
  0
LINE
  5
350
  8
0
  6
CONTINUOUS
 62
     7
 10
-424.8993009782283
 20
117.3307573757497
 30
0.0
 11
-424.9217848077819
 21
117.3222827476213
 31
0.0
  0
LINE
  5
351
  8
0
  6
CONTINUOUS
 62
   253
 10
-395.40940868834
 20
172.8315158233948
 30
0.0
 11
-395.909389649872
 21
172.8087384000377
 31
0.0
  0
LINE
  5
352
  8
0
  6
CONTINUOUS
 62
   253
 10
-408.6068782094703
 20
171.1647751555856
 30
0.0
 11
-408.6249059146892
 21
171.1501093510235
 31
0.0
  0
LINE
  5
353
  8
0
  6
CONTINUOUS
 62
   253
 10
-408.4267101132783
 20
244.7421148108249
 30
0.0
 11
-408.407427760138
 21
244.5472792201281
 31
0.0
  0
LINE
  5
354
  8
0
  6
CONTINUOUS
 62
   253
 10
-408.4566607891849
 20
171.4278353757967
 30
0.0
 11
-408.4602463358331
 21
171.4068236978434
 31
0.0
  0
LINE
  5
355
  8
0
  6
CONTINUOUS
 62
   253
 10
-408.5059204099931
 20
171.2856401943812
 30
0.0
 11
-408.5173901539376
 21
171.266706829261
 31
0.0
  0
LINE
  5
356
  8
0
  6
CONTINUOUS
 62
     7
 10
-425.8235388193996
 20
245.4554024313175
 30
0.0
 11
-425.8553308084932
 21
243.038814157891
 31
0.0
  0
LINE
  5
357
  8
0
  6
CONTINUOUS
 62
   253
 10
-441.909389649872
 20
172.8087384000377
 30
0.0
 11
-452.9267672286821
 21
172.8087384000377
 31
0.0
  0
LINE
  5
358
  8
0
  6
CONTINUOUS
 62
   253
 10
-408.258047083291
 20
244.1872550581176
 30
0.0
 11
-408.133686456852
 21
244.0358949798475
 31
0.0
  0
LINE
  5
359
  8
0
  6
CONTINUOUS
 62
   253
 10
-441.4094086883399
 20
172.8315158233948
 30
0.0
 11
-441.909389649872
 21
172.8087384000377
 31
0.0
  0
LINE
  5
35A
  8
0
  6
CONTINUOUS
 62
   253
 10
-407.4267481902141
 20
243.7431691127107
 30
0.0
 11
-406.926767228682
 21
243.7659465360678
 31
0.0
  0
LINE
  5
35B
  8
0
  6
CONTINUOUS
 62
   253
 10
-408.7703616688212
 20
171.0705133231
 30
0.0
 11
-408.7932979828562
 21
171.0627628730433
 31
0.0
  0
LINE
  5
35C
  8
0
  6
CONTINUOUS
 62
   253
 10
-408.8882893133161
 20
171.0416154639131
 30
0.0
 11
-408.9125657129011
 21
171.0388552014003
 31
0.0
  0
LINE
  5
35D
  8
0
  6
CONTINUOUS
 62
   253
 10
-408.9125657129011
 20
171.0388552014003
 30
0.0
 11
-408.9369385002667
 21
171.0371223615379
 31
0.0
  0
LINE
  5
35E
  8
0
  6
CONTINUOUS
 62
     7
 10
-425.8235388193996
 20
252.1738551083871
 30
0.0
 11
-425.8235388193996
 21
245.4554024313175
 31
0.0
  0
LINE
  5
35F
  8
0
  6
CONTINUOUS
 62
   253
 10
-453.6217819866679
 20
172.812253066209
 30
0.0
 11
-453.8093245539707
 21
172.7553607825547
 31
0.0
  0
LINE
  5
360
  8
0
  6
CONTINUOUS
 62
   253
 10
-408.5896751618193
 20
171.180168391149
 30
0.0
 11
-408.6068782094703
 21
171.1647751555856
 31
0.0
  0
LINE
  5
361
  8
0
  6
CONTINUOUS
 62
   253
 10
-395.0268323245833
 20
172.7553607825548
 30
0.0
 11
-395.2143748918861
 21
172.8122530662091
 31
0.0
  0
LINE
  5
362
  8
0
  6
CONTINUOUS
 62
   253
 10
-454.1336864568519
 20
172.5387899562579
 30
0.0
 11
-454.258047083291
 21
172.3874298779878
 31
0.0
  0
LINE
  5
363
  8
0
  6
CONTINUOUS
 62
   253
 10
-408.8641671375966
 20
171.0453965730281
 30
0.0
 11
-408.8882893133161
 21
171.0416154639131
 31
0.0
  0
LINE
  5
364
  8
0
  6
CONTINUOUS
 62
   253
 10
-408.5173901539376
 20
171.266706829261
 30
0.0
 11
-408.5298977517583
 21
171.2482580531631
 31
0.0
  0
LINE
  5
365
  8
0
  6
CONTINUOUS
 62
   253
 10
-394.8539844781997
 20
172.6630241995134
 30
0.0
 11
-395.0268323245833
 21
172.7553607825548
 31
0.0
  0
LINE
  5
366
  8
0
  6
CONTINUOUS
 62
   253
 10
-454.133686456852
 20
244.0358949798474
 30
0.0
 11
-453.9821724003544
 21
243.911660736592
 31
0.0
  0
LINE
  5
367
  8
0
  6
CONTINUOUS
 62
   253
 10
-453.9821724003544
 20
243.911660736592
 30
0.0
 11
-453.8093245539707
 21
243.8193241535506
 31
0.0
  0
LINE
  5
368
  8
0
  6
CONTINUOUS
 62
   253
 10
-408.7932979828562
 20
171.0627628730433
 30
0.0
 11
-408.8166148280649
 21
171.0559828880095
 31
0.0
  0
LINE
  5
369
  8
0
  6
CONTINUOUS
 62
   253
 10
-408.7478605294251
 20
171.0792157735106
 30
0.0
 11
-408.7703616688212
 21
171.0705133231
 31
0.0
  0
LINE
  5
36A
  8
0
  6
CONTINUOUS
 62
     7
 10
-425.8235388193996
 20
171.119282504788
 30
0.0
 11
-425.8235388193996
 21
164.4008298277183
 31
0.0
  0
LINE
  5
36B
  8
0
  6
CONTINUOUS
 62
   253
 10
-440.702470421702
 20
172.538789956258
 30
0.0
 11
-440.8539844781996
 21
172.6630241995134
 31
0.0
  0
LINE
  5
36C
  8
0
  6
CONTINUOUS
 62
   253
 10
-394.4094467652757
 20
171.8325701252805
 30
0.0
 11
-394.428729118416
 21
172.0274057159773
 31
0.0
  0
LINE
  5
36D
  8
0
  6
CONTINUOUS
 62
   253
 10
-453.4267481902141
 20
243.7431691127107
 30
0.0
 11
-452.9267672286821
 21
243.7659465360678
 31
0.0
  0
LINE
  5
36E
  8
0
  6
CONTINUOUS
 62
   253
 10
-406.926767228682
 20
243.7659465360678
 30
0.0
 11
-395.909389649872
 21
243.7659465360678
 31
0.0
  0
LINE
  5
36F
  8
0
  6
CONTINUOUS
 62
   253
 10
-408.8402566544042
 20
171.0501895206324
 30
0.0
 11
-408.8641671375966
 21
171.0453965730281
 31
0.0
  0
LINE
  5
370
  8
0
  6
CONTINUOUS
 62
   253
 10
-408.4862012481036
 20
171.3247792172998
 30
0.0
 11
-408.4955158454383
 21
171.3050130416821
 31
0.0
  0
LINE
  5
371
  8
0
  6
CONTINUOUS
 62
     7
 10
-425.8072462624571
 20
252.6738360699192
 30
0.0
 11
-425.8235388193996
 21
252.1738551083871
 31
0.0
  0
LINE
  5
372
  8
0
  6
CONTINUOUS
 62
   253
 10
-408.133686456852
 20
244.0358949798475
 30
0.0
 11
-407.9821724003544
 21
243.9116607365921
 31
0.0
  0
LINE
  5
373
  8
0
  6
CONTINUOUS
 62
   253
 10
-454.4074277601379
 20
172.0274057159773
 30
0.0
 11
-454.4267101132782
 21
171.8325701252806
 31
0.0
  0
LINE
  5
374
  8
0
  6
CONTINUOUS
 62
   253
 10
-440.4094467652757
 20
171.8325701252805
 30
0.0
 11
-440.428729118416
 21
172.0274057159773
 31
0.0
  0
LINE
  5
375
  8
0
  6
CONTINUOUS
 62
   253
 10
-408.4955158454383
 20
171.3050130416821
 30
0.0
 11
-408.5059204099931
 21
171.2856401943812
 31
0.0
  0
LINE
  5
376
  8
0
  6
CONTINUOUS
 62
   253
 10
-408.5298977517583
 20
171.2482580531631
 30
0.0
 11
-408.543413405359
 21
171.2303378184443
 31
0.0
  0
LINE
  5
377
  8
0
  6
CONTINUOUS
 62
   253
 10
-408.4542577780275
 20
171.4489477701866
 30
0.0
 11
-408.4566607891849
 21
171.4278353757967
 31
0.0
  0
LINE
  5
378
  8
0
  6
CONTINUOUS
 62
   253
 10
-394.7024704217021
 20
172.538789956258
 30
0.0
 11
-394.8539844781997
 21
172.6630241995134
 31
0.0
  0
LINE
  5
379
  8
0
  6
CONTINUOUS
 62
   253
 10
-408.4709280698611
 20
171.3653023648942
 30
0.0
 11
-408.477998809082
 21
171.3448916303054
 31
0.0
  0
LINE
  5
37A
  8
0
  6
CONTINUOUS
 62
   253
 10
-408.8166148280649
 20
171.0559828880095
 30
0.0
 11
-408.8402566544042
 21
171.0501895206324
 31
0.0
  0
LINE
  5
37B
  8
0
  6
CONTINUOUS
 62
   253
 10
-408.4602463358331
 20
171.4068236978434
 30
0.0
 11
-408.4650058757672
 21
171.3859627945399
 31
0.0
  0
LINE
  5
37C
  8
0
  6
CONTINUOUS
 62
   253
 10
-408.543413405359
 20
171.2303378184443
 30
0.0
 11
-408.5579049150521
 21
171.2129888182646
 31
0.0
  0
LINE
  5
37D
  8
0
  6
CONTINUOUS
 62
   253
 10
-408.4650058757672
 20
171.3859627945399
 30
0.0
 11
-408.4709280698611
 21
171.3653023648942
 31
0.0
  0
LINE
  5
37E
  8
0
  6
CONTINUOUS
 62
   253
 10
-408.6632616386983
 20
171.1230979778594
 30
0.0
 11
-408.6834982788267
 21
171.1108167611422
 31
0.0
  0
LINE
  5
37F
  8
0
  6
CONTINUOUS
 62
   253
 10
-408.6834982788267
 20
171.1108167611422
 30
0.0
 11
-408.7043770369002
 21
171.099391525884
 31
0.0
  0
LINE
  5
380
  8
0
  6
CONTINUOUS
 62
     7
 10
-425.8235388193996
 20
164.4008298277183
 30
0.0
 11
-425.8072462624571
 21
163.9008488661862
 31
0.0
  0
LINE
  5
381
  8
0
  6
CONTINUOUS
 62
   253
 10
-408.5579049150521
 20
171.2129888182646
 30
0.0
 11
-408.5733377562705
 21
171.1962523848755
 31
0.0
  0
LINE
  5
382
  8
0
  6
CONTINUOUS
 62
   253
 10
-408.6249059146892
 20
171.1501093510235
 30
0.0
 11
-408.6437153282783
 21
171.1362059172698
 31
0.0
  0
LINE
  5
383
  8
0
  6
CONTINUOUS
 62
   253
 10
-408.7043770369002
 20
171.099391525884
 30
0.0
 11
-408.7258481713738
 21
171.0888494915606
 31
0.0
  0
LINE
  5
384
  8
0
  6
CONTINUOUS
 62
   253
 10
-407.9821724003544
 20
243.9116607365921
 30
0.0
 11
-407.8093245539708
 21
243.8193241535507
 31
0.0
  0
LINE
  5
385
  8
0
  6
CONTINUOUS
 62
   253
 10
-440.5781097952629
 20
172.3874298779879
 30
0.0
 11
-440.702470421702
 21
172.538789956258
 31
0.0
  0
LINE
  5
386
  8
0
  6
CONTINUOUS
 62
   253
 10
-453.8093245539707
 20
243.8193241535506
 30
0.0
 11
-453.6217819866679
 21
243.7624318698964
 31
0.0
  0
LINE
  5
387
  8
0
  6
CONTINUOUS
 62
     7
 10
-423.0126180591545
 20
252.1738551083871
 30
0.0
 11
-423.0289106160969
 21
252.6738360699192
 31
0.0
  0
LINE
  5
388
  8
0
  6
CONTINUOUS
 62
   253
 10
-395.909389649872
 20
172.8087384000377
 30
0.0
 11
-406.926767228682
 21
172.8087384000377
 31
0.0
  0
LINE
  5
389
  8
0
  6
CONTINUOUS
 62
   253
 10
-408.7258481713738
 20
171.0888494915606
 30
0.0
 11
-408.7478605294251
 21
171.0792157735106
 31
0.0
  0
LINE
  5
38A
  8
0
  6
CONTINUOUS
 62
   253
 10
-454.4267101132783
 20
244.7421148108249
 30
0.0
 11
-454.407427760138
 21
244.5472792201281
 31
0.0
  0
LINE
  5
38B
  8
0
  6
CONTINUOUS
 62
   253
 10
-454.3504776001064
 20
172.2147576905868
 30
0.0
 11
-454.4074277601379
 21
172.0274057159773
 31
0.0
  0
LINE
  5
38C
  8
0
  6
CONTINUOUS
 62
   253
 10
-408.6437153282783
 20
171.1362059172698
 30
0.0
 11
-408.6632616386983
 21
171.1230979778594
 31
0.0
  0
LINE
  5
38D
  8
0
  6
CONTINUOUS
 62
   253
 10
-408.477998809082
 20
171.3448916303054
 30
0.0
 11
-408.4862012481036
 21
171.3247792172998
 31
0.0
  0
LINE
  5
38E
  8
0
  6
CONTINUOUS
 62
   253
 10
-408.4530430272937
 20
171.4701105828531
 30
0.0
 11
-408.4542577780275
 21
171.4489477701866
 31
0.0
  0
LINE
  5
38F
  8
0
  6
CONTINUOUS
 62
   253
 10
-407.621781986668
 20
243.7624318698964
 30
0.0
 11
-407.4267481902141
 21
243.7431691127107
 31
0.0
  0
LINE
  5
390
  8
0
  6
CONTINUOUS
 62
   253
 10
-408.407427760138
 20
244.5472792201281
 30
0.0
 11
-408.3504776001065
 21
244.3599272455186
 31
0.0
  0
LINE
  5
391
  8
0
  6
CONTINUOUS
 62
     7
 10
-343.5246860475514
 20
266.7873424680527
 30
0.0
 11
-343.5246860475514
 21
259.7873424680527
 31
0.0
  0
LINE
  5
392
  8
0
  6
CONTINUOUS
 62
     7
 10
-424.8532425935583
 20
117.3444197166949
 30
0.0
 11
-424.876435972252
 21
117.3381420500836
 31
0.0
  0
LINE
  5
393
  8
0
  6
CONTINUOUS
 62
     7
 10
-425.0458518925269
 20
117.2498119542883
 30
0.0
 11
-425.0642777216713
 21
117.2343901925973
 31
0.0
  0
LINE
  5
394
  8
0
  6
CONTINUOUS
 62
     7
 10
-423.7213359929311
 20
117.1830728552911
 30
0.0
 11
-423.7373547956132
 21
117.2009820672767
 31
0.0
  0
LINE
  5
395
  8
0
  6
CONTINUOUS
 62
   253
 10
-408.5733377562705
 20
171.1962523848755
 30
0.0
 11
-408.5896751618193
 21
171.180168391149
 31
0.0
  0
LINE
  5
396
  8
0
  6
CONTINUOUS
 62
     7
 10
-480.918078439277
 20
127.6587867074871
 30
0.0
 11
-480.918078439277
 21
128.1587867074871
 31
0.0
  0
LINE
  5
397
  8
0
  6
CONTINUOUS
 62
     7
 10
-343.5246860475514
 20
160.2873424680527
 30
0.0
 11
-343.5246860475514
 21
156.7873424680527
 31
0.0
  0
ARC
  5
398
  8
0
  6
CONTINUOUS
 62
     7
 10
-395.909389649872
 20
117.6587867074871
 30
0.0
 40
1.000000000000001
 50
0.5000000000004787
 51
90.0
  0
LINE
  5
399
  8
0
  6
CONTINUOUS
 62
     7
 10
-423.6274875527475
 20
117.016650410468
 30
0.0
 11
-423.6356194525816
 21
117.0392604551031
 31
0.0
  0
LINE
  5
39A
  8
0
  6
CONTINUOUS
 62
     7
 10
-423.6356194525816
 20
117.0392604551031
 30
0.0
 11
-423.6448281945467
 21
117.0614537195032
 31
0.0
  0
LINE
  5
39B
  8
0
  6
CONTINUOUS
 62
     7
 10
-343.5246860475514
 20
253.2873424680527
 30
0.0
 11
-330.0203227798023
 21
253.1694916752167
 31
0.0
  0
LINE
  5
39C
  8
0
  6
CONTINUOUS
 62
     7
 10
-343.5246860475514
 20
156.7873424680527
 30
0.0
 11
-343.5246860475514
 21
149.7873424680527
 31
0.0
  0
LINE
  5
39D
  8
0
  6
CONTINUOUS
 62
     7
 10
-310.1869637546129
 20
171.4036931412627
 30
0.0
 11
-329.0476397630412
 21
170.5369341335224
 31
0.0
  0
LINE
  5
39E
  8
0
  6
CONTINUOUS
 62
     7
 10
-423.6919700245654
 20
117.1450508319302
 30
0.0
 11
-423.7061960813746
 21
117.1644147473652
 31
0.0
  0
LINE
  5
39F
  8
0
  6
CONTINUOUS
 62
     7
 10
-407.9267291517462
 20
117.6675132429854
 30
0.0
 11
-407.9530620657616
 21
114.6500601719887
 31
0.0
  0
LINE
  5
3A0
  8
0
  6
CONTINUOUS
 62
     7
 10
-343.5246860475514
 20
259.7873424680527
 30
0.0
 11
-343.5246860475514
 21
256.2873424680527
 31
0.0
  0
LINE
  5
3A1
  8
0
  6
CONTINUOUS
 62
     7
 10
-423.7542154961158
 20
117.2181010243674
 30
0.0
 11
-423.7718791568827
 21
117.2343901925973
 31
0.0
  0
LINE
  5
3A2
  8
0
  6
CONTINUOUS
 62
     7
 10
-329.5246860475514
 20
250.1704990107364
 30
0.0
 11
-329.5246860475514
 21
245.4396265857355
 31
0.0
  0
LINE
  5
3A3
  8
0
  6
CONTINUOUS
 62
     7
 10
-471.5455730204712
 20
114.1339555070588
 30
0.0
 11
-472.218078439277
 21
127.6587867074871
 31
0.0
  0
LINE
  5
3A4
  8
0
  6
CONTINUOUS
 62
     7
 10
-424.0778915187281
 20
117.3582093655738
 30
0.0
 11
-424.1019125218218
 21
117.3587867074871
 31
0.0
  0
LINE
  5
3A5
  8
0
  6
CONTINUOUS
 62
     7
 10
-344.0246860475514
 20
266.7873424680527
 30
0.0
 11
-343.5246860475514
 21
266.7873424680527
 31
0.0
  0
ARC
  5
3A6
  8
0
  6
CONTINUOUS
 62
     7
 10
-329.0246860475514
 20
246.5372236516401
 30
0.0
 40
0.5000000000000004
 50
180.0
 51
267.3687731891123
  0
LINE
  5
3A7
  8
0
  6
CONTINUOUS
 62
     7
 10
-424.7822308895921
 20
117.3564786731286
 30
0.0
 11
-424.8060856008115
 21
117.3535986269566
 31
0.0
  0
LINE
  5
3A8
  8
0
  6
CONTINUOUS
 62
     7
 10
-424.9654022440933
 20
117.3021443860162
 30
0.0
 11
-424.9864351221545
 21
117.2905271594206
 31
0.0
  0
ARC
  5
3A9
  8
0
  6
CONTINUOUS
 62
     7
 10
-441.909389649872
 20
117.6587867074871
 30
0.0
 40
1.000000000000001
 50
0.5000000000004787
 51
90.0
  0
ARC
  5
3AA
  8
0
  6
CONTINUOUS
 62
     7
 10
-406.926767228682
 20
117.6587867074871
 30
0.0
 40
1.000000000000001
 50
90.0
 51
179.4999999999994
  0
ARC
  5
3AB
  8
0
  6
CONTINUOUS
 62
     7
 10
-452.926767228682
 20
117.6587867074871
 30
0.0
 40
1.000000000000001
 50
90.0
 51
179.4999999999994
  0
LINE
  5
3AC
  8
0
  6
CONTINUOUS
 62
     7
 10
-329.0476397630412
 20
246.037750802583
 30
0.0
 11
-310.1869637546129
 21
245.1709917948427
 31
0.0
  0
LINE
  5
3AD
  8
0
  6
CONTINUOUS
 62
     7
 10
-423.6021824447303
 20
116.8752138207479
 30
0.0
 11
-423.6035486664449
 21
116.8992028880815
 31
0.0
  0
LINE
  5
3AE
  8
0
  6
CONTINUOUS
 62
     7
 10
-424.1019125218218
 20
117.3587867074871
 30
0.0
 11
-424.7342443567322
 21
117.3587867074871
 31
0.0
  0
LINE
  5
3AF
  8
0
  6
CONTINUOUS
 62
     7
 10
-423.6145268674648
 20
116.9703896820311
 30
0.0
 11
-423.6204512745908
 21
116.9936758005036
 31
0.0
  0
LINE
  5
3B0
  8
0
  6
CONTINUOUS
 62
     7
 10
-367.9180784392771
 20
127.6587867074871
 30
0.0
 11
-374.9180784392771
 21
127.6587867074871
 31
0.0
  0
LINE
  5
3B1
  8
0
  6
CONTINUOUS
 62
     7
 10
-423.6097280130037
 20
116.9468458312591
 30
0.0
 11
-423.6145268674648
 21
116.9703896820311
 31
0.0
  0
LINE
  5
3B2
  8
0
  6
CONTINUOUS
 62
     7
 10
-374.9180784392771
 20
127.6587867074871
 30
0.0
 11
-473.918078439277
 21
127.6587867074871
 31
0.0
  0
LINE
  5
3B3
  8
0
  6
CONTINUOUS
 62
     7
 10
-307.3246860475514
 20
242.1741547005001
 30
0.0
 11
-307.3246860475514
 21
174.4005302356053
 31
0.0
  0
LINE
  5
3B4
  8
0
  6
CONTINUOUS
 62
     7
 10
-329.5246860475514
 20
171.1350583503699
 30
0.0
 11
-329.5246860475514
 21
166.4041859253691
 31
0.0
  0
LINE
  5
3B5
  8
0
  6
CONTINUOUS
 62
     7
 10
-423.6204512745908
 20
116.9936758005036
 30
0.0
 11
-423.6274875527475
 21
117.016650410468
 31
0.0
  0
ARC
  5
3B6
  8
0
  6
CONTINUOUS
 62
     7
 10
-329.0246860475514
 20
170.0374612844653
 30
0.0
 40
0.5000000000000052
 50
92.63122681088768
 51
180.0
  0
LINE
  5
3B7
  8
0
  6
CONTINUOUS
 62
     7
 10
-330.0203227798023
 20
163.4051932608888
 30
0.0
 11
-343.5246860475514
 21
163.2873424680527
 31
0.0
  0
LINE
  5
3B8
  8
0
  6
CONTINUOUS
 62
     7
 10
-441.909389649872
 20
118.6587867074871
 30
0.0
 11
-452.926767228682
 21
118.6587867074871
 31
0.0
  0
LINE
  5
3B9
  8
0
  6
CONTINUOUS
 62
     7
 10
-374.9180784392771
 20
128.1587867074871
 30
0.0
 11
-367.9180784392771
 21
128.1587867074871
 31
0.0
  0
LINE
  5
3BA
  8
0
  6
CONTINUOUS
 62
     7
 10
-423.6060657935266
 20
116.9230986195951
 30
0.0
 11
-423.6097280130037
 21
116.9468458312591
 31
0.0
  0
LINE
  5
3BB
  8
0
  6
CONTINUOUS
 62
     7
 10
-423.6448281945467
 20
117.0614537195032
 30
0.0
 11
-423.6550925122721
 21
117.0831789512613
 31
0.0
  0
LINE
  5
3BC
  8
0
  6
CONTINUOUS
 62
     7
 10
-367.9180784392771
 20
128.1587867074871
 30
0.0
 11
-367.9180784392771
 21
127.6587867074871
 31
0.0
  0
LINE
  5
3BD
  8
0
  6
CONTINUOUS
 62
     7
 10
-480.918078439277
 20
128.1587867074871
 30
0.0
 11
-473.918078439277
 21
128.1587867074871
 31
0.0
  0
LINE
  5
3BE
  8
0
  6
CONTINUOUS
 62
     7
 10
-440.8830948127924
 20
114.6500601719887
 30
0.0
 11
-440.9094277268078
 21
117.6675132429854
 31
0.0
  0
LINE
  5
3BF
  8
0
  6
CONTINUOUS
 62
     7
 10
-374.9180784392771
 20
128.1587867074871
 30
0.0
 11
-473.918078439277
 21
128.1587867074871
 31
0.0
  0
LINE
  5
3C0
  8
0
  6
CONTINUOUS
 62
     7
 10
-395.909389649872
 20
118.6587867074871
 30
0.0
 11
-406.926767228682
 21
118.6587867074871
 31
0.0
  0
LINE
  5
3C1
  8
0
  6
CONTINUOUS
 62
     7
 10
-423.6035486664449
 20
116.8992028880815
 30
0.0
 11
-423.6060657935266
 21
116.9230986195951
 31
0.0
  0
ARC
  5
3C2
  8
0
  6
CONTINUOUS
 62
     7
 10
-310.3246860475514
 20
174.4005302356053
 30
0.0
 40
2.999999999999998
 50
272.6312268108879
 51
0.0000000000001137
  0
ARC
  5
3C3
  8
0
  6
CONTINUOUS
 62
     7
 10
-330.0246860475514
 20
252.6695107136846
 30
0.0
 40
0.5000000000000013
 50
0.0
 51
89.49999999999989
  0
LINE
  5
3C4
  8
0
  6
CONTINUOUS
 62
     7
 10
-473.918078439277
 20
127.6587867074871
 30
0.0
 11
-480.918078439277
 21
127.6587867074871
 31
0.0
  0
LINE
  5
3C5
  8
0
  6
CONTINUOUS
 62
     7
 10
-343.5246860475514
 20
149.7873424680527
 30
0.0
 11
-344.0246860475514
 21
149.7873424680527
 31
0.0
  0
LINE
  5
3C6
  8
0
  6
CONTINUOUS
 62
     7
 10
-344.0246860475514
 20
259.7873424680527
 30
0.0
 11
-344.0246860475514
 21
266.7873424680527
 31
0.0
  0
ARC
  5
3C7
  8
0
  6
CONTINUOUS
 62
     7
 10
-330.0246860475514
 20
163.9051742224208
 30
0.0
 40
0.5000000000000004
 50
270.5000000000002
 51
359.9999999999976
  0
LINE
  5
3C8
  8
0
  6
CONTINUOUS
 62
     7
 10
-344.0246860475514
 20
259.7873424680527
 30
0.0
 11
-344.0246860475514
 21
156.7873424680527
 31
0.0
  0
LINE
  5
3C9
  8
0
  6
CONTINUOUS
 62
     7
 10
-329.5246860475514
 20
252.6695107136846
 30
0.0
 11
-329.5246860475514
 21
250.1704990107364
 31
0.0
  0
LINE
  5
3CA
  8
0
  6
CONTINUOUS
 62
     7
 10
-343.5246860475514
 20
256.2873424680527
 30
0.0
 11
-343.5246860475514
 21
160.2873424680527
 31
0.0
  0
LINE
  5
3CB
  8
0
  6
CONTINUOUS
 62
     7
 10
-329.5246860475514
 20
166.4041859253691
 30
0.0
 11
-329.5246860475514
 21
163.9051742224208
 31
0.0
  0
LINE
  5
3CC
  8
0
  6
CONTINUOUS
 62
     7
 10
-344.0246860475514
 20
149.7873424680527
 30
0.0
 11
-344.0246860475514
 21
156.7873424680527
 31
0.0
  0
LINE
  5
3CD
  8
0
  6
CONTINUOUS
 62
     7
 10
-376.618078439277
 20
127.6587867074871
 30
0.0
 11
-377.2905838580828
 21
114.1339555070588
 31
0.0
  0
ARC
  5
3CE
  8
0
  6
CONTINUOUS
 62
     7
 10
-310.3246860475514
 20
242.1741547005001
 30
0.0
 40
3.000000000000003
 50
359.9999999999998
 51
87.36877318911206
  0
LINE
  5
3CF
  8
0
  6
CONTINUOUS
 62
     7
 10
-453.9267291517462
 20
117.6675132429854
 30
0.0
 11
-453.9530620657616
 21
114.6500601719887
 31
0.0
  0
LINE
  5
3D0
  8
0
  6
CONTINUOUS
 62
     7
 10
-423.8094504315352
 20
117.2643306949227
 30
0.0
 11
-423.8292712795345
 21
117.2779128853906
 31
0.0
  0
LINE
  5
3D1
  8
0
  6
CONTINUOUS
 62
     7
 10
-425.0819413824382
 20
117.2181010243674
 30
0.0
 11
-425.0988020829409
 21
117.2009820672767
 31
0.0
  0
LINE
  5
3D2
  8
0
  6
CONTINUOUS
 62
     7
 10
-425.2264288655504
 20
116.9468458312591
 30
0.0
 11
-425.2300910850274
 21
116.9230986195951
 31
0.0
  0
LINE
  5
3D3
  8
0
  6
CONTINUOUS
 62
     7
 10
-423.6663887016744
 20
117.1043859788301
 30
0.0
 11
-423.678690675699
 21
117.1250258273859
 31
0.0
  0
LINE
  5
3D4
  8
0
  6
CONTINUOUS
 62
     7
 10
-423.9368559003257
 20
117.3307573757497
 30
0.0
 11
-423.959720906302
 21
117.3381420500836
 31
0.0
  0
LINE
  5
3D5
  8
0
  6
CONTINUOUS
 62
     7
 10
-424.8060856008115
 20
117.3535986269566
 30
0.0
 11
-424.8297744041857
 21
117.3495758781434
 31
0.0
  0
LINE
  5
3D6
  8
0
  6
CONTINUOUS
 62
     7
 10
-424.9438355374842
 20
117.3127377367303
 30
0.0
 11
-424.9654022440933
 21
117.3021443860162
 31
0.0
  0
LINE
  5
3D7
  8
0
  6
CONTINUOUS
 62
     7
 10
-425.1299607971795
 20
117.1644147473652
 30
0.0
 11
-425.1441868539886
 21
117.1450508319302
 31
0.0
  0
LINE
  5
3D8
  8
0
  6
CONTINUOUS
 62
     7
 10
-423.959720906302
 20
117.3381420500836
 30
0.0
 11
-423.9829142849957
 21
117.3444197166949
 31
0.0
  0
LINE
  5
3D9
  8
0
  6
CONTINUOUS
 62
     7
 10
-423.7903049860271
 20
117.2498119542883
 30
0.0
 11
-423.8094504315352
 21
117.2643306949227
 31
0.0
  0
LINE
  5
3DA
  8
0
  6
CONTINUOUS
 62
     7
 10
-425.2300910850274
 20
116.9230986195951
 30
0.0
 11
-425.2326082121091
 21
116.8992028880815
 31
0.0
  0
LINE
  5
3DB
  8
0
  6
CONTINUOUS
 62
     7
 10
-424.7582653598259
 20
117.3582093655738
 30
0.0
 11
-424.7822308895921
 21
117.3564786731286
 31
0.0
  0
LINE
  5
3DC
  8
0
  6
CONTINUOUS
 62
     7
 10
-425.2339744338238
 20
116.8752138207479
 30
0.0
 11
-425.3238087423081
 21
114.1423595942263
 31
0.0
  0
LINE
  5
3DD
  8
0
  6
CONTINUOUS
 62
     7
 10
-423.7718791568827
 20
117.2343901925973
 30
0.0
 11
-423.7903049860271
 21
117.2498119542883
 31
0.0
  0
LINE
  5
3DE
  8
0
  6
CONTINUOUS
 62
     7
 10
-394.8830948127924
 20
114.6500601719887
 30
0.0
 11
-394.9094277268078
 21
117.6675132429854
 31
0.0
  0
LINE
  5
3DF
  8
0
  6
CONTINUOUS
 62
     7
 10
-423.9829142849957
 20
117.3444197166949
 30
0.0
 11
-424.0063824743684
 21
117.3495758781434
 31
0.0
  0
LINE
  5
3E0
  8
0
  6
CONTINUOUS
 62
     7
 10
-425.1441868539886
 20
117.1450508319302
 30
0.0
 11
-425.1574662028549
 21
117.1250258273859
 31
0.0
  0
LINE
  5
3E1
  8
0
  6
CONTINUOUS
 62
     7
 10
-425.1913286840073
 20
117.0614537195032
 30
0.0
 11
-425.2005374259725
 21
117.0392604551031
 31
0.0
  0
LINE
  5
3E2
  8
0
  6
CONTINUOUS
 62
     7
 10
-425.1810643662819
 20
117.0831789512613
 30
0.0
 11
-425.1913286840073
 21
117.0614537195032
 31
0.0
  0
LINE
  5
3E3
  8
0
  6
CONTINUOUS
 62
     7
 10
-424.876435972252
 20
117.3381420500836
 30
0.0
 11
-424.8993009782283
 21
117.3307573757497
 31
0.0
  0
LINE
  5
3E4
  8
0
  6
CONTINUOUS
 62
     7
 10
-425.2005374259725
 20
117.0392604551031
 30
0.0
 11
-425.2086693258066
 21
117.016650410468
 31
0.0
  0
LINE
  5
3E5
  8
0
  6
CONTINUOUS
 62
     7
 10
-425.1697681768797
 20
117.1043859788301
 30
0.0
 11
-425.1810643662819
 21
117.0831789512613
 31
0.0
  0
LINE
  5
3E6
  8
0
  6
CONTINUOUS
 62
     7
 10
-423.5123481362459
 20
114.1423595942263
 30
0.0
 11
-423.6021824447303
 21
116.8752138207479
 31
0.0
  0
LINE
  5
3E7
  8
0
  6
CONTINUOUS
 62
     7
 10
-425.1574662028549
 20
117.1250258273859
 30
0.0
 11
-425.1697681768797
 21
117.1043859788301
 31
0.0
  0
LINE
  5
3E8
  8
0
  6
CONTINUOUS
 62
     7
 10
-425.2157056039632
 20
116.9936758005036
 30
0.0
 11
-425.2216300110892
 21
116.9703896820311
 31
0.0
  0
LINE
  5
3E9
  8
0
  6
CONTINUOUS
 62
     7
 10
-423.8292712795345
 20
117.2779128853906
 30
0.0
 11
-423.8497217563995
 21
117.2905271594206
 31
0.0
  0
LINE
  5
3EA
  8
0
  6
CONTINUOUS
 62
     7
 10
-424.9864351221545
 20
117.2905271594206
 30
0.0
 11
-425.0068855990196
 21
117.2779128853906
 31
0.0
  0
LINE
  5
3EB
  8
0
  6
CONTINUOUS
 62
     7
 10
-423.6550925122721
 20
117.0831789512613
 30
0.0
 11
-423.6663887016744
 21
117.1043859788301
 31
0.0
  0
LINE
  5
3EC
  8
0
  6
CONTINUOUS
 62
     7
 10
-423.7061960813746
 20
117.1644147473652
 30
0.0
 11
-423.7213359929311
 21
117.1830728552911
 31
0.0
  0
LINE
  5
3ED
  8
0
  6
CONTINUOUS
 62
     7
 10
-423.7373547956132
 20
117.2009820672767
 30
0.0
 11
-423.7542154961158
 21
117.2181010243674
 31
0.0
  0
LINE
  5
3EE
  8
0
  6
CONTINUOUS
 62
     7
 10
-425.0988020829409
 20
117.2009820672767
 30
0.0
 11
-425.1148208856229
 21
117.1830728552911
 31
0.0
  0
LINE
  5
3EF
  8
0
  6
CONTINUOUS
 62
     7
 10
-424.8297744041857
 20
117.3495758781434
 30
0.0
 11
-424.8532425935583
 21
117.3444197166949
 31
0.0
  0
LINE
  5
3F0
  8
0
  6
CONTINUOUS
 62
     7
 10
-423.678690675699
 20
117.1250258273859
 30
0.0
 11
-423.6919700245654
 21
117.1450508319302
 31
0.0
  0
LINE
  5
3F1
  8
0
  6
CONTINUOUS
 62
     7
 10
-423.8497217563995
 20
117.2905271594206
 30
0.0
 11
-423.8707546344607
 21
117.3021443860162
 31
0.0
  0
LINE
  5
3F2
  8
0
  6
CONTINUOUS
 62
     7
 10
-425.2086693258066
 20
117.016650410468
 30
0.0
 11
-425.2157056039632
 21
116.9936758005036
 31
0.0
  0
TEXT
  5
3F3
  8
0
  6
CONTINUOUS
 62
     7
 10
-344.25664290095
 20
93.92756692722492
 30
0.0
 40
5.0
  1
SB-2UADM
  0
ENDSEC
  0
EOF
