  0
SECTION
  2
HEADER
  9
$ACADVER
  1
AC1004
  9
$INSBASE
 10
0.0
 20
0.0
  9
$EXTMIN
 10
340.5
 20
-60.32954545454545
  9
$EXTMAX
 10
619.25
 20
276.5
  9
$LIMMIN
 10
0.0
 20
0.0
  9
$LIMMAX
 10
12.0
 20
9.0
  9
$ORTHOMODE
 70
     0
  9
$REGENMODE
 70
     1
  9
$FILLMODE
 70
     1
  9
$QTEXTMODE
 70
     0
  9
$DRAGMODE
 70
     2
  9
$LTSCALE
 40
1.0
  9
$OSMODE
 70
    37
  9
$ATTMODE
 70
     1
  9
$TEXTSIZE
 40
0.2
  9
$TRACEWID
 40
0.05
  9
$TEXTSTYLE
  7
STANDARD
  9
$CLAYER
  8
0
  9
$CELTYPE
  6
BYLAYER
  9
$CECOLOR
 62
   256
  9
$DIMSCALE
 40
1.0
  9
$DIMASZ
 40
3.0
  9
$DIMEXO
 40
0.0625
  9
$DIMDLI
 40
0.38
  9
$DIMRND
 40
0.0
  9
$DIMDLE
 40
0.0
  9
$DIMEXE
 40
1.5
  9
$DIMTP
 40
0.0
  9
$DIMTM
 40
0.0
  9
$DIMTXT
 40
3.0
  9
$DIMCEN
 40
0.09
  9
$DIMTSZ
 40
0.0
  9
$DIMTOL
 70
     0
  9
$DIMLIM
 70
     0
  9
$DIMTIH
 70
     1
  9
$DIMTOH
 70
     1
  9
$DIMSE1
 70
     0
  9
$DIMSE2
 70
     0
  9
$DIMTAD
 70
     1
  9
$DIMZIN
 70
     0
  9
$DIMBLK
  1

  9
$DIMASO
 70
     1
  9
$DIMSHO
 70
     1
  9
$DIMPOST
  1

  9
$DIMAPOST
  1

  9
$DIMALT
 70
     0
  9
$DIMALTD
 70
     2
  9
$DIMALTF
 40
25.4
  9
$DIMLFAC
 40
1.0
  9
$DIMTOFL
 70
     0
  9
$DIMTVP
 40
0.0
  9
$DIMTIX
 70
     0
  9
$DIMSOXD
 70
     0
  9
$DIMSAH
 70
     0
  9
$DIMBLK1
  1

  9
$DIMBLK2
  1

  9
$LUNITS
 70
     2
  9
$LUPREC
 70
     4
  9
$SKETCHINC
 40
0.1
  9
$FILLETRAD
 40
0.5
  9
$AUNITS
 70
     0
  9
$AUPREC
 70
     0
  9
$MENU
  1
.
  9
$ELEVATION
 40
0.0
  9
$THICKNESS
 40
0.0
  9
$LIMCHECK
 70
     0
  9
$CHAMFERA
 40
0.0
  9
$CHAMFERB
 40
0.0
  9
$SKPOLY
 70
     0
  9
$TDCREATE
 40
2460357.57578809
  9
$TDUPDATE
 40
2460357.575788253
  9
$TDINDWG
 40
0.0000000116
  9
$TDUSRTIMER
 40
0.0000000116
  9
$USRTIMER
 70
     1
  9
$ANGBASE
 50
0.0
  9
$ANGDIR
 70
     0
  9
$PDMODE
 70
     0
  9
$PDSIZE
 40
0.0
  9
$PLINEWID
 40
0.0
  9
$COORDS
 70
     1
  9
$SPLFRAME
 70
     0
  9
$SPLINETYPE
 70
     6
  9
$SPLINESEGS
 70
     8
  9
$ATTDIA
 70
     0
  9
$ATTREQ
 70
     1
  9
$SURFTAB1
 70
     6
  9
$SURFTAB2
 70
     6
  9
$SURFTYPE
 70
     6
  9
$SURFU
 70
     6
  9
$SURFV
 70
     6
  9
$UCSNAME
  2

  9
$UCSORG
 10
0.0
 20
0.0
 30
0.0
  9
$UCSXDIR
 10
1.0
 20
0.0
 30
0.0
  9
$UCSYDIR
 10
0.0
 20
1.0
 30
0.0
  9
$USERI1
 70
     0
  9
$USERI2
 70
     0
  9
$USERI3
 70
     0
  9
$USERI4
 70
     0
  9
$USERI5
 70
     0
  9
$USERR1
 40
0.0
  9
$USERR2
 40
0.0
  9
$USERR3
 40
0.0
  9
$USERR4
 40
0.0
  9
$USERR5
 40
0.0
  9
$WORLDVIEW
 70
     1
  0
ENDSEC
  0
SECTION
  2
TABLES
  0
TABLE
  2
LTYPE
 70
     2
  0
LTYPE
  2
CONTINUOUS
 70
     0
  3
Solid line
 72
    65
 73
     0
 40
0.0
  0
LTYPE
  2
CENTER
 70
     0
  3

 72
    65
 73
     0
 40
0.0
  0
ENDTAB
  0
TABLE
  2
LAYER
 70
     1
  0
LAYER
  2
0
 70
     0
 62
     7
  6
CONTINUOUS
  0
ENDTAB
  0
TABLE
  2
STYLE
 70
     2
  0
STYLE
  2
STANDARD
 70
     0
 40
0.0
 41
1.0
 50
0.0
 71
     0
 42
0.2
  3
txt
  4

  0
STYLE
  2
ＭＳ_ゴシック
 70
     0
 40
0.0
 41
1.0
 50
0.0
 71
     0
 42
0.2
  3
ＭＳ ゴシック.shx
  4

  0
ENDTAB
  0
TABLE
  2
VIEW
 70
     0
  0
ENDTAB
  0
ENDSEC
  0
SECTION
  2
BLOCKS
  0
BLOCK
  8
0
  2
D_FRAME_VIEW_2206
 70
     0
 10
0.0
 20
0.0
  0
LINE
  8
0
  6
CONTINUOUS
 62
     7
 10
571.2499999999999
 20
270.5
 11
571.2499999999999
 21
79.50000000000001
  0
LINE
  8
0
  6
CONTINUOUS
 62
     7
 10
570.75
 20
148.0
 11
570.75
 21
79.50000000000001
  0
LINE
  8
0
  6
CONTINUOUS
 62
     7
 10
570.75
 20
175.0
 11
570.75
 21
148.0
  0
LINE
  8
0
  6
CONTINUOUS
 62
     7
 10
570.75
 20
202.0
 11
570.75
 21
175.0
  0
LINE
  8
0
  6
CONTINUOUS
 62
     7
 10
570.75
 20
270.5
 11
570.75
 21
202.0
  0
LINE
  8
0
  6
CONTINUOUS
 62
     7
 10
570.7499999999999
 20
276.5
 11
571.2499999999999
 21
276.5
  0
LINE
  8
0
  6
CONTINUOUS
 62
     7
 10
571.2499999999999
 20
276.5
 11
571.2499999999999
 21
270.5
  0
LINE
  8
0
  6
CONTINUOUS
 62
     7
 10
570.75
 20
270.5
 11
570.75
 21
276.5
  0
LINE
  8
0
  6
CONTINUOUS
 62
     7
 10
571.2499999999999
 20
79.50000000000001
 11
571.2499999999999
 21
73.50000000000001
  0
LINE
  8
0
  6
CONTINUOUS
 62
     7
 10
571.2499999999999
 20
73.50000000000001
 11
570.75
 21
73.50000000000001
  0
LINE
  8
0
  6
CONTINUOUS
 62
     7
 10
570.75
 20
73.50000000000001
 11
570.75
 21
79.50000000000001
  0
LINE
  8
0
  6
CONTINUOUS
 62
     7
 10
607.1072324809206
 20
249.1999093082074
 11
607.1033910644597
 21
249.3517752202681
  0
LINE
  8
0
  6
CONTINUOUS
 62
     7
 10
607.1033910644597
 20
249.3517752202681
 11
606.9286162404602
 21
252.3785255486678
  0
LINE
  8
0
  6
CONTINUOUS
 62
     7
 10
608.5033800830872
 20
250.8037617060409
 11
606.9286162404602
 21
252.3785255486678
  0
LINE
  8
0
  6
CONTINUOUS
 62
     7
 10
608.5033800830872
 20
249.1999093082074
 11
608.5033800830872
 21
250.8037617060408
  0
LINE
  8
0
  6
CONTINUOUS
 62
     7
 10
571.2499999999999
 20
255.5
 11
606.9286162404602
 21
252.3785255486678
  0
LINE
  8
0
  6
CONTINUOUS
 62
     7
 10
607.1033910644597
 20
100.6482247797319
 11
607.1072324809206
 21
100.8000906917926
  0
LINE
  8
0
  6
CONTINUOUS
 62
     7
 10
608.5033800830872
 20
99.19623829395921
 11
608.5033800830872
 21
100.8000906917926
  0
LINE
  8
0
  6
CONTINUOUS
 62
     7
 10
608.5033800830872
 20
99.19623829395921
 11
606.9286162404602
 21
97.6214744513322
  0
LINE
  8
0
  6
CONTINUOUS
 62
     7
 10
606.9286162404602
 20
97.6214744513322
 11
607.1033910644597
 21
100.6482247797319
  0
LINE
  8
0
  6
CONTINUOUS
 62
     7
 10
606.9286162404602
 20
97.6214744513322
 11
571.2499999999999
 21
94.50000000000001
  0
LINE
  8
0
  6
CONTINUOUS
 62
     7
 10
607.1072324809206
 20
100.8000906917926
 11
607.1072324809206
 21
249.1999093082074
  0
LINE
  8
0
  6
CONTINUOUS
 62
     7
 10
608.5033800830872
 20
100.8000906917926
 11
608.5033800830872
 21
249.1999093082074
  0
LINE
  8
0
  6
CONTINUOUS
 62
     7
 10
616.5033800830872
 20
99.89614760216658
 11
616.5033800830872
 21
101.5
  0
LINE
  8
0
  6
CONTINUOUS
 62
     7
 10
616.5033800830872
 20
99.8961476021666
 11
615.4158914195613
 21
98.80865893864069
  0
LINE
  8
0
  6
CONTINUOUS
 62
     7
 10
615.5004404901013
 20
101.3250226729482
 11
615.4158914195613
 21
98.80865893864069
  0
LINE
  8
0
  6
CONTINUOUS
 62
     7
 10
615.5033800830872
 20
101.5
 11
615.5004404901013
 21
101.3250226729482
  0
LINE
  8
0
  6
CONTINUOUS
 62
     7
 10
615.4158914195613
 20
98.80865893864069
 11
614.5033800830872
 21
99.72117027511479
  0
LINE
  8
0
  6
CONTINUOUS
 62
     7
 10
614.5033800830872
 20
99.72117027511479
 11
614.5033800830872
 21
101.3250226729482
  0
LINE
  8
0
  6
CONTINUOUS
 62
     7
 10
609.5004404901011
 20
100.8000906917926
 11
609.4158914195613
 21
98.28372695748511
  0
LINE
  8
0
  6
CONTINUOUS
 62
     7
 10
609.4158914195613
 20
98.28372695748511
 11
608.5033800830872
 21
99.19623829395921
  0
LINE
  8
0
  6
CONTINUOUS
 62
     7
 10
610.5033800830872
 20
99.37121562101107
 11
610.5033800830872
 21
100.9750680188445
  0
LINE
  8
0
  6
CONTINUOUS
 62
     7
 10
610.5033800830872
 20
99.37121562101107
 11
609.4158914195613
 21
98.28372695748511
  0
LINE
  8
0
  6
CONTINUOUS
 62
     7
 10
609.5033800830872
 20
100.9750680188445
 11
609.5004404901011
 21
100.8000906917926
  0
LINE
  8
0
  6
CONTINUOUS
 62
     7
 10
613.5004404901013
 20
101.1500453458963
 11
613.4158914195613
 21
98.63368161158886
  0
LINE
  8
0
  6
CONTINUOUS
 62
     7
 10
613.4158914195613
 20
98.63368161158886
 11
612.5033800830872
 21
99.54619294806294
  0
LINE
  8
0
  6
CONTINUOUS
 62
     7
 10
612.5033800830872
 20
99.54619294806294
 11
612.5033800830872
 21
101.1500453458963
  0
LINE
  8
0
  6
CONTINUOUS
 62
     7
 10
614.5033800830872
 20
99.72117027511479
 11
613.4158914195613
 21
98.63368161158886
  0
LINE
  8
0
  6
CONTINUOUS
 62
     7
 10
613.5033800830872
 20
101.3250226729482
 11
613.5004404901013
 21
101.1500453458963
  0
LINE
  8
0
  6
CONTINUOUS
 62
     7
 10
611.5004404901011
 20
100.9750680188445
 11
611.4158914195613
 21
98.458704284537
  0
LINE
  8
0
  6
CONTINUOUS
 62
     7
 10
611.4158914195613
 20
98.458704284537
 11
610.5033800830872
 21
99.37121562101107
  0
LINE
  8
0
  6
CONTINUOUS
 62
     7
 10
612.5033800830872
 20
99.54619294806294
 11
611.4158914195613
 21
98.458704284537
  0
LINE
  8
0
  6
CONTINUOUS
 62
     7
 10
611.5033800830872
 20
101.1500453458963
 11
611.5004404901011
 21
100.9750680188445
  0
LINE
  8
0
  6
CONTINUOUS
 62
     7
 10
611.4158914195613
 20
251.541295715463
 11
611.5004404901011
 21
249.0249319811555
  0
LINE
  8
0
  6
CONTINUOUS
 62
     7
 10
610.5033800830872
 20
249.0249319811555
 11
610.5033800830872
 21
250.6287843789889
  0
LINE
  8
0
  6
CONTINUOUS
 62
     7
 10
611.4158914195613
 20
251.541295715463
 11
610.5033800830872
 21
250.6287843789889
  0
LINE
  8
0
  6
CONTINUOUS
 62
     7
 10
612.5033800830872
 20
248.8499546541037
 11
612.5033800830872
 21
250.4538070519371
  0
LINE
  8
0
  6
CONTINUOUS
 62
     7
 10
611.5004404901011
 20
249.0249319811555
 11
611.5033800830872
 21
248.8499546541037
  0
LINE
  8
0
  6
CONTINUOUS
 62
     7
 10
612.5033800830872
 20
250.4538070519371
 11
611.4158914195613
 21
251.541295715463
  0
LINE
  8
0
  6
CONTINUOUS
 62
     7
 10
609.5004404901011
 20
249.1999093082074
 11
609.5033800830872
 21
249.0249319811555
  0
LINE
  8
0
  6
CONTINUOUS
 62
     7
 10
609.4158914195613
 20
251.7162730425149
 11
609.5004404901011
 21
249.1999093082074
  0
LINE
  8
0
  6
CONTINUOUS
 62
     7
 10
610.5033800830872
 20
250.6287843789889
 11
609.4158914195613
 21
251.7162730425149
  0
LINE
  8
0
  6
CONTINUOUS
 62
     7
 10
609.4158914195613
 20
251.7162730425149
 11
608.5033800830872
 21
250.8037617060409
  0
LINE
  8
0
  6
CONTINUOUS
 62
     7
 10
613.4158914195613
 20
251.3663183884112
 11
613.5004404901011
 21
248.8499546541037
  0
LINE
  8
0
  6
CONTINUOUS
 62
     7
 10
613.4158914195613
 20
251.3663183884112
 11
612.5033800830872
 21
250.4538070519371
  0
LINE
  8
0
  6
CONTINUOUS
 62
     7
 10
614.5033800830872
 20
248.6749773270519
 11
614.5033800830872
 21
250.2788297248852
  0
LINE
  8
0
  6
CONTINUOUS
 62
     7
 10
613.5004404901011
 20
248.8499546541037
 11
613.5033800830872
 21
248.6749773270519
  0
LINE
  8
0
  6
CONTINUOUS
 62
     7
 10
614.5033800830872
 20
250.2788297248852
 11
613.4158914195613
 21
251.3663183884112
  0
LINE
  8
0
  6
CONTINUOUS
 62
     7
 10
615.4158914195613
 20
251.1913410613593
 11
615.5004404901011
 21
248.6749773270519
  0
LINE
  8
0
  6
CONTINUOUS
 62
     7
 10
615.4158914195613
 20
251.1913410613593
 11
614.5033800830872
 21
250.2788297248852
  0
LINE
  8
0
  6
CONTINUOUS
 62
     7
 10
616.5033800830872
 20
248.5
 11
616.5033800830872
 21
250.1038523978334
  0
LINE
  8
0
  6
CONTINUOUS
 62
     7
 10
615.5004404901011
 20
248.6749773270519
 11
615.5033800830872
 21
248.5000000000001
  0
LINE
  8
0
  6
CONTINUOUS
 62
     7
 10
616.5033800830872
 20
250.1038523978334
 11
615.4158914195613
 21
251.1913410613593
  0
LINE
  8
0
  6
CONTINUOUS
 62
     7
 10
615.5033800830872
 20
248.5000000000001
 11
615.5033800830872
 21
101.5000000000001
  0
LINE
  8
0
  6
CONTINUOUS
 62
     7
 10
614.5033800830872
 20
101.3250226729482
 11
614.5033800830872
 21
248.6749773270519
  0
LINE
  8
0
  6
CONTINUOUS
 62
     7
 10
609.5033800830872
 20
249.0249319811555
 11
609.5033800830872
 21
100.9750680188445
  0
LINE
  8
0
  6
CONTINUOUS
 62
     7
 10
613.5033800830872
 20
248.6749773270519
 11
613.5033800830872
 21
101.3250226729482
  0
LINE
  8
0
  6
CONTINUOUS
 62
     7
 10
612.5033800830872
 20
101.1500453458963
 11
612.5033800830872
 21
248.8499546541037
  0
LINE
  8
0
  6
CONTINUOUS
 62
     7
 10
611.5033800830872
 20
248.8499546541037
 11
611.5033800830872
 21
101.1500453458963
  0
LINE
  8
0
  6
CONTINUOUS
 62
     7
 10
610.5033800830872
 20
100.9750680188445
 11
610.5033800830872
 21
249.0249319811555
  0
LINE
  8
0
  6
CONTINUOUS
 62
     7
 10
616.5033800830873
 20
101.5
 11
616.5033800830872
 21
248.5
  0
LINE
  8
0
  6
CONTINUOUS
 62
     7
 10
618.25
 20
99.89614760216661
 11
616.5033800830872
 21
99.8961476021666
  0
LINE
  8
0
  6
CONTINUOUS
 62
     7
 10
619.25
 20
248.5
 11
619.25
 21
101.5000000000001
  0
LINE
  8
0
  6
CONTINUOUS
 62
     7
 10
619.25
 20
101.5
 11
619.25
 21
100.8961476021666
  0
ARC
  8
0
  6
CONTINUOUS
 62
     7
 10
618.25
 20
100.8961476021666
 40
1.000000000000001
 50
270.0
 51
0.0
  0
LINE
  8
0
  6
CONTINUOUS
 62
     7
 10
619.25
 20
249.1038523978334
 11
619.25
 21
248.5
  0
ARC
  8
0
  6
CONTINUOUS
 62
     7
 10
618.25
 20
249.1038523978334
 40
1.000000000000001
 50
0.0000000000000035
 51
90.0
  0
LINE
  8
0
  6
CONTINUOUS
 62
     7
 10
618.25
 20
250.1038523978334
 11
616.5033800830872
 21
250.1038523978334
  0
ARC
  8
0
  6
CONTINUOUS
 62
     7
 10
574.2499999999999
 20
260.2489935220523
 40
3.000000000000003
 50
180.0000000000002
 51
265.0
  0
ARC
  8
0
  6
CONTINUOUS
 62
     7
 10
574.2499999999999
 20
89.75100647794773
 40
3.000000000000003
 50
95.0
 51
180.0
  0
LINE
  8
0
  6
CONTINUOUS
 62
     7
 10
573.9885327717569
 20
257.2604094277771
 11
605.3371557427475
 21
254.517760300667
  0
ARC
  8
0
  6
CONTINUOUS
 62
     7
 10
605.2499999999999
 20
96.47843439742485
 40
0.9999999999999963
 50
275.0000000000003
 51
0.0000000000000568
  0
LINE
  8
0
  6
CONTINUOUS
 62
     7
 10
606.2499999999999
 20
96.47843439742485
 11
606.2499999999999
 21
97.56210322340739
  0
LINE
  8
0
  6
CONTINUOUS
 62
     7
 10
573.9885327717569
 20
92.73959057222297
 11
605.3371557427475
 21
95.48223969933304
  0
LINE
  8
0
  6
CONTINUOUS
 62
     7
 10
606.2499999999999
 20
253.5215656025752
 11
606.2499999999999
 21
252.4378967765927
  0
ARC
  8
0
  6
CONTINUOUS
 62
     7
 10
605.2499999999999
 20
253.5215656025752
 40
1.00000000000001
 50
0.0
 51
84.99999999999989
  0
ENDBLK
  8
0
  0
BLOCK
  8
0
  2
D_FRAME_VIEW_2118
 70
     0
 10
0.0
 20
0.0
  0
LINE
  8
0
  6
CONTINUOUS
 62
     7
 10
346.5
 20
3.750000000000001
 11
340.5
 21
3.750000000000001
  0
LINE
  8
0
  6
CONTINUOUS
 62
     7
 10
340.5
 20
3.750000000000001
 11
340.5
 21
4.250000000000001
  0
LINE
  8
0
  6
CONTINUOUS
 62
     7
 10
340.5
 20
4.250000000000001
 11
346.5
 21
4.250000000000001
  0
LINE
  8
0
  6
CONTINUOUS
 62
     7
 10
493.4999999999999
 20
3.749999999999994
 11
346.5
 21
3.749999999999994
  0
LINE
  8
0
  6
CONTINUOUS
 62
     7
 10
493.4999999999999
 20
4.249999999999994
 11
420.0
 21
4.249999999999996
  0
LINE
  8
0
  6
CONTINUOUS
 62
     7
 10
420.0
 20
4.249999999999996
 11
346.5
 21
4.249999999999994
  0
LINE
  8
0
  6
CONTINUOUS
 62
     7
 10
499.4999999999999
 20
4.250000000000001
 11
499.4999999999999
 21
3.750000000000001
  0
LINE
  8
0
  6
CONTINUOUS
 62
     7
 10
499.4999999999999
 20
3.750000000000001
 11
493.4999999999999
 21
3.750000000000001
  0
LINE
  8
0
  6
CONTINUOUS
 62
     7
 10
493.4999999999999
 20
4.250000000000001
 11
499.4999999999999
 21
4.250000000000001
  0
LINE
  8
0
  6
CONTINUOUS
 62
     7
 10
470.9
 20
3.749999999999999
 11
470.9
 21
1.098622970990636
  0
LINE
  8
0
  6
CONTINUOUS
 62
     7
 10
444.9
 20
3.749999999999999
 11
444.9
 21
1.098622970990636
  0
LINE
  8
0
  6
CONTINUOUS
 62
     7
 10
472.9
 20
1.098622970990637
 11
472.9
 21
3.749999999999999
  0
LINE
  8
0
  6
CONTINUOUS
 62
     7
 10
419.0
 20
3.749999999999999
 11
419.0
 21
1.098622970990636
  0
LINE
  8
0
  6
CONTINUOUS
 62
     7
 10
369.1
 20
1.098622970990637
 11
369.1
 21
3.749999999999999
  0
LINE
  8
0
  6
CONTINUOUS
 62
     7
 10
395.1
 20
1.098622970990637
 11
395.1
 21
3.749999999999999
  0
LINE
  8
0
  6
CONTINUOUS
 62
     7
 10
367.1
 20
3.749999999999999
 11
367.1
 21
1.098622970990636
  0
LINE
  8
0
  6
CONTINUOUS
 62
     7
 10
393.1
 20
3.749999999999999
 11
393.1
 21
1.098622970990636
  0
LINE
  8
0
  6
CONTINUOUS
 62
     7
 10
446.9
 20
1.098622970990637
 11
446.9
 21
3.749999999999999
  0
LINE
  8
0
  6
CONTINUOUS
 62
     7
 10
421.0
 20
1.098622970990637
 11
421.0
 21
3.749999999999999
  0
LINE
  8
0
  6
CONTINUOUS
 62
     7
 10
472.9
 20
1.098622970990636
 11
472.9
 21
-30.25000000000001
  0
LINE
  8
0
  6
CONTINUOUS
 62
     7
 10
395.1
 20
1.098622970990637
 11
395.1
 21
-30.25000000000001
  0
LINE
  8
0
  6
CONTINUOUS
 62
     7
 10
367.1
 20
-30.25
 11
367.1
 21
1.098622970990639
  0
LINE
  8
0
  6
CONTINUOUS
 62
     7
 10
444.9
 20
-30.25
 11
444.9
 21
1.098622970990639
  0
LINE
  8
0
  6
CONTINUOUS
 62
     7
 10
419.0
 20
-30.25
 11
419.0
 21
1.098622970990639
  0
LINE
  8
0
  6
CONTINUOUS
 62
     7
 10
421.0
 20
1.098622970990637
 11
421.0
 21
-30.25000000000001
  0
LINE
  8
0
  6
CONTINUOUS
 62
     7
 10
446.9
 20
1.098622970990636
 11
446.9
 21
-30.25000000000001
  0
LINE
  8
0
  6
CONTINUOUS
 62
     7
 10
470.9
 20
-30.25
 11
470.9
 21
1.098622970990639
  0
LINE
  8
0
  6
CONTINUOUS
 62
     7
 10
393.1
 20
-30.25
 11
393.1
 21
1.098622970990639
  0
LINE
  8
0
  6
CONTINUOUS
 62
     7
 10
369.1
 20
1.098622970990637
 11
369.1
 21
-30.25000000000001
  0
LINE
  8
0
  6
CONTINUOUS
 62
     7
 10
363.0
 20
-31.92861624046033
 11
476.9999999999999
 21
-31.92861624046031
  0
LINE
  8
0
  6
CONTINUOUS
 62
     7
 10
480.0
 20
3.749999999999997
 11
480.0
 21
-32.10339106445978
  0
ARC
  8
0
  6
CONTINUOUS
 62
     7
 10
477.3316671698836
 20
-54.30957591499619
 40
22.38341705515
 50
83.22298946936822
 51
90.8490135552346
  0
LINE
  8
0
  6
CONTINUOUS
 62
     7
 10
479.9730343727634
 20
-32.08255320919209
 11
480.0
 21
-32.10339106445978
  0
LINE
  8
0
  6
CONTINUOUS
 62
     7
 10
360.0
 20
-32.10339106445978
 11
360.1213580560319
 21
-32.05864401598096
  0
ARC
  8
0
  6
CONTINUOUS
 62
     7
 10
362.7076342739933
 20
-57.38569321400721
 40
25.45875577782298
 50
89.3420067132795
 51
95.83055888332416
  0
LINE
  8
0
  6
CONTINUOUS
 62
     7
 10
360.0
 20
-32.10339106445978
 11
360.0
 21
3.749999999999996
  0
LINE
  8
0
  6
CONTINUOUS
 62
     7
 10
439.5054588385946
 20
-6.954830770129747
 11
439.4409746670581
 21
-6.907049699566845
  0
ARC
  8
0
  6
CONTINUOUS
 62
     7
 10
432.9003875797317
 20
-15.79287338543506
 40
11.03345557942918
 50
53.64433512882826
 51
87.40371953601866
  0
LINE
  8
0
  6
CONTINUOUS
 62
     7
 10
433.4001825589772
 20
-4.770743509501024
 11
432.8999999999999
 21
-4.759291133442934
  0
LINE
  8
0
  6
CONTINUOUS
 62
     7
 10
432.8999999999999
 20
-4.759291133442934
 11
432.6977248378474
 21
-4.761166165977137
  0
ARC
  8
0
  6
CONTINUOUS
 62
     7
 10
432.9010901409508
 20
-15.79657786530298
 40
11.03728539180374
 50
91.05575171300907
 51
125.8848408987197
  0
LINE
  8
0
  6
CONTINUOUS
 62
     7
 10
426.431496806596
 20
-6.85420508688471
 11
426.3042159924512
 21
-6.94761581287918
  0
LINE
  8
0
  6
CONTINUOUS
 62
     7
 10
465.5054588385834
 20
-6.95483077012151
 11
465.4409746670632
 21
-6.907049699570809
  0
ARC
  8
0
  6
CONTINUOUS
 62
     7
 10
458.9003875797311
 20
-15.79287338543615
 40
11.03345557943028
 50
53.64433512879525
 51
87.40371953597356
  0
LINE
  8
0
  6
CONTINUOUS
 62
     7
 10
459.4001825589853
 20
-4.770743509501377
 11
458.9
 21
-4.759291133442934
  0
ARC
  8
0
  6
CONTINUOUS
 62
     9
 10
458.900003180585
 20
-15.7964467871714
 40
11.03658544309492
 50
126.7002990813851
 51
53.2370724883499
  0
LINE
  8
0
  6
CONTINUOUS
 62
     7
 10
458.9
 20
-4.759291133442934
 11
458.6977248378475
 21
-4.761166165977135
  0
ARC
  8
0
  6
CONTINUOUS
 62
     7
 10
458.9010901409489
 20
-15.79657786529511
 40
11.03728539179583
 50
91.05575171299942
 51
125.8848408987011
  0
LINE
  8
0
  6
CONTINUOUS
 62
     7
 10
452.4314968066017
 20
-6.854205086881164
 11
452.304215992459
 21
-6.947615812873838
  0
LINE
  8
0
  6
CONTINUOUS
 62
     7
 10
413.7598759012178
 20
-6.995718760110489
 11
413.7076401718065
 21
-6.956459752826952
  0
LINE
  8
0
  6
CONTINUOUS
 62
     7
 10
407.1
 20
-4.759291133442934
 11
406.747603263221
 21
-4.764978580509959
  0
ARC
  8
0
  6
CONTINUOUS
 62
     7
 10
407.0997901426405
 20
-15.79285093360432
 40
11.03349465193047
 50
91.82918020171083
 51
125.771891437506
  0
LINE
  8
0
  6
CONTINUOUS
 62
     7
 10
400.6500537386934
 20
-6.840817390672398
 11
400.4945240941034
 21
-6.954843512467442
  0
LINE
  8
0
  6
CONTINUOUS
 62
     7
 10
387.7598759012211
 20
-6.995718760113494
 11
387.7076401719046
 21
-6.956459752900773
  0
ARC
  8
0
  6
CONTINUOUS
 62
     9
 10
381.1000177438102
 20
-15.79656139418623
 40
11.03668978707947
 50
126.7627690148653
 51
52.88412858847562
  0
LINE
  8
0
  6
CONTINUOUS
 62
     7
 10
381.1
 20
-4.759291133442938
 11
380.7476032632138
 21
-4.764978580510188
  0
ARC
  8
0
  6
CONTINUOUS
 62
     7
 10
381.0997901426396
 20
-15.7928509336023
 40
11.03349465192841
 50
91.82918020174405
 51
125.7718914374719
  0
LINE
  8
0
  6
CONTINUOUS
 62
     7
 10
374.650053738699
 20
-6.840817390668215
 11
374.4945240941139
 21
-6.954843512459521
  0
LINE
  8
0
  6
CONTINUOUS
 62
     7
 10
426.2951215060677
 20
-6.95439079562466
 11
426.4314624050947
 21
-6.854158905929133
  0
ARC
  8
0
  6
CONTINUOUS
 62
     7
 10
432.8995997820575
 20
-15.78634543067973
 40
11.02818014180943
 50
91.04899110996341
 51
125.9097327882965
  0
LINE
  8
0
  6
CONTINUOUS
 62
     7
 10
432.6977032941498
 20
-4.760013536147889
 11
432.8999999999999
 21
-4.7581373161461
  0
ARC
  8
0
  6
CONTINUOUS
 62
     9
 10
432.8999739527853
 20
-15.79082903266368
 40
11.03210789619788
 50
127.2679396048419
 51
53.22333232537051
  0
LINE
  8
0
  6
CONTINUOUS
 62
     7
 10
439.4409928405406
 20
-6.907025755336898
 11
439.5048690423443
 21
-6.954383735527985
  0
LINE
  8
0
  6
CONTINUOUS
 62
     7
 10
452.2951215059904
 20
-6.954390795682814
 11
452.4314624051003
 21
-6.854158905925549
  0
ARC
  8
0
  6
CONTINUOUS
 62
     7
 10
458.8995997820559
 20
-15.78634543067276
 40
11.02818014180242
 50
91.04899110995484
 51
125.9097327882762
  0
LINE
  8
0
  6
CONTINUOUS
 62
     7
 10
458.69770329415
 20
-4.76001353614788
 11
458.9
 21
-4.758137316146095
  0
LINE
  8
0
  6
CONTINUOUS
 62
     7
 10
465.4409928405457
 20
-6.90702575534087
 11
465.5048690423046
 21
-6.954383735498486
  0
LINE
  8
0
  6
CONTINUOUS
 62
     7
 10
400.4951285039731
 20
-6.954385568366933
 11
400.6500155850403
 21
-6.840765318687756
  0
ARC
  8
0
  6
CONTINUOUS
 62
     7
 10
407.0985408808974
 20
-15.78341225952953
 40
11.02517178096812
 50
91.82426057381194
 51
125.7952999513381
  0
LINE
  8
0
  6
CONTINUOUS
 62
     7
 10
413.7048692852249
 20
-6.954383916953404
 11
413.7804438629792
 21
-7.0113402981073
  0
LINE
  8
0
  6
CONTINUOUS
 62
     7
 10
413.7076401718065
 20
-6.956459752826952
 11
413.6272497356208
 21
-6.896972791750954
  0
LINE
  8
0
  6
CONTINUOUS
 62
     7
 10
413.6272497356208
 20
-6.896972791750954
 11
413.5033487742103
 21
-6.807455370526901
  0
ARC
  8
0
  6
CONTINUOUS
 62
     7
 10
407.0978691065845
 20
-15.7996106106335
 40
11.04033630079011
 50
54.53617581998547
 51
88.81837097275296
  0
LINE
  8
0
  6
CONTINUOUS
 62
     7
 10
407.3255413228223
 20
-4.761622071207616
 11
407.1
 21
-4.759291133442934
  0
LINE
  8
0
  6
CONTINUOUS
 62
     7
 10
407.1
 20
-4.758137316146095
 11
407.3255653341499
 21
-4.760469729766919
  0
ARC
  8
0
  6
CONTINUOUS
 62
     7
 10
407.0993246964999
 20
-15.78944235064643
 40
11.03129284799538
 50
54.51168952689733
 51
88.82483923117377
  0
LINE
  8
0
  6
CONTINUOUS
 62
     7
 10
413.5033966668174
 20
-6.807388905179359
 11
413.6244777817412
 21
-6.894896454079993
  0
LINE
  8
0
  6
CONTINUOUS
 62
     7
 10
413.6244777817412
 20
-6.894896454079993
 11
413.7048692852249
 21
-6.954383916953404
  0
LINE
  8
0
  6
CONTINUOUS
 62
     7
 10
374.4951285040107
 20
-6.954385568338783
 11
374.6500155850459
 21
-6.840765318683578
  0
ARC
  8
0
  6
CONTINUOUS
 62
     7
 10
381.0985408808969
 20
-15.78341225952853
 40
11.02517178096709
 50
91.82426057384725
 51
125.7952999513025
  0
LINE
  8
0
  6
CONTINUOUS
 62
     7
 10
387.7048692853232
 20
-6.954383917027307
 11
387.7804438629753
 21
-7.01134029810483
  0
LINE
  8
0
  6
CONTINUOUS
 62
     7
 10
387.7076401719046
 20
-6.956459752900773
 11
387.6272497357195
 21
-6.896972791823875
  0
LINE
  8
0
  6
CONTINUOUS
 62
     7
 10
387.6272497357195
 20
-6.896972791823875
 11
387.5033487742093
 21
-6.807455370526617
  0
ARC
  8
0
  6
CONTINUOUS
 62
     7
 10
381.0978691065842
 20
-15.79961061063252
 40
11.04033630078913
 50
54.5361758199864
 51
88.81837097273441
  0
LINE
  8
0
  6
CONTINUOUS
 62
     7
 10
381.3255413228255
 20
-4.761622071207679
 11
381.1
 21
-4.759291133442938
  0
LINE
  8
0
  6
CONTINUOUS
 62
     7
 10
381.1
 20
-4.758137316146096
 11
381.3255653341531
 21
-4.760469729766991
  0
ARC
  8
0
  6
CONTINUOUS
 62
     7
 10
381.0993246964993
 20
-15.78944235064666
 40
11.03129284799562
 50
54.5116895269004
 51
88.82483923115387
  0
LINE
  8
0
  6
CONTINUOUS
 62
     7
 10
387.5033966668165
 20
-6.807388905179041
 11
387.6244777818401
 21
-6.894896454152987
  0
LINE
  8
0
  6
CONTINUOUS
 62
     7
 10
387.6244777818401
 20
-6.894896454152987
 11
387.7048692853232
 21
-6.954383917027307
  0
LINE
  8
0
  6
CONTINUOUS
 62
     7
 10
426.2195561370427
 20
-7.011340298092583
 11
426.2951215060677
 21
-6.95439079562466
  0
LINE
  8
0
  6
CONTINUOUS
 62
     7
 10
452.219556137051
 20
-7.011340298086785
 11
452.2951215059904
 21
-6.954390795682814
  0
ARC
  8
0
  6
CONTINUOUS
 62
     9
 10
407.100026044246
 20
-15.79082954041105
 40
11.03210830206883
 50
126.776681989553
 51
52.73206197957472
  0
ARC
  8
0
  6
CONTINUOUS
 62
     7
 10
445.9
 20
-30.25
 40
0.9999999999999974
 50
270.0
 51
0.0
  0
ARC
  8
0
  6
CONTINUOUS
 62
     7
 10
471.9
 20
-30.25
 40
0.9999999999999974
 50
270.0
 51
0.0
  0
ARC
  8
0
  6
CONTINUOUS
 62
     7
 10
394.1
 20
-30.25
 40
1.000000000000001
 50
180.0
 51
270.0
  0
ARC
  8
0
  6
CONTINUOUS
 62
     7
 10
420.0
 20
-30.25
 40
0.9999999999999974
 50
270.0
 51
0.0
  0
ARC
  8
0
  6
CONTINUOUS
 62
     7
 10
368.1
 20
-30.25
 40
1.000000000000001
 50
180.0
 51
270.0
  0
ARC
  8
0
  6
CONTINUOUS
 62
     7
 10
394.1
 20
-30.25
 40
0.9999999999999974
 50
270.0000000000002
 51
0.0
  0
ARC
  8
0
  6
CONTINUOUS
 62
     7
 10
368.1
 20
-30.25
 40
0.9999999999999974
 50
270.0
 51
0.0
  0
ARC
  8
0
  6
CONTINUOUS
 62
     7
 10
445.9
 20
-30.25
 40
1.000000000000001
 50
180.0
 51
269.9999999999998
  0
ARC
  8
0
  6
CONTINUOUS
 62
     7
 10
420.0
 20
-30.25
 40
1.000000000000001
 50
180.0
 51
270.0
  0
ARC
  8
0
  6
CONTINUOUS
 62
     7
 10
471.9
 20
-30.25
 40
1.000000000000001
 50
180.0
 51
270.0
  0
LINE
  8
0
  6
CONTINUOUS
 62
     7
 10
460.4
 20
-12.76808151065925
 11
460.4
 21
-12.7602624643364
  0
LINE
  8
0
  6
CONTINUOUS
 62
     7
 10
379.6
 20
-12.76808151065925
 11
379.6
 21
-12.7602624643364
  0
LINE
  8
0
  6
CONTINUOUS
 62
     7
 10
434.3999999999999
 20
-12.76808151065925
 11
434.3999999999999
 21
-12.7602624643364
  0
LINE
  8
0
  6
CONTINUOUS
 62
     7
 10
405.6
 20
-12.76808151065925
 11
405.6
 21
-12.76026246433641
  0
LINE
  8
0
  6
CONTINUOUS
 62
     7
 10
382.6
 20
-12.76808151065925
 11
382.6
 21
-12.76035976510668
  0
LINE
  8
0
  6
CONTINUOUS
 62
     7
 10
457.4
 20
-12.76808151065925
 11
457.4
 21
-12.76035976510668
  0
LINE
  8
0
  6
CONTINUOUS
 62
     7
 10
408.6
 20
-12.76808151065925
 11
408.6
 21
-12.76035976510668
  0
LINE
  8
0
  6
CONTINUOUS
 62
     7
 10
431.4
 20
-12.76808151065925
 11
431.4
 21
-12.76035976510668
  0
LINE
  8
0
  6
CONTINUOUS
 62
     7
 10
382.6
 20
-12.76800535823745
 11
379.6
 21
-12.76800535823744
  0
LINE
  8
0
  6
CONTINUOUS
 62
     7
 10
434.3999999999999
 20
-12.76800535823744
 11
431.4
 21
-12.76800535823744
  0
LINE
  8
0
  6
CONTINUOUS
 62
     7
 10
460.4
 20
-12.76800535823744
 11
457.4
 21
-12.76800535823744
  0
LINE
  8
0
  6
CONTINUOUS
 62
     7
 10
408.6
 20
-12.76800535823744
 11
405.6
 21
-12.76800535823744
  0
ARC
  8
0
  6
CONTINUOUS
 62
     9
 10
460.3815836503862
 20
-15.80104532679075
 40
3.050958924929871
 50
0.1973231395338075
 51
52.77346711647652
  0
ARC
  8
0
  6
CONTINUOUS
 62
     9
 10
379.6185308944666
 20
-15.80110292990967
 40
3.051073668020992
 50
127.2263848733427
 51
179.80160255218
  0
ARC
  8
0
  6
CONTINUOUS
 62
     9
 10
434.3815836503874
 20
-15.80104532679014
 40
3.050958924928697
 50
0.1973231395226094
 51
52.77346711635106
  0
ARC
  8
0
  6
CONTINUOUS
 62
     9
 10
405.6185308944652
 20
-15.80110292990899
 40
3.051073668019546
 50
127.2263848734614
 51
179.8016025521927
  0
ARC
  8
0
  6
CONTINUOUS
 62
     9
 10
382.5812867456028
 20
-15.80119326565517
 40
3.051256340980866
 50
0.2000818838950522
 51
52.77071315825656
  0
ARC
  8
0
  6
CONTINUOUS
 62
     9
 10
457.4194748494326
 20
-15.80157328168641
 40
3.052019281747316
 50
127.2351511173103
 51
179.7928340189949
  0
ARC
  8
0
  6
CONTINUOUS
 62
     9
 10
408.5812867456074
 20
-15.80119326565298
 40
3.051256340976132
 50
0.2000818838542386
 51
52.77071315807246
  0
ARC
  8
0
  6
CONTINUOUS
 62
     9
 10
431.4194748494274
 20
-15.801573281684
 40
3.052019281742145
 50
127.2351511174851
 51
179.7928340190397
  0
LINE
  8
0
  6
CONTINUOUS
 62
     7
 10
363.0
 20
-33.5033800830873
 11
361.3961476021666
 21
-33.5033800830873
  0
LINE
  8
0
  6
CONTINUOUS
 62
     7
 10
361.3961476021666
 20
-33.50338008308733
 11
360.0
 21
-32.10723248092074
  0
LINE
  8
0
  6
CONTINUOUS
 62
     7
 10
478.6038523978334
 20
-33.50338008308733
 11
480.0
 21
-32.10723248092074
  0
LINE
  8
0
  6
CONTINUOUS
 62
     7
 10
476.9999999999999
 20
-33.5033800830873
 11
478.6038523978334
 21
-33.5033800830873
  0
ARC
  8
0
  6
CONTINUOUS
 62
     9
 10
382.5999937476108
 20
-15.79040801208973
 40
3.032530737237648
 50
270.0001181308764
 51
359.997543426667
  0
ARC
  8
0
  6
CONTINUOUS
 62
     9
 10
408.5999937476109
 20
-15.79040801208989
 40
3.032530737237482
 50
270.0001181308733
 51
359.9975434266701
  0
ARC
  8
0
  6
CONTINUOUS
 62
     9
 10
457.4000719114982
 20
-15.79034235030092
 40
3.03259639987264
 50
180.0036970885807
 51
269.998641353884
  0
ARC
  8
0
  6
CONTINUOUS
 62
     9
 10
431.4000719114981
 20
-15.79034235030098
 40
3.032596399872582
 50
180.0036970885795
 51
269.998641353884
  0
ARC
  8
0
  6
CONTINUOUS
 62
     9
 10
460.3999791060271
 20
-15.79039336990849
 40
3.032545379484436
 50
270.0003947629182
 51
359.9972667946257
  0
ARC
  8
0
  6
CONTINUOUS
 62
     9
 10
434.3999791060271
 20
-15.79039336990856
 40
3.032545379484381
 50
270.0003947629182
 51
359.997266794627
  0
ARC
  8
0
  6
CONTINUOUS
 62
     9
 10
379.6000494171143
 20
-15.7903648456029
 40
3.032573904120685
 50
180.0032721021709
 51
269.9990663402921
  0
ARC
  8
0
  6
CONTINUOUS
 62
     9
 10
405.6000494171143
 20
-15.79036484560285
 40
3.032573904120734
 50
180.0032721021718
 51
269.9990663402921
  0
LINE
  8
0
  6
CONTINUOUS
 62
     7
 10
476.9999999999999
 20
-33.5033800830873
 11
363.0000000000001
 21
-33.5033800830873
  0
LINE
  8
0
  6
CONTINUOUS
 62
     9
 10
382.6
 20
-18.82293874932095
 11
379.6000000000004
 21
-18.82293874932095
  0
LINE
  8
0
  6
CONTINUOUS
 62
     9
 10
408.6
 20
-18.82293874932095
 11
405.6000000000004
 21
-18.82293874932095
  0
LINE
  8
0
  6
CONTINUOUS
 62
     9
 10
460.4
 20
-18.82293874932095
 11
457.4000000000004
 21
-18.82293874932095
  0
LINE
  8
0
  6
CONTINUOUS
 62
     9
 10
434.4
 20
-18.82293874932095
 11
431.4000000000004
 21
-18.82293874932095
  0
LINE
  8
0
  6
CONTINUOUS
 62
     7
 10
476.9999999999999
 20
-35.50338008308733
 11
478.6038523978334
 21
-35.50338008308733
  0
LINE
  8
0
  6
CONTINUOUS
 62
     7
 10
479.6009128048473
 20
-34.50044049010119
 11
476.9999999999999
 21
-34.41589141956139
  0
LINE
  8
0
  6
CONTINUOUS
 62
     7
 10
478.6038523978334
 20
-35.50338008308734
 11
479.6038523978334
 21
-34.50338008308731
  0
LINE
  8
0
  6
CONTINUOUS
 62
     7
 10
479.6009128048473
 20
-34.50044049010119
 11
478.6038523978334
 21
-33.50338008308733
  0
LINE
  8
0
  6
CONTINUOUS
 62
     7
 10
363.0
 20
-34.41589141956139
 11
360.3990871951527
 21
-34.50044049010119
  0
LINE
  8
0
  6
CONTINUOUS
 62
     7
 10
360.3990871951527
 20
-34.50044049010119
 11
361.3961476021666
 21
-33.50338008308733
  0
LINE
  8
0
  6
CONTINUOUS
 62
     7
 10
363.0
 20
-35.50338008308733
 11
361.3961476021666
 21
-35.50338008308733
  0
LINE
  8
0
  6
CONTINUOUS
 62
     7
 10
361.3961476021666
 20
-35.50338008308734
 11
360.3961476021665
 21
-34.50338008308731
  0
LINE
  8
0
  6
CONTINUOUS
 62
     7
 10
476.9999999999999
 20
-35.50338008308733
 11
363.0000000000001
 21
-35.50338008308733
  0
LINE
  8
0
  6
CONTINUOUS
 62
     7
 10
476.9999999999999
 20
-34.41589141956139
 11
363.0000000000001
 21
-34.41589141956139
  0
LINE
  8
0
  6
CONTINUOUS
 62
     7
 10
476.9999999999999
 20
-37.50338008308733
 11
478.6038523978334
 21
-37.50338008308733
  0
LINE
  8
0
  6
CONTINUOUS
 62
     7
 10
479.6009128048472
 20
-36.50044049010122
 11
476.9999999999999
 21
-36.4158914195614
  0
LINE
  8
0
  6
CONTINUOUS
 62
     7
 10
478.6038523978334
 20
-37.50338008308733
 11
479.6038523978334
 21
-36.50338008308733
  0
LINE
  8
0
  6
CONTINUOUS
 62
     7
 10
479.6009128048472
 20
-36.50044049010122
 11
478.6038523978334
 21
-35.50338008308734
  0
LINE
  8
0
  6
CONTINUOUS
 62
     7
 10
363.0
 20
-37.50338008308733
 11
361.3961476021666
 21
-37.50338008308733
  0
LINE
  8
0
  6
CONTINUOUS
 62
     7
 10
361.3961476021666
 20
-37.50338008308733
 11
360.3961476021666
 21
-36.50338008308733
  0
LINE
  8
0
  6
CONTINUOUS
 62
     7
 10
363.0
 20
-36.41589141956142
 11
360.3990871951527
 21
-36.50044049010122
  0
LINE
  8
0
  6
CONTINUOUS
 62
     7
 10
360.3990871951527
 20
-36.50044049010122
 11
361.3961476021666
 21
-35.50338008308734
  0
LINE
  8
0
  6
CONTINUOUS
 62
     7
 10
476.9999999999999
 20
-37.50338008308733
 11
363.0
 21
-37.50338008308733
  0
LINE
  8
0
  6
CONTINUOUS
 62
     7
 10
476.9999999999999
 20
-36.4158914195614
 11
363.0000000000001
 21
-36.41589141956142
  0
LINE
  8
0
  6
CONTINUOUS
 62
     7
 10
479.6009128048473
 20
-38.50044049010122
 11
476.9999999999999
 21
-38.4158914195614
  0
LINE
  8
0
  6
CONTINUOUS
 62
     7
 10
479.6009128048473
 20
-38.50044049010122
 11
478.6038523978334
 21
-37.50338008308733
  0
LINE
  8
0
  6
CONTINUOUS
 62
     7
 10
476.9999999999999
 20
-39.50338008308733
 11
478.6038523978334
 21
-39.50338008308733
  0
LINE
  8
0
  6
CONTINUOUS
 62
     7
 10
478.6038523978334
 20
-39.50338008308733
 11
479.6038523978334
 21
-38.50338008308733
  0
LINE
  8
0
  6
CONTINUOUS
 62
     7
 10
363.0
 20
-38.41589141956143
 11
360.3990871951527
 21
-38.50044049010122
  0
LINE
  8
0
  6
CONTINUOUS
 62
     7
 10
360.3990871951527
 20
-38.50044049010122
 11
361.3961476021666
 21
-37.50338008308733
  0
LINE
  8
0
  6
CONTINUOUS
 62
     7
 10
363.0
 20
-39.50338008308733
 11
361.3961476021666
 21
-39.50338008308733
  0
LINE
  8
0
  6
CONTINUOUS
 62
     7
 10
361.3961476021665
 20
-39.50338008308733
 11
360.3961476021666
 21
-38.50338008308733
  0
LINE
  8
0
  6
CONTINUOUS
 62
     7
 10
476.9999999999999
 20
-39.50338008308733
 11
363.0
 21
-39.50338008308733
  0
LINE
  8
0
  6
CONTINUOUS
 62
     7
 10
476.9999999999999
 20
-38.4158914195614
 11
363.0
 21
-38.41589141956143
  0
LINE
  8
0
  6
CONTINUOUS
 62
     7
 10
477.0
 20
-41.50338008308734
 11
478.6038523978334
 21
-41.50338008308734
  0
LINE
  8
0
  6
CONTINUOUS
 62
     7
 10
479.6009128048473
 20
-40.50044049010123
 11
477.0
 21
-40.41589141956143
  0
LINE
  8
0
  6
CONTINUOUS
 62
     7
 10
478.6038523978334
 20
-41.50338008308738
 11
479.6038523978334
 21
-40.50338008308735
  0
LINE
  8
0
  6
CONTINUOUS
 62
     7
 10
479.6009128048473
 20
-40.50044049010123
 11
478.6038523978334
 21
-39.50338008308733
  0
LINE
  8
0
  6
CONTINUOUS
 62
     7
 10
363.0
 20
-40.41589141956145
 11
360.3990871951527
 21
-40.50044049010123
  0
LINE
  8
0
  6
CONTINUOUS
 62
     7
 10
360.3990871951527
 20
-40.50044049010123
 11
361.3961476021665
 21
-39.50338008308733
  0
LINE
  8
0
  6
CONTINUOUS
 62
     7
 10
362.9999999999999
 20
-41.50338008308734
 11
361.3961476021665
 21
-41.50338008308734
  0
LINE
  8
0
  6
CONTINUOUS
 62
     7
 10
361.3961476021665
 20
-41.50338008308735
 11
360.3961476021666
 21
-40.50338008308735
  0
LINE
  8
0
  6
CONTINUOUS
 62
     7
 10
477.0
 20
-40.41589141956143
 11
363.0
 21
-40.41589141956145
  0
LINE
  8
0
  6
CONTINUOUS
 62
     7
 10
477.0
 20
-41.50338008308735
 11
363.0
 21
-41.50338008308735
  0
LINE
  8
0
  6
CONTINUOUS
 62
     7
 10
478.6038523978334
 20
-43.24999999999999
 11
478.6038523978334
 21
-41.50338008308738
  0
LINE
  8
0
  6
CONTINUOUS
 62
     7
 10
361.3961476021665
 20
-43.24999999999999
 11
361.3961476021665
 21
-41.50338008308735
  0
ARC
  8
0
  6
CONTINUOUS
 62
     7
 10
477.6038523978334
 20
-43.24999999999999
 40
1.000000000000001
 50
270.0
 51
0.0
  0
LINE
  8
0
  6
CONTINUOUS
 62
     7
 10
477.6038523978334
 20
-44.25
 11
476.9999999999999
 21
-44.25
  0
LINE
  8
0
  6
CONTINUOUS
 62
     7
 10
476.9999999999999
 20
-44.25
 11
362.9999999999999
 21
-44.25
  0
LINE
  8
0
  6
CONTINUOUS
 62
     7
 10
362.9999999999999
 20
-44.25
 11
362.3961476021666
 21
-44.25
  0
ARC
  8
0
  6
CONTINUOUS
 62
     7
 10
362.3961476021665
 20
-43.24999999999999
 40
1.000000000000001
 50
180.0
 51
270.0
  0
LINE
  8
0
  6
CONTINUOUS
 62
     7
 10
426.2951507191218
 20
-6.954368937616504
 11
426.2923497625097
 21
-6.956467308262357
  0
LINE
  8
0
  6
CONTINUOUS
 62
     7
 10
439.5076502788935
 20
-6.956467339187335
 11
439.5048493222639
 21
-6.954368968528407
  0
LINE
  8
0
  6
CONTINUOUS
 62
     7
 10
452.2951507190446
 20
-6.954368937674649
 11
452.2923497624325
 21
-6.956467308320526
  0
LINE
  8
0
  6
CONTINUOUS
 62
     7
 10
465.5076502788527
 20
-6.956467339157077
 11
465.5048493222232
 21
-6.954368968498164
  0
LINE
  8
0
  6
CONTINUOUS
 62
     7
 10
400.4951507190987
 20
-6.954368937634015
 11
400.4923497624869
 21
-6.956467308279676
  0
LINE
  8
0
  6
CONTINUOUS
 62
     7
 10
413.7076502788472
 20
-6.956467339152743
 11
413.7048493222179
 21
-6.95436896849403
  0
LINE
  8
0
  6
CONTINUOUS
 62
     7
 10
374.4951507191362
 20
-6.954368937605875
 11
374.4923497625244
 21
-6.95646730825152
  0
LINE
  8
0
  6
CONTINUOUS
 62
     7
 10
387.7076502789453
 20
-6.956467339226568
 11
387.704849322316
 21
-6.954368968567827
  0
ARC
  8
0
  6
CONTINUOUS
 62
     7
 10
460.3822636618457
 20
-15.84959534839311
 40
3.089397268031936
 50
52.77013821963761
 51
89.67106111176076
  0
ARC
  8
0
  6
CONTINUOUS
 62
     7
 10
379.6177363381543
 20
-15.84959534839321
 40
3.089397268032037
 50
90.32893888823922
 51
127.2298617803703
  0
ARC
  8
0
  6
CONTINUOUS
 62
     7
 10
434.3822636618463
 20
-15.8495953483913
 40
3.089397268030112
 50
52.7701382194964
 51
89.67106111176986
  0
ARC
  8
0
  6
CONTINUOUS
 62
     7
 10
405.6177363381538
 20
-15.84959534839151
 40
3.089397268030313
 50
90.32893888823118
 51
127.2298617805109
  0
ARC
  8
0
  6
CONTINUOUS
 62
     7
 10
382.5584914077849
 20
-15.91950806324946
 40
3.1595317429324
 50
53.19314129846566
 51
89.24725061829247
  0
ARC
  8
0
  6
CONTINUOUS
 62
     7
 10
457.4415085922151
 20
-15.91950806324959
 40
3.159531742932511
 50
90.75274938170652
 51
126.8068587015342
  0
ARC
  8
0
  6
CONTINUOUS
 62
     7
 10
408.5584914077851
 20
-15.91950806324685
 40
3.159531742929787
 50
53.19314129822129
 51
89.24725061829787
  0
ARC
  8
0
  6
CONTINUOUS
 62
     7
 10
431.4415085922148
 20
-15.91950806324694
 40
3.159531742929859
 50
90.75274938170215
 51
126.8068587017802
  0
ENDBLK
  8
0
  0
BLOCK
  8
0
  2
D_FRAME_VIEW_1510
 70
     0
 10
0.0
 20
0.0
  0
LINE
  8
0
  6
CONTINUOUS
 62
     7
 10
420.0
 20
270.7
 11
417.5173938424846
 21
270.7
  0
ARC
  8
0
  6
CONTINUOUS
 62
     7
 10
424.7879933429936
 20
257.9799433977859
 40
5.298440215665733
 50
154.6435306330486
 51
176.4014449950915
  0
LINE
  8
0
  6
CONTINUOUS
 62
     7
 10
419.5
 20
255.0418344129913
 11
419.5
 21
258.3125018489486
  0
LINE
  8
0
  6
CONTINUOUS
 62
     7
 10
419.5
 20
255.0418344129913
 11
394.6
 21
255.0418344129913
  0
LINE
  8
0
  6
CONTINUOUS
 62
     7
 10
394.6
 20
255.0418344129913
 11
394.6
 21
258.3125018489486
  0
ARC
  8
0
  6
CONTINUOUS
 62
     7
 10
389.4784458723262
 20
258.0229178183918
 40
5.129734456426184
 50
3.236184679016336
 51
25.71883969284321
  0
ARC
  8
0
  6
CONTINUOUS
 62
     7
 10
398.8879933429935
 20
257.9799433977859
 40
5.298440215665665
 50
154.6435306330484
 51
176.4014449950916
  0
LINE
  8
0
  6
CONTINUOUS
 62
     7
 10
393.6
 20
255.0418344129913
 11
393.6
 21
258.3125018489486
  0
LINE
  8
0
  6
CONTINUOUS
 62
     7
 10
393.6
 20
255.0418344129913
 11
368.6
 21
255.0418344129913
  0
LINE
  8
0
  6
CONTINUOUS
 62
     7
 10
368.6
 20
255.0418344129913
 11
368.6
 21
258.3125018489486
  0
ARC
  8
0
  6
CONTINUOUS
 62
     7
 10
363.4784458723259
 20
258.0229178183918
 40
5.129734456426388
 50
3.236184679017013
 51
25.71883969284301
  0
ARC
  8
0
  6
CONTINUOUS
 62
     7
 10
372.8879933429937
 20
257.9799433977859
 40
5.298440215665909
 50
154.643530633049
 51
176.4014449950911
  0
LINE
  8
0
  6
CONTINUOUS
 62
     7
 10
367.6
 20
255.0418344129913
 11
367.6
 21
258.3125018489486
  0
LINE
  8
0
  6
CONTINUOUS
 62
     7
 10
367.6
 20
255.0418344129913
 11
363.0
 21
255.0418344129913
  0
POLYLINE
  8
0
  6
CONTINUOUS
 62
     7
 66
     1
  0
VERTEX
  8
0
  6
CONTINUOUS
 62
     7
 10
363.0
 20
255.0418344129913
  0
VERTEX
  8
0
  6
CONTINUOUS
 62
     7
 10
362.5122741949597
 20
254.9936141212311
  0
VERTEX
  8
0
  6
CONTINUOUS
 62
     7
 10
362.0432914190873
 20
254.8508063247207
  0
VERTEX
  8
0
  6
CONTINUOUS
 62
     7
 10
361.611074417451
 20
254.6188990469923
  0
VERTEX
  8
0
  6
CONTINUOUS
 62
     7
 10
361.2322330470336
 20
254.3068043546741
  0
VERTEX
  8
0
  6
CONTINUOUS
 62
     7
 10
360.9213259692436
 20
253.926515871767
  0
VERTEX
  8
0
  6
CONTINUOUS
 62
     7
 10
360.6903011687218
 20
253.4926478714011
  0
VERTEX
  8
0
  6
CONTINUOUS
 62
     7
 10
360.5480367989919
 20
253.0218736575142
  0
VERTEX
  8
0
  6
CONTINUOUS
 62
     7
 10
360.5
 20
252.5322848191329
  0
SEQEND
  8
0
  6
CONTINUOUS
 62
     7
  0
LINE
  8
0
  6
CONTINUOUS
 62
     7
 10
360.5
 20
252.5322848191329
 11
360.5
 21
202.0
  0
LINE
  8
0
  6
CONTINUOUS
 62
     7
 10
346.3
 20
204.4826061575154
 11
346.3
 21
202.0
  0
LINE
  8
0
  6
CONTINUOUS
 62
     7
 10
341.9999999999999
 20
202.0
 11
346.3
 21
204.4826061575154
  0
LINE
  8
0
  6
CONTINUOUS
 62
     7
 10
340.5
 20
202.0
 11
340.5
 21
270.5
  0
ARC
  8
0
  6
CONTINUOUS
 62
     7
 10
346.5
 20
270.5
 40
6.000000000000005
 50
90.0
 51
180.0
  0
LINE
  8
0
  6
CONTINUOUS
 62
     7
 10
346.5
 20
276.5
 11
420.0000000000001
 21
276.5
  0
LINE
  8
0
  6
CONTINUOUS
 62
     7
 10
417.5173938424846
 20
270.7
 11
420.0000000000001
 21
274.9999999999998
  0
LINE
  8
0
  6
CONTINUOUS
 62
     7
 10
420.0
 20
276.5
 11
493.4999999999999
 21
276.5
  0
ARC
  8
0
  6
CONTINUOUS
 62
     7
 10
493.4999999999999
 20
270.5
 40
6.000000000000005
 50
0.0
 51
90.0
  0
LINE
  8
0
  6
CONTINUOUS
 62
     7
 10
499.4999999999999
 20
270.5
 11
499.4999999999999
 21
202.0
  0
LINE
  8
0
  6
CONTINUOUS
 62
     7
 10
498.0
 20
202.0
 11
493.7
 21
204.4826061575154
  0
LINE
  8
0
  6
CONTINUOUS
 62
     7
 10
493.7
 20
204.4826061575154
 11
493.7
 21
202.0
  0
LINE
  8
0
  6
CONTINUOUS
 62
     7
 10
479.5
 20
202.0
 11
479.5
 21
252.5322848191329
  0
POLYLINE
  8
0
  6
CONTINUOUS
 62
     7
 66
     1
  0
VERTEX
  8
0
  6
CONTINUOUS
 62
     7
 10
479.4999999999999
 20
252.5322848191329
  0
VERTEX
  8
0
  6
CONTINUOUS
 62
     7
 10
479.451963201008
 20
253.0218736575142
  0
VERTEX
  8
0
  6
CONTINUOUS
 62
     7
 10
479.3096988312782
 20
253.4926478714011
  0
VERTEX
  8
0
  6
CONTINUOUS
 62
     7
 10
479.0786740307563
 20
253.9265158717671
  0
VERTEX
  8
0
  6
CONTINUOUS
 62
     7
 10
478.7677669529663
 20
254.3068043546741
  0
VERTEX
  8
0
  6
CONTINUOUS
 62
     7
 10
478.3889255825489
 20
254.6188990469923
  0
VERTEX
  8
0
  6
CONTINUOUS
 62
     7
 10
477.9567085809127
 20
254.8508063247207
  0
VERTEX
  8
0
  6
CONTINUOUS
 62
     7
 10
477.4877258050403
 20
254.9936141212311
  0
VERTEX
  8
0
  6
CONTINUOUS
 62
     7
 10
476.9999999999999
 20
255.0418344129913
  0
SEQEND
  8
0
  6
CONTINUOUS
 62
     7
  0
LINE
  8
0
  6
CONTINUOUS
 62
     7
 10
476.9999999999999
 20
255.0418344129913
 11
472.4
 21
255.0418344129913
  0
LINE
  8
0
  6
CONTINUOUS
 62
     7
 10
472.4
 20
255.0418344129913
 11
472.4
 21
258.3125018489486
  0
ARC
  8
0
  6
CONTINUOUS
 62
     7
 10
467.2784458723264
 20
258.0229178183919
 40
5.129734456426009
 50
3.236184679016223
 51
25.71883969284373
  0
ARC
  8
0
  6
CONTINUOUS
 62
     7
 10
476.6879933429933
 20
257.979943397786
 40
5.298440215665528
 50
154.6435306330482
 51
176.4014449950918
  0
LINE
  8
0
  6
CONTINUOUS
 62
     7
 10
471.4
 20
255.0418344129913
 11
471.4
 21
258.3125018489486
  0
LINE
  8
0
  6
CONTINUOUS
 62
     7
 10
471.4
 20
255.0418344129913
 11
446.4
 21
255.0418344129913
  0
LINE
  8
0
  6
CONTINUOUS
 62
     7
 10
446.4
 20
255.0418344129913
 11
446.4
 21
258.3125018489486
  0
ARC
  8
0
  6
CONTINUOUS
 62
     7
 10
441.2784458723264
 20
258.0229178183919
 40
5.129734456426013
 50
3.236184679016336
 51
25.71883969284388
  0
ARC
  8
0
  6
CONTINUOUS
 62
     7
 10
450.6879933429934
 20
257.979943397786
 40
5.298440215665528
 50
154.6435306330482
 51
176.4014449950918
  0
LINE
  8
0
  6
CONTINUOUS
 62
     7
 10
445.4
 20
255.0418344129913
 11
445.4
 21
258.3125018489486
  0
LINE
  8
0
  6
CONTINUOUS
 62
     7
 10
445.4
 20
255.0418344129913
 11
420.5
 21
255.0418344129913
  0
LINE
  8
0
  6
CONTINUOUS
 62
     7
 10
420.5
 20
255.0418344129913
 11
420.5
 21
258.3125018489486
  0
ARC
  8
0
  6
CONTINUOUS
 62
     7
 10
415.3784458723262
 20
258.0229178183918
 40
5.129734456426162
 50
3.236184679016336
 51
25.7188396928433
  0
LINE
  8
0
  6
CONTINUOUS
 62
     7
 10
422.4826061575154
 20
270.7
 11
420.0
 21
270.7
  0
LINE
  8
0
  6
CONTINUOUS
 62
     7
 10
420.0000000000001
 20
274.9999999999999
 11
422.4826061575154
 21
270.7
  0
LINE
  8
0
  6
CONTINUOUS
 62
     7
 10
417.5173938424846
 20
79.29999999999995
 11
420.0
 21
74.99999999999997
  0
LINE
  8
0
  6
CONTINUOUS
 62
     7
 10
420.0
 20
73.50000000000001
 11
346.5
 21
73.50000000000001
  0
ARC
  8
0
  6
CONTINUOUS
 62
     7
 10
346.5
 20
79.50000000000001
 40
6.000000000000005
 50
180.0
 51
270.0
  0
LINE
  8
0
  6
CONTINUOUS
 62
     7
 10
346.3
 20
145.5173938424846
 11
341.9999999999999
 21
148.0
  0
LINE
  8
0
  6
CONTINUOUS
 62
     7
 10
346.3
 20
148.0
 11
346.3
 21
145.5173938424846
  0
POLYLINE
  8
0
  6
CONTINUOUS
 62
     7
 66
     1
  0
VERTEX
  8
0
  6
CONTINUOUS
 62
     7
 10
360.5
 20
97.46771518086709
  0
VERTEX
  8
0
  6
CONTINUOUS
 62
     7
 10
360.5480367989919
 20
96.97812634248582
  0
VERTEX
  8
0
  6
CONTINUOUS
 62
     7
 10
360.6903011687218
 20
96.50735212859895
  0
VERTEX
  8
0
  6
CONTINUOUS
 62
     7
 10
360.9213259692436
 20
96.07348412823295
  0
VERTEX
  8
0
  6
CONTINUOUS
 62
     7
 10
361.2322330470336
 20
95.69319564532589
  0
VERTEX
  8
0
  6
CONTINUOUS
 62
     7
 10
361.611074417451
 20
95.38110095300766
  0
VERTEX
  8
0
  6
CONTINUOUS
 62
     7
 10
362.0432914190873
 20
95.14919367527934
  0
VERTEX
  8
0
  6
CONTINUOUS
 62
     7
 10
362.5122741949597
 20
95.0063858787689
  0
VERTEX
  8
0
  6
CONTINUOUS
 62
     7
 10
363.0
 20
94.95816558700872
  0
SEQEND
  8
0
  6
CONTINUOUS
 62
     7
  0
LINE
  8
0
  6
CONTINUOUS
 62
     7
 10
363.0
 20
94.95816558700872
 11
367.6
 21
94.95816558700872
  0
LINE
  8
0
  6
CONTINUOUS
 62
     7
 10
367.6
 20
94.95816558700872
 11
367.6
 21
91.68749815105144
  0
ARC
  8
0
  6
CONTINUOUS
 62
     7
 10
372.7215541276737
 20
91.97708218160814
 40
5.129734456426128
 50
183.2361846790164
 51
205.7188396928436
  0
ARC
  8
0
  6
CONTINUOUS
 62
     7
 10
363.3120066570065
 20
92.0200566022141
 40
5.298440215665665
 50
334.6435306330484
 51
356.4014449950916
  0
LINE
  8
0
  6
CONTINUOUS
 62
     7
 10
368.6
 20
94.95816558700872
 11
368.6
 21
91.68749815105144
  0
LINE
  8
0
  6
CONTINUOUS
 62
     7
 10
368.6
 20
94.95816558700872
 11
393.6
 21
94.95816558700872
  0
LINE
  8
0
  6
CONTINUOUS
 62
     7
 10
393.6
 20
94.95816558700872
 11
393.6
 21
91.68749815105144
  0
ARC
  8
0
  6
CONTINUOUS
 62
     7
 10
398.7215541276738
 20
91.97708218160814
 40
5.129734456426128
 50
183.2361846790164
 51
205.7188396928436
  0
ARC
  8
0
  6
CONTINUOUS
 62
     7
 10
389.3120066570065
 20
92.0200566022141
 40
5.298440215665665
 50
334.6435306330484
 51
356.4014449950916
  0
LINE
  8
0
  6
CONTINUOUS
 62
     7
 10
394.6
 20
94.95816558700872
 11
394.6
 21
91.68749815105144
  0
LINE
  8
0
  6
CONTINUOUS
 62
     7
 10
394.6
 20
94.95816558700872
 11
419.5
 21
94.95816558700872
  0
LINE
  8
0
  6
CONTINUOUS
 62
     7
 10
419.5
 20
94.95816558700872
 11
419.5
 21
91.68749815105144
  0
ARC
  8
0
  6
CONTINUOUS
 62
     7
 10
424.6215541276739
 20
91.97708218160818
 40
5.129734456426305
 50
183.2361846790165
 51
205.7188396928428
  0
LINE
  8
0
  6
CONTINUOUS
 62
     7
 10
420.0
 20
79.29999999999998
 11
417.5173938424846
 21
79.29999999999995
  0
LINE
  8
0
  6
CONTINUOUS
 62
     7
 10
340.5
 20
79.50000000000001
 11
340.5
 21
148.0
  0
LINE
  8
0
  6
CONTINUOUS
 62
     7
 10
360.5
 20
148.0
 11
360.5
 21
97.46771518086709
  0
ARC
  8
0
  6
CONTINUOUS
 62
     7
 10
415.2120066570064
 20
92.02005660221411
 40
5.298440215665738
 50
334.6435306330486
 51
356.4014449950914
  0
LINE
  8
0
  6
CONTINUOUS
 62
     7
 10
420.5
 20
94.95816558700872
 11
420.5
 21
91.68749815105144
  0
LINE
  8
0
  6
CONTINUOUS
 62
     7
 10
420.5
 20
94.95816558700872
 11
445.4
 21
94.95816558700872
  0
LINE
  8
0
  6
CONTINUOUS
 62
     7
 10
445.4
 20
94.95816558700872
 11
445.4
 21
91.68749815105144
  0
ARC
  8
0
  6
CONTINUOUS
 62
     7
 10
450.5215541276741
 20
91.97708218160825
 40
5.129734456426536
 50
183.2361846790173
 51
205.7188396928427
  0
ARC
  8
0
  6
CONTINUOUS
 62
     7
 10
441.1120066570065
 20
92.0200566022141
 40
5.298440215665665
 50
334.6435306330484
 51
356.4014449950916
  0
LINE
  8
0
  6
CONTINUOUS
 62
     7
 10
446.4
 20
94.95816558700872
 11
446.4
 21
91.68749815105144
  0
LINE
  8
0
  6
CONTINUOUS
 62
     7
 10
446.4
 20
94.95816558700872
 11
471.4
 21
94.95816558700872
  0
LINE
  8
0
  6
CONTINUOUS
 62
     7
 10
471.4
 20
94.95816558700872
 11
471.4
 21
91.68749815105144
  0
ARC
  8
0
  6
CONTINUOUS
 62
     7
 10
476.5215541276742
 20
91.97708218160825
 40
5.129734456426536
 50
183.2361846790173
 51
205.7188396928427
  0
ARC
  8
0
  6
CONTINUOUS
 62
     7
 10
467.1120066570064
 20
92.02005660221411
 40
5.29844021566574
 50
334.6435306330487
 51
356.4014449950915
  0
LINE
  8
0
  6
CONTINUOUS
 62
     7
 10
472.4
 20
94.95816558700872
 11
472.4
 21
91.68749815105144
  0
LINE
  8
0
  6
CONTINUOUS
 62
     7
 10
472.4
 20
94.95816558700872
 11
476.9999999999999
 21
94.95816558700872
  0
POLYLINE
  8
0
  6
CONTINUOUS
 62
     7
 66
     1
  0
VERTEX
  8
0
  6
CONTINUOUS
 62
     7
 10
476.9999999999999
 20
94.95816558700872
  0
VERTEX
  8
0
  6
CONTINUOUS
 62
     7
 10
477.4877258050403
 20
95.0063858787689
  0
VERTEX
  8
0
  6
CONTINUOUS
 62
     7
 10
477.9567085809127
 20
95.14919367527934
  0
VERTEX
  8
0
  6
CONTINUOUS
 62
     7
 10
478.3889255825489
 20
95.38110095300766
  0
VERTEX
  8
0
  6
CONTINUOUS
 62
     7
 10
478.7677669529663
 20
95.69319564532589
  0
VERTEX
  8
0
  6
CONTINUOUS
 62
     7
 10
479.0786740307563
 20
96.07348412823293
  0
VERTEX
  8
0
  6
CONTINUOUS
 62
     7
 10
479.3096988312782
 20
96.50735212859894
  0
VERTEX
  8
0
  6
CONTINUOUS
 62
     7
 10
479.451963201008
 20
96.97812634248581
  0
VERTEX
  8
0
  6
CONTINUOUS
 62
     7
 10
479.4999999999999
 20
97.46771518086707
  0
SEQEND
  8
0
  6
CONTINUOUS
 62
     7
  0
LINE
  8
0
  6
CONTINUOUS
 62
     7
 10
493.7
 20
148.0
 11
493.7
 21
145.5173938424846
  0
LINE
  8
0
  6
CONTINUOUS
 62
     7
 10
493.7
 20
145.5173938424846
 11
498.0000000000001
 21
148.0
  0
ARC
  8
0
  6
CONTINUOUS
 62
     7
 10
493.4999999999999
 20
79.50000000000001
 40
6.000000000000005
 50
270.0
 51
0.0
  0
LINE
  8
0
  6
CONTINUOUS
 62
     7
 10
493.4999999999999
 20
73.50000000000001
 11
419.9999999999999
 21
73.50000000000001
  0
LINE
  8
0
  6
CONTINUOUS
 62
     7
 10
420.0
 20
74.99999999999997
 11
422.4826061575154
 21
79.30000000000003
  0
LINE
  8
0
  6
CONTINUOUS
 62
     7
 10
422.4826061575154
 20
79.30000000000003
 11
420.0
 21
79.29999999999998
  0
LINE
  8
0
  6
CONTINUOUS
 62
     7
 10
479.5
 20
97.46771518086707
 11
479.5
 21
148.0
  0
LINE
  8
0
  6
CONTINUOUS
 62
     7
 10
499.4999999999999
 20
148.0
 11
499.4999999999999
 21
79.50000000000001
  0
LINE
  8
0
  6
CONTINUOUS
 62
     7
 10
498.0
 20
175.0
 11
493.7
 21
177.4826061575154
  0
LINE
  8
0
  6
CONTINUOUS
 62
     7
 10
493.7
 20
177.4826061575154
 11
493.7
 21
175.0
  0
LINE
  8
0
  6
CONTINUOUS
 62
     7
 10
493.7
 20
202.0
 11
493.7
 21
199.5173938424846
  0
LINE
  8
0
  6
CONTINUOUS
 62
     7
 10
493.7
 20
199.5173938424846
 11
498.0
 21
202.0
  0
LINE
  8
0
  6
CONTINUOUS
 62
     7
 10
479.5
 20
175.0
 11
479.5
 21
202.0
  0
LINE
  8
0
  6
CONTINUOUS
 62
     7
 10
499.4999999999999
 20
202.0
 11
499.4999999999999
 21
175.0
  0
LINE
  8
0
  6
CONTINUOUS
 62
     7
 10
493.7
 20
150.4826061575154
 11
493.7
 21
148.0
  0
LINE
  8
0
  6
CONTINUOUS
 62
     7
 10
493.7
 20
175.0
 11
493.7
 21
172.5173938424846
  0
LINE
  8
0
  6
CONTINUOUS
 62
     7
 10
493.7
 20
172.5173938424846
 11
498.0
 21
175.0
  0
LINE
  8
0
  6
CONTINUOUS
 62
     7
 10
498.0
 20
148.0000000000001
 11
493.7
 21
150.4826061575154
  0
LINE
  8
0
  6
CONTINUOUS
 62
     7
 10
479.5
 20
148.0
 11
479.5
 21
175.0
  0
LINE
  8
0
  6
CONTINUOUS
 62
     7
 10
499.4999999999999
 20
175.0
 11
499.4999999999999
 21
148.0
  0
ARC
  8
0
  6
CONTINUOUS
 62
     7
 10
363.0139166814284
 20
100.6176190834582
 40
2.513946851339752
 50
179.7192970122975
 51
269.6828209861085
  0
LINE
  8
0
  6
CONTINUOUS
 62
     7
 10
341.9999999999999
 20
148.0
 11
346.3
 21
150.4826061575154
  0
LINE
  8
0
  6
CONTINUOUS
 62
     7
 10
346.3
 20
172.5173938424846
 11
341.9999999999999
 21
175.0
  0
LINE
  8
0
  6
CONTINUOUS
 62
     7
 10
346.3
 20
175.0
 11
346.3
 21
172.5173938424846
  0
LINE
  8
0
  6
CONTINUOUS
 62
     7
 10
346.3
 20
150.4826061575154
 11
346.3
 21
148.0
  0
LINE
  8
0
  6
CONTINUOUS
 62
     7
 10
340.5
 20
148.0
 11
340.5
 21
175.0
  0
LINE
  8
0
  6
CONTINUOUS
 62
     7
 10
360.5
 20
175.0
 11
360.5
 21
148.0
  0
LINE
  8
0
  6
CONTINUOUS
 62
     7
 10
346.3
 20
177.4826061575154
 11
346.3
 21
175.0
  0
LINE
  8
0
  6
CONTINUOUS
 62
     7
 10
341.9999999999999
 20
175.0
 11
346.3
 21
177.4826061575154
  0
LINE
  8
0
  6
CONTINUOUS
 62
     7
 10
346.3
 20
199.5173938424846
 11
341.9999999999999
 21
202.0
  0
LINE
  8
0
  6
CONTINUOUS
 62
     7
 10
346.3
 20
202.0
 11
346.3
 21
199.5173938424846
  0
LINE
  8
0
  6
CONTINUOUS
 62
     7
 10
340.5
 20
175.0
 11
340.5
 21
202.0
  0
LINE
  8
0
  6
CONTINUOUS
 62
     7
 10
360.5
 20
202.0
 11
360.5
 21
175.0
  0
ARC
  8
0
  6
CONTINUOUS
 62
     7
 10
476.9857559108888
 20
100.617943092341
 40
2.514272688801934
 50
270.324599061378
 51
0.2732829402257266
  0
LINE
  8
0
  6
CONTINUOUS
 62
     7
 10
363.0
 20
98.10371075232534
 11
371.5215860917728
 21
98.10371075232534
  0
LINE
  8
0
  6
CONTINUOUS
 62
     7
 10
390.6794128966726
 20
98.10371075232534
 11
397.5215860917739
 21
98.10371075232534
  0
LINE
  8
0
  6
CONTINUOUS
 62
     7
 10
416.6794128966727
 20
98.10371075232534
 11
423.3232048967241
 21
98.10371075232534
  0
LINE
  8
0
  6
CONTINUOUS
 62
     7
 10
442.4784719089937
 20
98.10371075232534
 11
449.3232048967244
 21
98.10371075232534
  0
LINE
  8
0
  6
CONTINUOUS
 62
     7
 10
468.478471908993
 20
98.10371075232534
 11
477.0000000000003
 21
98.10371075232534
  0
LINE
  8
0
  6
CONTINUOUS
 62
     7
 10
472.4
 20
97.97652447865309
 11
471.9
 21
98.02026881041606
  0
LINE
  8
0
  6
CONTINUOUS
 62
     7
 10
471.9
 20
98.02026881041606
 11
471.4
 21
97.97652447865309
  0
LINE
  8
0
  6
CONTINUOUS
 62
     7
 10
446.4
 20
97.97652447865309
 11
445.9
 21
98.02026881041606
  0
LINE
  8
0
  6
CONTINUOUS
 62
     7
 10
445.9
 20
98.02026881041606
 11
445.4
 21
97.97652447865309
  0
LINE
  8
0
  6
CONTINUOUS
 62
     7
 10
420.5
 20
97.97652447865309
 11
420.0
 21
98.02026881041606
  0
LINE
  8
0
  6
CONTINUOUS
 62
     7
 10
420.0
 20
98.02026881041606
 11
419.5
 21
97.97652447865309
  0
LINE
  8
0
  6
CONTINUOUS
 62
     7
 10
394.6
 20
97.97652447865309
 11
394.1
 21
98.02026881041606
  0
LINE
  8
0
  6
CONTINUOUS
 62
     7
 10
394.1
 20
98.02026881041606
 11
393.6
 21
97.97652447865309
  0
LINE
  8
0
  6
CONTINUOUS
 62
     7
 10
368.6
 20
97.97652447865309
 11
368.1
 21
98.02026881041606
  0
LINE
  8
0
  6
CONTINUOUS
 62
     7
 10
368.1
 20
98.02026881041606
 11
367.6
 21
97.97652447865309
  0
LINE
  8
0
  6
CONTINUOUS
 62
     7
 10
420.5
 20
94.95816558700872
 11
420.5
 21
97.97652447865309
  0
LINE
  8
0
  6
CONTINUOUS
 62
     7
 10
446.4
 20
94.95816558700872
 11
446.4
 21
97.97652447865309
  0
LINE
  8
0
  6
CONTINUOUS
 62
     7
 10
445.4
 20
97.97652447865309
 11
445.4
 21
94.95816558700872
  0
LINE
  8
0
  6
CONTINUOUS
 62
     7
 10
419.5
 20
97.97652447865309
 11
419.5
 21
94.95816558700872
  0
LINE
  8
0
  6
CONTINUOUS
 62
     7
 10
368.6
 20
94.95816558700872
 11
368.6
 21
97.97652447865309
  0
LINE
  8
0
  6
CONTINUOUS
 62
     7
 10
393.6
 20
97.97652447865309
 11
393.6
 21
94.95816558700872
  0
LINE
  8
0
  6
CONTINUOUS
 62
     7
 10
367.6
 20
97.97652447865309
 11
367.6
 21
94.95816558700872
  0
LINE
  8
0
  6
CONTINUOUS
 62
     7
 10
472.4
 20
94.95816558700872
 11
472.4
 21
97.97652447865309
  0
LINE
  8
0
  6
CONTINUOUS
 62
     7
 10
471.4
 20
97.97652447865309
 11
471.4
 21
94.95816558700872
  0
LINE
  8
0
  6
CONTINUOUS
 62
     7
 10
394.6
 20
94.95816558700872
 11
394.6
 21
97.97652447865309
  0
ARC
  8
0
  6
CONTINUOUS
 62
     7
 10
363.0142440891112
 20
249.382056907659
 40
2.514272688801948
 50
90.32459906137849
 51
180.2732829402258
  0
LINE
  8
0
  6
CONTINUOUS
 62
     7
 10
476.9999999999999
 20
251.8962892476747
 11
468.4794120035274
 21
251.8962892476747
  0
LINE
  8
0
  6
CONTINUOUS
 62
     7
 10
449.3187365651643
 20
251.8962892476747
 11
442.4794120035271
 21
251.8962892476747
  0
LINE
  8
0
  6
CONTINUOUS
 62
     7
 10
423.3187365651642
 20
251.8962892476747
 11
416.6784309380459
 21
251.8962892476747
  0
LINE
  8
0
  6
CONTINUOUS
 62
     7
 10
397.5209491753207
 20
251.8962892476747
 11
390.6784309380458
 21
251.8962892476747
  0
LINE
  8
0
  6
CONTINUOUS
 62
     7
 10
371.5209491753222
 20
251.8962892476747
 11
362.9999999999995
 21
251.8962892476747
  0
LINE
  8
0
  6
CONTINUOUS
 62
     7
 10
367.6
 20
252.023475521347
 11
368.1
 21
251.979731189584
  0
LINE
  8
0
  6
CONTINUOUS
 62
     7
 10
368.1
 20
251.9797311895839
 11
368.6
 21
252.0234755213469
  0
LINE
  8
0
  6
CONTINUOUS
 62
     7
 10
393.6
 20
252.023475521347
 11
394.1
 21
251.979731189584
  0
LINE
  8
0
  6
CONTINUOUS
 62
     7
 10
394.1
 20
251.9797311895839
 11
394.6
 21
252.0234755213469
  0
LINE
  8
0
  6
CONTINUOUS
 62
     7
 10
419.5
 20
252.023475521347
 11
420.0
 21
251.979731189584
  0
LINE
  8
0
  6
CONTINUOUS
 62
     7
 10
420.0
 20
251.9797311895839
 11
420.5
 21
252.0234755213469
  0
LINE
  8
0
  6
CONTINUOUS
 62
     7
 10
445.4
 20
252.023475521347
 11
445.9
 21
251.979731189584
  0
LINE
  8
0
  6
CONTINUOUS
 62
     7
 10
445.9
 20
251.9797311895839
 11
446.4
 21
252.0234755213469
  0
LINE
  8
0
  6
CONTINUOUS
 62
     7
 10
471.4
 20
252.023475521347
 11
471.9
 21
251.979731189584
  0
LINE
  8
0
  6
CONTINUOUS
 62
     7
 10
471.9
 20
251.9797311895839
 11
472.4
 21
252.0234755213469
  0
LINE
  8
0
  6
CONTINUOUS
 62
     7
 10
446.4
 20
255.0418344129913
 11
446.4
 21
252.0234755213469
  0
LINE
  8
0
  6
CONTINUOUS
 62
     7
 10
394.6
 20
255.0418344129913
 11
394.6
 21
252.0234755213469
  0
LINE
  8
0
  6
CONTINUOUS
 62
     7
 10
420.5
 20
255.0418344129913
 11
420.5
 21
252.0234755213469
  0
LINE
  8
0
  6
CONTINUOUS
 62
     7
 10
445.4
 20
252.023475521347
 11
445.4
 21
255.0418344129913
  0
LINE
  8
0
  6
CONTINUOUS
 62
     7
 10
393.6
 20
252.023475521347
 11
393.6
 21
255.0418344129913
  0
LINE
  8
0
  6
CONTINUOUS
 62
     7
 10
472.4
 20
255.0418344129913
 11
472.4
 21
252.0234755213469
  0
LINE
  8
0
  6
CONTINUOUS
 62
     7
 10
367.6
 20
252.023475521347
 11
367.6
 21
255.0418344129913
  0
LINE
  8
0
  6
CONTINUOUS
 62
     7
 10
471.4
 20
252.023475521347
 11
471.4
 21
255.0418344129913
  0
LINE
  8
0
  6
CONTINUOUS
 62
     7
 10
368.6
 20
255.0418344129913
 11
368.6
 21
252.0234755213469
  0
LINE
  8
0
  6
CONTINUOUS
 62
     7
 10
419.5
 20
252.023475521347
 11
419.5
 21
255.0418344129913
  0
ARC
  8
0
  6
CONTINUOUS
 62
     7
 10
476.9860833185715
 20
249.3823809165418
 40
2.513946851339738
 50
359.7192970122972
 51
89.68282098610877
  0
POLYLINE
  8
0
  6
CONTINUOUS
 62
     7
 66
     1
  0
VERTEX
  8
0
  6
CONTINUOUS
 62
     7
 10
368.1
 20
95.9803370483789
  0
VERTEX
  8
0
  6
CONTINUOUS
 62
     7
 10
368.197545161008
 20
95.98990784927271
  0
VERTEX
  8
0
  6
CONTINUOUS
 62
     7
 10
368.2913417161825
 20
96.01825245144316
  0
VERTEX
  8
0
  6
CONTINUOUS
 62
     7
 10
368.3777851165098
 20
96.06428158772468
  0
VERTEX
  8
0
  6
CONTINUOUS
 62
     7
 10
368.4535533905932
 20
96.1262263842234
  0
VERTEX
  8
0
  6
CONTINUOUS
 62
     7
 10
368.5157348061512
 20
96.20170633714892
  0
VERTEX
  8
0
  6
CONTINUOUS
 62
     7
 10
368.5619397662556
 20
96.28782079423995
  0
VERTEX
  8
0
  6
CONTINUOUS
 62
     7
 10
368.5903926402016
 20
96.38126042520403
  0
VERTEX
  8
0
  6
CONTINUOUS
 62
     7
 10
368.6
 20
96.47843439742478
  0
SEQEND
  8
0
  6
CONTINUOUS
 62
     7
  0
POLYLINE
  8
0
  6
CONTINUOUS
 62
     7
 66
     1
  0
VERTEX
  8
0
  6
CONTINUOUS
 62
     7
 10
471.9
 20
95.98033704837889
  0
VERTEX
  8
0
  6
CONTINUOUS
 62
     7
 10
471.997545161008
 20
95.9899078492727
  0
VERTEX
  8
0
  6
CONTINUOUS
 62
     7
 10
472.0913417161825
 20
96.01825245144315
  0
VERTEX
  8
0
  6
CONTINUOUS
 62
     7
 10
472.1777851165098
 20
96.06428158772466
  0
VERTEX
  8
0
  6
CONTINUOUS
 62
     7
 10
472.2535533905933
 20
96.12622638422339
  0
VERTEX
  8
0
  6
CONTINUOUS
 62
     7
 10
472.3157348061512
 20
96.2017063371489
  0
VERTEX
  8
0
  6
CONTINUOUS
 62
     7
 10
472.3619397662556
 20
96.28782079423993
  0
VERTEX
  8
0
  6
CONTINUOUS
 62
     7
 10
472.3903926402016
 20
96.38126042520402
  0
VERTEX
  8
0
  6
CONTINUOUS
 62
     7
 10
472.4
 20
96.47843439742476
  0
SEQEND
  8
0
  6
CONTINUOUS
 62
     7
  0
POLYLINE
  8
0
  6
CONTINUOUS
 62
     7
 66
     1
  0
VERTEX
  8
0
  6
CONTINUOUS
 62
     7
 10
420.0
 20
95.9803370483789
  0
VERTEX
  8
0
  6
CONTINUOUS
 62
     7
 10
420.097545161008
 20
95.98990784927271
  0
VERTEX
  8
0
  6
CONTINUOUS
 62
     7
 10
420.1913417161825
 20
96.01825245144316
  0
VERTEX
  8
0
  6
CONTINUOUS
 62
     7
 10
420.2777851165098
 20
96.06428158772468
  0
VERTEX
  8
0
  6
CONTINUOUS
 62
     7
 10
420.3535533905933
 20
96.1262263842234
  0
VERTEX
  8
0
  6
CONTINUOUS
 62
     7
 10
420.4157348061512
 20
96.20170633714892
  0
VERTEX
  8
0
  6
CONTINUOUS
 62
     7
 10
420.4619397662556
 20
96.28782079423995
  0
VERTEX
  8
0
  6
CONTINUOUS
 62
     7
 10
420.4903926402016
 20
96.38126042520403
  0
VERTEX
  8
0
  6
CONTINUOUS
 62
     7
 10
420.5
 20
96.47843439742478
  0
SEQEND
  8
0
  6
CONTINUOUS
 62
     7
  0
POLYLINE
  8
0
  6
CONTINUOUS
 62
     7
 66
     1
  0
VERTEX
  8
0
  6
CONTINUOUS
 62
     7
 10
394.1
 20
95.9803370483789
  0
VERTEX
  8
0
  6
CONTINUOUS
 62
     7
 10
394.1975451610081
 20
95.98990784927271
  0
VERTEX
  8
0
  6
CONTINUOUS
 62
     7
 10
394.2913417161826
 20
96.01825245144316
  0
VERTEX
  8
0
  6
CONTINUOUS
 62
     7
 10
394.3777851165098
 20
96.06428158772468
  0
VERTEX
  8
0
  6
CONTINUOUS
 62
     7
 10
394.4535533905933
 20
96.1262263842234
  0
VERTEX
  8
0
  6
CONTINUOUS
 62
     7
 10
394.5157348061513
 20
96.20170633714892
  0
VERTEX
  8
0
  6
CONTINUOUS
 62
     7
 10
394.5619397662556
 20
96.28782079423995
  0
VERTEX
  8
0
  6
CONTINUOUS
 62
     7
 10
394.5903926402016
 20
96.38126042520403
  0
VERTEX
  8
0
  6
CONTINUOUS
 62
     7
 10
394.6
 20
96.47843439742478
  0
SEQEND
  8
0
  6
CONTINUOUS
 62
     7
  0
POLYLINE
  8
0
  6
CONTINUOUS
 62
     7
 66
     1
  0
VERTEX
  8
0
  6
CONTINUOUS
 62
     7
 10
445.9
 20
95.98033704837889
  0
VERTEX
  8
0
  6
CONTINUOUS
 62
     7
 10
445.997545161008
 20
95.9899078492727
  0
VERTEX
  8
0
  6
CONTINUOUS
 62
     7
 10
446.0913417161825
 20
96.01825245144315
  0
VERTEX
  8
0
  6
CONTINUOUS
 62
     7
 10
446.1777851165098
 20
96.06428158772466
  0
VERTEX
  8
0
  6
CONTINUOUS
 62
     7
 10
446.2535533905933
 20
96.12622638422339
  0
VERTEX
  8
0
  6
CONTINUOUS
 62
     7
 10
446.3157348061512
 20
96.2017063371489
  0
VERTEX
  8
0
  6
CONTINUOUS
 62
     7
 10
446.3619397662556
 20
96.28782079423993
  0
VERTEX
  8
0
  6
CONTINUOUS
 62
     7
 10
446.3903926402016
 20
96.38126042520402
  0
VERTEX
  8
0
  6
CONTINUOUS
 62
     7
 10
446.4
 20
96.47843439742476
  0
SEQEND
  8
0
  6
CONTINUOUS
 62
     7
  0
POLYLINE
  8
0
  6
CONTINUOUS
 62
     7
 66
     1
  0
VERTEX
  8
0
  6
CONTINUOUS
 62
     7
 10
395.5643044874666
 20
253.2820432601298
  0
VERTEX
  8
0
  6
CONTINUOUS
 62
     7
 10
395.625764163008
 20
253.3917002235987
  0
VERTEX
  8
0
  6
CONTINUOUS
 62
     7
 10
395.7947608975339
 20
253.4884351855997
  0
SEQEND
  8
0
  6
CONTINUOUS
 62
     7
  0
ARC
  8
0
  6
CONTINUOUS
 62
     7
 10
406.9167577753913
 20
184.4447219626841
 40
69.93377689042167
 50
86.04866209638787
 51
99.1509539042586
  0
ARC
  8
0
  6
CONTINUOUS
 62
     7
 10
412.1682912638516
 20
228.0371582815013
 40
26.17867562458179
 50
75.97818347330299
 51
90.94652749402309
  0
POLYLINE
  8
0
  6
CONTINUOUS
 62
     7
 66
     1
  0
VERTEX
  8
0
  6
CONTINUOUS
 62
     7
 10
418.5111576020414
 20
253.4358020262553
  0
VERTEX
  8
0
  6
CONTINUOUS
 62
     7
 10
418.6207639966152
 20
253.3391107058389
  0
VERTEX
  8
0
  6
CONTINUOUS
 62
     7
 10
418.6356956231291
 20
253.2820448082637
  0
SEQEND
  8
0
  6
CONTINUOUS
 62
     7
  0
POLYLINE
  8
0
  6
CONTINUOUS
 62
     7
 66
     1
  0
VERTEX
  8
0
  6
CONTINUOUS
 62
     7
 10
369.5643044874666
 20
253.2820432601299
  0
VERTEX
  8
0
  6
CONTINUOUS
 62
     7
 10
369.6257641630093
 20
253.3917002235996
  0
VERTEX
  8
0
  6
CONTINUOUS
 62
     7
 10
369.7947608975355
 20
253.4884351856001
  0
SEQEND
  8
0
  6
CONTINUOUS
 62
     7
  0
ARC
  8
0
  6
CONTINUOUS
 62
     7
 10
380.9167577753889
 20
184.4447219627245
 40
69.93377689038151
 50
86.04866209638601
 51
99.15095390426052
  0
ARC
  8
0
  6
CONTINUOUS
 62
     7
 10
386.1682912638481
 20
228.0371582814718
 40
26.17867562461144
 50
75.97818347331213
 51
90.94652749402053
  0
POLYLINE
  8
0
  6
CONTINUOUS
 62
     7
 66
     1
  0
VERTEX
  8
0
  6
CONTINUOUS
 62
     7
 10
392.5111576020411
 20
253.4358020262556
  0
VERTEX
  8
0
  6
CONTINUOUS
 62
     7
 10
392.620763996615
 20
253.3391107058391
  0
VERTEX
  8
0
  6
CONTINUOUS
 62
     7
 10
392.6356956231291
 20
253.2820448082637
  0
SEQEND
  8
0
  6
CONTINUOUS
 62
     7
  0
POLYLINE
  8
0
  6
CONTINUOUS
 62
     7
 66
     1
  0
VERTEX
  8
0
  6
CONTINUOUS
 62
     7
 10
444.4356955125334
 20
253.2820432601294
  0
VERTEX
  8
0
  6
CONTINUOUS
 62
     7
 10
444.3742358369892
 20
253.3917002236007
  0
VERTEX
  8
0
  6
CONTINUOUS
 62
     7
 10
444.2052391024613
 20
253.4884351856014
  0
SEQEND
  8
0
  6
CONTINUOUS
 62
     7
  0
ARC
  8
0
  6
CONTINUOUS
 62
     7
 10
433.0832422245996
 20
184.4447219624477
 40
69.93377689065746
 50
80.84904609576897
 51
93.95133790360562
  0
ARC
  8
0
  6
CONTINUOUS
 62
     7
 10
427.8317087361291
 20
228.0371582816699
 40
26.17867562441259
 50
89.05347250596674
 51
104.0218165267547
  0
POLYLINE
  8
0
  6
CONTINUOUS
 62
     7
 66
     1
  0
VERTEX
  8
0
  6
CONTINUOUS
 62
     7
 10
421.4888423979547
 20
253.4358020262534
  0
VERTEX
  8
0
  6
CONTINUOUS
 62
     7
 10
421.3792360033831
 20
253.3391107058366
  0
VERTEX
  8
0
  6
CONTINUOUS
 62
     7
 10
421.3643043768708
 20
253.2820448082641
  0
SEQEND
  8
0
  6
CONTINUOUS
 62
     7
  0
POLYLINE
  8
0
  6
CONTINUOUS
 62
     7
 66
     1
  0
VERTEX
  8
0
  6
CONTINUOUS
 62
     7
 10
470.4356955125334
 20
253.2820432601294
  0
VERTEX
  8
0
  6
CONTINUOUS
 62
     7
 10
470.3742358369891
 20
253.3917002236007
  0
VERTEX
  8
0
  6
CONTINUOUS
 62
     7
 10
470.2052391024613
 20
253.4884351856014
  0
SEQEND
  8
0
  6
CONTINUOUS
 62
     7
  0
ARC
  8
0
  6
CONTINUOUS
 62
     7
 10
459.0832422245997
 20
184.4447219624492
 40
69.93377689065599
 50
80.84904609576887
 51
93.95133790360468
  0
ARC
  8
0
  6
CONTINUOUS
 62
     7
 10
453.8317087361277
 20
228.0371582816827
 40
26.17867562439995
 50
89.05347250596007
 51
104.0218165267565
  0
POLYLINE
  8
0
  6
CONTINUOUS
 62
     7
 66
     1
  0
VERTEX
  8
0
  6
CONTINUOUS
 62
     7
 10
447.4888423979555
 20
253.4358020262537
  0
VERTEX
  8
0
  6
CONTINUOUS
 62
     7
 10
447.3792360033834
 20
253.339110705837
  0
VERTEX
  8
0
  6
CONTINUOUS
 62
     7
 10
447.3643043768708
 20
253.2820448082641
  0
SEQEND
  8
0
  6
CONTINUOUS
 62
     7
  0
POLYLINE
  8
0
  6
CONTINUOUS
 62
     7
 66
     1
  0
VERTEX
  8
0
  6
CONTINUOUS
 62
     7
 10
369.5643048291311
 20
96.71796152011329
  0
VERTEX
  8
0
  6
CONTINUOUS
 62
     7
 10
369.6076399610176
 20
96.6249800687651
  0
VERTEX
  8
0
  6
CONTINUOUS
 62
     7
 10
369.7583924340108
 20
96.52798358671936
  0
SEQEND
  8
0
  6
CONTINUOUS
 62
     7
  0
ARC
  8
0
  6
CONTINUOUS
 62
     7
 10
380.8347372706511
 20
163.3439435455655
 40
67.72782234918161
 50
260.5874521212167
 51
274.0000333463957
  0
ARC
  8
0
  6
CONTINUOUS
 62
     7
 10
385.9582460632281
 20
123.8169618180731
 40
28.03869561542196
 50
269.1846029161616
 51
283.4533214897046
  0
POLYLINE
  8
0
  6
CONTINUOUS
 62
     7
 66
     1
  0
VERTEX
  8
0
  6
CONTINUOUS
 62
     7
 10
392.4815355974265
 20
96.54765406251578
  0
VERTEX
  8
0
  6
CONTINUOUS
 62
     7
 10
392.6094088862257
 20
96.64412728076111
  0
VERTEX
  8
0
  6
CONTINUOUS
 62
     7
 10
392.6356953145231
 20
96.71795951068599
  0
SEQEND
  8
0
  6
CONTINUOUS
 62
     7
  0
POLYLINE
  8
0
  6
CONTINUOUS
 62
     7
 66
     1
  0
VERTEX
  8
0
  6
CONTINUOUS
 62
     7
 10
444.4356951708689
 20
96.71796152011284
  0
VERTEX
  8
0
  6
CONTINUOUS
 62
     7
 10
444.3923600389848
 20
96.62498006876699
  0
VERTEX
  8
0
  6
CONTINUOUS
 62
     7
 10
444.2416075659946
 20
96.52798358672123
  0
SEQEND
  8
0
  6
CONTINUOUS
 62
     7
  0
ARC
  8
0
  6
CONTINUOUS
 62
     7
 10
433.16526272936
 20
163.343943545313
 40
67.72782234892969
 50
265.9999666535992
 51
279.4125478788137
  0
ARC
  8
0
  6
CONTINUOUS
 62
     7
 10
428.0417539367992
 20
123.8169618183157
 40
28.03869561566531
 50
256.5466785103657
 51
270.8153970838219
  0
POLYLINE
  8
0
  6
CONTINUOUS
 62
     7
 66
     1
  0
VERTEX
  8
0
  6
CONTINUOUS
 62
     7
 10
421.5184644025776
 20
96.54765406251373
  0
VERTEX
  8
0
  6
CONTINUOUS
 62
     7
 10
421.3905911137763
 20
96.64412728075888
  0
VERTEX
  8
0
  6
CONTINUOUS
 62
     7
 10
421.3643046854768
 20
96.71795951068643
  0
SEQEND
  8
0
  6
CONTINUOUS
 62
     7
  0
POLYLINE
  8
0
  6
CONTINUOUS
 62
     7
 66
     1
  0
VERTEX
  8
0
  6
CONTINUOUS
 62
     7
 10
395.5643048291311
 20
96.71796152011328
  0
VERTEX
  8
0
  6
CONTINUOUS
 62
     7
 10
395.6076399610182
 20
96.62498006876432
  0
VERTEX
  8
0
  6
CONTINUOUS
 62
     7
 10
395.7583924340111
 20
96.52798358671885
  0
SEQEND
  8
0
  6
CONTINUOUS
 62
     7
  0
ARC
  8
0
  6
CONTINUOUS
 62
     7
 10
406.8347372706529
 20
163.3439435456373
 40
67.72782234925315
 50
260.5874521212254
 51
274.0000333463915
  0
ARC
  8
0
  6
CONTINUOUS
 62
     7
 10
411.9582460632273
 20
123.8169618180746
 40
28.03869561542339
 50
269.184602916167
 51
283.453321489708
  0
POLYLINE
  8
0
  6
CONTINUOUS
 62
     7
 66
     1
  0
VERTEX
  8
0
  6
CONTINUOUS
 62
     7
 10
418.4815355974277
 20
96.54765406251629
  0
VERTEX
  8
0
  6
CONTINUOUS
 62
     7
 10
418.6094088862262
 20
96.64412728076175
  0
VERTEX
  8
0
  6
CONTINUOUS
 62
     7
 10
418.6356953145232
 20
96.71795951068599
  0
SEQEND
  8
0
  6
CONTINUOUS
 62
     7
  0
POLYLINE
  8
0
  6
CONTINUOUS
 62
     7
 66
     1
  0
VERTEX
  8
0
  6
CONTINUOUS
 62
     7
 10
470.4356951708688
 20
96.71796152011288
  0
VERTEX
  8
0
  6
CONTINUOUS
 62
     7
 10
470.3923600389849
 20
96.62498006876771
  0
VERTEX
  8
0
  6
CONTINUOUS
 62
     7
 10
470.2416075659952
 20
96.52798358672231
  0
SEQEND
  8
0
  6
CONTINUOUS
 62
     7
  0
ARC
  8
0
  6
CONTINUOUS
 62
     7
 10
459.1652627293697
 20
163.3439435450673
 40
67.72782234868478
 50
265.9999666535892
 51
279.4125478788403
  0
ARC
  8
0
  6
CONTINUOUS
 62
     7
 10
454.041753936817
 20
123.8169618184794
 40
28.03869561582943
 50
256.5466785104139
 51
270.8153970838111
  0
POLYLINE
  8
0
  6
CONTINUOUS
 62
     7
 66
     1
  0
VERTEX
  8
0
  6
CONTINUOUS
 62
     7
 10
447.5184644025803
 20
96.54765406251227
  0
VERTEX
  8
0
  6
CONTINUOUS
 62
     7
 10
447.3905911137775
 20
96.64412728075735
  0
VERTEX
  8
0
  6
CONTINUOUS
 62
     7
 10
447.3643046854768
 20
96.71795951068643
  0
SEQEND
  8
0
  6
CONTINUOUS
 62
     7
  0
ARC
  8
0
  6
CONTINUOUS
 62
     7
 10
460.9192049987071
 20
235.4106861304487
 40
17.19384444915364
 50
79.99871612625009
 51
91.73043196651496
  0
LINE
  8
0
  6
CONTINUOUS
 62
     7
 10
463.905264177066
 20
252.3432505412233
 11
463.9707486220377
 21
252.2844795269578
  0
LINE
  8
0
  6
CONTINUOUS
 62
     7
 10
457.4
 20
252.5966895376114
 11
460.4
 21
252.5966895376114
  0
LINE
  8
0
  6
CONTINUOUS
 62
     7
 10
453.8292513779622
 20
252.2844795269578
 11
453.928072468289
 21
252.3565788668054
  0
ARC
  8
0
  6
CONTINUOUS
 62
     7
 10
456.9042609408298
 20
234.5433608070924
 40
18.06013387178983
 50
88.4270701355344
 51
99.48522517276793
  0
LINE
  8
0
  6
CONTINUOUS
 62
     7
 10
412.1707486220377
 20
252.2844795269578
 11
412.0719275317078
 21
252.3565788668067
  0
ARC
  8
0
  6
CONTINUOUS
 62
     7
 10
409.0957390591613
 20
234.5433608069113
 40
18.06013387197064
 50
80.5147748273097
 51
91.57292986442197
  0
LINE
  8
0
  6
CONTINUOUS
 62
     7
 10
405.6
 20
252.5966895376114
 11
408.6
 21
252.5966895376114
  0
LINE
  8
0
  6
CONTINUOUS
 62
     7
 10
402.0292513779623
 20
252.2844795269578
 11
402.1280724682923
 21
252.3565788668067
  0
ARC
  8
0
  6
CONTINUOUS
 62
     7
 10
405.1042609408379
 20
234.5433608069224
 40
18.06013387195956
 50
88.42707013557488
 51
99.48522517269367
  0
ARC
  8
0
  6
CONTINUOUS
 62
     7
 10
434.9192049987155
 20
235.4106861306254
 40
17.19384444897726
 50
79.9987161261634
 51
91.73043196656089
  0
LINE
  8
0
  6
CONTINUOUS
 62
     7
 10
437.9052641770695
 20
252.3432505412218
 11
437.9707486220377
 21
252.2844795269578
  0
LINE
  8
0
  6
CONTINUOUS
 62
     7
 10
431.4
 20
252.5966895376114
 11
434.4
 21
252.5966895376114
  0
LINE
  8
0
  6
CONTINUOUS
 62
     7
 10
427.8292513779623
 20
252.2844795269578
 11
427.9280724682922
 21
252.3565788668067
  0
ARC
  8
0
  6
CONTINUOUS
 62
     7
 10
430.9042609408384
 20
234.5433608069152
 40
18.06013387196669
 50
88.4270701355769
 51
99.48522517269151
  0
LINE
  8
0
  6
CONTINUOUS
 62
     7
 10
386.1707486220377
 20
252.2844795269578
 11
386.0719275317109
 21
252.3565788668054
  0
ARC
  8
0
  6
CONTINUOUS
 62
     7
 10
383.0957390591702
 20
234.5433608070956
 40
18.06013387178664
 50
80.51477482723062
 51
91.57292986446618
  0
LINE
  8
0
  6
CONTINUOUS
 62
     7
 10
379.6
 20
252.5966895376114
 11
382.6
 21
252.5966895376114
  0
LINE
  8
0
  6
CONTINUOUS
 62
     7
 10
376.0292513779623
 20
252.2844795269578
 11
376.128072468289
 21
252.3565788668054
  0
ARC
  8
0
  6
CONTINUOUS
 62
     7
 10
379.1042609408303
 20
234.5433608070881
 40
18.06013387179416
 50
88.42707013553616
 51
99.48522517276706
  0
LINE
  8
0
  6
CONTINUOUS
 62
     7
 10
376.0292513779623
 20
97.71552047304222
 11
376.1422033545291
 21
97.6384258046713
  0
ARC
  8
0
  6
CONTINUOUS
 62
     7
 10
379.1337187565526
 20
116.0899375055596
 40
18.69244361897507
 50
260.7908543018442
 51
271.4293860821664
  0
LINE
  8
0
  6
CONTINUOUS
 62
     7
 10
379.6
 20
97.40331046238856
 11
382.6
 21
97.40331046238856
  0
LINE
  8
0
  6
CONTINUOUS
 62
     7
 10
386.1707486220377
 20
97.7155204730422
 11
386.0577966454708
 21
97.63842580467127
  0
ARC
  8
0
  6
CONTINUOUS
 62
     7
 10
383.0662812434483
 20
116.089937505547
 40
18.69244361896252
 50
268.5706139178299
 51
279.2091456981589
  0
LINE
  8
0
  6
CONTINUOUS
 62
     7
 10
427.8292513779623
 20
97.71552047304222
 11
427.9422033545288
 21
97.63842580467126
  0
ARC
  8
0
  6
CONTINUOUS
 62
     7
 10
430.9337187565522
 20
116.0899375055612
 40
18.69244361897663
 50
260.7908543018452
 51
271.4293860821675
  0
LINE
  8
0
  6
CONTINUOUS
 62
     7
 10
431.4
 20
97.40331046238856
 11
434.4
 21
97.40331046238856
  0
ARC
  8
0
  6
CONTINUOUS
 62
     7
 10
434.8321791319712
 20
117.3570868284713
 40
19.95845610436222
 50
268.7592238768945
 51
278.5418583442379
  0
POLYLINE
  8
0
  6
CONTINUOUS
 62
     7
 66
     1
  0
VERTEX
  8
0
  6
CONTINUOUS
 62
     7
 10
437.7966467958995
 20
97.62001760481814
  0
VERTEX
  8
0
  6
CONTINUOUS
 62
     7
 10
437.9140508450621
 20
97.66085766953498
  0
VERTEX
  8
0
  6
CONTINUOUS
 62
     7
 10
437.9707486220377
 20
97.71552047304222
  0
SEQEND
  8
0
  6
CONTINUOUS
 62
     7
  0
LINE
  8
0
  6
CONTINUOUS
 62
     7
 10
402.0292513779623
 20
97.71552047304222
 11
402.142203354529
 21
97.63842580467126
  0
ARC
  8
0
  6
CONTINUOUS
 62
     7
 10
405.1337187565512
 20
116.0899375055431
 40
18.6924436189586
 50
260.7908543018401
 51
271.429386082172
  0
LINE
  8
0
  6
CONTINUOUS
 62
     7
 10
405.6
 20
97.40331046238856
 11
408.6
 21
97.40331046238856
  0
LINE
  8
0
  6
CONTINUOUS
 62
     7
 10
412.1707486220376
 20
97.7155204730422
 11
412.0577966454712
 21
97.63842580467126
  0
ARC
  8
0
  6
CONTINUOUS
 62
     7
 10
409.0662812434474
 20
116.0899375055651
 40
18.69244361898059
 50
268.5706139178337
 51
279.2091456981536
  0
LINE
  8
0
  6
CONTINUOUS
 62
     7
 10
453.8292513779622
 20
97.71552047304222
 11
453.9422033545291
 21
97.6384258046713
  0
ARC
  8
0
  6
CONTINUOUS
 62
     7
 10
456.9337187565531
 20
116.089937505566
 40
18.69244361898145
 50
260.790854301846
 51
271.4293860821646
  0
LINE
  8
0
  6
CONTINUOUS
 62
     7
 10
457.4
 20
97.40331046238856
 11
460.4
 21
97.40331046238856
  0
ARC
  8
0
  6
CONTINUOUS
 62
     7
 10
460.8321791319722
 20
117.3570868284517
 40
19.95845610434262
 50
268.7592238768904
 51
278.5418583442419
  0
POLYLINE
  8
0
  6
CONTINUOUS
 62
     7
 66
     1
  0
VERTEX
  8
0
  6
CONTINUOUS
 62
     7
 10
463.7966467958991
 20
97.62001760481812
  0
VERTEX
  8
0
  6
CONTINUOUS
 62
     7
 10
463.9140508450619
 20
97.66085766953496
  0
VERTEX
  8
0
  6
CONTINUOUS
 62
     7
 10
463.9707486220377
 20
97.71552047304222
  0
SEQEND
  8
0
  6
CONTINUOUS
 62
     7
  0
LINE
  8
0
  6
CONTINUOUS
 62
     7
 10
377.0662575430688
 20
99.20412628780144
 11
377.1753763977558
 21
99.2677298119278
  0
ARC
  8
0
  6
CONTINUOUS
 62
     7
 10
379.3479154906848
 20
84.63245970920768
 40
14.79564317932404
 50
89.02376144362398
 51
98.44363598442436
  0
ARC
  8
0
  6
CONTINUOUS
 62
     7
 10
382.8306590312486
 20
84.020777286338
 40
15.40690468142825
 50
81.89723254078916
 51
90.85781557084476
  0
POLYLINE
  8
0
  6
CONTINUOUS
 62
     7
 66
     1
  0
VERTEX
  8
0
  6
CONTINUOUS
 62
     7
 10
385.0022476276902
 20
99.27387254043053
  0
VERTEX
  8
0
  6
CONTINUOUS
 62
     7
 10
385.1094079217665
 20
99.23416248832537
  0
VERTEX
  8
0
  6
CONTINUOUS
 62
     7
 10
385.1337424569311
 20
99.20412628780144
  0
SEQEND
  8
0
  6
CONTINUOUS
 62
     7
  0
LINE
  8
0
  6
CONTINUOUS
 62
     7
 10
454.8662575430688
 20
99.20412628780144
 11
454.9626550515073
 21
99.26393708701816
  0
ARC
  8
0
  6
CONTINUOUS
 62
     7
 10
457.1231425972384
 20
85.1766079985068
 40
14.25203660124676
 50
88.88691286825167
 51
98.71916733700493
  0
ARC
  8
0
  6
CONTINUOUS
 62
     7
 10
460.6520845092998
 20
84.63245970898843
 40
14.79564317954323
 50
81.55636401564186
 51
90.97623855635379
  0
POLYLINE
  8
0
  6
CONTINUOUS
 62
     7
 66
     1
  0
VERTEX
  8
0
  6
CONTINUOUS
 62
     7
 10
462.8246236022441
 20
99.26772981192786
  0
VERTEX
  8
0
  6
CONTINUOUS
 62
     7
 10
462.921231033339
 20
99.22555663451772
  0
VERTEX
  8
0
  6
CONTINUOUS
 62
     7
 10
462.9337424569312
 20
99.20412628780143
  0
SEQEND
  8
0
  6
CONTINUOUS
 62
     7
  0
LINE
  8
0
  6
CONTINUOUS
 62
     7
 10
403.0662575430688
 20
99.20412628780144
 11
403.1753763977557
 21
99.26772981192782
  0
ARC
  8
0
  6
CONTINUOUS
 62
     7
 10
405.3479154906848
 20
84.63245970920406
 40
14.79564317932766
 50
89.02376144362427
 51
98.4436359844226
  0
ARC
  8
0
  6
CONTINUOUS
 62
     7
 10
408.830659031248
 20
84.0207772863298
 40
15.40690468143644
 50
81.89723254079081
 51
90.85781557084226
  0
POLYLINE
  8
0
  6
CONTINUOUS
 62
     7
 66
     1
  0
VERTEX
  8
0
  6
CONTINUOUS
 62
     7
 10
411.0022476276905
 20
99.2738725404305
  0
VERTEX
  8
0
  6
CONTINUOUS
 62
     7
 10
411.1094079217665
 20
99.23416248832534
  0
VERTEX
  8
0
  6
CONTINUOUS
 62
     7
 10
411.1337424569311
 20
99.20412628780144
  0
SEQEND
  8
0
  6
CONTINUOUS
 62
     7
  0
LINE
  8
0
  6
CONTINUOUS
 62
     7
 10
428.8662575430689
 20
99.20412628780144
 11
428.9626550515072
 21
99.26393708701814
  0
ARC
  8
0
  6
CONTINUOUS
 62
     7
 10
431.1231425972385
 20
85.17660799850364
 40
14.25203660124991
 50
88.88691286825245
 51
98.71916733700459
  0
ARC
  8
0
  6
CONTINUOUS
 62
     7
 10
434.6520845092993
 20
84.63245970897815
 40
14.7956431795535
 50
81.55636401564539
 51
90.97623855635113
  0
POLYLINE
  8
0
  6
CONTINUOUS
 62
     7
 66
     1
  0
VERTEX
  8
0
  6
CONTINUOUS
 62
     7
 10
436.8246236022442
 20
99.26772981192788
  0
VERTEX
  8
0
  6
CONTINUOUS
 62
     7
 10
436.921231033339
 20
99.22555663451772
  0
VERTEX
  8
0
  6
CONTINUOUS
 62
     7
 10
436.9337424569312
 20
99.20412628780143
  0
SEQEND
  8
0
  6
CONTINUOUS
 62
     7
  0
ARC
  8
0
  6
CONTINUOUS
 62
     7
 10
457.1682586749234
 20
265.9473149938833
 40
15.37501681997985
 50
261.8797502378228
 51
270.8636284968832
  0
POLYLINE
  8
0
  6
CONTINUOUS
 62
     7
 66
     1
  0
VERTEX
  8
0
  6
CONTINUOUS
 62
     7
 10
454.9965202942717
 20
250.7264512003705
  0
VERTEX
  8
0
  6
CONTINUOUS
 62
     7
 10
454.8902622305877
 20
250.7660420969229
  0
VERTEX
  8
0
  6
CONTINUOUS
 62
     7
 10
454.8662575430688
 20
250.7958737121986
  0
SEQEND
  8
0
  6
CONTINUOUS
 62
     7
  0
LINE
  8
0
  6
CONTINUOUS
 62
     7
 10
462.9337424569312
 20
250.7958737121986
 11
462.8241794762267
 21
250.7321420177749
  0
ARC
  8
0
  6
CONTINUOUS
 62
     7
 10
460.6509846165853
 20
265.3901679422474
 40
14.81824888104122
 50
269.0295042936537
 51
278.4332243800882
  0
ARC
  8
0
  6
CONTINUOUS
 62
     7
 10
379.3490153834303
 20
265.3901679424697
 40
14.81824888126349
 50
261.566775619978
 51
270.9704957063234
  0
POLYLINE
  8
0
  6
CONTINUOUS
 62
     7
 66
     1
  0
VERTEX
  8
0
  6
CONTINUOUS
 62
     7
 10
377.1758205237733
 20
250.7321420177749
  0
VERTEX
  8
0
  6
CONTINUOUS
 62
     7
 10
377.0788207738074
 20
250.7743992523241
  0
VERTEX
  8
0
  6
CONTINUOUS
 62
     7
 10
377.0662575430688
 20
250.7958737121986
  0
SEQEND
  8
0
  6
CONTINUOUS
 62
     7
  0
LINE
  8
0
  6
CONTINUOUS
 62
     7
 10
385.1337424569311
 20
250.7958737121986
 11
385.0384113309844
 21
250.7363927161868
  0
ARC
  8
0
  6
CONTINUOUS
 62
     7
 10
382.8781133926931
 20
264.7901046297328
 40
14.21878003666733
 50
268.8792470377169
 51
278.7389472056159
  0
ARC
  8
0
  6
CONTINUOUS
 62
     7
 10
431.1682586749231
 20
265.9473149938852
 40
15.37501681998184
 50
261.8797502378254
 51
270.8636284968843
  0
POLYLINE
  8
0
  6
CONTINUOUS
 62
     7
 66
     1
  0
VERTEX
  8
0
  6
CONTINUOUS
 62
     7
 10
428.9965202942718
 20
250.7264512003704
  0
VERTEX
  8
0
  6
CONTINUOUS
 62
     7
 10
428.8902622305877
 20
250.7660420969229
  0
VERTEX
  8
0
  6
CONTINUOUS
 62
     7
 10
428.8662575430689
 20
250.7958737121986
  0
SEQEND
  8
0
  6
CONTINUOUS
 62
     7
  0
LINE
  8
0
  6
CONTINUOUS
 62
     7
 10
436.9337424569312
 20
250.7958737121986
 11
436.8241794762267
 21
250.7321420177749
  0
ARC
  8
0
  6
CONTINUOUS
 62
     7
 10
434.6509846165856
 20
265.3901679422465
 40
14.81824888104035
 50
269.0295042936523
 51
278.4332243800875
  0
ARC
  8
0
  6
CONTINUOUS
 62
     7
 10
405.3490153834298
 20
265.3901679424658
 40
14.81824888125957
 50
261.5667756199775
 51
270.9704957063254
  0
POLYLINE
  8
0
  6
CONTINUOUS
 62
     7
 66
     1
  0
VERTEX
  8
0
  6
CONTINUOUS
 62
     7
 10
403.1758205237733
 20
250.7321420177748
  0
VERTEX
  8
0
  6
CONTINUOUS
 62
     7
 10
403.0788207738074
 20
250.7743992523241
  0
VERTEX
  8
0
  6
CONTINUOUS
 62
     7
 10
403.0662575430688
 20
250.7958737121986
  0
SEQEND
  8
0
  6
CONTINUOUS
 62
     7
  0
LINE
  8
0
  6
CONTINUOUS
 62
     7
 10
411.1337424569311
 20
250.7958737121986
 11
411.0384113309845
 21
250.7363927161867
  0
ARC
  8
0
  6
CONTINUOUS
 62
     7
 10
408.878113392693
 20
264.7901046297394
 40
14.21878003667397
 50
268.8792470377182
 51
278.7389472056127
  0
LINE
  8
0
  6
CONTINUOUS
 62
     7
 10
412.131306507191
 20
98.2774226190111
 11
412.1306429275061
 21
98.28329311435164
  0
LINE
  8
0
  6
CONTINUOUS
 62
     7
 10
386.131306507191
 20
98.27742261901118
 11
386.130642927506
 21
98.28329311435162
  0
LINE
  8
0
  6
CONTINUOUS
 62
     7
 10
427.8693570992029
 20
98.2832932325699
 11
427.868693492809
 21
98.27742261901112
  0
LINE
  8
0
  6
CONTINUOUS
 62
     7
 10
453.8693570992029
 20
98.2832932325699
 11
453.868693492809
 21
98.27742261901112
  0
LINE
  8
0
  6
CONTINUOUS
 62
     7
 10
453.868693492809
 20
251.7225773809888
 11
453.8693231526078
 21
251.716858988676
  0
LINE
  8
0
  6
CONTINUOUS
 62
     7
 10
427.868693492809
 20
251.7225773809889
 11
427.8693231526078
 21
251.7168589886759
  0
LINE
  8
0
  6
CONTINUOUS
 62
     7
 10
386.1306768186365
 20
251.7168588580194
 11
386.131306507191
 21
251.7225773809888
  0
LINE
  8
0
  6
CONTINUOUS
 62
     7
 10
412.1306768186364
 20
251.7168588580195
 11
412.131306507191
 21
251.7225773809889
  0
ARC
  8
0
  6
CONTINUOUS
 62
     7
 10
363.0
 20
100.8000906917926
 40
0.8967456166468629
 50
180.0000000000009
 51
270.0
  0
ARC
  8
0
  6
CONTINUOUS
 62
     7
 10
476.9999999999999
 20
249.1999093082074
 40
0.896745616646842
 50
0.0
 51
90.0
  0
ARC
  8
0
  6
CONTINUOUS
 62
     7
 10
476.9999999999999
 20
100.8000906917926
 40
0.8967456166468629
 50
269.9999999999991
 51
359.9999999999991
  0
ARC
  8
0
  6
CONTINUOUS
 62
     7
 10
363.0
 20
249.1999093082074
 40
0.896745616646842
 50
90.0
 51
180.0
  0
LINE
  8
0
  6
CONTINUOUS
 62
     7
 10
363.0
 20
250.0966549248543
 11
476.9999999999999
 21
250.0966549248543
  0
LINE
  8
0
  6
CONTINUOUS
 62
     7
 10
476.9999999999999
 20
99.90334507514575
 11
363.0
 21
99.90334507514574
  0
LINE
  8
0
  6
CONTINUOUS
 62
     7
 10
477.8967456166469
 20
100.8000906917926
 11
477.8967456166469
 21
249.1999093082074
  0
LINE
  8
0
  6
CONTINUOUS
 62
     7
 10
362.1032543833531
 20
100.8000906917926
 11
362.1032543833531
 21
249.1999093082074
  0
ARC
  8
0
  6
CONTINUOUS
 62
     7
 10
363.0
 20
249.0249319811555
 40
0.896745616646842
 50
90.0
 51
180.0
  0
ARC
  8
0
  6
CONTINUOUS
 62
     7
 10
476.9999999999999
 20
100.9750680188445
 40
0.896745616646849
 50
269.9999999999991
 51
359.9999999999991
  0
ARC
  8
0
  6
CONTINUOUS
 62
     7
 10
363.0
 20
100.9750680188445
 40
0.896745616646849
 50
180.0000000000009
 51
270.0
  0
ARC
  8
0
  6
CONTINUOUS
 62
     7
 10
476.9999999999999
 20
249.0249319811555
 40
0.896745616646842
 50
0.0
 51
90.0
  0
LINE
  8
0
  6
CONTINUOUS
 62
     7
 10
476.9999999999999
 20
100.0783224021976
 11
363.0
 21
100.0783224021976
  0
LINE
  8
0
  6
CONTINUOUS
 62
     7
 10
363.0
 20
249.9216775978024
 11
476.9999999999999
 21
249.9216775978024
  0
ARC
  8
0
  6
CONTINUOUS
 62
     7
 10
363.0
 20
248.8499546541037
 40
0.896745616646842
 50
90.0
 51
180.0
  0
ARC
  8
0
  6
CONTINUOUS
 62
     7
 10
476.9999999999999
 20
101.1500453458963
 40
0.896745616646849
 50
270.0
 51
0.0
  0
ARC
  8
0
  6
CONTINUOUS
 62
     7
 10
476.9999999999999
 20
248.8499546541037
 40
0.896745616646842
 50
0.0
 51
90.0
  0
ARC
  8
0
  6
CONTINUOUS
 62
     7
 10
363.0
 20
101.1500453458963
 40
0.896745616646849
 50
180.0
 51
270.0
  0
LINE
  8
0
  6
CONTINUOUS
 62
     7
 10
363.0
 20
249.7467002707506
 11
476.9999999999999
 21
249.7467002707506
  0
LINE
  8
0
  6
CONTINUOUS
 62
     7
 10
476.9999999999999
 20
100.2532997292495
 11
363.0
 21
100.2532997292495
  0
ARC
  8
0
  6
CONTINUOUS
 62
     7
 10
363.0
 20
248.6749773270519
 40
0.896745616646842
 50
90.0
 51
180.0
  0
ARC
  8
0
  6
CONTINUOUS
 62
     7
 10
476.9999999999999
 20
101.3250226729482
 40
0.896745616646849
 50
270.0000000000009
 51
0.0
  0
ARC
  8
0
  6
CONTINUOUS
 62
     7
 10
476.9999999999999
 20
248.6749773270519
 40
0.896745616646842
 50
0.0
 51
90.0
  0
ARC
  8
0
  6
CONTINUOUS
 62
     7
 10
363.0
 20
101.3250226729482
 40
0.896745616646849
 50
180.0
 51
270.0000000000005
  0
LINE
  8
0
  6
CONTINUOUS
 62
     7
 10
363.0
 20
249.5717229436987
 11
476.9999999999999
 21
249.5717229436987
  0
LINE
  8
0
  6
CONTINUOUS
 62
     7
 10
476.9999999999999
 20
100.4282770563013
 11
363.0
 21
100.4282770563013
  0
LINE
  8
0
  6
CONTINUOUS
 62
     7
 10
418.6310558885022
 20
253.2159472982918
 11
418.635723066708
 21
253.2824358463207
  0
LINE
  8
0
  6
CONTINUOUS
 62
     7
 10
395.5642769332919
 20
253.2824358463216
 11
395.5689441114977
 21
253.2159472982928
  0
POLYLINE
  8
0
  6
CONTINUOUS
 62
     7
 66
     1
  0
VERTEX
  8
0
  6
CONTINUOUS
 62
     7
 10
395.568907091451
 20
253.2164736907462
  0
VERTEX
  8
0
  6
CONTINUOUS
 62
     7
 10
395.5878977906802
 20
253.0771213390171
  0
VERTEX
  8
0
  6
CONTINUOUS
 62
     7
 10
395.6213171381891
 20
252.9517818993309
  0
VERTEX
  8
0
  6
CONTINUOUS
 62
     7
 10
395.664810408133
 20
252.8410946589151
  0
VERTEX
  8
0
  6
CONTINUOUS
 62
     7
 10
395.7211197312685
 20
252.7336398358109
  0
VERTEX
  8
0
  6
CONTINUOUS
 62
     7
 10
395.7803953990573
 20
252.6439165988116
  0
VERTEX
  8
0
  6
CONTINUOUS
 62
     7
 10
395.8472705834424
 20
252.560592853028
  0
VERTEX
  8
0
  6
CONTINUOUS
 62
     7
 10
395.9463407648996
 20
252.4604046580469
  0
VERTEX
  8
0
  6
CONTINUOUS
 62
     7
 10
396.0357783263291
 20
252.3868269048697
  0
VERTEX
  8
0
  6
CONTINUOUS
 62
     7
 10
396.2312886603843
 20
252.2629472518539
  0
SEQEND
  8
0
  6
CONTINUOUS
 62
     7
  0
ARC
  8
0
  6
CONTINUOUS
 62
     7
 10
399.950363847651
 20
263.0011401831311
 40
11.36399171408861
 50
250.8969389660322
 51
268.7089711591356
  0
LINE
  8
0
  6
CONTINUOUS
 62
     7
 10
399.6943240534589
 20
251.6400332255471
 11
399.8800712704157
 21
251.624862429276
  0
ARC
  8
0
  6
CONTINUOUS
 62
     7
 10
414.1191623539567
 20
263.9225159642307
 40
12.28870262164268
 50
271.7840300638029
 51
287.9692734805827
  0
POLYLINE
  8
0
  6
CONTINUOUS
 62
     7
 66
     1
  0
VERTEX
  8
0
  6
CONTINUOUS
 62
     7
 10
417.9103121307849
 20
252.2332304645595
  0
VERTEX
  8
0
  6
CONTINUOUS
 62
     7
 10
418.0733904649816
 20
252.3255758511374
  0
VERTEX
  8
0
  6
CONTINUOUS
 62
     7
 10
418.1780961056106
 20
252.4002039525163
  0
VERTEX
  8
0
  6
CONTINUOUS
 62
     7
 10
418.2912797528269
 20
252.4996544266184
  0
VERTEX
  8
0
  6
CONTINUOUS
 62
     7
 10
418.4049210392687
 20
252.6284039334113
  0
VERTEX
  8
0
  6
CONTINUOUS
 62
     7
 10
418.4931510339097
 20
252.761951974811
  0
VERTEX
  8
0
  6
CONTINUOUS
 62
     7
 10
418.5667324167213
 20
252.9200388196642
  0
VERTEX
  8
0
  6
CONTINUOUS
 62
     7
 10
418.6085267777619
 20
253.0613216970772
  0
VERTEX
  8
0
  6
CONTINUOUS
 62
     7
 10
418.6310959215554
 20
253.2165168998216
  0
SEQEND
  8
0
  6
CONTINUOUS
 62
     7
  0
LINE
  8
0
  6
CONTINUOUS
 62
     7
 10
392.6310558885022
 20
253.2159472982918
 11
392.635723066708
 21
253.2824358463205
  0
LINE
  8
0
  6
CONTINUOUS
 62
     7
 10
369.5642769332919
 20
253.2824358463215
 11
369.5689441114977
 21
253.2159472982928
  0
POLYLINE
  8
0
  6
CONTINUOUS
 62
     7
 66
     1
  0
VERTEX
  8
0
  6
CONTINUOUS
 62
     7
 10
369.568907091451
 20
253.2164736907457
  0
VERTEX
  8
0
  6
CONTINUOUS
 62
     7
 10
369.5878977906802
 20
253.0771213390171
  0
VERTEX
  8
0
  6
CONTINUOUS
 62
     7
 10
369.6213171381888
 20
252.9517818993311
  0
VERTEX
  8
0
  6
CONTINUOUS
 62
     7
 10
369.6648104081326
 20
252.8410946589158
  0
VERTEX
  8
0
  6
CONTINUOUS
 62
     7
 10
369.7211197312677
 20
252.7336398358119
  0
VERTEX
  8
0
  6
CONTINUOUS
 62
     7
 10
369.7803953990562
 20
252.6439165988128
  0
VERTEX
  8
0
  6
CONTINUOUS
 62
     7
 10
369.8472705834408
 20
252.5605928530293
  0
VERTEX
  8
0
  6
CONTINUOUS
 62
     7
 10
369.9463407648973
 20
252.4604046580482
  0
VERTEX
  8
0
  6
CONTINUOUS
 62
     7
 10
370.0357783263265
 20
252.386826904871
  0
VERTEX
  8
0
  6
CONTINUOUS
 62
     7
 10
370.2312886603816
 20
252.2629472518546
  0
SEQEND
  8
0
  6
CONTINUOUS
 62
     7
  0
ARC
  8
0
  6
CONTINUOUS
 62
     7
 10
373.9503638476547
 20
263.0011401831665
 40
11.36399171412344
 50
250.8969389660586
 51
268.7089711590765
  0
LINE
  8
0
  6
CONTINUOUS
 62
     7
 10
373.6943240534501
 20
251.6400332255478
 11
373.8800712704121
 21
251.6248624292763
  0
ARC
  8
0
  6
CONTINUOUS
 62
     7
 10
388.1191623539571
 20
263.9225159642294
 40
12.28870262164141
 50
271.7840300638031
 51
287.969273480583
  0
POLYLINE
  8
0
  6
CONTINUOUS
 62
     7
 66
     1
  0
VERTEX
  8
0
  6
CONTINUOUS
 62
     7
 10
391.910312130785
 20
252.2332304645595
  0
VERTEX
  8
0
  6
CONTINUOUS
 62
     7
 10
392.0733904649816
 20
252.3255758511374
  0
VERTEX
  8
0
  6
CONTINUOUS
 62
     7
 10
392.1780961056106
 20
252.4002039525163
  0
VERTEX
  8
0
  6
CONTINUOUS
 62
     7
 10
392.2912797528268
 20
252.4996544266183
  0
VERTEX
  8
0
  6
CONTINUOUS
 62
     7
 10
392.4049210392686
 20
252.6284039334113
  0
VERTEX
  8
0
  6
CONTINUOUS
 62
     7
 10
392.4931510339096
 20
252.7619519748109
  0
VERTEX
  8
0
  6
CONTINUOUS
 62
     7
 10
392.5667324167213
 20
252.9200388196641
  0
VERTEX
  8
0
  6
CONTINUOUS
 62
     7
 10
392.6085267777619
 20
253.0613216970772
  0
VERTEX
  8
0
  6
CONTINUOUS
 62
     7
 10
392.6310959215554
 20
253.2165168998215
  0
SEQEND
  8
0
  6
CONTINUOUS
 62
     7
  0
POLYLINE
  8
0
  6
CONTINUOUS
 62
     7
 66
     1
  0
VERTEX
  8
0
  6
CONTINUOUS
 62
     7
 10
421.3689040784446
 20
253.2165168998217
  0
VERTEX
  8
0
  6
CONTINUOUS
 62
     7
 10
421.3859886055752
 20
253.0866730990428
  0
VERTEX
  8
0
  6
CONTINUOUS
 62
     7
 10
421.415728421908
 20
252.969014725892
  0
VERTEX
  8
0
  6
CONTINUOUS
 62
     7
 10
421.4545667812431
 20
252.8641031858591
  0
VERTEX
  8
0
  6
CONTINUOUS
 62
     7
 10
421.5076457558918
 20
252.7568040359718
  0
VERTEX
  8
0
  6
CONTINUOUS
 62
     7
 10
421.5642670304043
 20
252.6665021694137
  0
VERTEX
  8
0
  6
CONTINUOUS
 62
     7
 10
421.6354325630427
 20
252.5742429796482
  0
VERTEX
  8
0
  6
CONTINUOUS
 62
     7
 10
421.7293044079892
 20
252.4761335290442
  0
VERTEX
  8
0
  6
CONTINUOUS
 62
     7
 10
421.9399453216959
 20
252.3159068924066
  0
VERTEX
  8
0
  6
CONTINUOUS
 62
     7
 10
422.1159744398436
 20
252.2208389015058
  0
SEQEND
  8
0
  6
CONTINUOUS
 62
     7
  0
ARC
  8
0
  6
CONTINUOUS
 62
     7
 10
425.9970506128552
 20
264.5794883276605
 40
12.95372409383925
 50
252.5657691464293
 51
268.2080505949305
  0
ARC
  8
0
  6
CONTINUOUS
 62
     7
 10
440.2654836255897
 20
260.7675351556462
 40
9.147237127015753
 50
268.8689781133844
 51
294.0982080792142
  0
POLYLINE
  8
0
  6
CONTINUOUS
 62
     7
 66
     1
  0
VERTEX
  8
0
  6
CONTINUOUS
 62
     7
 10
444.0003180282863
 20
252.4175076681292
  0
VERTEX
  8
0
  6
CONTINUOUS
 62
     7
 10
444.1081657262627
 20
252.5162173532946
  0
VERTEX
  8
0
  6
CONTINUOUS
 62
     7
 10
444.204836505198
 20
252.6279980383246
  0
VERTEX
  8
0
  6
CONTINUOUS
 62
     7
 10
444.2845139657011
 20
252.7467471975533
  0
VERTEX
  8
0
  6
CONTINUOUS
 62
     7
 10
444.3533405476049
 20
252.8857449857917
  0
VERTEX
  8
0
  6
CONTINUOUS
 62
     7
 10
444.3955664961076
 20
253.00921198449
  0
VERTEX
  8
0
  6
CONTINUOUS
 62
     7
 10
444.4235697013714
 20
253.1446340146297
  0
VERTEX
  8
0
  6
CONTINUOUS
 62
     7
 10
444.431092908549
 20
253.2164736907457
  0
SEQEND
  8
0
  6
CONTINUOUS
 62
     7
  0
LINE
  8
0
  6
CONTINUOUS
 62
     7
 10
444.4310558885022
 20
253.2159472982918
 11
444.435723066708
 21
253.2824358463206
  0
LINE
  8
0
  6
CONTINUOUS
 62
     7
 10
421.3642769332919
 20
253.2824358463215
 11
421.3689441114977
 21
253.2159472982927
  0
LINE
  8
0
  6
CONTINUOUS
 62
     7
 10
470.4310558885022
 20
253.2159472982918
 11
470.435723066708
 21
253.2824358463205
  0
LINE
  8
0
  6
CONTINUOUS
 62
     7
 10
447.3642769332919
 20
253.2824358463214
 11
447.3689441114977
 21
253.2159472982927
  0
POLYLINE
  8
0
  6
CONTINUOUS
 62
     7
 66
     1
  0
VERTEX
  8
0
  6
CONTINUOUS
 62
     7
 10
447.3689040784446
 20
253.2165168998217
  0
VERTEX
  8
0
  6
CONTINUOUS
 62
     7
 10
447.3859886055752
 20
253.0866730990425
  0
VERTEX
  8
0
  6
CONTINUOUS
 62
     7
 10
447.4157284219081
 20
252.9690147258916
  0
VERTEX
  8
0
  6
CONTINUOUS
 62
     7
 10
447.4545667812433
 20
252.8641031858585
  0
VERTEX
  8
0
  6
CONTINUOUS
 62
     7
 10
447.5076457558922
 20
252.7568040359711
  0
VERTEX
  8
0
  6
CONTINUOUS
 62
     7
 10
447.5642670304047
 20
252.6665021694131
  0
VERTEX
  8
0
  6
CONTINUOUS
 62
     7
 10
447.6354325630433
 20
252.5742429796476
  0
VERTEX
  8
0
  6
CONTINUOUS
 62
     7
 10
447.7293044079896
 20
252.4761335290438
  0
VERTEX
  8
0
  6
CONTINUOUS
 62
     7
 10
447.9399453216962
 20
252.3159068924063
  0
VERTEX
  8
0
  6
CONTINUOUS
 62
     7
 10
448.1159744398437
 20
252.2208389015057
  0
SEQEND
  8
0
  6
CONTINUOUS
 62
     7
  0
ARC
  8
0
  6
CONTINUOUS
 62
     7
 10
451.9970506128548
 20
264.5794883276634
 40
12.95372409384206
 50
252.5657691464357
 51
268.2080505949231
  0
ARC
  8
0
  6
CONTINUOUS
 62
     7
 10
466.2654836255895
 20
260.7675351556434
 40
9.147237127013206
 50
268.8689781133692
 51
294.0982080792248
  0
POLYLINE
  8
0
  6
CONTINUOUS
 62
     7
 66
     1
  0
VERTEX
  8
0
  6
CONTINUOUS
 62
     7
 10
470.0003180282866
 20
252.4175076681295
  0
VERTEX
  8
0
  6
CONTINUOUS
 62
     7
 10
470.1081657262629
 20
252.5162173532949
  0
VERTEX
  8
0
  6
CONTINUOUS
 62
     7
 10
470.2048365051982
 20
252.6279980383248
  0
VERTEX
  8
0
  6
CONTINUOUS
 62
     7
 10
470.2845139657013
 20
252.7467471975536
  0
VERTEX
  8
0
  6
CONTINUOUS
 62
     7
 10
470.353340547605
 20
252.8857449857919
  0
VERTEX
  8
0
  6
CONTINUOUS
 62
     7
 10
470.3955664961076
 20
253.0092119844901
  0
VERTEX
  8
0
  6
CONTINUOUS
 62
     7
 10
470.4235697013714
 20
253.1446340146297
  0
VERTEX
  8
0
  6
CONTINUOUS
 62
     7
 10
470.431092908549
 20
253.2164736907458
  0
SEQEND
  8
0
  6
CONTINUOUS
 62
     7
  0
ARC
  8
0
  6
CONTINUOUS
 62
     7
 10
391.5437034233486
 20
96.70614165791592
 40
1.090139583617789
 50
4.071384937740628
 51
27.5839116374818
  0
POLYLINE
  8
0
  6
CONTINUOUS
 62
     7
 66
     1
  0
VERTEX
  8
0
  6
CONTINUOUS
 62
     7
 10
392.5099308036504
 20
97.21092771291903
  0
VERTEX
  8
0
  6
CONTINUOUS
 62
     7
 10
392.4320177268401
 20
97.33897828366548
  0
VERTEX
  8
0
  6
CONTINUOUS
 62
     7
 10
392.3517628191303
 20
97.44060608317953
  0
VERTEX
  8
0
  6
CONTINUOUS
 62
     7
 10
392.2674704027823
 20
97.5268413789513
  0
VERTEX
  8
0
  6
CONTINUOUS
 62
     7
 10
392.1288378831426
 20
97.63845954881879
  0
VERTEX
  8
0
  6
CONTINUOUS
 62
     7
 10
391.9760342483
 20
97.73229744771552
  0
SEQEND
  8
0
  6
CONTINUOUS
 62
     7
  0
ARC
  8
0
  6
CONTINUOUS
 62
     7
 10
388.2440040884414
 20
87.06242638810916
 40
11.30372494104131
 50
70.7215540445377
 51
88.939908579729
  0
ARC
  8
0
  6
CONTINUOUS
 62
     7
 10
373.3450316679884
 20
91.41739507614673
 40
6.970462673078008
 50
86.01893137001453
 51
119.9772384574092
  0
POLYLINE
  8
0
  6
CONTINUOUS
 62
     7
 66
     1
  0
VERTEX
  8
0
  6
CONTINUOUS
 62
     7
 10
369.8621987285335
 20
97.45537690724082
  0
VERTEX
  8
0
  6
CONTINUOUS
 62
     7
 10
369.7781462721187
 20
97.35217798905728
  0
VERTEX
  8
0
  6
CONTINUOUS
 62
     7
 10
369.7141244438685
 20
97.25363229305296
  0
VERTEX
  8
0
  6
CONTINUOUS
 62
     7
 10
369.6560372396953
 20
97.13851039327062
  0
VERTEX
  8
0
  6
CONTINUOUS
 62
     7
 10
369.6088697820389
 20
97.00768432365244
  0
VERTEX
  8
0
  6
CONTINUOUS
 62
     7
 10
369.5773381003629
 20
96.86202839679774
  0
VERTEX
  8
0
  6
CONTINUOUS
 62
     7
 10
369.568914589886
 20
96.78363253878683
  0
SEQEND
  8
0
  6
CONTINUOUS
 62
     7
  0
LINE
  8
0
  6
CONTINUOUS
 62
     7
 10
369.5689441000712
 20
96.78405253892616
 11
369.564276924326
 21
96.71756402595128
  0
LINE
  8
0
  6
CONTINUOUS
 62
     7
 10
392.6357230756739
 20
96.71756402595034
 11
392.6310558999288
 21
96.78405253892521
  0
LINE
  8
0
  6
CONTINUOUS
 62
     7
 10
421.3689441000712
 20
96.784052538926
 11
421.3642769243265
 21
96.71756402595747
  0
LINE
  8
0
  6
CONTINUOUS
 62
     7
 10
444.4357230756735
 20
96.71756402595653
 11
444.4310558999287
 21
96.78405253892507
  0
POLYLINE
  8
0
  6
CONTINUOUS
 62
     7
 66
     1
  0
VERTEX
  8
0
  6
CONTINUOUS
 62
     7
 10
444.431085410114
 20
96.78363253878635
  0
VERTEX
  8
0
  6
CONTINUOUS
 62
     7
 10
444.4124250560644
 20
96.92138638090385
  0
VERTEX
  8
0
  6
CONTINUOUS
 62
     7
 10
444.3797312230887
 20
97.04524639786555
  0
VERTEX
  8
0
  6
CONTINUOUS
 62
     7
 10
444.3300584006013
 20
97.17023754073064
  0
VERTEX
  8
0
  6
CONTINUOUS
 62
     7
 10
444.2652478420796
 20
97.28891270071112
  0
VERTEX
  8
0
  6
CONTINUOUS
 62
     7
 10
444.1999399753568
 20
97.38238344741826
  0
VERTEX
  8
0
  6
CONTINUOUS
 62
     7
 10
444.1091636754214
 20
97.48633434390784
  0
VERTEX
  8
0
  6
CONTINUOUS
 62
     7
 10
443.9108243077812
 20
97.65120488882843
  0
SEQEND
  8
0
  6
CONTINUOUS
 62
     7
  0
ARC
  8
0
  6
CONTINUOUS
 62
     7
 10
440.2499680246011
 20
88.67804015509975
 40
9.691210144493368
 50
67.80560751840224
 51
90.32320648060143
  0
ARC
  8
0
  6
CONTINUOUS
 62
     7
 10
425.3680160585585
 20
89.97969165294144
 40
8.386085908247306
 50
88.80264849701153
 51
115.4577151790722
  0
POLYLINE
  8
0
  6
CONTINUOUS
 62
     7
 66
     1
  0
VERTEX
  8
0
  6
CONTINUOUS
 62
     7
 10
421.7633001081234
 20
97.55151176287426
  0
VERTEX
  8
0
  6
CONTINUOUS
 62
     7
 10
421.6503850443016
 20
97.43903121172553
  0
VERTEX
  8
0
  6
CONTINUOUS
 62
     7
 10
421.549423846358
 20
97.30764763487274
  0
VERTEX
  8
0
  6
CONTINUOUS
 62
     7
 10
421.467757335931
 20
97.16226345386345
  0
VERTEX
  8
0
  6
CONTINUOUS
 62
     7
 10
421.4103515013212
 20
97.01141782633228
  0
VERTEX
  8
0
  6
CONTINUOUS
 62
     7
 10
421.3775083294669
 20
96.86288704187234
  0
VERTEX
  8
0
  6
CONTINUOUS
 62
     7
 10
421.3689081060323
 20
96.7835407905679
  0
SEQEND
  8
0
  6
CONTINUOUS
 62
     7
  0
LINE
  8
0
  6
CONTINUOUS
 62
     7
 10
395.5689441000712
 20
96.78405253892605
 11
395.5642769243261
 21
96.71756402595108
  0
LINE
  8
0
  6
CONTINUOUS
 62
     7
 10
418.635723075674
 20
96.71756402595015
 11
418.6310558999288
 21
96.78405253892515
  0
ARC
  8
0
  6
CONTINUOUS
 62
     7
 10
417.5437034233476
 20
96.70614165791557
 40
1.090139583618823
 50
4.071384937759443
 51
27.58391163744686
  0
POLYLINE
  8
0
  6
CONTINUOUS
 62
     7
 66
     1
  0
VERTEX
  8
0
  6
CONTINUOUS
 62
     7
 10
418.5099308036506
 20
97.21092771291856
  0
VERTEX
  8
0
  6
CONTINUOUS
 62
     7
 10
418.4320177268403
 20
97.33897828366509
  0
VERTEX
  8
0
  6
CONTINUOUS
 62
     7
 10
418.3517628191304
 20
97.4406060831794
  0
VERTEX
  8
0
  6
CONTINUOUS
 62
     7
 10
418.267470402782
 20
97.52684137895153
  0
VERTEX
  8
0
  6
CONTINUOUS
 62
     7
 10
418.1288378831417
 20
97.63845954881933
  0
VERTEX
  8
0
  6
CONTINUOUS
 62
     7
 10
417.9760342482987
 20
97.73229744771616
  0
SEQEND
  8
0
  6
CONTINUOUS
 62
     7
  0
ARC
  8
0
  6
CONTINUOUS
 62
     7
 10
414.2440040884392
 20
87.06242638809461
 40
11.30372494105598
 50
70.72155404455839
 51
88.93990857972138
  0
ARC
  8
0
  6
CONTINUOUS
 62
     7
 10
399.3450316679855
 20
91.41739507616028
 40
6.970462673064452
 50
86.01893136999888
 51
119.9772384574601
  0
POLYLINE
  8
0
  6
CONTINUOUS
 62
     7
 66
     1
  0
VERTEX
  8
0
  6
CONTINUOUS
 62
     7
 10
395.8621987285321
 20
97.45537690723951
  0
VERTEX
  8
0
  6
CONTINUOUS
 62
     7
 10
395.7781462721177
 20
97.35217798905605
  0
VERTEX
  8
0
  6
CONTINUOUS
 62
     7
 10
395.7141244438678
 20
97.25363229305196
  0
VERTEX
  8
0
  6
CONTINUOUS
 62
     7
 10
395.6560372396949
 20
97.13851039326981
  0
VERTEX
  8
0
  6
CONTINUOUS
 62
     7
 10
395.6088697820387
 20
97.00768432365189
  0
VERTEX
  8
0
  6
CONTINUOUS
 62
     7
 10
395.5773381003628
 20
96.86202839679753
  0
VERTEX
  8
0
  6
CONTINUOUS
 62
     7
 10
395.5689145898859
 20
96.78363253878679
  0
SEQEND
  8
0
  6
CONTINUOUS
 62
     7
  0
POLYLINE
  8
0
  6
CONTINUOUS
 62
     7
 66
     1
  0
VERTEX
  8
0
  6
CONTINUOUS
 62
     7
 10
470.431085410114
 20
96.78363253878676
  0
VERTEX
  8
0
  6
CONTINUOUS
 62
     7
 10
470.4124250560645
 20
96.9213863809036
  0
VERTEX
  8
0
  6
CONTINUOUS
 62
     7
 10
470.3797312230889
 20
97.04524639786494
  0
VERTEX
  8
0
  6
CONTINUOUS
 62
     7
 10
470.3300584006018
 20
97.17023754072972
  0
VERTEX
  8
0
  6
CONTINUOUS
 62
     7
 10
470.2652478420805
 20
97.28891270070996
  0
VERTEX
  8
0
  6
CONTINUOUS
 62
     7
 10
470.199939975358
 20
97.38238344741704
  0
VERTEX
  8
0
  6
CONTINUOUS
 62
     7
 10
470.1091636754227
 20
97.48633434390672
  0
VERTEX
  8
0
  6
CONTINUOUS
 62
     7
 10
469.9108243077832
 20
97.6512048888275
  0
SEQEND
  8
0
  6
CONTINUOUS
 62
     7
  0
ARC
  8
0
  6
CONTINUOUS
 62
     7
 10
466.2499680245967
 20
88.67804015507802
 40
9.691210144515034
 50
67.80560751841364
 51
90.32320648057451
  0
ARC
  8
0
  6
CONTINUOUS
 62
     7
 10
451.3680160585528
 20
89.97969165296735
 40
8.386085908221135
 50
88.80264849699553
 51
115.4577151791214
  0
POLYLINE
  8
0
  6
CONTINUOUS
 62
     7
 66
     1
  0
VERTEX
  8
0
  6
CONTINUOUS
 62
     7
 10
447.7633001081224
 20
97.55151176287343
  0
VERTEX
  8
0
  6
CONTINUOUS
 62
     7
 10
447.6503850443008
 20
97.43903121172474
  0
VERTEX
  8
0
  6
CONTINUOUS
 62
     7
 10
447.5494238463574
 20
97.30764763487198
  0
VERTEX
  8
0
  6
CONTINUOUS
 62
     7
 10
447.4677573359307
 20
97.16226345386285
  0
VERTEX
  8
0
  6
CONTINUOUS
 62
     7
 10
447.4103515013211
 20
97.01141782633192
  0
VERTEX
  8
0
  6
CONTINUOUS
 62
     7
 10
447.3775083294669
 20
96.86288704187221
  0
VERTEX
  8
0
  6
CONTINUOUS
 62
     7
 10
447.3689081060323
 20
96.78354079056781
  0
SEQEND
  8
0
  6
CONTINUOUS
 62
     7
  0
LINE
  8
0
  6
CONTINUOUS
 62
     7
 10
447.3689441000712
 20
96.78405253892606
 11
447.3642769243265
 21
96.71756402595761
  0
LINE
  8
0
  6
CONTINUOUS
 62
     7
 10
470.4357230756735
 20
96.71756402595673
 11
470.4310558999287
 21
96.78405253892517
  0
POLYLINE
  8
0
  6
CONTINUOUS
 62
     7
 66
     1
  0
VERTEX
  8
0
  6
CONTINUOUS
 62
     7
 10
463.9156983916234
 20
98.3059441899856
  0
VERTEX
  8
0
  6
CONTINUOUS
 62
     7
 10
463.8957152976501
 20
98.43415489127672
  0
VERTEX
  8
0
  6
CONTINUOUS
 62
     7
 10
463.8618323178236
 20
98.55189632443464
  0
VERTEX
  8
0
  6
CONTINUOUS
 62
     7
 10
463.8071589870992
 20
98.67806717432464
  0
VERTEX
  8
0
  6
CONTINUOUS
 62
     7
 10
463.7390795266271
 20
98.7913030948964
  0
VERTEX
  8
0
  6
CONTINUOUS
 62
     7
 10
463.6584887337532
 20
98.8933146558705
  0
VERTEX
  8
0
  6
CONTINUOUS
 62
     7
 10
463.5763014973876
 20
98.97533449286856
  0
VERTEX
  8
0
  6
CONTINUOUS
 62
     7
 10
463.4954842171868
 20
99.04082192403135
  0
VERTEX
  8
0
  6
CONTINUOUS
 62
     7
 10
463.3936537208761
 20
99.10721137546375
  0
SEQEND
  8
0
  6
CONTINUOUS
 62
     7
  0
ARC
  8
0
  6
CONTINUOUS
 62
     7
 10
462.1501460506994
 20
96.16959834466093
 40
3.189965774821185
 50
67.0567936481116
 51
88.82873675482413
  0
LINE
  8
0
  6
CONTINUOUS
 62
     7
 10
462.2153520654389
 20
99.35889761255228
 11
460.3999999999968
 21
99.42044057198761
  0
POLYLINE
  8
0
  6
CONTINUOUS
 62
     7
 66
     1
  0
VERTEX
  8
0
  6
CONTINUOUS
 62
     7
 10
437.9156983916234
 20
98.30594418998567
  0
VERTEX
  8
0
  6
CONTINUOUS
 62
     7
 10
437.8957152976502
 20
98.43415489127679
  0
VERTEX
  8
0
  6
CONTINUOUS
 62
     7
 10
437.8618323178236
 20
98.55189632443472
  0
VERTEX
  8
0
  6
CONTINUOUS
 62
     7
 10
437.8071589870992
 20
98.67806717432468
  0
VERTEX
  8
0
  6
CONTINUOUS
 62
     7
 10
437.7390795266271
 20
98.7913030948965
  0
VERTEX
  8
0
  6
CONTINUOUS
 62
     7
 10
437.6584887337532
 20
98.89331465587058
  0
VERTEX
  8
0
  6
CONTINUOUS
 62
     7
 10
437.5763014973876
 20
98.97533449286863
  0
VERTEX
  8
0
  6
CONTINUOUS
 62
     7
 10
437.4954842171867
 20
99.04082192403143
  0
VERTEX
  8
0
  6
CONTINUOUS
 62
     7
 10
437.3936537208761
 20
99.10721137546378
  0
SEQEND
  8
0
  6
CONTINUOUS
 62
     7
  0
ARC
  8
0
  6
CONTINUOUS
 62
     7
 10
436.1501460507013
 20
96.16959834466738
 40
3.189965774814573
 50
67.0567936480974
 51
88.82873675481622
  0
LINE
  8
0
  6
CONTINUOUS
 62
     7
 10
436.215352065441
 20
99.35889761255211
 11
434.3999999999967
 21
99.42044057198761
  0
LINE
  8
0
  6
CONTINUOUS
 62
     7
 10
379.599999999996
 20
99.42044057198761
 11
377.7846479345645
 21
99.35889761255262
  0
ARC
  8
0
  6
CONTINUOUS
 62
     7
 10
377.7468158225449
 20
96.71131273338654
 40
2.64785516240763
 50
89.18133962280385
 51
116.7410645098414
  0
POLYLINE
  8
0
  6
CONTINUOUS
 62
     7
 66
     1
  0
VERTEX
  8
0
  6
CONTINUOUS
 62
     7
 10
376.5553891056335
 20
99.07597747480729
  0
VERTEX
  8
0
  6
CONTINUOUS
 62
     7
 10
376.4502995186338
 20
98.99833879253028
  0
VERTEX
  8
0
  6
CONTINUOUS
 62
     7
 10
376.3671886395388
 20
98.92092281776328
  0
VERTEX
  8
0
  6
CONTINUOUS
 62
     7
 10
376.2862533923062
 20
98.82628999549644
  0
VERTEX
  8
0
  6
CONTINUOUS
 62
     7
 10
376.2136577160765
 20
98.71635301800025
  0
VERTEX
  8
0
  6
CONTINUOUS
 62
     7
 10
376.1549155481076
 20
98.59582658676055
  0
VERTEX
  8
0
  6
CONTINUOUS
 62
     7
 10
376.1141901020788
 20
98.47462593209463
  0
VERTEX
  8
0
  6
CONTINUOUS
 62
     7
 10
376.0892225166435
 20
98.34975744427938
  0
VERTEX
  8
0
  6
CONTINUOUS
 62
     7
 10
376.0843016083766
 20
98.30594418998555
  0
SEQEND
  8
0
  6
CONTINUOUS
 62
     7
  0
LINE
  8
0
  6
CONTINUOUS
 62
     7
 10
405.5999999999959
 20
99.42044057198761
 11
403.7846479345629
 21
99.35889761255248
  0
ARC
  8
0
  6
CONTINUOUS
 62
     7
 10
403.7468158225435
 20
96.7113127333904
 40
2.647855162403631
 50
89.18133962280629
 51
116.7410645098524
  0
POLYLINE
  8
0
  6
CONTINUOUS
 62
     7
 66
     1
  0
VERTEX
  8
0
  6
CONTINUOUS
 62
     7
 10
402.5553891056334
 20
99.07597747480735
  0
VERTEX
  8
0
  6
CONTINUOUS
 62
     7
 10
402.4502995186337
 20
98.99833879253033
  0
VERTEX
  8
0
  6
CONTINUOUS
 62
     7
 10
402.3671886395388
 20
98.92092281776337
  0
VERTEX
  8
0
  6
CONTINUOUS
 62
     7
 10
402.2862533923062
 20
98.82628999549654
  0
VERTEX
  8
0
  6
CONTINUOUS
 62
     7
 10
402.2136577160765
 20
98.7163530180003
  0
VERTEX
  8
0
  6
CONTINUOUS
 62
     7
 10
402.1549155481076
 20
98.59582658676065
  0
VERTEX
  8
0
  6
CONTINUOUS
 62
     7
 10
402.1141901020787
 20
98.4746259320947
  0
VERTEX
  8
0
  6
CONTINUOUS
 62
     7
 10
402.0892225166435
 20
98.34975744427945
  0
VERTEX
  8
0
  6
CONTINUOUS
 62
     7
 10
402.0843016083766
 20
98.30594418998562
  0
SEQEND
  8
0
  6
CONTINUOUS
 62
     7
  0
POLYLINE
  8
0
  6
CONTINUOUS
 62
     7
 66
     1
  0
VERTEX
  8
0
  6
CONTINUOUS
 62
     7
 10
376.084304140774
 20
251.6940534932208
  0
VERTEX
  8
0
  6
CONTINUOUS
 62
     7
 10
376.1042672178218
 20
251.5659372749182
  0
VERTEX
  8
0
  6
CONTINUOUS
 62
     7
 10
376.1381124206526
 20
251.4482723621804
  0
VERTEX
  8
0
  6
CONTINUOUS
 62
     7
 10
376.1927271283917
 20
251.3221677405686
  0
VERTEX
  8
0
  6
CONTINUOUS
 62
     7
 10
376.2607414084234
 20
251.2089718741231
  0
VERTEX
  8
0
  6
CONTINUOUS
 62
     7
 10
376.3412686276927
 20
251.106974467585
  0
VERTEX
  8
0
  6
CONTINUOUS
 62
     7
 10
376.4234087656414
 20
251.0249449815617
  0
VERTEX
  8
0
  6
CONTINUOUS
 62
     7
 10
376.5042007402768
 20
250.9594309413655
  0
VERTEX
  8
0
  6
CONTINUOUS
 62
     7
 10
376.6060378417462
 20
250.8929892960596
  0
SEQEND
  8
0
  6
CONTINUOUS
 62
     7
  0
ARC
  8
0
  6
CONTINUOUS
 62
     7
 10
377.850232059395
 20
253.8310934498918
 40
3.190685705298575
 50
247.0488783474457
 51
268.8291533207637
  0
LINE
  8
0
  6
CONTINUOUS
 62
     7
 10
377.7850345214406
 20
250.6410739278447
 11
379.6000000000033
 21
250.5795594280124
  0
POLYLINE
  8
0
  6
CONTINUOUS
 62
     7
 66
     1
  0
VERTEX
  8
0
  6
CONTINUOUS
 62
     7
 10
402.084304140774
 20
251.6940534932208
  0
VERTEX
  8
0
  6
CONTINUOUS
 62
     7
 10
402.1042672178218
 20
251.5659372749182
  0
VERTEX
  8
0
  6
CONTINUOUS
 62
     7
 10
402.1381124206526
 20
251.4482723621804
  0
VERTEX
  8
0
  6
CONTINUOUS
 62
     7
 10
402.1927271283917
 20
251.3221677405686
  0
VERTEX
  8
0
  6
CONTINUOUS
 62
     7
 10
402.2607414084233
 20
251.2089718741231
  0
VERTEX
  8
0
  6
CONTINUOUS
 62
     7
 10
402.3412686276926
 20
251.106974467585
  0
VERTEX
  8
0
  6
CONTINUOUS
 62
     7
 10
402.4234087656413
 20
251.0249449815617
  0
VERTEX
  8
0
  6
CONTINUOUS
 62
     7
 10
402.5042007402766
 20
250.9594309413655
  0
VERTEX
  8
0
  6
CONTINUOUS
 62
     7
 10
402.6060378417461
 20
250.8929892960596
  0
SEQEND
  8
0
  6
CONTINUOUS
 62
     7
  0
ARC
  8
0
  6
CONTINUOUS
 62
     7
 10
403.8502320593942
 20
253.8310934498888
 40
3.190685705295561
 50
247.0488783474374
 51
268.8291533207678
  0
LINE
  8
0
  6
CONTINUOUS
 62
     7
 10
403.78503452144
 20
250.6410739278448
 11
405.6000000000033
 21
250.5795594280124
  0
LINE
  8
0
  6
CONTINUOUS
 62
     7
 10
460.4000000000039
 20
250.5795594280124
 11
462.2149654785578
 21
250.6410739278446
  0
ARC
  8
0
  6
CONTINUOUS
 62
     7
 10
462.2529006585266
 20
253.2890253171281
 40
2.648223109537356
 50
269.1792232155508
 51
296.7516256019932
  0
POLYLINE
  8
0
  6
CONTINUOUS
 62
     7
 66
     1
  0
VERTEX
  8
0
  6
CONTINUOUS
 62
     7
 10
463.4449288457399
 20
250.9242516622561
  0
VERTEX
  8
0
  6
CONTINUOUS
 62
     7
 10
463.5500010644392
 20
251.0019335760055
  0
VERTEX
  8
0
  6
CONTINUOUS
 62
     7
 10
463.6330707806824
 20
251.0793655017706
  0
VERTEX
  8
0
  6
CONTINUOUS
 62
     7
 10
463.7139473456608
 20
251.1739925450856
  0
VERTEX
  8
0
  6
CONTINUOUS
 62
     7
 10
463.786477112389
 20
251.2838978184192
  0
VERTEX
  8
0
  6
CONTINUOUS
 62
     7
 10
463.8451581524732
 20
251.4043672977887
  0
VERTEX
  8
0
  6
CONTINUOUS
 62
     7
 10
463.8858383709056
 20
251.525493846684
  0
VERTEX
  8
0
  6
CONTINUOUS
 62
     7
 10
463.9107791827795
 20
251.650273558325
  0
VERTEX
  8
0
  6
CONTINUOUS
 62
     7
 10
463.9156958592259
 20
251.6940534932208
  0
SEQEND
  8
0
  6
CONTINUOUS
 62
     7
  0
LINE
  8
0
  6
CONTINUOUS
 62
     7
 10
434.400000000004
 20
250.5795594280124
 11
436.2149654785587
 21
250.6410739278446
  0
ARC
  8
0
  6
CONTINUOUS
 62
     7
 10
436.2529006585274
 20
253.2890253171258
 40
2.648223109534968
 50
269.179223215552
 51
296.7516256020008
  0
POLYLINE
  8
0
  6
CONTINUOUS
 62
     7
 66
     1
  0
VERTEX
  8
0
  6
CONTINUOUS
 62
     7
 10
437.44492884574
 20
250.924251662256
  0
VERTEX
  8
0
  6
CONTINUOUS
 62
     7
 10
437.5500010644393
 20
251.0019335760055
  0
VERTEX
  8
0
  6
CONTINUOUS
 62
     7
 10
437.6330707806825
 20
251.0793655017706
  0
VERTEX
  8
0
  6
CONTINUOUS
 62
     7
 10
437.7139473456608
 20
251.1739925450856
  0
VERTEX
  8
0
  6
CONTINUOUS
 62
     7
 10
437.786477112389
 20
251.2838978184192
  0
VERTEX
  8
0
  6
CONTINUOUS
 62
     7
 10
437.8451581524732
 20
251.4043672977887
  0
VERTEX
  8
0
  6
CONTINUOUS
 62
     7
 10
437.8858383709056
 20
251.525493846684
  0
VERTEX
  8
0
  6
CONTINUOUS
 62
     7
 10
437.9107791827795
 20
251.650273558325
  0
VERTEX
  8
0
  6
CONTINUOUS
 62
     7
 10
437.9156958592259
 20
251.6940534932208
  0
SEQEND
  8
0
  6
CONTINUOUS
 62
     7
  0
POLYLINE
  8
0
  6
CONTINUOUS
 62
     7
 66
     1
  0
VERTEX
  8
0
  6
CONTINUOUS
 62
     7
 10
412.1306434519266
 20
98.28329079270476
  0
VERTEX
  8
0
  6
CONTINUOUS
 62
     7
 10
412.1103866182484
 20
98.42206630413688
  0
VERTEX
  8
0
  6
CONTINUOUS
 62
     7
 10
412.074448228029
 20
98.54786601096177
  0
VERTEX
  8
0
  6
CONTINUOUS
 62
     7
 10
412.0211496009273
 20
98.67120484999032
  0
VERTEX
  8
0
  6
CONTINUOUS
 62
     7
 10
411.9555246488041
 20
98.78184265301478
  0
VERTEX
  8
0
  6
CONTINUOUS
 62
     7
 10
411.8794613988118
 20
98.88049939437232
  0
SEQEND
  8
0
  6
CONTINUOUS
 62
     7
  0
ARC
  8
0
  6
CONTINUOUS
 62
     7
 10
411.0511826171351
 20
98.15493218415688
 40
1.101132833365525
 50
41.21816399734348
 51
68.90328321071931
  0
ARC
  8
0
  6
CONTINUOUS
 62
     7
 10
410.283232721141
 20
95.48278738585526
 40
3.878361274933968
 50
72.53020934605608
 51
88.08276014745114
  0
LINE
  8
0
  6
CONTINUOUS
 62
     7
 10
410.4129868022632
 20
99.35897753306676
 11
408.5999999999962
 21
99.42044057198761
  0
POLYLINE
  8
0
  6
CONTINUOUS
 62
     7
 66
     1
  0
VERTEX
  8
0
  6
CONTINUOUS
 62
     7
 10
386.1306434519265
 20
98.28329079270482
  0
VERTEX
  8
0
  6
CONTINUOUS
 62
     7
 10
386.1103866182483
 20
98.42206630413695
  0
VERTEX
  8
0
  6
CONTINUOUS
 62
     7
 10
386.074448228029
 20
98.54786601096184
  0
VERTEX
  8
0
  6
CONTINUOUS
 62
     7
 10
386.0211496009272
 20
98.6712048499905
  0
VERTEX
  8
0
  6
CONTINUOUS
 62
     7
 10
385.9555246488039
 20
98.78184265301495
  0
VERTEX
  8
0
  6
CONTINUOUS
 62
     7
 10
385.8794613988115
 20
98.88049939437256
  0
SEQEND
  8
0
  6
CONTINUOUS
 62
     7
  0
ARC
  8
0
  6
CONTINUOUS
 62
     7
 10
385.0511826171345
 20
98.15493218415607
 40
1.101132833366487
 50
41.21816399737256
 51
68.90328321072784
  0
ARC
  8
0
  6
CONTINUOUS
 62
     7
 10
384.2832327211406
 20
95.48278738585174
 40
3.878361274937468
 50
72.53020934607204
 51
88.08276014743215
  0
LINE
  8
0
  6
CONTINUOUS
 62
     7
 10
384.4129868022642
 20
99.3589775330667
 11
382.5999999999962
 21
99.42044057198761
  0
LINE
  8
0
  6
CONTINUOUS
 62
     7
 10
431.3999999999966
 20
99.42044057198761
 11
429.6005890137064
 21
99.36022620405973
  0
ARC
  8
0
  6
CONTINUOUS
 62
     7
 10
429.604187778941
 20
96.36882590660802
 40
2.991402462174786
 50
90.06892890934667
 51
113.5861162315654
  0
POLYLINE
  8
0
  6
CONTINUOUS
 62
     7
 66
     1
  0
VERTEX
  8
0
  6
CONTINUOUS
 62
     7
 10
428.4072469753851
 20
99.11032575221962
  0
VERTEX
  8
0
  6
CONTINUOUS
 62
     7
 10
428.2927781287442
 20
99.03628537569652
  0
VERTEX
  8
0
  6
CONTINUOUS
 62
     7
 10
428.1924914137079
 20
98.95278820251384
  0
VERTEX
  8
0
  6
CONTINUOUS
 62
     7
 10
428.1223429731617
 20
98.88029386922129
  0
VERTEX
  8
0
  6
CONTINUOUS
 62
     7
 10
428.0426451940432
 20
98.7774207057204
  0
VERTEX
  8
0
  6
CONTINUOUS
 62
     7
 10
427.9749720119201
 20
98.66238426491702
  0
VERTEX
  8
0
  6
CONTINUOUS
 62
     7
 10
427.9208357820042
 20
98.53366858877335
  0
VERTEX
  8
0
  6
CONTINUOUS
 62
     7
 10
427.8879034512949
 20
98.4137297792765
  0
VERTEX
  8
0
  6
CONTINUOUS
 62
     7
 10
427.8693565480747
 20
98.28329079271019
  0
SEQEND
  8
0
  6
CONTINUOUS
 62
     7
  0
LINE
  8
0
  6
CONTINUOUS
 62
     7
 10
457.3999999999966
 20
99.42044057198761
 11
455.6005890137076
 21
99.36022620405981
  0
ARC
  8
0
  6
CONTINUOUS
 62
     7
 10
455.604187778942
 20
96.36882590660467
 40
2.991402462178228
 50
90.06892890934579
 51
113.5861162315603
  0
POLYLINE
  8
0
  6
CONTINUOUS
 62
     7
 66
     1
  0
VERTEX
  8
0
  6
CONTINUOUS
 62
     7
 10
454.407246975385
 20
99.11032575221952
  0
VERTEX
  8
0
  6
CONTINUOUS
 62
     7
 10
454.2927781287441
 20
99.0362853756964
  0
VERTEX
  8
0
  6
CONTINUOUS
 62
     7
 10
454.1924914137078
 20
98.9527882025137
  0
VERTEX
  8
0
  6
CONTINUOUS
 62
     7
 10
454.1223429731616
 20
98.88029386922116
  0
VERTEX
  8
0
  6
CONTINUOUS
 62
     7
 10
454.0426451940432
 20
98.77742070572025
  0
VERTEX
  8
0
  6
CONTINUOUS
 62
     7
 10
453.97497201192
 20
98.66238426491691
  0
VERTEX
  8
0
  6
CONTINUOUS
 62
     7
 10
453.9208357820042
 20
98.5336685887733
  0
VERTEX
  8
0
  6
CONTINUOUS
 62
     7
 10
453.8879034512949
 20
98.41372977927648
  0
VERTEX
  8
0
  6
CONTINUOUS
 62
     7
 10
453.8693565480746
 20
98.28329079271028
  0
SEQEND
  8
0
  6
CONTINUOUS
 62
     7
  0
POLYLINE
  8
0
  6
CONTINUOUS
 62
     7
 66
     1
  0
VERTEX
  8
0
  6
CONTINUOUS
 62
     7
 10
453.8693226556125
 20
251.716861247325
  0
VERTEX
  8
0
  6
CONTINUOUS
 62
     7
 10
453.8894405254397
 20
251.5785770142523
  0
VERTEX
  8
0
  6
CONTINUOUS
 62
     7
 10
453.9251322221856
 20
251.4531906091362
  0
VERTEX
  8
0
  6
CONTINUOUS
 62
     7
 10
453.9780748762902
 20
251.3302082295724
  0
VERTEX
  8
0
  6
CONTINUOUS
 62
     7
 10
454.0432804755793
 20
251.2198286850547
  0
VERTEX
  8
0
  6
CONTINUOUS
 62
     7
 10
454.118886433571
 20
251.1213305671519
  0
SEQEND
  8
0
  6
CONTINUOUS
 62
     7
  0
ARC
  8
0
  6
CONTINUOUS
 62
     7
 10
454.9481470848381
 20
251.8443584865524
 40
1.100201163411711
 50
221.0849989170929
 51
248.7891663545329
  0
ARC
  8
0
  6
CONTINUOUS
 62
     7
 10
455.7143020749301
 20
254.4990397610505
 40
3.860097959438181
 50
252.4462225777399
 51
268.1056467873848
  0
LINE
  8
0
  6
CONTINUOUS
 62
     7
 10
455.5867000620312
 20
250.6410514273767
 11
457.4000000000038
 21
250.5795594280124
  0
POLYLINE
  8
0
  6
CONTINUOUS
 62
     7
 66
     1
  0
VERTEX
  8
0
  6
CONTINUOUS
 62
     7
 10
427.8693226556125
 20
251.7168612473249
  0
VERTEX
  8
0
  6
CONTINUOUS
 62
     7
 10
427.8894405254396
 20
251.5785770142523
  0
VERTEX
  8
0
  6
CONTINUOUS
 62
     7
 10
427.9251322221856
 20
251.4531906091363
  0
VERTEX
  8
0
  6
CONTINUOUS
 62
     7
 10
427.9780748762901
 20
251.3302082295725
  0
VERTEX
  8
0
  6
CONTINUOUS
 62
     7
 10
428.0432804755792
 20
251.2198286850548
  0
VERTEX
  8
0
  6
CONTINUOUS
 62
     7
 10
428.1188864335709
 20
251.121330567152
  0
SEQEND
  8
0
  6
CONTINUOUS
 62
     7
  0
ARC
  8
0
  6
CONTINUOUS
 62
     7
 10
428.9481470848382
 20
251.8443584865524
 40
1.100201163411807
 50
221.0849989170818
 51
248.7891663545318
  0
ARC
  8
0
  6
CONTINUOUS
 62
     7
 10
429.7143020749289
 20
254.4990397610468
 40
3.860097959434369
 50
252.4462225777399
 51
268.1056467873758
  0
LINE
  8
0
  6
CONTINUOUS
 62
     7
 10
429.5867000620296
 20
250.6410514273769
 11
431.4000000000038
 21
250.5795594280124
  0
LINE
  8
0
  6
CONTINUOUS
 62
     7
 10
382.6000000000034
 20
250.5795594280124
 11
384.3999474370883
 21
250.6398158306272
  0
ARC
  8
0
  6
CONTINUOUS
 62
     7
 10
384.3966594899736
 20
253.6286071634951
 40
2.988793141390398
 50
270.0630306354503
 51
293.5831296500121
  0
POLYLINE
  8
0
  6
CONTINUOUS
 62
     7
 66
     1
  0
VERTEX
  8
0
  6
CONTINUOUS
 62
     7
 10
385.5924134543878
 20
250.8894363220523
  0
VERTEX
  8
0
  6
CONTINUOUS
 62
     7
 10
385.7067975594052
 20
250.9633536530614
  0
VERTEX
  8
0
  6
CONTINUOUS
 62
     7
 10
385.8071130101604
 20
251.046787917579
  0
VERTEX
  8
0
  6
CONTINUOUS
 62
     7
 10
385.8773226078624
 20
251.1192696988159
  0
VERTEX
  8
0
  6
CONTINUOUS
 62
     7
 10
385.9571219730128
 20
251.2221722189935
  0
VERTEX
  8
0
  6
CONTINUOUS
 62
     7
 10
386.0249023022902
 20
251.337289345119
  0
VERTEX
  8
0
  6
CONTINUOUS
 62
     7
 10
386.0791319715234
 20
251.4661385377005
  0
VERTEX
  8
0
  6
CONTINUOUS
 62
     7
 10
386.1121170397865
 20
251.5862315645353
  0
VERTEX
  8
0
  6
CONTINUOUS
 62
     7
 10
386.1306773443863
 20
251.7168612473199
  0
SEQEND
  8
0
  6
CONTINUOUS
 62
     7
  0
LINE
  8
0
  6
CONTINUOUS
 62
     7
 10
408.6000000000034
 20
250.5795594280124
 11
410.3999474370887
 21
250.6398158306273
  0
ARC
  8
0
  6
CONTINUOUS
 62
     7
 10
410.3966594899746
 20
253.6286071634911
 40
2.98879314138629
 50
270.0630306354378
 51
293.5831296500319
  0
POLYLINE
  8
0
  6
CONTINUOUS
 62
     7
 66
     1
  0
VERTEX
  8
0
  6
CONTINUOUS
 62
     7
 10
411.5924134543881
 20
250.8894363220525
  0
VERTEX
  8
0
  6
CONTINUOUS
 62
     7
 10
411.7067975594055
 20
250.9633536530616
  0
VERTEX
  8
0
  6
CONTINUOUS
 62
     7
 10
411.8071130101608
 20
251.0467879175792
  0
VERTEX
  8
0
  6
CONTINUOUS
 62
     7
 10
411.8773226078627
 20
251.1192696988161
  0
VERTEX
  8
0
  6
CONTINUOUS
 62
     7
 10
411.957121973013
 20
251.2221722189937
  0
VERTEX
  8
0
  6
CONTINUOUS
 62
     7
 10
412.0249023022904
 20
251.3372893451192
  0
VERTEX
  8
0
  6
CONTINUOUS
 62
     7
 10
412.0791319715234
 20
251.4661385377006
  0
VERTEX
  8
0
  6
CONTINUOUS
 62
     7
 10
412.1121170397865
 20
251.5862315645354
  0
VERTEX
  8
0
  6
CONTINUOUS
 62
     7
 10
412.1306773443864
 20
251.7168612473199
  0
SEQEND
  8
0
  6
CONTINUOUS
 62
     7
  0
LINE
  8
0
  6
CONTINUOUS
 62
     7
 10
463.9709207620662
 20
97.71398876135052
 11
463.9310055060442
 21
98.28262121995965
  0
LINE
  8
0
  6
CONTINUOUS
 62
     7
 10
437.9709207620662
 20
97.71398876135065
 11
437.9310055060443
 21
98.28262121995968
  0
LINE
  8
0
  6
CONTINUOUS
 62
     7
 10
376.0689944940118
 20
98.28262122075967
 11
376.0290792285184
 21
97.71398862721803
  0
LINE
  8
0
  6
CONTINUOUS
 62
     7
 10
402.0689944940118
 20
98.28262122075962
 11
402.0290792285183
 21
97.71398862721792
  0
LINE
  8
0
  6
CONTINUOUS
 62
     7
 10
376.0290790486329
 20
252.2860139354287
 11
376.0689945003101
 21
251.7173786895152
  0
LINE
  8
0
  6
CONTINUOUS
 62
     7
 10
402.0290790486329
 20
252.2860139354288
 11
402.0689945003101
 21
251.7173786895152
  0
LINE
  8
0
  6
CONTINUOUS
 62
     7
 10
463.9310054995809
 20
251.7173786879622
 11
463.9709209696446
 21
252.2860141958112
  0
LINE
  8
0
  6
CONTINUOUS
 62
     7
 10
437.9310054995809
 20
251.7173786879621
 11
437.9709209696447
 21
252.2860141958112
  0
LINE
  8
0
  6
CONTINUOUS
 62
     7
 10
412.1709207621469
 20
97.71398876020024
 11
412.1310054925052
 21
98.2826214128382
  0
LINE
  8
0
  6
CONTINUOUS
 62
     7
 10
386.1709207621469
 20
97.71398876020012
 11
386.1310054925052
 21
98.28262141283827
  0
LINE
  8
0
  6
CONTINUOUS
 62
     7
 10
427.8689945074948
 20
98.28262141283834
 11
427.8290792378531
 21
97.71398876020018
  0
LINE
  8
0
  6
CONTINUOUS
 62
     7
 10
453.8689945074948
 20
98.28262141283832
 11
453.829079237853
 21
97.71398876020005
  0
LINE
  8
0
  6
CONTINUOUS
 62
     7
 10
453.8290790302605
 20
252.2860141971612
 11
453.868994516298
 21
251.7173784617516
  0
LINE
  8
0
  6
CONTINUOUS
 62
     7
 10
427.8290790302605
 20
252.2860141971612
 11
427.868994516298
 21
251.7173784617515
  0
LINE
  8
0
  6
CONTINUOUS
 62
     7
 10
386.1310054837019
 20
251.7173784617503
 11
386.1709209697394
 21
252.2860141971605
  0
LINE
  8
0
  6
CONTINUOUS
 62
     7
 10
412.1310054837019
 20
251.7173784617503
 11
412.1709209697394
 21
252.2860141971605
  0
LINE
  8
0
  6
CONTINUOUS
 62
     7
 10
431.4000000000057
 20
250.5702394421905
 11
434.4000000000058
 21
250.5702394421905
  0
LINE
  8
0
  6
CONTINUOUS
 62
     7
 10
457.4000000000057
 20
250.5702394421905
 11
460.4000000000058
 21
250.5702394421905
  0
LINE
  8
0
  6
CONTINUOUS
 62
     7
 10
379.6000000000052
 20
250.5702394421905
 11
382.5999999999995
 21
250.5702394421905
  0
LINE
  8
0
  6
CONTINUOUS
 62
     7
 10
405.6000000000052
 20
250.5702394421905
 11
408.5999999999995
 21
250.5702394421905
  0
LINE
  8
0
  6
CONTINUOUS
 62
     7
 10
382.5999999999943
 20
99.42976055780957
 11
379.5999999999942
 21
99.42976055780957
  0
LINE
  8
0
  6
CONTINUOUS
 62
     7
 10
434.3999999999949
 20
99.42976055780957
 11
431.3999999999947
 21
99.42976055780957
  0
LINE
  8
0
  6
CONTINUOUS
 62
     7
 10
460.3999999999949
 20
99.42976055780957
 11
457.3999999999947
 21
99.42976055780957
  0
LINE
  8
0
  6
CONTINUOUS
 62
     7
 10
408.5999999999943
 20
99.42976055780957
 11
405.5999999999942
 21
99.42976055780957
  0
ENDBLK
  8
0
  0
ENDSEC
  0
SECTION
  2
ENTITIES
  0
INSERT
  8
0
  6
CONTINUOUS
 62
     7
  2
D_FRAME_VIEW_2206
 10
0.0
 20
0.0
 30
0.0
  0
TEXT
  8
0
  6
CONTINUOUS
 62
     7
 10
479.2173971489308
 20
-60.6715799674878
 40
3.0
  1
SB-2YSA-N
  0
LINE
  8
0
  6
CENTER
 62
     1
 10
420.0
 20
-44.25
 11
420.0
 21
4.249999999999996
  0
LINE
  8
0
  6
CENTER
 62
     1
 10
570.75
 20
175.0
 11
619.25
 21
175.0
  0
INSERT
  8
0
  6
CONTINUOUS
 62
     7
  2
D_FRAME_VIEW_2118
 10
0.0
 20
0.0
 30
0.0
  0
INSERT
  8
0
  6
CONTINUOUS
 62
     7
  2
D_FRAME_VIEW_1510
 10
0.0
 20
0.0
 30
0.0
  0
LINE
  8
0
  6
CENTER
 62
     1
 10
420.0
 20
77.50000000000001
 11
420.0
 21
272.5
  0
LINE
  8
0
  6
CENTER
 62
     1
 10
344.5
 20
175.0
 11
495.4999999999999
 21
175.0
  0
ENDSEC
  0
EOF
