  0
SECTION
  2
HEADER
  9
$ACADVER
  1
AC1004
  9
$INSBASE
 10
0.0
 20
0.0
  9
$EXTMIN
 10
-703.5
 20
-126.3295454545454
  9
$EXTMAX
 10
-322.0
 20
289.0000000000001
  9
$LIMMIN
 10
0.0
 20
0.0
  9
$LIMMAX
 10
12.0
 20
9.0
  9
$ORTHOMODE
 70
     0
  9
$REGENMODE
 70
     1
  9
$FILLMODE
 70
     1
  9
$QTEXTMODE
 70
     0
  9
$DRAGMODE
 70
     2
  9
$LTSCALE
 40
1.0
  9
$OSMODE
 70
    37
  9
$ATTMODE
 70
     1
  9
$TEXTSIZE
 40
0.2
  9
$TRACEWID
 40
0.05
  9
$TEXTSTYLE
  7
STANDARD
  9
$CLAYER
  8
0
  9
$CELTYPE
  6
BYLAYER
  9
$CECOLOR
 62
   256
  9
$DIMSCALE
 40
1.0
  9
$DIMASZ
 40
3.0
  9
$DIMEXO
 40
0.0625
  9
$DIMDLI
 40
0.38
  9
$DIMRND
 40
0.0
  9
$DIMDLE
 40
0.0
  9
$DIMEXE
 40
1.5
  9
$DIMTP
 40
0.0
  9
$DIMTM
 40
0.0
  9
$DIMTXT
 40
3.0
  9
$DIMCEN
 40
0.09
  9
$DIMTSZ
 40
0.0
  9
$DIMTOL
 70
     0
  9
$DIMLIM
 70
     0
  9
$DIMTIH
 70
     1
  9
$DIMTOH
 70
     1
  9
$DIMSE1
 70
     0
  9
$DIMSE2
 70
     0
  9
$DIMTAD
 70
     1
  9
$DIMZIN
 70
     0
  9
$DIMBLK
  1

  9
$DIMASO
 70
     1
  9
$DIMSHO
 70
     1
  9
$DIMPOST
  1

  9
$DIMAPOST
  1

  9
$DIMALT
 70
     0
  9
$DIMALTD
 70
     2
  9
$DIMALTF
 40
25.4
  9
$DIMLFAC
 40
1.0
  9
$DIMTOFL
 70
     0
  9
$DIMTVP
 40
0.0
  9
$DIMTIX
 70
     0
  9
$DIMSOXD
 70
     0
  9
$DIMSAH
 70
     0
  9
$DIMBLK1
  1

  9
$DIMBLK2
  1

  9
$LUNITS
 70
     2
  9
$LUPREC
 70
     4
  9
$SKETCHINC
 40
0.1
  9
$FILLETRAD
 40
0.5
  9
$AUNITS
 70
     0
  9
$AUPREC
 70
     0
  9
$MENU
  1
.
  9
$ELEVATION
 40
0.0
  9
$THICKNESS
 40
0.0
  9
$LIMCHECK
 70
     0
  9
$CHAMFERA
 40
0.0
  9
$CHAMFERB
 40
0.0
  9
$SKPOLY
 70
     0
  9
$TDCREATE
 40
2460613.406470347
  9
$TDUPDATE
 40
2460613.406470509
  9
$TDINDWG
 40
0.0000000116
  9
$TDUSRTIMER
 40
0.0000000116
  9
$USRTIMER
 70
     1
  9
$ANGBASE
 50
0.0
  9
$ANGDIR
 70
     0
  9
$PDMODE
 70
     0
  9
$PDSIZE
 40
0.0
  9
$PLINEWID
 40
0.0
  9
$COORDS
 70
     1
  9
$SPLFRAME
 70
     0
  9
$SPLINETYPE
 70
     6
  9
$SPLINESEGS
 70
     8
  9
$ATTDIA
 70
     0
  9
$ATTREQ
 70
     1
  9
$SURFTAB1
 70
     6
  9
$SURFTAB2
 70
     6
  9
$SURFTYPE
 70
     6
  9
$SURFU
 70
     6
  9
$SURFV
 70
     6
  9
$UCSNAME
  2

  9
$UCSORG
 10
0.0
 20
0.0
 30
0.0
  9
$UCSXDIR
 10
1.0
 20
0.0
 30
0.0
  9
$UCSYDIR
 10
0.0
 20
1.0
 30
0.0
  9
$USERI1
 70
     0
  9
$USERI2
 70
     0
  9
$USERI3
 70
     0
  9
$USERI4
 70
     0
  9
$USERI5
 70
     0
  9
$USERR1
 40
0.0
  9
$USERR2
 40
0.0
  9
$USERR3
 40
0.0
  9
$USERR4
 40
0.0
  9
$USERR5
 40
0.0
  9
$WORLDVIEW
 70
     1
  0
ENDSEC
  0
SECTION
  2
TABLES
  0
TABLE
  2
LTYPE
 70
     2
  0
LTYPE
  2
CONTINUOUS
 70
     0
  3
Solid line
 72
    65
 73
     0
 40
0.0
  0
LTYPE
  2
CENTER
 70
     0
  3

 72
    65
 73
     0
 40
0.0
  0
ENDTAB
  0
TABLE
  2
LAYER
 70
     1
  0
LAYER
  2
0
 70
     0
 62
     7
  6
CONTINUOUS
  0
ENDTAB
  0
TABLE
  2
STYLE
 70
     2
  0
STYLE
  2
STANDARD
 70
     0
 40
0.0
 41
1.0
 50
0.0
 71
     0
 42
0.2
  3
txt
  4

  0
STYLE
  2
ＭＳ_ゴシック
 70
     0
 40
0.0
 41
1.0
 50
0.0
 71
     0
 42
0.2
  3
ＭＳ ゴシック.shx
  4

  0
ENDTAB
  0
TABLE
  2
VIEW
 70
     0
  0
ENDTAB
  0
ENDSEC
  0
SECTION
  2
BLOCKS
  0
BLOCK
  8
0
  2
D_FRAME_VIEW_2207
 70
     0
 10
0.0
 20
0.0
  0
LINE
  8
0
  6
CONTINUOUS
 62
     7
 10
-536.0
 20
-38.17000000000002
 11
-531.0
 21
-38.17000000000002
  0
LINE
  8
0
  6
CONTINUOUS
 62
     7
 10
-531.0
 20
-38.17000000000002
 11
-531.0
 21
-38.33000000000001
  0
LINE
  8
0
  6
CONTINUOUS
 62
     7
 10
-679.0
 20
-38.17000000000002
 11
-536.0
 21
-38.17000000000002
  0
LINE
  8
0
  6
CONTINUOUS
 62
     7
 10
-684.0
 20
-38.17000000000002
 11
-684.0
 21
-38.33000000000001
  0
LINE
  8
0
  6
CONTINUOUS
 62
     7
 10
-684.0
 20
-38.17000000000002
 11
-679.0
 21
-38.17000000000002
  0
LINE
  8
0
  6
CONTINUOUS
 62
     7
 10
-607.5
 20
-38.33000000000001
 11
-681.0
 21
-38.33000000000001
  0
LINE
  8
0
  6
CONTINUOUS
 62
     7
 10
-534.0
 20
-38.33000000000001
 11
-607.5
 21
-38.33000000000001
  0
LINE
  8
0
  6
CONTINUOUS
 62
     7
 10
-534.0
 20
-38.83000000000002
 11
-681.0
 21
-38.83000000000002
  0
LINE
  8
0
  6
CONTINUOUS
 62
     7
 10
-528.0
 20
-38.33000000000001
 11
-528.0
 21
-38.83000000000001
  0
LINE
  8
0
  6
CONTINUOUS
 62
     7
 10
-534.0
 20
-38.33000000000001
 11
-528.0
 21
-38.33000000000001
  0
LINE
  8
0
  6
CONTINUOUS
 62
     7
 10
-528.0
 20
-38.83000000000001
 11
-534.0
 21
-38.83000000000001
  0
LINE
  8
0
  6
CONTINUOUS
 62
     7
 10
-687.0
 20
-38.83000000000001
 11
-687.0
 21
-38.33000000000001
  0
LINE
  8
0
  6
CONTINUOUS
 62
     7
 10
-687.0
 20
-38.33000000000001
 11
-681.0
 21
-38.33000000000001
  0
LINE
  8
0
  6
CONTINUOUS
 62
     7
 10
-681.0
 20
-38.83000000000001
 11
-687.0
 21
-38.83000000000001
  0
LINE
  8
0
  6
CONTINUOUS
 62
     7
 10
-632.4000000000001
 20
-41.48137702900937
 11
-632.4000000000001
 21
-38.83000000000001
  0
LINE
  8
0
  6
CONTINUOUS
 62
     7
 10
-554.6
 20
-41.48137702900937
 11
-554.6
 21
-38.83000000000001
  0
LINE
  8
0
  6
CONTINUOUS
 62
     7
 10
-634.4000000000001
 20
-38.83000000000001
 11
-634.4000000000001
 21
-41.48137702900937
  0
LINE
  8
0
  6
CONTINUOUS
 62
     7
 10
-582.6
 20
-38.83000000000001
 11
-582.6
 21
-41.48137702900937
  0
LINE
  8
0
  6
CONTINUOUS
 62
     7
 10
-658.4000000000001
 20
-41.48137702900937
 11
-658.4000000000001
 21
-38.83000000000001
  0
LINE
  8
0
  6
CONTINUOUS
 62
     7
 10
-606.5
 20
-41.48137702900937
 11
-606.5
 21
-38.83000000000001
  0
LINE
  8
0
  6
CONTINUOUS
 62
     7
 10
-660.4000000000001
 20
-38.83000000000001
 11
-660.4000000000001
 21
-41.48137702900937
  0
LINE
  8
0
  6
CONTINUOUS
 62
     7
 10
-580.6
 20
-41.48137702900937
 11
-580.6
 21
-38.83000000000001
  0
LINE
  8
0
  6
CONTINUOUS
 62
     7
 10
-608.5
 20
-38.83000000000001
 11
-608.5
 21
-41.48137702900937
  0
LINE
  8
0
  6
CONTINUOUS
 62
     7
 10
-556.6
 20
-38.83000000000001
 11
-556.6
 21
-41.48137702900937
  0
LINE
  8
0
  6
CONTINUOUS
 62
     7
 10
-608.5
 20
-72.83
 11
-608.5
 21
-41.48137702900937
  0
LINE
  8
0
  6
CONTINUOUS
 62
     7
 10
-634.4000000000001
 20
-72.83
 11
-634.4000000000001
 21
-41.48137702900937
  0
LINE
  8
0
  6
CONTINUOUS
 62
     7
 10
-554.6
 20
-41.48137702900937
 11
-554.6
 21
-72.83
  0
LINE
  8
0
  6
CONTINUOUS
 62
     7
 10
-606.5
 20
-41.48137702900937
 11
-606.5
 21
-72.83
  0
LINE
  8
0
  6
CONTINUOUS
 62
     7
 10
-632.4000000000001
 20
-41.48137702900937
 11
-632.4000000000001
 21
-72.83
  0
LINE
  8
0
  6
CONTINUOUS
 62
     7
 10
-660.4000000000001
 20
-72.83
 11
-660.4000000000001
 21
-41.48137702900937
  0
LINE
  8
0
  6
CONTINUOUS
 62
     7
 10
-556.6
 20
-72.83
 11
-556.6
 21
-41.48137702900937
  0
LINE
  8
0
  6
CONTINUOUS
 62
     7
 10
-658.4000000000001
 20
-41.48137702900937
 11
-658.4000000000001
 21
-72.83
  0
LINE
  8
0
  6
CONTINUOUS
 62
     7
 10
-582.6
 20
-72.83
 11
-582.6
 21
-41.48137702900937
  0
LINE
  8
0
  6
CONTINUOUS
 62
     7
 10
-580.6
 20
-41.48137702900937
 11
-580.6
 21
-72.83
  0
LINE
  8
0
  6
CONTINUOUS
 62
     7
 10
-664.5
 20
-74.50861624046034
 11
-550.5000000000001
 21
-74.50861624046031
  0
LINE
  8
0
  6
CONTINUOUS
 62
     7
 10
-547.5000000000001
 20
-38.83000000000001
 11
-547.5
 21
-74.68339106445978
  0
ARC
  8
0
  6
CONTINUOUS
 62
     7
 10
-550.2378462836605
 20
-100.1263909227131
 40
25.61911599258769
 50
84.07735885693438
 51
90.58630296506983
  0
LINE
  8
0
  6
CONTINUOUS
 62
     7
 10
-547.5943224798306
 20
-74.64402670468483
 11
-547.5
 21
-74.68339106445978
  0
LINE
  8
0
  6
CONTINUOUS
 62
     7
 10
-667.5000000000001
 20
-74.68339106445978
 11
-667.3785863061321
 21
-74.63863358816995
  0
ARC
  8
0
  6
CONTINUOUS
 62
     7
 10
-664.798047280977
 20
-99.84082807756263
 40
25.33396512079235
 50
89.32591502475856
 51
95.84633614439338
  0
LINE
  8
0
  6
CONTINUOUS
 62
     7
 10
-667.5000000000001
 20
-74.68339106445978
 11
-667.5
 21
-38.83000000000001
  0
LINE
  8
0
  6
CONTINUOUS
 62
     7
 10
-587.994541325348
 20
-49.53483064773154
 11
-588.0357514549247
 21
-49.50421175707665
  0
ARC
  8
0
  6
CONTINUOUS
 62
     7
 10
-594.5983120550867
 20
-58.37026424353444
 40
11.03059782257621
 50
53.49153692050584
 51
85.64400397184177
  0
LINE
  8
0
  6
CONTINUOUS
 62
     7
 10
-593.7605022468432
 20
-47.3715296322878
 11
-594.6
 21
-47.33929113344294
  0
ARC
  8
0
  6
CONTINUOUS
 62
     7
 10
-594.5999938797739
 20
-58.37645871756832
 40
11.03659324130854
 50
126.6411845729231
 51
53.23712284522662
  0
LINE
  8
0
  6
CONTINUOUS
 62
     7
 10
-594.6
 20
-47.33929113344294
 11
-594.8030311408397
 21
-47.34118020109512
  0
ARC
  8
0
  6
CONTINUOUS
 62
     7
 10
-594.5987476695121
 20
-58.37704645335653
 40
11.0377568225822
 50
91.060473538878
 51
125.8256414563876
  0
LINE
  8
0
  6
CONTINUOUS
 62
     7
 10
-601.0593740055718
 20
-49.42761166560197
 11
-601.1866524952023
 21
-49.52082104104269
  0
LINE
  8
0
  6
CONTINUOUS
 62
     7
 10
-561.9945413253593
 20
-49.53483064772329
 11
-562.0357514549194
 21
-49.50421175708077
  0
ARC
  8
0
  6
CONTINUOUS
 62
     7
 10
-568.5983120550875
 20
-58.3702642435357
 40
11.03059782257756
 50
53.49153692047158
 51
85.64400397179374
  0
LINE
  8
0
  6
CONTINUOUS
 62
     7
 10
-567.7605022468346
 20
-47.37152963228845
 11
-568.6
 21
-47.33929113344294
  0
ARC
  8
0
  6
CONTINUOUS
 62
     7
 10
-568.5999938797737
 20
-58.37645871756845
 40
11.0365932413084
 50
126.6411845733417
 51
53.23712284530074
  0
LINE
  8
0
  6
CONTINUOUS
 62
     7
 10
-568.6
 20
-47.33929113344294
 11
-568.8030311408393
 21
-47.34118020109511
  0
ARC
  8
0
  6
CONTINUOUS
 62
     7
 10
-568.5987476695141
 20
-58.3770464533483
 40
11.03775682257393
 50
91.06047353886609
 51
125.8256414563631
  0
LINE
  8
0
  6
CONTINUOUS
 62
     7
 10
-575.0593740055651
 20
-49.42761166559767
 11
-575.1866524952667
 21
-49.52082104109106
  0
LINE
  8
0
  6
CONTINUOUS
 62
     7
 10
-613.8133385366967
 20
-49.52082770707946
 11
-613.9735479357906
 21
-49.40395096761882
  0
ARC
  8
0
  6
CONTINUOUS
 62
     7
 10
-620.4019115249217
 20
-58.37897967741078
 40
11.03970102745798
 50
54.38787125092697
 51
88.82423946926636
  0
LINE
  8
0
  6
CONTINUOUS
 62
     7
 10
-620.1753829067468
 20
-47.34160301622883
 11
-620.4000000000001
 21
-47.33929113344294
  0
LINE
  8
0
  6
CONTINUOUS
 62
     7
 10
-620.4000000000001
 20
-47.33929113344294
 11
-620.752483510205
 21
-47.34498137993614
  0
ARC
  8
0
  6
CONTINUOUS
 62
     7
 10
-620.3998262727547
 20
-58.37421274357638
 40
11.03486799195313
 50
91.83139593682864
 51
126.3665907789473
  0
LINE
  8
0
  6
CONTINUOUS
 62
     7
 10
-626.9429451953305
 20
-49.48849913324309
 11
-627.0054758558983
 21
-49.5348434751391
  0
LINE
  8
0
  6
CONTINUOUS
 62
     7
 10
-639.8133385366202
 20
-49.52082770713683
 11
-639.9735479357403
 21
-49.40395096765538
  0
ARC
  8
0
  6
CONTINUOUS
 62
     7
 10
-646.401911524922
 20
-58.37897967740962
 40
11.0397010274568
 50
54.38787125059941
 51
88.82423946925007
  0
LINE
  8
0
  6
CONTINUOUS
 62
     7
 10
-646.175382906744
 20
-47.34160301622889
 11
-646.4000000000001
 21
-47.33929113344295
  0
LINE
  8
0
  6
CONTINUOUS
 62
     7
 10
-646.4000000000001
 20
-47.33929113344295
 11
-646.7524835102123
 21
-47.34498137993636
  0
ARC
  8
0
  6
CONTINUOUS
 62
     7
 10
-646.3998262727554
 20
-58.37421274357464
 40
11.03486799195138
 50
91.83139593686296
 51
126.3665907789624
  0
LINE
  8
0
  6
CONTINUOUS
 62
     7
 10
-652.9429451953324
 20
-49.48849913324447
 11
-653.0054758558921
 21
-49.53484347513423
  0
LINE
  8
0
  6
CONTINUOUS
 62
     7
 10
-601.2048766892837
 20
-49.53438944759708
 11
-601.0594102993995
 21
-49.42756261506489
  0
ARC
  8
0
  6
CONTINUOUS
 62
     7
 10
-594.6005162372074
 20
-58.36597282504086
 40
11.02780529336739
 50
91.05235270306264
 51
125.8518706965941
  0
LINE
  8
0
  6
CONTINUOUS
 62
     7
 10
-594.8030527647654
 20
-47.34002758014566
 11
-594.6
 21
-47.33813731614611
  0
LINE
  8
0
  6
CONTINUOUS
 62
     7
 10
-594.6
 20
-47.33813731614611
 11
-593.7604144884183
 21
-47.37039609370039
  0
LINE
  8
0
  6
CONTINUOUS
 62
     7
 10
-588.0357387959816
 20
-49.5041948563165
 11
-587.9951384311313
 21
-49.5343781530439
  0
LINE
  8
0
  6
CONTINUOUS
 62
     7
 10
-575.204876689361
 20
-49.53438944765524
 11
-575.0594102993929
 21
-49.42756261506058
  0
ARC
  8
0
  6
CONTINUOUS
 62
     7
 10
-568.6005162372087
 20
-58.36597282503499
 40
11.02780529336152
 50
91.05235270305388
 51
125.8518706965655
  0
LINE
  8
0
  6
CONTINUOUS
 62
     7
 10
-568.803052764765
 20
-47.34002758014564
 11
-568.6
 21
-47.3381373161461
  0
LINE
  8
0
  6
CONTINUOUS
 62
     7
 10
-568.6
 20
-47.3381373161461
 11
-567.7604144884098
 21
-47.37039609370103
  0
LINE
  8
0
  6
CONTINUOUS
 62
     7
 10
-562.0357387959763
 20
-49.50419485632062
 11
-561.995138431171
 21
-49.53437815301439
  0
LINE
  8
0
  6
CONTINUOUS
 62
     7
 10
-627.0048668557838
 20
-49.53438210222784
 11
-626.9429630609155
 21
-49.48847590009066
  0
ARC
  8
0
  6
CONTINUOUS
 62
     7
 10
-620.4020362945903
 20
-58.36206268250914
 40
11.02380448609017
 50
91.8219368270595
 51
126.3947889986813
  0
LINE
  8
0
  6
CONTINUOUS
 62
     7
 10
-613.7951292277687
 20
-49.5343850277082
 11
-613.7195561370207
 21
-49.59134029810731
  0
LINE
  8
0
  6
CONTINUOUS
 62
     7
 10
-620.4000000000001
 20
-47.3381373161461
 11
-620.1753589933833
 21
-47.34045066273691
  0
ARC
  8
0
  6
CONTINUOUS
 62
     7
 10
-620.3991265862786
 20
-58.3648347408166
 40
11.02665480717735
 50
54.35683629813809
 51
88.83719776874409
  0
LINE
  8
0
  6
CONTINUOUS
 62
     7
 10
-613.9735050012214
 20
-49.40389151578194
 11
-613.8755216121207
 21
-49.47489689839024
  0
LINE
  8
0
  6
CONTINUOUS
 62
     7
 10
-613.8755216121207
 20
-49.47489689839024
 11
-613.7951292277687
 21
-49.5343850277082
  0
LINE
  8
0
  6
CONTINUOUS
 62
     7
 10
-653.0048668557464
 20
-49.53438210219968
 11
-652.9429630609177
 21
-49.48847590009206
  0
ARC
  8
0
  6
CONTINUOUS
 62
     7
 10
-646.4020362945902
 20
-58.36206268251024
 40
11.02380448609131
 50
91.821936827098
 51
126.3947889986919
  0
LINE
  8
0
  6
CONTINUOUS
 62
     7
 10
-639.7951292276705
 20
-49.5343850277821
 11
-639.7195561370247
 21
-49.59134029810485
  0
LINE
  8
0
  6
CONTINUOUS
 62
     7
 10
-646.4000000000001
 20
-47.3381373161461
 11
-646.1753589933805
 21
-47.34045066273696
  0
ARC
  8
0
  6
CONTINUOUS
 62
     7
 10
-646.399126586279
 20
-58.36483474081642
 40
11.02665480717717
 50
54.35683629781227
 51
88.83719776872789
  0
LINE
  8
0
  6
CONTINUOUS
 62
     7
 10
-639.9735050011709
 20
-49.40389151581847
 11
-639.8755216120217
 21
-49.47489689846324
  0
LINE
  8
0
  6
CONTINUOUS
 62
     7
 10
-639.8755216120217
 20
-49.47489689846324
 11
-639.7951292276705
 21
-49.5343850277821
  0
ARC
  8
0
  6
CONTINUOUS
 62
     7
 10
-646.3999739541879
 20
-58.3708295255889
 40
11.03210828932441
 50
126.776651961464
 51
52.73206193945703
  0
LINE
  8
0
  6
CONTINUOUS
 62
     7
 10
-601.2804438629572
 20
-49.59134029809259
 11
-601.2048766892837
 21
-49.53438944759708
  0
LINE
  8
0
  6
CONTINUOUS
 62
     7
 10
-575.2804438629489
 20
-49.59134029808679
 11
-575.204876689361
 21
-49.53438944765524
  0
ARC
  8
0
  6
CONTINUOUS
 62
     7
 10
-620.3999739541874
 20
-58.37082952558883
 40
11.03210828932448
 50
126.7766519617093
 51
52.73206193943486
  0
ARC
  8
0
  6
CONTINUOUS
 62
     7
 10
-555.6000000000001
 20
-72.83
 40
1.000000000000001
 50
270.0
 51
0.0
  0
ARC
  8
0
  6
CONTINUOUS
 62
     7
 10
-581.6
 20
-72.83
 40
1.000000000000001
 50
270.0
 51
0.0
  0
ARC
  8
0
  6
CONTINUOUS
 62
     7
 10
-659.4
 20
-72.83
 40
1.000000000000112
 50
180.0
 51
270.0
  0
ARC
  8
0
  6
CONTINUOUS
 62
     7
 10
-659.4
 20
-72.83
 40
1.000000000000001
 50
270.0
 51
0.0
  0
ARC
  8
0
  6
CONTINUOUS
 62
     7
 10
-633.4000000000001
 20
-72.83
 40
1.000000000000001
 50
180.0
 51
270.0
  0
ARC
  8
0
  6
CONTINUOUS
 62
     7
 10
-633.4000000000001
 20
-72.83
 40
1.000000000000001
 50
270.0000000000002
 51
0.0
  0
ARC
  8
0
  6
CONTINUOUS
 62
     7
 10
-607.5
 20
-72.83
 40
1.000000000000001
 50
180.0
 51
270.0
  0
ARC
  8
0
  6
CONTINUOUS
 62
     7
 10
-607.5
 20
-72.83
 40
1.000000000000001
 50
270.0
 51
0.0
  0
ARC
  8
0
  6
CONTINUOUS
 62
     7
 10
-581.6
 20
-72.83
 40
1.000000000000001
 50
180.0
 51
269.9999999999998
  0
ARC
  8
0
  6
CONTINUOUS
 62
     7
 10
-555.6000000000001
 20
-72.83
 40
0.9999999999998899
 50
180.0
 51
270.0
  0
LINE
  8
0
  6
CONTINUOUS
 62
     7
 10
-567.1
 20
-55.34808151065926
 11
-567.1
 21
-55.34026246433642
  0
LINE
  8
0
  6
CONTINUOUS
 62
     7
 10
-647.9
 20
-55.34808151065926
 11
-647.9
 21
-55.34026246433642
  0
LINE
  8
0
  6
CONTINUOUS
 62
     7
 10
-593.1
 20
-55.34808151065926
 11
-593.1
 21
-55.34026246433641
  0
LINE
  8
0
  6
CONTINUOUS
 62
     7
 10
-621.9
 20
-55.34808151065926
 11
-621.9
 21
-55.34026246433643
  0
LINE
  8
0
  6
CONTINUOUS
 62
     7
 10
-644.9
 20
-55.34808151065926
 11
-644.9
 21
-55.34035976510669
  0
LINE
  8
0
  6
CONTINUOUS
 62
     7
 10
-570.1
 20
-55.34808151065926
 11
-570.1
 21
-55.34035976510669
  0
LINE
  8
0
  6
CONTINUOUS
 62
     7
 10
-618.9
 20
-55.34808151065926
 11
-618.9
 21
-55.34035976510669
  0
LINE
  8
0
  6
CONTINUOUS
 62
     7
 10
-596.1
 20
-55.34808151065926
 11
-596.1
 21
-55.34035976510669
  0
LINE
  8
0
  6
CONTINUOUS
 62
     7
 10
-618.9
 20
-55.34800535823744
 11
-621.9
 21
-55.34800535823744
  0
LINE
  8
0
  6
CONTINUOUS
 62
     7
 10
-593.1
 20
-55.34800535823744
 11
-596.1
 21
-55.34800535823744
  0
LINE
  8
0
  6
CONTINUOUS
 62
     7
 10
-644.9
 20
-55.34800535823746
 11
-647.9
 21
-55.34800535823744
  0
LINE
  8
0
  6
CONTINUOUS
 62
     7
 10
-567.1
 20
-55.34800535823744
 11
-570.1
 21
-55.34800535823744
  0
ARC
  8
0
  6
CONTINUOUS
 62
     7
 10
-567.1184202595489
 20
-58.3810472752122
 40
3.050962841552623
 50
0.1973594769622196
 51
52.77343134371802
  0
ARC
  8
0
  6
CONTINUOUS
 62
     7
 10
-647.8814769676209
 20
-58.38109901212572
 40
3.051065792417141
 50
127.2263124805627
 51
179.8016756123303
  0
ARC
  8
0
  6
CONTINUOUS
 62
     7
 10
-593.1184202595488
 20
-58.3810472752122
 40
3.050962841552517
 50
0.1973594769625606
 51
52.77343134358557
  0
ARC
  8
0
  6
CONTINUOUS
 62
     7
 10
-621.8814769676213
 20
-58.38109901212548
 40
3.051065792416696
 50
127.2263124806921
 51
179.8016756123347
  0
ARC
  8
0
  6
CONTINUOUS
 62
     7
 10
-644.9185701721643
 20
-58.38112196344112
 40
3.05111301144877
 50
0.1987523156664111
 51
52.7720206623269
  0
ARC
  8
0
  6
CONTINUOUS
 62
     7
 10
-570.0805251492777
 20
-58.381573281987
 40
3.052019283038029
 50
127.2351518937222
 51
179.7928340134396
  0
ARC
  8
0
  6
CONTINUOUS
 62
     7
 10
-618.9185701721601
 20
-58.38112196343925
 40
3.051113011444536
 50
0.1987523156317366
 51
52.77202066214085
  0
ARC
  8
0
  6
CONTINUOUS
 62
     7
 10
-596.0805251492824
 20
-58.38157328198494
 40
3.052019283033359
 50
127.2351518938987
 51
179.7928340134779
  0
LINE
  8
0
  6
CONTINUOUS
 62
     7
 10
-664.5
 20
-76.08338008308732
 11
-666.1038523978334
 21
-76.08338008308732
  0
LINE
  8
0
  6
CONTINUOUS
 62
     7
 10
-666.1038523978334
 20
-76.08338008308735
 11
-667.5
 21
-74.68723248092074
  0
LINE
  8
0
  6
CONTINUOUS
 62
     7
 10
-548.8961476021666
 20
-76.08338008308735
 11
-547.5000000000001
 21
-74.68723248092074
  0
LINE
  8
0
  6
CONTINUOUS
 62
     7
 10
-550.5000000000001
 20
-76.08338008308732
 11
-548.8961476021666
 21
-76.08338008308732
  0
ARC
  8
0
  6
CONTINUOUS
 62
     7
 10
-644.900005115882
 20
-58.37040914864345
 40
3.0325296006818
 50
270.000096658065
 51
359.9975648994792
  0
ARC
  8
0
  6
CONTINUOUS
 62
     7
 10
-618.9000051158821
 20
-58.37040914864341
 40
3.03252960068191
 50
270.0000966580673
 51
359.9975648994787
  0
ARC
  8
0
  6
CONTINUOUS
 62
     7
 10
-570.0999294124573
 20
-58.37034367431055
 40
3.032595075831914
 50
180.0036720752616
 51
269.9986663672014
  0
ARC
  8
0
  6
CONTINUOUS
 62
     7
 10
-596.0999294124573
 20
-58.37034367431037
 40
3.032595075832095
 50
180.0036720752651
 51
269.9986663671993
  0
ARC
  8
0
  6
CONTINUOUS
 62
     7
 10
-567.1000198183816
 20
-58.37039444554371
 40
3.032544303841978
 50
270.0003744412311
 51
359.9972871163131
  0
ARC
  8
0
  6
CONTINUOUS
 62
     7
 10
-593.1000198183815
 20
-58.37039444554368
 40
3.032544303841978
 50
270.000374441229
 51
359.9972871163127
  0
ARC
  8
0
  6
CONTINUOUS
 62
     7
 10
-647.8999521478275
 20
-58.37036641060868
 40
3.03257233908981
 50
180.0032425354879
 51
269.999095906976
  0
ARC
  8
0
  6
CONTINUOUS
 62
     7
 10
-621.8999521478274
 20
-58.37036641060849
 40
3.032572339090004
 50
180.0032425354916
 51
269.9990959069739
  0
LINE
  8
0
  6
CONTINUOUS
 62
     7
 10
-550.5000000000001
 20
-76.08338008308732
 11
-664.5
 21
-76.08338008308732
  0
LINE
  8
0
  6
CONTINUOUS
 62
     7
 10
-618.9
 20
-61.40293874932095
 11
-621.8999999999995
 21
-61.40293874932095
  0
LINE
  8
0
  6
CONTINUOUS
 62
     7
 10
-593.1
 20
-61.40293874932095
 11
-596.0999999999996
 21
-61.40293874932095
  0
LINE
  8
0
  6
CONTINUOUS
 62
     7
 10
-644.9
 20
-61.40293874932095
 11
-647.8999999999995
 21
-61.40293874932095
  0
LINE
  8
0
  6
CONTINUOUS
 62
     7
 10
-567.1
 20
-61.40293874932095
 11
-570.0999999999996
 21
-61.40293874932095
  0
LINE
  8
0
  6
CONTINUOUS
 62
     7
 10
-550.5000000000001
 20
-78.08338008308735
 11
-548.8961476021666
 21
-78.08338008308735
  0
LINE
  8
0
  6
CONTINUOUS
 62
     7
 10
-547.8990871951528
 20
-77.08044049010121
 11
-550.5000000000001
 21
-76.99589141956139
  0
LINE
  8
0
  6
CONTINUOUS
 62
     7
 10
-548.8961476021666
 20
-78.08338008308735
 11
-547.8961476021666
 21
-77.08338008308732
  0
LINE
  8
0
  6
CONTINUOUS
 62
     7
 10
-547.8990871951528
 20
-77.08044049010121
 11
-548.8961476021666
 21
-76.08338008308735
  0
LINE
  8
0
  6
CONTINUOUS
 62
     7
 10
-664.5
 20
-76.99589141956139
 11
-667.1009128048473
 21
-77.08044049010121
  0
LINE
  8
0
  6
CONTINUOUS
 62
     7
 10
-667.1009128048473
 20
-77.08044049010121
 11
-666.1038523978334
 21
-76.08338008308735
  0
LINE
  8
0
  6
CONTINUOUS
 62
     7
 10
-664.5
 20
-78.08338008308735
 11
-666.1038523978334
 21
-78.08338008308735
  0
LINE
  8
0
  6
CONTINUOUS
 62
     7
 10
-666.1038523978334
 20
-78.08338008308735
 11
-667.1038523978334
 21
-77.08338008308732
  0
LINE
  8
0
  6
CONTINUOUS
 62
     7
 10
-550.5000000000001
 20
-76.99589141956139
 11
-664.5
 21
-76.99589141956139
  0
LINE
  8
0
  6
CONTINUOUS
 62
     7
 10
-550.5000000000001
 20
-78.08338008308735
 11
-664.5
 21
-78.08338008308735
  0
LINE
  8
0
  6
CONTINUOUS
 62
     7
 10
-550.5
 20
-80.08338008308735
 11
-548.8961476021666
 21
-80.08338008308735
  0
LINE
  8
0
  6
CONTINUOUS
 62
     7
 10
-547.8990871951528
 20
-79.08044049010122
 11
-550.5
 21
-78.99589141956142
  0
LINE
  8
0
  6
CONTINUOUS
 62
     7
 10
-548.8961476021666
 20
-80.08338008308735
 11
-547.8961476021666
 21
-79.08338008308735
  0
LINE
  8
0
  6
CONTINUOUS
 62
     7
 10
-547.8990871951528
 20
-79.08044049010122
 11
-548.8961476021666
 21
-78.08338008308735
  0
LINE
  8
0
  6
CONTINUOUS
 62
     7
 10
-664.5
 20
-78.99589141956143
 11
-667.1009128048473
 21
-79.08044049010122
  0
LINE
  8
0
  6
CONTINUOUS
 62
     7
 10
-667.1009128048473
 20
-79.08044049010122
 11
-666.1038523978334
 21
-78.08338008308735
  0
LINE
  8
0
  6
CONTINUOUS
 62
     7
 10
-664.5000000000001
 20
-80.08338008308735
 11
-666.1038523978334
 21
-80.08338008308735
  0
LINE
  8
0
  6
CONTINUOUS
 62
     7
 10
-666.1038523978334
 20
-80.08338008308735
 11
-667.1038523978334
 21
-79.08338008308735
  0
LINE
  8
0
  6
CONTINUOUS
 62
     7
 10
-550.5
 20
-80.08338008308735
 11
-664.5000000000001
 21
-80.08338008308735
  0
LINE
  8
0
  6
CONTINUOUS
 62
     7
 10
-550.5
 20
-78.99589141956142
 11
-664.5
 21
-78.99589141956143
  0
LINE
  8
0
  6
CONTINUOUS
 62
     7
 10
-547.8990871951528
 20
-81.08044049010124
 11
-550.5
 21
-80.99589141956143
  0
LINE
  8
0
  6
CONTINUOUS
 62
     7
 10
-547.8990871951528
 20
-81.08044049010124
 11
-548.8961476021666
 21
-80.08338008308735
  0
LINE
  8
0
  6
CONTINUOUS
 62
     7
 10
-550.5
 20
-82.08338008308735
 11
-548.8961476021666
 21
-82.08338008308735
  0
LINE
  8
0
  6
CONTINUOUS
 62
     7
 10
-548.8961476021666
 20
-82.08338008308733
 11
-547.8961476021666
 21
-81.08338008308735
  0
LINE
  8
0
  6
CONTINUOUS
 62
     7
 10
-664.5000000000001
 20
-80.99589141956145
 11
-667.1009128048473
 21
-81.08044049010124
  0
LINE
  8
0
  6
CONTINUOUS
 62
     7
 10
-667.1009128048473
 20
-81.08044049010124
 11
-666.1038523978334
 21
-80.08338008308735
  0
LINE
  8
0
  6
CONTINUOUS
 62
     7
 10
-664.5000000000001
 20
-82.08338008308735
 11
-666.1038523978334
 21
-82.08338008308735
  0
LINE
  8
0
  6
CONTINUOUS
 62
     7
 10
-666.1038523978334
 20
-82.08338008308733
 11
-667.1038523978334
 21
-81.08338008308735
  0
LINE
  8
0
  6
CONTINUOUS
 62
     7
 10
-550.5
 20
-80.99589141956143
 11
-664.5000000000001
 21
-80.99589141956145
  0
LINE
  8
0
  6
CONTINUOUS
 62
     7
 10
-550.5
 20
-82.08338008308735
 11
-664.5000000000001
 21
-82.08338008308735
  0
LINE
  8
0
  6
CONTINUOUS
 62
     7
 10
-547.8990871951528
 20
-83.08044049010124
 11
-550.5
 21
-82.99589141956146
  0
LINE
  8
0
  6
CONTINUOUS
 62
     7
 10
-547.8990871951528
 20
-83.08044049010124
 11
-548.8961476021666
 21
-82.08338008308733
  0
LINE
  8
0
  6
CONTINUOUS
 62
     7
 10
-550.5
 20
-84.08338008308735
 11
-548.8961476021666
 21
-84.08338008308735
  0
LINE
  8
0
  6
CONTINUOUS
 62
     7
 10
-548.8961476021666
 20
-84.08338008308738
 11
-547.8961476021666
 21
-83.08338008308735
  0
LINE
  8
0
  6
CONTINUOUS
 62
     7
 10
-664.5000000000001
 20
-84.08338008308735
 11
-666.1038523978334
 21
-84.08338008308735
  0
LINE
  8
0
  6
CONTINUOUS
 62
     7
 10
-666.1038523978334
 20
-84.08338008308735
 11
-667.1038523978334
 21
-83.08338008308735
  0
LINE
  8
0
  6
CONTINUOUS
 62
     7
 10
-664.5000000000001
 20
-82.99589141956146
 11
-667.1009128048473
 21
-83.08044049010124
  0
LINE
  8
0
  6
CONTINUOUS
 62
     7
 10
-667.1009128048473
 20
-83.08044049010124
 11
-666.1038523978334
 21
-82.08338008308733
  0
LINE
  8
0
  6
CONTINUOUS
 62
     7
 10
-550.5
 20
-84.08338008308735
 11
-664.5000000000001
 21
-84.08338008308735
  0
LINE
  8
0
  6
CONTINUOUS
 62
     7
 10
-550.5
 20
-82.99589141956146
 11
-664.5000000000001
 21
-82.99589141956146
  0
LINE
  8
0
  6
CONTINUOUS
 62
     7
 10
-666.1038523978334
 20
-85.83000000000001
 11
-666.1038523978334
 21
-84.08338008308735
  0
LINE
  8
0
  6
CONTINUOUS
 62
     7
 10
-548.8961476021666
 20
-85.83000000000001
 11
-548.8961476021666
 21
-84.08338008308738
  0
LINE
  8
0
  6
CONTINUOUS
 62
     7
 10
-550.5
 20
-86.83000000000001
 11
-664.5000000000001
 21
-86.83000000000001
  0
LINE
  8
0
  6
CONTINUOUS
 62
     7
 10
-664.5000000000001
 20
-86.83000000000001
 11
-665.1038523978334
 21
-86.83000000000001
  0
ARC
  8
0
  6
CONTINUOUS
 62
     7
 10
-665.1038523978334
 20
-85.83000000000001
 40
1.000000000000001
 50
180.0
 51
270.0
  0
ARC
  8
0
  6
CONTINUOUS
 62
     7
 10
-549.8961476021666
 20
-85.83000000000001
 40
1.000000000000001
 50
270.0
 51
0.0
  0
LINE
  8
0
  6
CONTINUOUS
 62
     7
 10
-549.8961476021666
 20
-86.83000000000001
 11
-550.5
 21
-86.83000000000001
  0
LINE
  8
0
  6
CONTINUOUS
 62
     7
 10
-601.2048492808782
 20
-49.53436893761651
 11
-601.2076502374904
 21
-49.53646730826237
  0
LINE
  8
0
  6
CONTINUOUS
 62
     7
 10
-587.9923497211066
 20
-49.53646733918735
 11
-587.9951506777361
 21
-49.53436896852842
  0
LINE
  8
0
  6
CONTINUOUS
 62
     7
 10
-575.2048492809554
 20
-49.53436893767466
 11
-575.2076502375675
 21
-49.53646730832054
  0
LINE
  8
0
  6
CONTINUOUS
 62
     7
 10
-561.9923497211473
 20
-49.53646733915708
 11
-561.9951506777769
 21
-49.53436896849817
  0
LINE
  8
0
  6
CONTINUOUS
 62
     7
 10
-627.0048492809012
 20
-49.53436893763402
 11
-627.0076502375131
 21
-49.53646730827968
  0
LINE
  8
0
  6
CONTINUOUS
 62
     7
 10
-613.792349721153
 20
-49.53646733915276
 11
-613.7951506777822
 21
-49.53436896849404
  0
LINE
  8
0
  6
CONTINUOUS
 62
     7
 10
-653.0048492808637
 20
-49.53436893760588
 11
-653.0076502374757
 21
-49.53646730825153
  0
LINE
  8
0
  6
CONTINUOUS
 62
     7
 10
-639.7923497210548
 20
-49.53646733922658
 11
-639.7951506776841
 21
-49.53436896856784
  0
ARC
  8
0
  6
CONTINUOUS
 62
     7
 10
-567.117736338154
 20
-58.42959534839248
 40
3.08939726803129
 50
52.77013821963442
 51
89.67106111176378
  0
ARC
  8
0
  6
CONTINUOUS
 62
     7
 10
-647.8822636618459
 20
-58.42959534839287
 40
3.089397268031684
 50
90.32893888823827
 51
127.2298617803726
  0
ARC
  8
0
  6
CONTINUOUS
 62
     7
 10
-593.1177363381538
 20
-58.42959534839134
 40
3.089397268030143
 50
52.77013821949674
 51
89.67106111176986
  0
ARC
  8
0
  6
CONTINUOUS
 62
     7
 10
-621.8822636618463
 20
-58.4295953483912
 40
3.089397268029989
 50
90.3289388882302
 51
127.2298617805129
  0
ARC
  8
0
  6
CONTINUOUS
 62
     7
 10
-644.9415085922152
 20
-58.49950806324983
 40
3.159531742932758
 50
53.19314129846868
 51
89.24725061829149
  0
ARC
  8
0
  6
CONTINUOUS
 62
     7
 10
-570.0584914077849
 20
-58.4995080632496
 40
3.159531742932511
 50
90.75274938170652
 51
126.8068587015342
  0
ARC
  8
0
  6
CONTINUOUS
 62
     7
 10
-618.9415085922149
 20
-58.49950806324663
 40
3.159531742929555
 50
53.19314129821953
 51
89.24725061829677
  0
ARC
  8
0
  6
CONTINUOUS
 62
     7
 10
-596.0584914077851
 20
-58.49950806324687
 40
3.159531742929826
 50
90.75274938170514
 51
126.8068587017819
  0
ENDBLK
  8
0
  0
BLOCK
  8
0
  2
D_FRAME_VIEW_2024
 70
     0
 10
0.0
 20
0.0
  0
LINE
  8
0
  6
CONTINUOUS
 62
     7
 10
-394.33
 20
280.7499999999999
 11
-394.33
 21
285.75
  0
LINE
  8
0
  6
CONTINUOUS
 62
     7
 10
-394.33
 20
285.75
 11
-394.17
 21
285.75
  0
LINE
  8
0
  6
CONTINUOUS
 62
     7
 10
-394.17
 20
280.7499999999999
 11
-394.17
 21
285.75
  0
LINE
  8
0
  6
CONTINUOUS
 62
     7
 10
-394.33
 20
70.75000000000011
 11
-394.33
 21
280.7499999999999
  0
LINE
  8
0
  6
CONTINUOUS
 62
     7
 10
-394.17
 20
266.4461524227066
 11
-394.17
 21
280.7499999999999
  0
LINE
  8
0
  6
CONTINUOUS
 62
     7
 10
-394.33
 20
65.75000000000011
 11
-394.17
 21
65.75000000000011
  0
LINE
  8
0
  6
CONTINUOUS
 62
     7
 10
-394.33
 20
65.75000000000011
 11
-394.33
 21
70.75000000000011
  0
LINE
  8
0
  6
CONTINUOUS
 62
     7
 10
-394.17
 20
267.25
 11
-393.67
 21
267.25
  0
LINE
  8
0
  6
CONTINUOUS
 62
     7
 10
-393.67
 20
267.25
 11
-393.67
 21
261.25
  0
LINE
  8
0
  6
CONTINUOUS
 62
     7
 10
-394.17
 20
261.25
 11
-394.17
 21
266.4461524227066
  0
LINE
  8
0
  6
CONTINUOUS
 62
     7
 10
-393.67
 20
64.25
 11
-394.17
 21
64.25
  0
LINE
  8
0
  6
CONTINUOUS
 62
     7
 10
-393.67
 20
70.25
 11
-393.67
 21
64.25
  0
LINE
  8
0
  6
CONTINUOUS
 62
     7
 10
-394.17
 20
64.25
 11
-394.17
 21
70.25
  0
LINE
  8
0
  6
CONTINUOUS
 62
     7
 10
-394.17
 20
261.25
 11
-394.17
 21
192.75
  0
LINE
  8
0
  6
CONTINUOUS
 62
     7
 10
-394.17
 20
165.75
 11
-394.17
 21
138.75
  0
LINE
  8
0
  6
CONTINUOUS
 62
     7
 10
-393.67
 20
261.25
 11
-393.67
 21
70.25
  0
LINE
  8
0
  6
CONTINUOUS
 62
     7
 10
-394.17
 20
138.75
 11
-394.17
 21
70.25
  0
LINE
  8
0
  6
CONTINUOUS
 62
     7
 10
-394.17
 20
192.75
 11
-394.17
 21
165.75
  0
LINE
  8
0
  6
CONTINUOUS
 62
     7
 10
-393.67
 20
246.25
 11
-357.9913837595396
 21
243.1285255486678
  0
LINE
  8
0
  6
CONTINUOUS
 62
     7
 10
-357.8166089355402
 20
240.1017752202681
 11
-357.9913837595396
 21
243.1285255486678
  0
LINE
  8
0
  6
CONTINUOUS
 62
     7
 10
-357.8127675190793
 20
239.9499093082074
 11
-357.8166089355402
 21
240.1017752202681
  0
LINE
  8
0
  6
CONTINUOUS
 62
     7
 10
-356.4166199169127
 20
241.5537617060408
 11
-357.9913837595396
 21
243.1285255486678
  0
LINE
  8
0
  6
CONTINUOUS
 62
     7
 10
-356.4166199169127
 20
239.9499093082074
 11
-356.4166199169127
 21
241.5537617060408
  0
LINE
  8
0
  6
CONTINUOUS
 62
     7
 10
-357.8166089355402
 20
91.39822477973195
 11
-357.8127675190793
 21
91.55009069179259
  0
LINE
  8
0
  6
CONTINUOUS
 62
     7
 10
-356.4166199169127
 20
89.9462382939592
 11
-356.4166199169127
 21
91.55009069179259
  0
LINE
  8
0
  6
CONTINUOUS
 62
     7
 10
-356.4166199169127
 20
89.9462382939592
 11
-357.9913837595397
 21
88.37147445133219
  0
LINE
  8
0
  6
CONTINUOUS
 62
     7
 10
-357.9913837595397
 20
88.37147445133219
 11
-357.8166089355402
 21
91.39822477973195
  0
LINE
  8
0
  6
CONTINUOUS
 62
     7
 10
-357.9913837595397
 20
88.37147445133219
 11
-393.67
 21
85.25
  0
LINE
  8
0
  6
CONTINUOUS
 62
     7
 10
-357.8127675190793
 20
91.55009069179259
 11
-357.8127675190793
 21
239.9499093082074
  0
LINE
  8
0
  6
CONTINUOUS
 62
     7
 10
-356.4166199169126
 20
91.55009069179259
 11
-356.4166199169127
 21
239.9499093082074
  0
LINE
  8
0
  6
CONTINUOUS
 62
     7
 10
-349.4195595098988
 20
92.07502267294818
 11
-349.5041085804386
 21
89.55865893864068
  0
LINE
  8
0
  6
CONTINUOUS
 62
     7
 10
-349.5041085804386
 20
89.55865893864068
 11
-350.4166199169126
 21
90.47117027511479
  0
LINE
  8
0
  6
CONTINUOUS
 62
     7
 10
-350.4166199169126
 20
90.47117027511479
 11
-350.4166199169126
 21
92.07502267294818
  0
LINE
  8
0
  6
CONTINUOUS
 62
     7
 10
-348.4166199169126
 20
90.64614760216658
 11
-348.4166199169126
 21
92.25000000000004
  0
LINE
  8
0
  6
CONTINUOUS
 62
     7
 10
-348.4166199169126
 20
90.6461476021666
 11
-349.5041085804386
 21
89.55865893864068
  0
LINE
  8
0
  6
CONTINUOUS
 62
     7
 10
-349.4166199169126
 20
92.25000000000004
 11
-349.4195595098988
 21
92.07502267294818
  0
LINE
  8
0
  6
CONTINUOUS
 62
     7
 10
-354.4166199169126
 20
90.12121562101106
 11
-354.4166199169126
 21
91.72506801884444
  0
LINE
  8
0
  6
CONTINUOUS
 62
     7
 10
-354.4166199169126
 20
90.12121562101106
 11
-355.5041085804386
 21
89.03372695748511
  0
LINE
  8
0
  6
CONTINUOUS
 62
     7
 10
-355.4195595098988
 20
91.55009069179259
 11
-355.5041085804386
 21
89.03372695748511
  0
LINE
  8
0
  6
CONTINUOUS
 62
     7
 10
-355.4166199169127
 20
91.72506801884444
 11
-355.4195595098988
 21
91.55009069179259
  0
LINE
  8
0
  6
CONTINUOUS
 62
     7
 10
-355.5041085804386
 20
89.03372695748511
 11
-356.4166199169127
 21
89.9462382939592
  0
LINE
  8
0
  6
CONTINUOUS
 62
     7
 10
-350.4166199169126
 20
90.47117027511479
 11
-351.5041085804386
 21
89.38368161158886
  0
LINE
  8
0
  6
CONTINUOUS
 62
     7
 10
-351.4195595098988
 20
91.90004534589632
 11
-351.5041085804386
 21
89.38368161158886
  0
LINE
  8
0
  6
CONTINUOUS
 62
     7
 10
-351.4166199169126
 20
92.07502267294818
 11
-351.4195595098988
 21
91.90004534589632
  0
LINE
  8
0
  6
CONTINUOUS
 62
     7
 10
-351.5041085804386
 20
89.38368161158886
 11
-352.4166199169126
 21
90.29619294806292
  0
LINE
  8
0
  6
CONTINUOUS
 62
     7
 10
-352.4166199169126
 20
90.29619294806292
 11
-352.4166199169126
 21
91.90004534589632
  0
LINE
  8
0
  6
CONTINUOUS
 62
     7
 10
-353.4195595098988
 20
91.72506801884444
 11
-353.5041085804386
 21
89.208704284537
  0
LINE
  8
0
  6
CONTINUOUS
 62
     7
 10
-353.5041085804386
 20
89.208704284537
 11
-354.4166199169126
 21
90.12121562101106
  0
LINE
  8
0
  6
CONTINUOUS
 62
     7
 10
-352.4166199169126
 20
90.29619294806292
 11
-353.5041085804386
 21
89.208704284537
  0
LINE
  8
0
  6
CONTINUOUS
 62
     7
 10
-353.4166199169126
 20
91.90004534589632
 11
-353.4195595098988
 21
91.72506801884444
  0
LINE
  8
0
  6
CONTINUOUS
 62
     7
 10
-352.4166199169127
 20
239.5999546541037
 11
-352.4166199169127
 21
241.2038070519371
  0
LINE
  8
0
  6
CONTINUOUS
 62
     7
 10
-353.4195595098988
 20
239.7749319811555
 11
-353.4166199169127
 21
239.5999546541037
  0
LINE
  8
0
  6
CONTINUOUS
 62
     7
 10
-353.5041085804386
 20
242.291295715463
 11
-353.4195595098988
 21
239.7749319811555
  0
LINE
  8
0
  6
CONTINUOUS
 62
     7
 10
-352.4166199169127
 20
241.2038070519371
 11
-353.5041085804386
 21
242.291295715463
  0
LINE
  8
0
  6
CONTINUOUS
 62
     7
 10
-354.4166199169127
 20
239.7749319811555
 11
-354.4166199169127
 21
241.3787843789889
  0
LINE
  8
0
  6
CONTINUOUS
 62
     7
 10
-353.5041085804386
 20
242.291295715463
 11
-354.4166199169127
 21
241.378784378989
  0
LINE
  8
0
  6
CONTINUOUS
 62
     7
 10
-355.5041085804386
 20
242.4662730425149
 11
-355.4195595098988
 21
239.9499093082074
  0
LINE
  8
0
  6
CONTINUOUS
 62
     7
 10
-355.5041085804386
 20
242.4662730425149
 11
-356.4166199169127
 21
241.5537617060408
  0
LINE
  8
0
  6
CONTINUOUS
 62
     7
 10
-355.4195595098988
 20
239.9499093082074
 11
-355.4166199169127
 21
239.7749319811555
  0
LINE
  8
0
  6
CONTINUOUS
 62
     7
 10
-354.4166199169127
 20
241.378784378989
 11
-355.5041085804386
 21
242.4662730425149
  0
LINE
  8
0
  6
CONTINUOUS
 62
     7
 10
-351.5041085804386
 20
242.1163183884112
 11
-351.4195595098988
 21
239.5999546541037
  0
LINE
  8
0
  6
CONTINUOUS
 62
     7
 10
-351.5041085804386
 20
242.1163183884112
 11
-352.4166199169127
 21
241.2038070519371
  0
LINE
  8
0
  6
CONTINUOUS
 62
     7
 10
-349.5041085804386
 20
241.9413410613593
 11
-349.4195595098988
 21
239.4249773270519
  0
LINE
  8
0
  6
CONTINUOUS
 62
     7
 10
-350.4166199169127
 20
239.4249773270519
 11
-350.4166199169127
 21
241.0288297248853
  0
LINE
  8
0
  6
CONTINUOUS
 62
     7
 10
-349.5041085804386
 20
241.9413410613593
 11
-350.4166199169126
 21
241.0288297248853
  0
LINE
  8
0
  6
CONTINUOUS
 62
     7
 10
-351.4195595098988
 20
239.5999546541037
 11
-351.4166199169126
 21
239.4249773270519
  0
LINE
  8
0
  6
CONTINUOUS
 62
     7
 10
-350.4166199169126
 20
241.0288297248853
 11
-351.5041085804386
 21
242.1163183884112
  0
LINE
  8
0
  6
CONTINUOUS
 62
     7
 10
-348.4166199169127
 20
239.25
 11
-348.4166199169127
 21
240.8538523978334
  0
LINE
  8
0
  6
CONTINUOUS
 62
     7
 10
-349.4195595098988
 20
239.4249773270519
 11
-349.4166199169126
 21
239.25
  0
LINE
  8
0
  6
CONTINUOUS
 62
     7
 10
-348.4166199169126
 20
240.8538523978334
 11
-349.5041085804386
 21
241.9413410613593
  0
LINE
  8
0
  6
CONTINUOUS
 62
     7
 10
-349.4166199169126
 20
239.25
 11
-349.4166199169126
 21
92.25000000000006
  0
LINE
  8
0
  6
CONTINUOUS
 62
     7
 10
-350.4166199169127
 20
92.07502267294818
 11
-350.4166199169127
 21
239.4249773270519
  0
LINE
  8
0
  6
CONTINUOUS
 62
     7
 10
-355.4166199169127
 20
239.7749319811555
 11
-355.4166199169127
 21
91.72506801884444
  0
LINE
  8
0
  6
CONTINUOUS
 62
     7
 10
-351.4166199169126
 20
239.4249773270519
 11
-351.4166199169126
 21
92.07502267294818
  0
LINE
  8
0
  6
CONTINUOUS
 62
     7
 10
-352.4166199169126
 20
91.90004534589632
 11
-352.4166199169127
 21
239.5999546541037
  0
LINE
  8
0
  6
CONTINUOUS
 62
     7
 10
-353.4166199169127
 20
239.5999546541037
 11
-353.4166199169126
 21
91.90004534589632
  0
LINE
  8
0
  6
CONTINUOUS
 62
     7
 10
-354.4166199169126
 20
91.72506801884444
 11
-354.4166199169127
 21
239.7749319811555
  0
LINE
  8
0
  6
CONTINUOUS
 62
     7
 10
-348.4166199169126
 20
92.25000000000004
 11
-348.4166199169126
 21
239.25
  0
LINE
  8
0
  6
CONTINUOUS
 62
     7
 10
-346.67
 20
90.64614760216661
 11
-348.4166199169126
 21
90.6461476021666
  0
LINE
  8
0
  6
CONTINUOUS
 62
     7
 10
-345.67
 20
92.25000000000004
 11
-345.67
 21
91.6461476021666
  0
ARC
  8
0
  6
CONTINUOUS
 62
     7
 10
-346.67
 20
91.6461476021666
 40
1.000000000000001
 50
270.0
 51
0.0
  0
LINE
  8
0
  6
CONTINUOUS
 62
     7
 10
-345.67
 20
239.25
 11
-345.67
 21
92.25000000000006
  0
LINE
  8
0
  6
CONTINUOUS
 62
     7
 10
-346.67
 20
240.8538523978334
 11
-348.4166199169126
 21
240.8538523978334
  0
LINE
  8
0
  6
CONTINUOUS
 62
     7
 10
-345.67
 20
239.8538523978334
 11
-345.67
 21
239.25
  0
ARC
  8
0
  6
CONTINUOUS
 62
     7
 10
-346.67
 20
239.8538523978334
 40
1.000000000000001
 50
0.0000000000000035
 51
90.0
  0
ARC
  8
0
  6
CONTINUOUS
 62
     7
 10
-390.67
 20
250.9989935220523
 40
3.000000000000003
 50
180.0000000000002
 51
265.0
  0
ARC
  8
0
  6
CONTINUOUS
 62
     7
 10
-390.67
 20
80.50100647794773
 40
3.000000000000003
 50
95.0
 51
180.0
  0
LINE
  8
0
  6
CONTINUOUS
 62
     7
 10
-390.931467228243
 20
83.48959057222297
 11
-359.5828442572524
 21
86.23223969933302
  0
ARC
  8
0
  6
CONTINUOUS
 62
     7
 10
-359.67
 20
244.2715656025752
 40
1.000000000000015
 50
0.0
 51
84.99999999999989
  0
ARC
  8
0
  6
CONTINUOUS
 62
     7
 10
-359.67
 20
87.22843439742483
 40
0.9999999999999963
 50
275.0000000000003
 51
0.0000000000000568
  0
LINE
  8
0
  6
CONTINUOUS
 62
     7
 10
-358.67
 20
244.2715656025752
 11
-358.67
 21
243.1878967765926
  0
LINE
  8
0
  6
CONTINUOUS
 62
     7
 10
-390.931467228243
 20
248.010409427777
 11
-359.5828442572524
 21
245.267760300667
  0
LINE
  8
0
  6
CONTINUOUS
 62
     7
 10
-358.67
 20
87.22843439742483
 11
-358.67
 21
88.31210322340738
  0
ENDBLK
  8
0
  0
BLOCK
  8
0
  2
D_FRAME_VIEW_1495
 70
     0
 10
0.0
 20
0.0
  0
ARC
  8
0
  6
CONTINUOUS
 62
     7
 10
-548.5
 20
81.75000000000013
 40
2.000000000000002
 50
270.0
 51
0.0
  0
LINE
  8
0
  6
CONTINUOUS
 62
     7
 10
-546.5
 20
249.75
 11
-546.5
 21
81.7500000000001
  0
ARC
  8
0
  6
CONTINUOUS
 62
     7
 10
-548.5
 20
249.75
 40
2.000000000000002
 50
0.0
 51
90.0
  0
LINE
  8
0
  6
CONTINUOUS
 62
     7
 10
-666.5000000000001
 20
251.75
 11
-548.5000000000001
 21
251.75
  0
ARC
  8
0
  6
CONTINUOUS
 62
     7
 10
-666.5000000000001
 20
249.7500000000001
 40
2.000000000000002
 50
90.0
 51
180.0
  0
LINE
  8
0
  6
CONTINUOUS
 62
     7
 10
-668.5000000000001
 20
81.75000000000013
 11
-668.5000000000001
 21
249.7500000000001
  0
ARC
  8
0
  6
CONTINUOUS
 62
     7
 10
-666.5000000000001
 20
81.75000000000013
 40
2.000000000000002
 50
180.0
 51
270.0
  0
LINE
  8
0
  6
CONTINUOUS
 62
     7
 10
-548.5
 20
79.75000000000013
 11
-666.5
 21
79.75000000000013
  0
LINE
  8
0
  6
CONTINUOUS
 62
     7
 10
-551.0
 20
280.7500000000001
 11
-551.0
 21
270.7500000000001
  0
ARC
  8
0
  6
CONTINUOUS
 62
     7
 10
-546.0
 20
280.7500000000001
 40
5.000000000000004
 50
90.00000000000009
 51
180.0
  0
ARC
  8
0
  6
CONTINUOUS
 62
     7
 10
-536.0
 20
280.75
 40
5.000000000000004
 50
359.9999999999993
 51
90.0
  0
LINE
  8
0
  6
CONTINUOUS
 62
     7
 10
-531.0
 20
70.75000000000011
 11
-531.0
 21
280.7499999999999
  0
ARC
  8
0
  6
CONTINUOUS
 62
     7
 10
-536.0
 20
70.75000000000011
 40
5.000000000000004
 50
270.0000000000002
 51
0.0
  0
LINE
  8
0
  6
CONTINUOUS
 62
     7
 10
-679.0
 20
65.75000000000011
 11
-536.0
 21
65.75000000000011
  0
ARC
  8
0
  6
CONTINUOUS
 62
     7
 10
-679.0
 20
70.75000000000011
 40
5.000000000000004
 50
179.9999999999997
 51
270.0
  0
LINE
  8
0
  6
CONTINUOUS
 62
     7
 10
-684.0
 20
260.7500000000001
 11
-684.0
 21
70.75000000000014
  0
ARC
  8
0
  6
CONTINUOUS
 62
     7
 10
-679.0
 20
260.7500000000001
 40
5.000000000000004
 50
90.0
 51
180.0
  0
LINE
  8
0
  6
CONTINUOUS
 62
     7
 10
-556.0
 20
265.7500000000001
 11
-679.0
 21
265.7500000000001
  0
ARC
  8
0
  6
CONTINUOUS
 62
     7
 10
-556.0
 20
270.7500000000001
 40
4.999999999999997
 50
269.9999999999999
 51
359.9999999999998
  0
LINE
  8
0
  6
CONTINUOUS
 62
     7
 10
-536.0
 20
285.75
 11
-546.0
 21
285.75
  0
ARC
  8
0
  6
CONTINUOUS
 62
     7
 10
-602.7120066570066
 20
248.7299433977859
 40
5.298440215665733
 50
154.6435306330486
 51
176.4014449950915
  0
LINE
  8
0
  6
CONTINUOUS
 62
     7
 10
-608.0
 20
245.7918344129913
 11
-608.0
 21
249.0625018489486
  0
LINE
  8
0
  6
CONTINUOUS
 62
     7
 10
-608.0
 20
245.7918344129913
 11
-632.9
 21
245.7918344129913
  0
LINE
  8
0
  6
CONTINUOUS
 62
     7
 10
-632.9
 20
245.7918344129913
 11
-632.9
 21
249.0625018489486
  0
ARC
  8
0
  6
CONTINUOUS
 62
     7
 10
-638.0215541276738
 20
248.7729178183918
 40
5.129734456426184
 50
3.236184679016336
 51
25.71883969284321
  0
ARC
  8
0
  6
CONTINUOUS
 62
     7
 10
-628.6120066570065
 20
248.7299433977859
 40
5.298440215665665
 50
154.6435306330484
 51
176.4014449950916
  0
LINE
  8
0
  6
CONTINUOUS
 62
     7
 10
-633.9
 20
245.7918344129913
 11
-633.9
 21
249.0625018489486
  0
LINE
  8
0
  6
CONTINUOUS
 62
     7
 10
-633.9
 20
245.7918344129913
 11
-658.9
 21
245.7918344129913
  0
LINE
  8
0
  6
CONTINUOUS
 62
     7
 10
-658.9
 20
245.7918344129913
 11
-658.9
 21
249.0625018489486
  0
ARC
  8
0
  6
CONTINUOUS
 62
     7
 10
-664.021554127674
 20
248.7729178183918
 40
5.129734456426388
 50
3.236184679017013
 51
25.71883969284301
  0
ARC
  8
0
  6
CONTINUOUS
 62
     7
 10
-654.6120066570062
 20
248.7299433977858
 40
5.298440215665909
 50
154.643530633049
 51
176.4014449950911
  0
LINE
  8
0
  6
CONTINUOUS
 62
     7
 10
-659.9
 20
245.7918344129913
 11
-659.9
 21
249.0625018489486
  0
LINE
  8
0
  6
CONTINUOUS
 62
     7
 10
-659.9
 20
245.7918344129913
 11
-664.5
 21
245.7918344129913
  0
POLYLINE
  8
0
  6
CONTINUOUS
 62
     7
 66
     1
  0
VERTEX
  8
0
  6
CONTINUOUS
 62
     7
 10
-664.5000000000001
 20
245.7918344129913
  0
VERTEX
  8
0
  6
CONTINUOUS
 62
     7
 10
-664.9877258050404
 20
245.7436141212311
  0
VERTEX
  8
0
  6
CONTINUOUS
 62
     7
 10
-665.4567085809128
 20
245.6008063247207
  0
VERTEX
  8
0
  6
CONTINUOUS
 62
     7
 10
-665.8889255825491
 20
245.3688990469923
  0
VERTEX
  8
0
  6
CONTINUOUS
 62
     7
 10
-666.2677669529664
 20
245.0568043546741
  0
VERTEX
  8
0
  6
CONTINUOUS
 62
     7
 10
-666.5786740307565
 20
244.676515871767
  0
VERTEX
  8
0
  6
CONTINUOUS
 62
     7
 10
-666.8096988312783
 20
244.2426478714011
  0
VERTEX
  8
0
  6
CONTINUOUS
 62
     7
 10
-666.9519632010082
 20
243.7718736575142
  0
VERTEX
  8
0
  6
CONTINUOUS
 62
     7
 10
-667.0000000000001
 20
243.2822848191329
  0
SEQEND
  8
0
  6
CONTINUOUS
 62
     7
  0
LINE
  8
0
  6
CONTINUOUS
 62
     7
 10
-667.0
 20
243.2822848191329
 11
-667.0
 21
192.75
  0
LINE
  8
0
  6
CONTINUOUS
 62
     7
 10
-685.5
 20
192.75
 11
-684.0
 21
193.6160254037844
  0
LINE
  8
0
  6
CONTINUOUS
 62
     7
 10
-687.0
 20
192.75
 11
-687.0
 21
261.25
  0
ARC
  8
0
  6
CONTINUOUS
 62
     7
 10
-681.0
 20
261.25
 40
6.000000000000005
 50
90.0
 51
180.0
  0
LINE
  8
0
  6
CONTINUOUS
 62
     7
 10
-681.0
 20
267.25
 11
-607.5
 21
267.25
  0
LINE
  8
0
  6
CONTINUOUS
 62
     7
 10
-607.5
 20
267.25
 11
-552.4292857857286
 21
267.25
  0
ARC
  8
0
  6
CONTINUOUS
 62
     7
 10
-534.0
 20
261.25
 40
6.000000000000005
 50
0.0
 51
59.99999999999952
  0
LINE
  8
0
  6
CONTINUOUS
 62
     7
 10
-528.0
 20
261.25
 11
-528.0
 21
192.75
  0
LINE
  8
0
  6
CONTINUOUS
 62
     7
 10
-529.5000000000001
 20
192.75
 11
-531.0
 21
193.6160254037844
  0
LINE
  8
0
  6
CONTINUOUS
 62
     7
 10
-548.0
 20
192.75
 11
-548.0
 21
243.2822848191329
  0
POLYLINE
  8
0
  6
CONTINUOUS
 62
     7
 66
     1
  0
VERTEX
  8
0
  6
CONTINUOUS
 62
     7
 10
-548.0
 20
243.2822848191329
  0
VERTEX
  8
0
  6
CONTINUOUS
 62
     7
 10
-548.0480367989919
 20
243.7718736575142
  0
VERTEX
  8
0
  6
CONTINUOUS
 62
     7
 10
-548.1903011687218
 20
244.2426478714011
  0
VERTEX
  8
0
  6
CONTINUOUS
 62
     7
 10
-548.4213259692436
 20
244.6765158717671
  0
VERTEX
  8
0
  6
CONTINUOUS
 62
     7
 10
-548.7322330470337
 20
245.0568043546741
  0
VERTEX
  8
0
  6
CONTINUOUS
 62
     7
 10
-549.111074417451
 20
245.3688990469924
  0
VERTEX
  8
0
  6
CONTINUOUS
 62
     7
 10
-549.5432914190873
 20
245.6008063247207
  0
VERTEX
  8
0
  6
CONTINUOUS
 62
     7
 10
-550.0122741949597
 20
245.7436141212311
  0
VERTEX
  8
0
  6
CONTINUOUS
 62
     7
 10
-550.5
 20
245.7918344129913
  0
SEQEND
  8
0
  6
CONTINUOUS
 62
     7
  0
LINE
  8
0
  6
CONTINUOUS
 62
     7
 10
-550.5
 20
245.7918344129913
 11
-555.0999999999999
 21
245.7918344129913
  0
LINE
  8
0
  6
CONTINUOUS
 62
     7
 10
-555.1
 20
245.7918344129913
 11
-555.1
 21
249.0625018489486
  0
ARC
  8
0
  6
CONTINUOUS
 62
     7
 10
-560.2215541276737
 20
248.7729178183919
 40
5.129734456426009
 50
3.236184679016223
 51
25.71883969284373
  0
ARC
  8
0
  6
CONTINUOUS
 62
     7
 10
-550.8120066570067
 20
248.7299433977859
 40
5.298440215665528
 50
154.6435306330482
 51
176.4014449950918
  0
LINE
  8
0
  6
CONTINUOUS
 62
     7
 10
-556.1
 20
245.7918344129913
 11
-556.1
 21
249.0625018489486
  0
LINE
  8
0
  6
CONTINUOUS
 62
     7
 10
-556.1
 20
245.7918344129913
 11
-581.1
 21
245.7918344129913
  0
LINE
  8
0
  6
CONTINUOUS
 62
     7
 10
-581.1
 20
245.7918344129913
 11
-581.1
 21
249.0625018489486
  0
ARC
  8
0
  6
CONTINUOUS
 62
     7
 10
-586.2215541276736
 20
248.7729178183919
 40
5.129734456426013
 50
3.236184679016336
 51
25.71883969284388
  0
ARC
  8
0
  6
CONTINUOUS
 62
     7
 10
-576.8120066570067
 20
248.7299433977859
 40
5.298440215665528
 50
154.6435306330482
 51
176.4014449950918
  0
LINE
  8
0
  6
CONTINUOUS
 62
     7
 10
-582.1
 20
245.7918344129913
 11
-582.1
 21
249.0625018489486
  0
LINE
  8
0
  6
CONTINUOUS
 62
     7
 10
-582.1
 20
245.7918344129913
 11
-607.0000000000001
 21
245.7918344129913
  0
LINE
  8
0
  6
CONTINUOUS
 62
     7
 10
-607.0000000000001
 20
245.7918344129913
 11
-607.0000000000001
 21
249.0625018489486
  0
ARC
  8
0
  6
CONTINUOUS
 62
     7
 10
-612.1215541276738
 20
248.7729178183918
 40
5.129734456426162
 50
3.236184679016336
 51
25.7188396928433
  0
LINE
  8
0
  6
CONTINUOUS
 62
     7
 10
-607.5
 20
64.25
 11
-681.0
 21
64.25
  0
ARC
  8
0
  6
CONTINUOUS
 62
     7
 10
-681.0
 20
70.25
 40
6.000000000000005
 50
180.0
 51
270.0
  0
LINE
  8
0
  6
CONTINUOUS
 62
     7
 10
-684.0
 20
137.8839745962156
 11
-685.5000000000001
 21
138.75
  0
POLYLINE
  8
0
  6
CONTINUOUS
 62
     7
 66
     1
  0
VERTEX
  8
0
  6
CONTINUOUS
 62
     7
 10
-667.0000000000001
 20
88.21771518086709
  0
VERTEX
  8
0
  6
CONTINUOUS
 62
     7
 10
-666.9519632010082
 20
87.72812634248582
  0
VERTEX
  8
0
  6
CONTINUOUS
 62
     7
 10
-666.8096988312783
 20
87.25735212859895
  0
VERTEX
  8
0
  6
CONTINUOUS
 62
     7
 10
-666.5786740307565
 20
86.82348412823295
  0
VERTEX
  8
0
  6
CONTINUOUS
 62
     7
 10
-666.2677669529664
 20
86.44319564532589
  0
VERTEX
  8
0
  6
CONTINUOUS
 62
     7
 10
-665.8889255825491
 20
86.13110095300766
  0
VERTEX
  8
0
  6
CONTINUOUS
 62
     7
 10
-665.4567085809128
 20
85.89919367527934
  0
VERTEX
  8
0
  6
CONTINUOUS
 62
     7
 10
-664.9877258050404
 20
85.7563858787689
  0
VERTEX
  8
0
  6
CONTINUOUS
 62
     7
 10
-664.5000000000001
 20
85.70816558700872
  0
SEQEND
  8
0
  6
CONTINUOUS
 62
     7
  0
LINE
  8
0
  6
CONTINUOUS
 62
     7
 10
-664.5000000000001
 20
85.70816558700872
 11
-659.9000000000001
 21
85.70816558700872
  0
LINE
  8
0
  6
CONTINUOUS
 62
     7
 10
-659.9
 20
85.70816558700872
 11
-659.9
 21
82.43749815105143
  0
ARC
  8
0
  6
CONTINUOUS
 62
     7
 10
-654.7784458723262
 20
82.72708218160814
 40
5.129734456426128
 50
183.2361846790164
 51
205.7188396928436
  0
ARC
  8
0
  6
CONTINUOUS
 62
     7
 10
-664.1879933429935
 20
82.7700566022141
 40
5.298440215665665
 50
334.6435306330484
 51
356.4014449950916
  0
LINE
  8
0
  6
CONTINUOUS
 62
     7
 10
-658.9
 20
85.70816558700872
 11
-658.9
 21
82.43749815105143
  0
LINE
  8
0
  6
CONTINUOUS
 62
     7
 10
-658.9
 20
85.70816558700872
 11
-633.9
 21
85.70816558700872
  0
LINE
  8
0
  6
CONTINUOUS
 62
     7
 10
-633.9
 20
85.70816558700872
 11
-633.9
 21
82.43749815105143
  0
ARC
  8
0
  6
CONTINUOUS
 62
     7
 10
-628.7784458723263
 20
82.72708218160814
 40
5.129734456426128
 50
183.2361846790164
 51
205.7188396928436
  0
ARC
  8
0
  6
CONTINUOUS
 62
     7
 10
-638.1879933429934
 20
82.7700566022141
 40
5.298440215665665
 50
334.6435306330484
 51
356.4014449950916
  0
LINE
  8
0
  6
CONTINUOUS
 62
     7
 10
-632.9
 20
85.70816558700872
 11
-632.9
 21
82.43749815105143
  0
LINE
  8
0
  6
CONTINUOUS
 62
     7
 10
-632.9
 20
85.70816558700872
 11
-608.0
 21
85.70816558700872
  0
LINE
  8
0
  6
CONTINUOUS
 62
     7
 10
-608.0
 20
85.70816558700872
 11
-608.0
 21
82.43749815105143
  0
ARC
  8
0
  6
CONTINUOUS
 62
     7
 10
-602.8784458723261
 20
82.72708218160818
 40
5.129734456426305
 50
183.2361846790165
 51
205.7188396928428
  0
LINE
  8
0
  6
CONTINUOUS
 62
     7
 10
-687.0
 20
70.25
 11
-687.0
 21
138.75
  0
LINE
  8
0
  6
CONTINUOUS
 62
     7
 10
-667.0
 20
138.75
 11
-667.0
 21
88.21771518086709
  0
ARC
  8
0
  6
CONTINUOUS
 62
     7
 10
-612.2879933429936
 20
82.77005660221411
 40
5.298440215665738
 50
334.6435306330486
 51
356.4014449950914
  0
LINE
  8
0
  6
CONTINUOUS
 62
     7
 10
-607.0000000000001
 20
85.70816558700872
 11
-607.0000000000001
 21
82.43749815105143
  0
LINE
  8
0
  6
CONTINUOUS
 62
     7
 10
-607.0000000000001
 20
85.70816558700872
 11
-582.1
 21
85.70816558700872
  0
LINE
  8
0
  6
CONTINUOUS
 62
     7
 10
-582.1
 20
85.70816558700872
 11
-582.1
 21
82.43749815105143
  0
ARC
  8
0
  6
CONTINUOUS
 62
     7
 10
-576.9784458723259
 20
82.72708218160825
 40
5.129734456426536
 50
183.2361846790173
 51
205.7188396928427
  0
ARC
  8
0
  6
CONTINUOUS
 62
     7
 10
-586.3879933429935
 20
82.7700566022141
 40
5.298440215665665
 50
334.6435306330484
 51
356.4014449950916
  0
LINE
  8
0
  6
CONTINUOUS
 62
     7
 10
-581.1
 20
85.70816558700872
 11
-581.1
 21
82.43749815105143
  0
LINE
  8
0
  6
CONTINUOUS
 62
     7
 10
-581.1
 20
85.70816558700872
 11
-556.1
 21
85.70816558700872
  0
LINE
  8
0
  6
CONTINUOUS
 62
     7
 10
-556.1
 20
85.70816558700872
 11
-556.1
 21
82.43749815105143
  0
ARC
  8
0
  6
CONTINUOUS
 62
     7
 10
-550.9784458723259
 20
82.72708218160825
 40
5.129734456426536
 50
183.2361846790173
 51
205.7188396928427
  0
ARC
  8
0
  6
CONTINUOUS
 62
     7
 10
-560.3879933429936
 20
82.77005660221411
 40
5.29844021566574
 50
334.6435306330487
 51
356.4014449950915
  0
LINE
  8
0
  6
CONTINUOUS
 62
     7
 10
-555.1
 20
85.70816558700872
 11
-555.1
 21
82.43749815105143
  0
LINE
  8
0
  6
CONTINUOUS
 62
     7
 10
-555.1
 20
85.70816558700872
 11
-550.5000000000001
 21
85.70816558700872
  0
POLYLINE
  8
0
  6
CONTINUOUS
 62
     7
 66
     1
  0
VERTEX
  8
0
  6
CONTINUOUS
 62
     7
 10
-550.5
 20
85.70816558700872
  0
VERTEX
  8
0
  6
CONTINUOUS
 62
     7
 10
-550.0122741949597
 20
85.7563858787689
  0
VERTEX
  8
0
  6
CONTINUOUS
 62
     7
 10
-549.5432914190873
 20
85.89919367527934
  0
VERTEX
  8
0
  6
CONTINUOUS
 62
     7
 10
-549.111074417451
 20
86.13110095300766
  0
VERTEX
  8
0
  6
CONTINUOUS
 62
     7
 10
-548.7322330470337
 20
86.44319564532589
  0
VERTEX
  8
0
  6
CONTINUOUS
 62
     7
 10
-548.4213259692436
 20
86.82348412823293
  0
VERTEX
  8
0
  6
CONTINUOUS
 62
     7
 10
-548.1903011687218
 20
87.25735212859894
  0
VERTEX
  8
0
  6
CONTINUOUS
 62
     7
 10
-548.0480367989919
 20
87.72812634248581
  0
VERTEX
  8
0
  6
CONTINUOUS
 62
     7
 10
-548.0
 20
88.21771518086707
  0
SEQEND
  8
0
  6
CONTINUOUS
 62
     7
  0
LINE
  8
0
  6
CONTINUOUS
 62
     7
 10
-531.0
 20
137.8839745962156
 11
-529.5
 21
138.75
  0
ARC
  8
0
  6
CONTINUOUS
 62
     7
 10
-534.0
 20
70.25
 40
6.000000000000005
 50
270.0
 51
0.0
  0
LINE
  8
0
  6
CONTINUOUS
 62
     7
 10
-534.0
 20
64.25
 11
-607.5
 21
64.25
  0
LINE
  8
0
  6
CONTINUOUS
 62
     7
 10
-548.0
 20
88.21771518086707
 11
-548.0
 21
138.75
  0
LINE
  8
0
  6
CONTINUOUS
 62
     7
 10
-528.0
 20
138.75
 11
-528.0
 21
70.25
  0
LINE
  8
0
  6
CONTINUOUS
 62
     7
 10
-529.5000000000001
 20
165.75
 11
-531.0
 21
166.6160254037844
  0
LINE
  8
0
  6
CONTINUOUS
 62
     7
 10
-531.0
 20
191.8839745962156
 11
-529.5000000000001
 21
192.75
  0
LINE
  8
0
  6
CONTINUOUS
 62
     7
 10
-548.0
 20
165.75
 11
-548.0
 21
192.75
  0
LINE
  8
0
  6
CONTINUOUS
 62
     7
 10
-528.0
 20
192.75
 11
-528.0
 21
165.75
  0
LINE
  8
0
  6
CONTINUOUS
 62
     7
 10
-531.0
 20
164.8839745962156
 11
-529.5000000000001
 21
165.75
  0
LINE
  8
0
  6
CONTINUOUS
 62
     7
 10
-529.5
 20
138.75
 11
-531.0
 21
139.6160254037845
  0
LINE
  8
0
  6
CONTINUOUS
 62
     7
 10
-548.0
 20
138.75
 11
-548.0
 21
165.75
  0
LINE
  8
0
  6
CONTINUOUS
 62
     7
 10
-528.0
 20
165.75
 11
-528.0
 21
138.75
  0
ARC
  8
0
  6
CONTINUOUS
 62
     7
 10
-664.4860833185714
 20
91.36761908345817
 40
2.513946851339752
 50
179.7192970122975
 51
269.6828209861085
  0
LINE
  8
0
  6
CONTINUOUS
 62
     7
 10
-685.5000000000001
 20
138.75
 11
-684.0
 21
139.6160254037844
  0
LINE
  8
0
  6
CONTINUOUS
 62
     7
 10
-684.0
 20
164.8839745962156
 11
-685.5
 21
165.75
  0
LINE
  8
0
  6
CONTINUOUS
 62
     7
 10
-687.0
 20
138.75
 11
-687.0
 21
165.75
  0
LINE
  8
0
  6
CONTINUOUS
 62
     7
 10
-667.0
 20
165.75
 11
-667.0
 21
138.75
  0
LINE
  8
0
  6
CONTINUOUS
 62
     7
 10
-685.5000000000001
 20
165.75
 11
-684.0000000000001
 21
166.6160254037844
  0
LINE
  8
0
  6
CONTINUOUS
 62
     7
 10
-684.0
 20
191.8839745962156
 11
-685.5
 21
192.75
  0
LINE
  8
0
  6
CONTINUOUS
 62
     7
 10
-687.0
 20
165.75
 11
-687.0
 21
192.75
  0
LINE
  8
0
  6
CONTINUOUS
 62
     7
 10
-667.0
 20
192.75
 11
-667.0
 21
165.75
  0
ARC
  8
0
  6
CONTINUOUS
 62
     7
 10
-550.5142440891112
 20
91.36794309234101
 40
2.514272688801934
 50
270.324599061378
 51
0.2732829402257266
  0
LINE
  8
0
  6
CONTINUOUS
 62
     7
 10
-664.5
 20
88.85371075232533
 11
-655.9784139082271
 21
88.85371075232533
  0
LINE
  8
0
  6
CONTINUOUS
 62
     7
 10
-636.8205871033274
 20
88.85371075232533
 11
-629.9784139082261
 21
88.85371075232533
  0
LINE
  8
0
  6
CONTINUOUS
 62
     7
 10
-610.8205871033274
 20
88.85371075232533
 11
-604.1767951032759
 21
88.85371075232533
  0
LINE
  8
0
  6
CONTINUOUS
 62
     7
 10
-585.0215280910064
 20
88.85371075232533
 11
-578.1767951032757
 21
88.85371075232533
  0
LINE
  8
0
  6
CONTINUOUS
 62
     7
 10
-559.021528091007
 20
88.85371075232533
 11
-550.4999999999995
 21
88.85371075232533
  0
LINE
  8
0
  6
CONTINUOUS
 62
     7
 10
-555.1
 20
88.72652447865309
 11
-555.6000000000001
 21
88.77026881041606
  0
LINE
  8
0
  6
CONTINUOUS
 62
     7
 10
-555.6000000000001
 20
88.77026881041606
 11
-556.1
 21
88.72652447865309
  0
LINE
  8
0
  6
CONTINUOUS
 62
     7
 10
-581.1
 20
88.72652447865309
 11
-581.6
 21
88.77026881041606
  0
LINE
  8
0
  6
CONTINUOUS
 62
     7
 10
-581.6
 20
88.77026881041606
 11
-582.1
 21
88.72652447865309
  0
LINE
  8
0
  6
CONTINUOUS
 62
     7
 10
-607.0
 20
88.72652447865309
 11
-607.4999999999999
 21
88.77026881041606
  0
LINE
  8
0
  6
CONTINUOUS
 62
     7
 10
-607.5
 20
88.77026881041606
 11
-608.0
 21
88.72652447865309
  0
LINE
  8
0
  6
CONTINUOUS
 62
     7
 10
-632.9
 20
88.72652447865309
 11
-633.4
 21
88.77026881041606
  0
LINE
  8
0
  6
CONTINUOUS
 62
     7
 10
-633.4000000000001
 20
88.77026881041606
 11
-633.9000000000001
 21
88.72652447865309
  0
LINE
  8
0
  6
CONTINUOUS
 62
     7
 10
-658.9
 20
88.72652447865309
 11
-659.4
 21
88.77026881041606
  0
LINE
  8
0
  6
CONTINUOUS
 62
     7
 10
-659.4
 20
88.77026881041606
 11
-659.8999999999999
 21
88.72652447865309
  0
LINE
  8
0
  6
CONTINUOUS
 62
     7
 10
-582.1
 20
88.72652447865309
 11
-582.1
 21
85.70816558700872
  0
LINE
  8
0
  6
CONTINUOUS
 62
     7
 10
-556.1
 20
88.72652447865309
 11
-556.1
 21
85.70816558700872
  0
LINE
  8
0
  6
CONTINUOUS
 62
     7
 10
-607.0000000000001
 20
85.70816558700872
 11
-607.0000000000001
 21
88.72652447865309
  0
LINE
  8
0
  6
CONTINUOUS
 62
     7
 10
-658.9
 20
85.70816558700872
 11
-658.9
 21
88.72652447865309
  0
LINE
  8
0
  6
CONTINUOUS
 62
     7
 10
-581.1
 20
85.70816558700872
 11
-581.1
 21
88.72652447865309
  0
LINE
  8
0
  6
CONTINUOUS
 62
     7
 10
-555.1
 20
85.70816558700872
 11
-555.1
 21
88.72652447865309
  0
LINE
  8
0
  6
CONTINUOUS
 62
     7
 10
-659.9
 20
88.72652447865309
 11
-659.9
 21
85.70816558700872
  0
LINE
  8
0
  6
CONTINUOUS
 62
     7
 10
-608.0
 20
88.72652447865309
 11
-608.0
 21
85.70816558700872
  0
LINE
  8
0
  6
CONTINUOUS
 62
     7
 10
-633.9
 20
88.72652447865309
 11
-633.9
 21
85.70816558700872
  0
LINE
  8
0
  6
CONTINUOUS
 62
     7
 10
-632.9
 20
85.70816558700872
 11
-632.9
 21
88.72652447865309
  0
ARC
  8
0
  6
CONTINUOUS
 62
     7
 10
-664.4857559108889
 20
240.132056907659
 40
2.514272688801948
 50
90.32459906137849
 51
180.2732829402258
  0
ARC
  8
0
  6
CONTINUOUS
 62
     7
 10
-550.5139166814284
 20
240.1323809165419
 40
2.513946851339738
 50
359.7192970122972
 51
89.68282098610877
  0
LINE
  8
0
  6
CONTINUOUS
 62
     7
 10
-550.5000000000001
 20
242.6462892476747
 11
-559.0205879964726
 21
242.6462892476747
  0
LINE
  8
0
  6
CONTINUOUS
 62
     7
 10
-578.1812634348357
 20
242.6462892476747
 11
-585.020587996473
 21
242.6462892476747
  0
LINE
  8
0
  6
CONTINUOUS
 62
     7
 10
-604.1812634348358
 20
242.6462892476747
 11
-610.821569061954
 21
242.6462892476747
  0
LINE
  8
0
  6
CONTINUOUS
 62
     7
 10
-629.9790508246795
 20
242.6462892476747
 11
-636.8215690619543
 21
242.6462892476747
  0
LINE
  8
0
  6
CONTINUOUS
 62
     7
 10
-655.9790508246778
 20
242.6462892476747
 11
-664.5000000000006
 21
242.6462892476747
  0
LINE
  8
0
  6
CONTINUOUS
 62
     7
 10
-659.9
 20
242.7734755213469
 11
-659.4
 21
242.729731189584
  0
LINE
  8
0
  6
CONTINUOUS
 62
     7
 10
-659.4
 20
242.729731189584
 11
-658.9
 21
242.7734755213469
  0
LINE
  8
0
  6
CONTINUOUS
 62
     7
 10
-633.9
 20
242.7734755213469
 11
-633.4000000000001
 21
242.729731189584
  0
LINE
  8
0
  6
CONTINUOUS
 62
     7
 10
-633.4000000000001
 20
242.729731189584
 11
-632.9
 21
242.7734755213469
  0
LINE
  8
0
  6
CONTINUOUS
 62
     7
 10
-608.0
 20
242.7734755213469
 11
-607.5
 21
242.729731189584
  0
LINE
  8
0
  6
CONTINUOUS
 62
     7
 10
-607.5
 20
242.729731189584
 11
-607.0000000000001
 21
242.7734755213469
  0
LINE
  8
0
  6
CONTINUOUS
 62
     7
 10
-582.1
 20
242.7734755213469
 11
-581.6000000000001
 21
242.729731189584
  0
LINE
  8
0
  6
CONTINUOUS
 62
     7
 10
-581.6
 20
242.729731189584
 11
-581.0999999999999
 21
242.7734755213469
  0
LINE
  8
0
  6
CONTINUOUS
 62
     7
 10
-556.1
 20
242.7734755213469
 11
-555.6000000000001
 21
242.729731189584
  0
LINE
  8
0
  6
CONTINUOUS
 62
     7
 10
-555.6000000000001
 20
242.729731189584
 11
-555.1000000000001
 21
242.7734755213469
  0
LINE
  8
0
  6
CONTINUOUS
 62
     7
 10
-659.9
 20
242.7734755213469
 11
-659.9
 21
245.7918344129913
  0
LINE
  8
0
  6
CONTINUOUS
 62
     7
 10
-658.9
 20
245.7918344129913
 11
-658.9
 21
242.7734755213469
  0
LINE
  8
0
  6
CONTINUOUS
 62
     7
 10
-607.0000000000001
 20
245.7918344129913
 11
-607.0000000000001
 21
242.7734755213469
  0
LINE
  8
0
  6
CONTINUOUS
 62
     7
 10
-556.1
 20
242.7734755213469
 11
-556.1
 21
245.7918344129913
  0
LINE
  8
0
  6
CONTINUOUS
 62
     7
 10
-555.1
 20
245.7918344129913
 11
-555.1
 21
242.7734755213469
  0
LINE
  8
0
  6
CONTINUOUS
 62
     7
 10
-632.9
 20
245.7918344129913
 11
-632.9
 21
242.7734755213469
  0
LINE
  8
0
  6
CONTINUOUS
 62
     7
 10
-608.0
 20
242.7734755213469
 11
-608.0
 21
245.7918344129913
  0
LINE
  8
0
  6
CONTINUOUS
 62
     7
 10
-633.9
 20
242.7734755213469
 11
-633.9
 21
245.7918344129913
  0
LINE
  8
0
  6
CONTINUOUS
 62
     7
 10
-582.1
 20
242.7734755213469
 11
-582.1
 21
245.7918344129913
  0
LINE
  8
0
  6
CONTINUOUS
 62
     7
 10
-581.1
 20
245.7918344129913
 11
-581.1
 21
242.7734755213469
  0
POLYLINE
  8
0
  6
CONTINUOUS
 62
     7
 66
     1
  0
VERTEX
  8
0
  6
CONTINUOUS
 62
     7
 10
-581.6
 20
86.73033704837887
  0
VERTEX
  8
0
  6
CONTINUOUS
 62
     7
 10
-581.502454838992
 20
86.73990784927268
  0
VERTEX
  8
0
  6
CONTINUOUS
 62
     7
 10
-581.4086582838174
 20
86.76825245144313
  0
VERTEX
  8
0
  6
CONTINUOUS
 62
     7
 10
-581.3222148834902
 20
86.81428158772465
  0
VERTEX
  8
0
  6
CONTINUOUS
 62
     7
 10
-581.2464466094068
 20
86.87622638422337
  0
VERTEX
  8
0
  6
CONTINUOUS
 62
     7
 10
-581.1842651938488
 20
86.95170633714889
  0
VERTEX
  8
0
  6
CONTINUOUS
 62
     7
 10
-581.1380602337443
 20
87.03782079423992
  0
VERTEX
  8
0
  6
CONTINUOUS
 62
     7
 10
-581.1096073597984
 20
87.131260425204
  0
VERTEX
  8
0
  6
CONTINUOUS
 62
     7
 10
-581.1
 20
87.22843439742475
  0
SEQEND
  8
0
  6
CONTINUOUS
 62
     7
  0
POLYLINE
  8
0
  6
CONTINUOUS
 62
     7
 66
     1
  0
VERTEX
  8
0
  6
CONTINUOUS
 62
     7
 10
-659.4
 20
86.73033704837889
  0
VERTEX
  8
0
  6
CONTINUOUS
 62
     7
 10
-659.3024548389919
 20
86.7399078492727
  0
VERTEX
  8
0
  6
CONTINUOUS
 62
     7
 10
-659.2086582838174
 20
86.76825245144315
  0
VERTEX
  8
0
  6
CONTINUOUS
 62
     7
 10
-659.1222148834902
 20
86.81428158772466
  0
VERTEX
  8
0
  6
CONTINUOUS
 62
     7
 10
-659.0464466094068
 20
86.87622638422339
  0
VERTEX
  8
0
  6
CONTINUOUS
 62
     7
 10
-658.9842651938487
 20
86.9517063371489
  0
VERTEX
  8
0
  6
CONTINUOUS
 62
     7
 10
-658.9380602337443
 20
87.03782079423993
  0
VERTEX
  8
0
  6
CONTINUOUS
 62
     7
 10
-658.9096073597983
 20
87.13126042520402
  0
VERTEX
  8
0
  6
CONTINUOUS
 62
     7
 10
-658.9
 20
87.22843439742476
  0
SEQEND
  8
0
  6
CONTINUOUS
 62
     7
  0
POLYLINE
  8
0
  6
CONTINUOUS
 62
     7
 66
     1
  0
VERTEX
  8
0
  6
CONTINUOUS
 62
     7
 10
-555.6000000000001
 20
86.73033704837887
  0
VERTEX
  8
0
  6
CONTINUOUS
 62
     7
 10
-555.5024548389921
 20
86.73990784927268
  0
VERTEX
  8
0
  6
CONTINUOUS
 62
     7
 10
-555.4086582838175
 20
86.76825245144313
  0
VERTEX
  8
0
  6
CONTINUOUS
 62
     7
 10
-555.3222148834903
 20
86.81428158772465
  0
VERTEX
  8
0
  6
CONTINUOUS
 62
     7
 10
-555.2464466094069
 20
86.87622638422337
  0
VERTEX
  8
0
  6
CONTINUOUS
 62
     7
 10
-555.1842651938489
 20
86.95170633714889
  0
VERTEX
  8
0
  6
CONTINUOUS
 62
     7
 10
-555.1380602337445
 20
87.03782079423992
  0
VERTEX
  8
0
  6
CONTINUOUS
 62
     7
 10
-555.1096073597985
 20
87.131260425204
  0
VERTEX
  8
0
  6
CONTINUOUS
 62
     7
 10
-555.1000000000001
 20
87.22843439742475
  0
SEQEND
  8
0
  6
CONTINUOUS
 62
     7
  0
POLYLINE
  8
0
  6
CONTINUOUS
 62
     7
 66
     1
  0
VERTEX
  8
0
  6
CONTINUOUS
 62
     7
 10
-607.5
 20
86.73033704837889
  0
VERTEX
  8
0
  6
CONTINUOUS
 62
     7
 10
-607.402454838992
 20
86.7399078492727
  0
VERTEX
  8
0
  6
CONTINUOUS
 62
     7
 10
-607.3086582838174
 20
86.76825245144315
  0
VERTEX
  8
0
  6
CONTINUOUS
 62
     7
 10
-607.2222148834902
 20
86.81428158772466
  0
VERTEX
  8
0
  6
CONTINUOUS
 62
     7
 10
-607.1464466094068
 20
86.87622638422339
  0
VERTEX
  8
0
  6
CONTINUOUS
 62
     7
 10
-607.0842651938488
 20
86.9517063371489
  0
VERTEX
  8
0
  6
CONTINUOUS
 62
     7
 10
-607.0380602337443
 20
87.03782079423993
  0
VERTEX
  8
0
  6
CONTINUOUS
 62
     7
 10
-607.0096073597983
 20
87.13126042520402
  0
VERTEX
  8
0
  6
CONTINUOUS
 62
     7
 10
-607.0
 20
87.22843439742476
  0
SEQEND
  8
0
  6
CONTINUOUS
 62
     7
  0
POLYLINE
  8
0
  6
CONTINUOUS
 62
     7
 66
     1
  0
VERTEX
  8
0
  6
CONTINUOUS
 62
     7
 10
-633.4000000000001
 20
86.73033704837889
  0
VERTEX
  8
0
  6
CONTINUOUS
 62
     7
 10
-633.302454838992
 20
86.7399078492727
  0
VERTEX
  8
0
  6
CONTINUOUS
 62
     7
 10
-633.2086582838175
 20
86.76825245144315
  0
VERTEX
  8
0
  6
CONTINUOUS
 62
     7
 10
-633.1222148834903
 20
86.81428158772466
  0
VERTEX
  8
0
  6
CONTINUOUS
 62
     7
 10
-633.0464466094069
 20
86.87622638422339
  0
VERTEX
  8
0
  6
CONTINUOUS
 62
     7
 10
-632.9842651938488
 20
86.9517063371489
  0
VERTEX
  8
0
  6
CONTINUOUS
 62
     7
 10
-632.9380602337444
 20
87.03782079423993
  0
VERTEX
  8
0
  6
CONTINUOUS
 62
     7
 10
-632.9096073597984
 20
87.13126042520402
  0
VERTEX
  8
0
  6
CONTINUOUS
 62
     7
 10
-632.9000000000001
 20
87.22843439742476
  0
SEQEND
  8
0
  6
CONTINUOUS
 62
     7
  0
POLYLINE
  8
0
  6
CONTINUOUS
 62
     7
 66
     1
  0
VERTEX
  8
0
  6
CONTINUOUS
 62
     7
 10
-631.9356955125335
 20
244.0320432601298
  0
VERTEX
  8
0
  6
CONTINUOUS
 62
     7
 10
-631.8742358369919
 20
244.1417002235988
  0
VERTEX
  8
0
  6
CONTINUOUS
 62
     7
 10
-631.7052391024661
 20
244.2384351855997
  0
SEQEND
  8
0
  6
CONTINUOUS
 62
     7
  0
ARC
  8
0
  6
CONTINUOUS
 62
     7
 10
-620.5832422246087
 20
175.1947219626842
 40
69.93377689042167
 50
86.04866209638787
 51
99.1509539042586
  0
ARC
  8
0
  6
CONTINUOUS
 62
     7
 10
-615.3317087361484
 20
218.7871582815013
 40
26.17867562458179
 50
75.97818347330299
 51
90.94652749402309
  0
POLYLINE
  8
0
  6
CONTINUOUS
 62
     7
 66
     1
  0
VERTEX
  8
0
  6
CONTINUOUS
 62
     7
 10
-608.9888423979586
 20
244.1858020262553
  0
VERTEX
  8
0
  6
CONTINUOUS
 62
     7
 10
-608.8792360033849
 20
244.0891107058389
  0
VERTEX
  8
0
  6
CONTINUOUS
 62
     7
 10
-608.8643043768709
 20
244.0320448082637
  0
SEQEND
  8
0
  6
CONTINUOUS
 62
     7
  0
POLYLINE
  8
0
  6
CONTINUOUS
 62
     7
 66
     1
  0
VERTEX
  8
0
  6
CONTINUOUS
 62
     7
 10
-657.9356955125334
 20
244.0320432601299
  0
VERTEX
  8
0
  6
CONTINUOUS
 62
     7
 10
-657.8742358369907
 20
244.1417002235995
  0
VERTEX
  8
0
  6
CONTINUOUS
 62
     7
 10
-657.7052391024645
 20
244.2384351856
  0
SEQEND
  8
0
  6
CONTINUOUS
 62
     7
  0
ARC
  8
0
  6
CONTINUOUS
 62
     7
 10
-646.5832422246111
 20
175.1947219627245
 40
69.93377689038151
 50
86.04866209638601
 51
99.15095390426052
  0
ARC
  8
0
  6
CONTINUOUS
 62
     7
 10
-641.3317087361519
 20
218.7871582814718
 40
26.17867562461144
 50
75.97818347331213
 51
90.94652749402053
  0
POLYLINE
  8
0
  6
CONTINUOUS
 62
     7
 66
     1
  0
VERTEX
  8
0
  6
CONTINUOUS
 62
     7
 10
-634.9888423979589
 20
244.1858020262555
  0
VERTEX
  8
0
  6
CONTINUOUS
 62
     7
 10
-634.8792360033849
 20
244.0891107058391
  0
VERTEX
  8
0
  6
CONTINUOUS
 62
     7
 10
-634.8643043768709
 20
244.0320448082637
  0
SEQEND
  8
0
  6
CONTINUOUS
 62
     7
  0
POLYLINE
  8
0
  6
CONTINUOUS
 62
     7
 66
     1
  0
VERTEX
  8
0
  6
CONTINUOUS
 62
     7
 10
-583.0643044874666
 20
244.0320432601294
  0
VERTEX
  8
0
  6
CONTINUOUS
 62
     7
 10
-583.1257641630109
 20
244.1417002236007
  0
VERTEX
  8
0
  6
CONTINUOUS
 62
     7
 10
-583.2947608975387
 20
244.2384351856014
  0
SEQEND
  8
0
  6
CONTINUOUS
 62
     7
  0
ARC
  8
0
  6
CONTINUOUS
 62
     7
 10
-594.4167577754004
 20
175.1947219624477
 40
69.93377689065746
 50
80.84904609576897
 51
93.95133790360562
  0
ARC
  8
0
  6
CONTINUOUS
 62
     7
 10
-599.6682912638709
 20
218.7871582816699
 40
26.17867562441259
 50
89.05347250596674
 51
104.0218165267547
  0
POLYLINE
  8
0
  6
CONTINUOUS
 62
     7
 66
     1
  0
VERTEX
  8
0
  6
CONTINUOUS
 62
     7
 10
-606.0111576020453
 20
244.1858020262534
  0
VERTEX
  8
0
  6
CONTINUOUS
 62
     7
 10
-606.1207639966168
 20
244.0891107058366
  0
VERTEX
  8
0
  6
CONTINUOUS
 62
     7
 10
-606.1356956231292
 20
244.0320448082641
  0
SEQEND
  8
0
  6
CONTINUOUS
 62
     7
  0
POLYLINE
  8
0
  6
CONTINUOUS
 62
     7
 66
     1
  0
VERTEX
  8
0
  6
CONTINUOUS
 62
     7
 10
-557.0643044874666
 20
244.0320432601294
  0
VERTEX
  8
0
  6
CONTINUOUS
 62
     7
 10
-557.1257641630108
 20
244.1417002236007
  0
VERTEX
  8
0
  6
CONTINUOUS
 62
     7
 10
-557.2947608975387
 20
244.2384351856014
  0
SEQEND
  8
0
  6
CONTINUOUS
 62
     7
  0
ARC
  8
0
  6
CONTINUOUS
 62
     7
 10
-568.4167577754002
 20
175.1947219624492
 40
69.93377689065599
 50
80.84904609576887
 51
93.95133790360468
  0
ARC
  8
0
  6
CONTINUOUS
 62
     7
 10
-573.6682912638724
 20
218.7871582816827
 40
26.17867562439995
 50
89.05347250596007
 51
104.0218165267565
  0
POLYLINE
  8
0
  6
CONTINUOUS
 62
     7
 66
     1
  0
VERTEX
  8
0
  6
CONTINUOUS
 62
     7
 10
-580.0111576020445
 20
244.1858020262537
  0
VERTEX
  8
0
  6
CONTINUOUS
 62
     7
 10
-580.1207639966166
 20
244.089110705837
  0
VERTEX
  8
0
  6
CONTINUOUS
 62
     7
 10
-580.1356956231292
 20
244.0320448082641
  0
SEQEND
  8
0
  6
CONTINUOUS
 62
     7
  0
POLYLINE
  8
0
  6
CONTINUOUS
 62
     7
 66
     1
  0
VERTEX
  8
0
  6
CONTINUOUS
 62
     7
 10
-657.9356951708689
 20
87.46796152011328
  0
VERTEX
  8
0
  6
CONTINUOUS
 62
     7
 10
-657.8923600389824
 20
87.3749800687651
  0
VERTEX
  8
0
  6
CONTINUOUS
 62
     7
 10
-657.7416075659892
 20
87.27798358671936
  0
SEQEND
  8
0
  6
CONTINUOUS
 62
     7
  0
ARC
  8
0
  6
CONTINUOUS
 62
     7
 10
-646.665262729349
 20
154.0939435455655
 40
67.72782234918161
 50
260.5874521212167
 51
274.0000333463957
  0
ARC
  8
0
  6
CONTINUOUS
 62
     7
 10
-641.5417539367719
 20
114.5669618180731
 40
28.03869561542196
 50
269.1846029161616
 51
283.4533214897046
  0
POLYLINE
  8
0
  6
CONTINUOUS
 62
     7
 66
     1
  0
VERTEX
  8
0
  6
CONTINUOUS
 62
     7
 10
-635.0184644025735
 20
87.29765406251578
  0
VERTEX
  8
0
  6
CONTINUOUS
 62
     7
 10
-634.8905911137743
 20
87.39412728076111
  0
VERTEX
  8
0
  6
CONTINUOUS
 62
     7
 10
-634.8643046854768
 20
87.46795951068597
  0
SEQEND
  8
0
  6
CONTINUOUS
 62
     7
  0
POLYLINE
  8
0
  6
CONTINUOUS
 62
     7
 66
     1
  0
VERTEX
  8
0
  6
CONTINUOUS
 62
     7
 10
-583.0643048291312
 20
87.46796152011282
  0
VERTEX
  8
0
  6
CONTINUOUS
 62
     7
 10
-583.1076399610153
 20
87.37498006876699
  0
VERTEX
  8
0
  6
CONTINUOUS
 62
     7
 10
-583.2583924340055
 20
87.27798358672123
  0
SEQEND
  8
0
  6
CONTINUOUS
 62
     7
  0
ARC
  8
0
  6
CONTINUOUS
 62
     7
 10
-594.33473727064
 20
154.093943545313
 40
67.72782234892969
 50
265.9999666535992
 51
279.4125478788137
  0
ARC
  8
0
  6
CONTINUOUS
 62
     7
 10
-599.4582460632008
 20
114.5669618183157
 40
28.03869561566531
 50
256.5466785103657
 51
270.8153970838219
  0
POLYLINE
  8
0
  6
CONTINUOUS
 62
     7
 66
     1
  0
VERTEX
  8
0
  6
CONTINUOUS
 62
     7
 10
-605.9815355974224
 20
87.29765406251371
  0
VERTEX
  8
0
  6
CONTINUOUS
 62
     7
 10
-606.1094088862236
 20
87.39412728075888
  0
VERTEX
  8
0
  6
CONTINUOUS
 62
     7
 10
-606.1356953145231
 20
87.46795951068641
  0
SEQEND
  8
0
  6
CONTINUOUS
 62
     7
  0
POLYLINE
  8
0
  6
CONTINUOUS
 62
     7
 66
     1
  0
VERTEX
  8
0
  6
CONTINUOUS
 62
     7
 10
-631.9356951708688
 20
87.46796152011326
  0
VERTEX
  8
0
  6
CONTINUOUS
 62
     7
 10
-631.8923600389818
 20
87.3749800687643
  0
VERTEX
  8
0
  6
CONTINUOUS
 62
     7
 10
-631.7416075659889
 20
87.27798358671885
  0
SEQEND
  8
0
  6
CONTINUOUS
 62
     7
  0
ARC
  8
0
  6
CONTINUOUS
 62
     7
 10
-620.6652627293472
 20
154.0939435456373
 40
67.72782234925315
 50
260.5874521212254
 51
274.0000333463915
  0
ARC
  8
0
  6
CONTINUOUS
 62
     7
 10
-615.5417539367727
 20
114.5669618180746
 40
28.03869561542339
 50
269.184602916167
 51
283.453321489708
  0
POLYLINE
  8
0
  6
CONTINUOUS
 62
     7
 66
     1
  0
VERTEX
  8
0
  6
CONTINUOUS
 62
     7
 10
-609.0184644025724
 20
87.29765406251629
  0
VERTEX
  8
0
  6
CONTINUOUS
 62
     7
 10
-608.8905911137738
 20
87.39412728076175
  0
VERTEX
  8
0
  6
CONTINUOUS
 62
     7
 10
-608.8643046854769
 20
87.46795951068597
  0
SEQEND
  8
0
  6
CONTINUOUS
 62
     7
  0
POLYLINE
  8
0
  6
CONTINUOUS
 62
     7
 66
     1
  0
VERTEX
  8
0
  6
CONTINUOUS
 62
     7
 10
-557.0643048291312
 20
87.46796152011288
  0
VERTEX
  8
0
  6
CONTINUOUS
 62
     7
 10
-557.107639961015
 20
87.3749800687677
  0
VERTEX
  8
0
  6
CONTINUOUS
 62
     7
 10
-557.2583924340048
 20
87.27798358672231
  0
SEQEND
  8
0
  6
CONTINUOUS
 62
     7
  0
ARC
  8
0
  6
CONTINUOUS
 62
     7
 10
-568.3347372706303
 20
154.0939435450673
 40
67.72782234868478
 50
265.9999666535892
 51
279.4125478788403
  0
ARC
  8
0
  6
CONTINUOUS
 62
     7
 10
-573.458246063183
 20
114.5669618184794
 40
28.03869561582943
 50
256.5466785104139
 51
270.8153970838111
  0
POLYLINE
  8
0
  6
CONTINUOUS
 62
     7
 66
     1
  0
VERTEX
  8
0
  6
CONTINUOUS
 62
     7
 10
-579.9815355974197
 20
87.29765406251227
  0
VERTEX
  8
0
  6
CONTINUOUS
 62
     7
 10
-580.1094088862225
 20
87.39412728075733
  0
VERTEX
  8
0
  6
CONTINUOUS
 62
     7
 10
-580.1356953145232
 20
87.46795951068641
  0
SEQEND
  8
0
  6
CONTINUOUS
 62
     7
  0
ARC
  8
0
  6
CONTINUOUS
 62
     7
 10
-566.5807950012929
 20
226.1606861304487
 40
17.19384444915364
 50
79.99871612625009
 51
91.73043196651496
  0
LINE
  8
0
  6
CONTINUOUS
 62
     7
 10
-563.5947358229339
 20
243.0932505412233
 11
-563.5292513779623
 21
243.0344795269578
  0
LINE
  8
0
  6
CONTINUOUS
 62
     7
 10
-570.1
 20
243.3466895376115
 11
-567.1
 21
243.3466895376115
  0
LINE
  8
0
  6
CONTINUOUS
 62
     7
 10
-573.6707486220376
 20
243.0344795269578
 11
-573.5719275317109
 21
243.1065788668054
  0
ARC
  8
0
  6
CONTINUOUS
 62
     7
 10
-570.5957390591701
 20
225.2933608070925
 40
18.06013387178983
 50
88.4270701355344
 51
99.48522517276793
  0
LINE
  8
0
  6
CONTINUOUS
 62
     7
 10
-615.3292513779624
 20
243.0344795269578
 11
-615.4280724682923
 21
243.1065788668067
  0
ARC
  8
0
  6
CONTINUOUS
 62
     7
 10
-618.4042609408386
 20
225.2933608069113
 40
18.06013387197064
 50
80.5147748273097
 51
91.57292986442197
  0
LINE
  8
0
  6
CONTINUOUS
 62
     7
 10
-621.9
 20
243.3466895376115
 11
-618.9
 21
243.3466895376115
  0
LINE
  8
0
  6
CONTINUOUS
 62
     7
 10
-625.4707486220377
 20
243.0344795269578
 11
-625.3719275317078
 21
243.1065788668067
  0
ARC
  8
0
  6
CONTINUOUS
 62
     7
 10
-622.3957390591621
 20
225.2933608069224
 40
18.06013387195956
 50
88.42707013557488
 51
99.48522517269367
  0
ARC
  8
0
  6
CONTINUOUS
 62
     7
 10
-592.5807950012844
 20
226.1606861306254
 40
17.19384444897726
 50
79.9987161261634
 51
91.73043196656089
  0
LINE
  8
0
  6
CONTINUOUS
 62
     7
 10
-589.5947358229305
 20
243.0932505412218
 11
-589.5292513779623
 21
243.0344795269578
  0
LINE
  8
0
  6
CONTINUOUS
 62
     7
 10
-596.1
 20
243.3466895376115
 11
-593.1
 21
243.3466895376115
  0
LINE
  8
0
  6
CONTINUOUS
 62
     7
 10
-599.6707486220378
 20
243.0344795269578
 11
-599.5719275317077
 21
243.1065788668067
  0
ARC
  8
0
  6
CONTINUOUS
 62
     7
 10
-596.5957390591616
 20
225.2933608069152
 40
18.06013387196669
 50
88.4270701355769
 51
99.48522517269151
  0
LINE
  8
0
  6
CONTINUOUS
 62
     7
 10
-641.3292513779622
 20
243.0344795269578
 11
-641.428072468289
 21
243.1065788668054
  0
ARC
  8
0
  6
CONTINUOUS
 62
     7
 10
-644.4042609408298
 20
225.2933608070956
 40
18.06013387178664
 50
80.51477482723062
 51
91.57292986446618
  0
LINE
  8
0
  6
CONTINUOUS
 62
     7
 10
-647.9
 20
243.3466895376115
 11
-644.9
 21
243.3466895376115
  0
LINE
  8
0
  6
CONTINUOUS
 62
     7
 10
-651.4707486220377
 20
243.0344795269578
 11
-651.3719275317109
 21
243.1065788668054
  0
ARC
  8
0
  6
CONTINUOUS
 62
     7
 10
-648.3957390591697
 20
225.2933608070881
 40
18.06013387179416
 50
88.42707013553616
 51
99.48522517276706
  0
LINE
  8
0
  6
CONTINUOUS
 62
     7
 10
-651.4707486220377
 20
88.4655204730422
 11
-651.3577966454709
 21
88.38842580467129
  0
ARC
  8
0
  6
CONTINUOUS
 62
     7
 10
-648.3662812434474
 20
106.8399375055596
 40
18.69244361897507
 50
260.7908543018442
 51
271.4293860821664
  0
LINE
  8
0
  6
CONTINUOUS
 62
     7
 10
-647.9
 20
88.15331046238856
 11
-644.9
 21
88.15331046238856
  0
LINE
  8
0
  6
CONTINUOUS
 62
     7
 10
-641.3292513779622
 20
88.46552047304219
 11
-641.4422033545292
 21
88.38842580467127
  0
ARC
  8
0
  6
CONTINUOUS
 62
     7
 10
-644.4337187565517
 20
106.839937505547
 40
18.69244361896252
 50
268.5706139178299
 51
279.2091456981589
  0
LINE
  8
0
  6
CONTINUOUS
 62
     7
 10
-599.6707486220378
 20
88.4655204730422
 11
-599.5577966454713
 21
88.38842580467126
  0
ARC
  8
0
  6
CONTINUOUS
 62
     7
 10
-596.5662812434477
 20
106.8399375055611
 40
18.69244361897663
 50
260.7908543018452
 51
271.4293860821675
  0
LINE
  8
0
  6
CONTINUOUS
 62
     7
 10
-596.1
 20
88.15331046238856
 11
-593.1
 21
88.15331046238856
  0
ARC
  8
0
  6
CONTINUOUS
 62
     7
 10
-592.6678208680288
 20
108.1070868284713
 40
19.95845610436222
 50
268.7592238768945
 51
278.5418583442379
  0
POLYLINE
  8
0
  6
CONTINUOUS
 62
     7
 66
     1
  0
VERTEX
  8
0
  6
CONTINUOUS
 62
     7
 10
-589.7033532041005
 20
88.37001760481813
  0
VERTEX
  8
0
  6
CONTINUOUS
 62
     7
 10
-589.5859491549379
 20
88.41085766953496
  0
VERTEX
  8
0
  6
CONTINUOUS
 62
     7
 10
-589.5292513779623
 20
88.4655204730422
  0
SEQEND
  8
0
  6
CONTINUOUS
 62
     7
  0
LINE
  8
0
  6
CONTINUOUS
 62
     7
 10
-625.4707486220377
 20
88.4655204730422
 11
-625.3577966454711
 21
88.38842580467126
  0
ARC
  8
0
  6
CONTINUOUS
 62
     7
 10
-622.3662812434488
 20
106.8399375055431
 40
18.6924436189586
 50
260.7908543018401
 51
271.429386082172
  0
LINE
  8
0
  6
CONTINUOUS
 62
     7
 10
-621.9
 20
88.15331046238856
 11
-618.9
 21
88.15331046238856
  0
LINE
  8
0
  6
CONTINUOUS
 62
     7
 10
-615.3292513779624
 20
88.46552047304219
 11
-615.4422033545289
 21
88.38842580467126
  0
ARC
  8
0
  6
CONTINUOUS
 62
     7
 10
-618.4337187565526
 20
106.8399375055651
 40
18.69244361898059
 50
268.5706139178337
 51
279.2091456981536
  0
LINE
  8
0
  6
CONTINUOUS
 62
     7
 10
-573.6707486220376
 20
88.4655204730422
 11
-573.557796645471
 21
88.38842580467129
  0
ARC
  8
0
  6
CONTINUOUS
 62
     7
 10
-570.566281243447
 20
106.839937505566
 40
18.69244361898144
 50
260.790854301846
 51
271.4293860821646
  0
LINE
  8
0
  6
CONTINUOUS
 62
     7
 10
-570.1
 20
88.15331046238856
 11
-567.1
 21
88.15331046238856
  0
ARC
  8
0
  6
CONTINUOUS
 62
     7
 10
-566.6678208680278
 20
108.1070868284517
 40
19.95845610434262
 50
268.7592238768904
 51
278.5418583442419
  0
POLYLINE
  8
0
  6
CONTINUOUS
 62
     7
 66
     1
  0
VERTEX
  8
0
  6
CONTINUOUS
 62
     7
 10
-563.703353204101
 20
88.3700176048181
  0
VERTEX
  8
0
  6
CONTINUOUS
 62
     7
 10
-563.5859491549381
 20
88.41085766953495
  0
VERTEX
  8
0
  6
CONTINUOUS
 62
     7
 10
-563.5292513779624
 20
88.4655204730422
  0
SEQEND
  8
0
  6
CONTINUOUS
 62
     7
  0
LINE
  8
0
  6
CONTINUOUS
 62
     7
 10
-650.4337424569312
 20
89.95412628780143
 11
-650.3246236022442
 21
90.0177298119278
  0
ARC
  8
0
  6
CONTINUOUS
 62
     7
 10
-648.1520845093153
 20
75.38245970920768
 40
14.79564317932404
 50
89.02376144362398
 51
98.44363598442436
  0
ARC
  8
0
  6
CONTINUOUS
 62
     7
 10
-644.6693409687515
 20
74.77077728633799
 40
15.40690468142825
 50
81.89723254078916
 51
90.85781557084476
  0
POLYLINE
  8
0
  6
CONTINUOUS
 62
     7
 66
     1
  0
VERTEX
  8
0
  6
CONTINUOUS
 62
     7
 10
-642.4977523723097
 20
90.02387254043052
  0
VERTEX
  8
0
  6
CONTINUOUS
 62
     7
 10
-642.3905920782336
 20
89.98416248832535
  0
VERTEX
  8
0
  6
CONTINUOUS
 62
     7
 10
-642.3662575430689
 20
89.95412628780143
  0
SEQEND
  8
0
  6
CONTINUOUS
 62
     7
  0
LINE
  8
0
  6
CONTINUOUS
 62
     7
 10
-572.6337424569313
 20
89.95412628780143
 11
-572.5373449484928
 21
90.01393708701816
  0
ARC
  8
0
  6
CONTINUOUS
 62
     7
 10
-570.3768574027616
 20
75.92660799850678
 40
14.25203660124676
 50
88.88691286825167
 51
98.71916733700493
  0
ARC
  8
0
  6
CONTINUOUS
 62
     7
 10
-566.8479154907002
 20
75.38245970898842
 40
14.79564317954323
 50
81.55636401564186
 51
90.97623855635379
  0
POLYLINE
  8
0
  6
CONTINUOUS
 62
     7
 66
     1
  0
VERTEX
  8
0
  6
CONTINUOUS
 62
     7
 10
-564.6753763977559
 20
90.01772981192786
  0
VERTEX
  8
0
  6
CONTINUOUS
 62
     7
 10
-564.5787689666611
 20
89.97555663451772
  0
VERTEX
  8
0
  6
CONTINUOUS
 62
     7
 10
-564.5662575430689
 20
89.95412628780142
  0
SEQEND
  8
0
  6
CONTINUOUS
 62
     7
  0
LINE
  8
0
  6
CONTINUOUS
 62
     7
 10
-624.4337424569312
 20
89.95412628780143
 11
-624.3246236022443
 21
90.01772981192782
  0
ARC
  8
0
  6
CONTINUOUS
 62
     7
 10
-622.1520845093153
 20
75.38245970920406
 40
14.79564317932766
 50
89.02376144362427
 51
98.4436359844226
  0
ARC
  8
0
  6
CONTINUOUS
 62
     7
 10
-618.6693409687521
 20
74.77077728632979
 40
15.40690468143644
 50
81.89723254079081
 51
90.85781557084226
  0
POLYLINE
  8
0
  6
CONTINUOUS
 62
     7
 66
     1
  0
VERTEX
  8
0
  6
CONTINUOUS
 62
     7
 10
-616.4977523723096
 20
90.02387254043049
  0
VERTEX
  8
0
  6
CONTINUOUS
 62
     7
 10
-616.3905920782335
 20
89.98416248832532
  0
VERTEX
  8
0
  6
CONTINUOUS
 62
     7
 10
-616.3662575430689
 20
89.95412628780143
  0
SEQEND
  8
0
  6
CONTINUOUS
 62
     7
  0
LINE
  8
0
  6
CONTINUOUS
 62
     7
 10
-598.6337424569313
 20
89.95412628780143
 11
-598.537344948493
 21
90.01393708701814
  0
ARC
  8
0
  6
CONTINUOUS
 62
     7
 10
-596.3768574027615
 20
75.92660799850363
 40
14.25203660124991
 50
88.88691286825245
 51
98.71916733700459
  0
ARC
  8
0
  6
CONTINUOUS
 62
     7
 10
-592.8479154907006
 20
75.38245970897813
 40
14.7956431795535
 50
81.55636401564539
 51
90.97623855635113
  0
POLYLINE
  8
0
  6
CONTINUOUS
 62
     7
 66
     1
  0
VERTEX
  8
0
  6
CONTINUOUS
 62
     7
 10
-590.6753763977559
 20
90.01772981192788
  0
VERTEX
  8
0
  6
CONTINUOUS
 62
     7
 10
-590.5787689666611
 20
89.97555663451772
  0
VERTEX
  8
0
  6
CONTINUOUS
 62
     7
 10
-590.5662575430689
 20
89.95412628780142
  0
SEQEND
  8
0
  6
CONTINUOUS
 62
     7
  0
ARC
  8
0
  6
CONTINUOUS
 62
     7
 10
-570.3317413250766
 20
256.6973149938833
 40
15.37501681997985
 50
261.8797502378228
 51
270.8636284968832
  0
POLYLINE
  8
0
  6
CONTINUOUS
 62
     7
 66
     1
  0
VERTEX
  8
0
  6
CONTINUOUS
 62
     7
 10
-572.5034797057282
 20
241.4764512003705
  0
VERTEX
  8
0
  6
CONTINUOUS
 62
     7
 10
-572.6097377694124
 20
241.5160420969229
  0
VERTEX
  8
0
  6
CONTINUOUS
 62
     7
 10
-572.6337424569313
 20
241.5458737121986
  0
SEQEND
  8
0
  6
CONTINUOUS
 62
     7
  0
LINE
  8
0
  6
CONTINUOUS
 62
     7
 10
-564.5662575430689
 20
241.5458737121986
 11
-564.6758205237733
 21
241.4821420177749
  0
ARC
  8
0
  6
CONTINUOUS
 62
     7
 10
-566.8490153834147
 20
256.1401679422474
 40
14.81824888104122
 50
269.0295042936537
 51
278.4332243800882
  0
ARC
  8
0
  6
CONTINUOUS
 62
     7
 10
-648.1509846165698
 20
256.1401679424698
 40
14.81824888126349
 50
261.566775619978
 51
270.9704957063234
  0
POLYLINE
  8
0
  6
CONTINUOUS
 62
     7
 66
     1
  0
VERTEX
  8
0
  6
CONTINUOUS
 62
     7
 10
-650.3241794762267
 20
241.4821420177748
  0
VERTEX
  8
0
  6
CONTINUOUS
 62
     7
 10
-650.4211792261926
 20
241.5243992523241
  0
VERTEX
  8
0
  6
CONTINUOUS
 62
     7
 10
-650.4337424569312
 20
241.5458737121986
  0
SEQEND
  8
0
  6
CONTINUOUS
 62
     7
  0
LINE
  8
0
  6
CONTINUOUS
 62
     7
 10
-642.3662575430689
 20
241.5458737121986
 11
-642.4615886690156
 21
241.4863927161868
  0
ARC
  8
0
  6
CONTINUOUS
 62
     7
 10
-644.6218866073069
 20
255.5401046297328
 40
14.21878003666733
 50
268.8792470377169
 51
278.7389472056159
  0
ARC
  8
0
  6
CONTINUOUS
 62
     7
 10
-596.3317413250769
 20
256.6973149938852
 40
15.37501681998184
 50
261.8797502378254
 51
270.8636284968843
  0
POLYLINE
  8
0
  6
CONTINUOUS
 62
     7
 66
     1
  0
VERTEX
  8
0
  6
CONTINUOUS
 62
     7
 10
-598.5034797057282
 20
241.4764512003704
  0
VERTEX
  8
0
  6
CONTINUOUS
 62
     7
 10
-598.6097377694123
 20
241.5160420969229
  0
VERTEX
  8
0
  6
CONTINUOUS
 62
     7
 10
-598.6337424569313
 20
241.5458737121986
  0
SEQEND
  8
0
  6
CONTINUOUS
 62
     7
  0
LINE
  8
0
  6
CONTINUOUS
 62
     7
 10
-590.5662575430689
 20
241.5458737121986
 11
-590.6758205237733
 21
241.4821420177748
  0
ARC
  8
0
  6
CONTINUOUS
 62
     7
 10
-592.8490153834143
 20
256.1401679422465
 40
14.81824888104035
 50
269.0295042936523
 51
278.4332243800875
  0
ARC
  8
0
  6
CONTINUOUS
 62
     7
 10
-622.1509846165701
 20
256.1401679424658
 40
14.81824888125957
 50
261.5667756199775
 51
270.9704957063254
  0
POLYLINE
  8
0
  6
CONTINUOUS
 62
     7
 66
     1
  0
VERTEX
  8
0
  6
CONTINUOUS
 62
     7
 10
-624.3241794762267
 20
241.4821420177748
  0
VERTEX
  8
0
  6
CONTINUOUS
 62
     7
 10
-624.4211792261926
 20
241.5243992523241
  0
VERTEX
  8
0
  6
CONTINUOUS
 62
     7
 10
-624.4337424569312
 20
241.5458737121986
  0
SEQEND
  8
0
  6
CONTINUOUS
 62
     7
  0
LINE
  8
0
  6
CONTINUOUS
 62
     7
 10
-616.3662575430689
 20
241.5458737121986
 11
-616.4615886690154
 21
241.4863927161867
  0
ARC
  8
0
  6
CONTINUOUS
 62
     7
 10
-618.621886607307
 20
255.5401046297394
 40
14.21878003667397
 50
268.8792470377182
 51
278.7389472056127
  0
LINE
  8
0
  6
CONTINUOUS
 62
     7
 10
-615.368693492809
 20
89.0274226190111
 11
-615.369357072494
 21
89.03329311435162
  0
LINE
  8
0
  6
CONTINUOUS
 62
     7
 10
-641.368693492809
 20
89.02742261901116
 11
-641.3693570724939
 21
89.03329311435161
  0
LINE
  8
0
  6
CONTINUOUS
 62
     7
 10
-599.630642900797
 20
89.03329323256989
 11
-599.631306507191
 21
89.02742261901112
  0
LINE
  8
0
  6
CONTINUOUS
 62
     7
 10
-573.630642900797
 20
89.03329323256989
 11
-573.631306507191
 21
89.02742261901112
  0
LINE
  8
0
  6
CONTINUOUS
 62
     7
 10
-573.6313065071911
 20
242.4725773809889
 11
-573.6306768473922
 21
242.4668589886759
  0
LINE
  8
0
  6
CONTINUOUS
 62
     7
 10
-599.631306507191
 20
242.4725773809889
 11
-599.6306768473922
 21
242.4668589886759
  0
LINE
  8
0
  6
CONTINUOUS
 62
     7
 10
-641.3693231813636
 20
242.4668588580194
 11
-641.3686934928091
 21
242.4725773809889
  0
LINE
  8
0
  6
CONTINUOUS
 62
     7
 10
-615.3693231813636
 20
242.4668588580195
 11
-615.368693492809
 21
242.4725773809889
  0
ARC
  8
0
  6
CONTINUOUS
 62
     7
 10
-664.5000000000001
 20
91.5500906917926
 40
0.8967456166468629
 50
180.0000000000009
 51
270.0
  0
ARC
  8
0
  6
CONTINUOUS
 62
     7
 10
-550.5
 20
239.9499093082074
 40
0.896745616646842
 50
0.0
 51
90.0
  0
ARC
  8
0
  6
CONTINUOUS
 62
     7
 10
-550.5
 20
91.5500906917926
 40
0.8967456166468629
 50
269.9999999999991
 51
359.9999999999991
  0
ARC
  8
0
  6
CONTINUOUS
 62
     7
 10
-664.5000000000001
 20
239.9499093082074
 40
0.896745616646842
 50
90.0
 51
180.0
  0
LINE
  8
0
  6
CONTINUOUS
 62
     7
 10
-664.5000000000001
 20
240.8466549248543
 11
-550.5000000000001
 21
240.8466549248543
  0
LINE
  8
0
  6
CONTINUOUS
 62
     7
 10
-550.5000000000001
 20
90.65334507514575
 11
-664.5000000000001
 21
90.65334507514574
  0
LINE
  8
0
  6
CONTINUOUS
 62
     7
 10
-549.6032543833533
 20
91.55009069179259
 11
-549.6032543833533
 21
239.9499093082074
  0
LINE
  8
0
  6
CONTINUOUS
 62
     7
 10
-665.396745616647
 20
91.55009069179259
 11
-665.396745616647
 21
239.9499093082074
  0
ARC
  8
0
  6
CONTINUOUS
 62
     7
 10
-664.5000000000001
 20
239.7749319811556
 40
0.896745616646842
 50
90.0
 51
180.0
  0
ARC
  8
0
  6
CONTINUOUS
 62
     7
 10
-550.5
 20
91.72506801884445
 40
0.896745616646849
 50
269.9999999999991
 51
359.9999999999991
  0
ARC
  8
0
  6
CONTINUOUS
 62
     7
 10
-664.5000000000001
 20
91.72506801884445
 40
0.896745616646849
 50
180.0000000000009
 51
270.0
  0
ARC
  8
0
  6
CONTINUOUS
 62
     7
 10
-550.5
 20
239.7749319811556
 40
0.896745616646842
 50
0.0
 51
90.0
  0
LINE
  8
0
  6
CONTINUOUS
 62
     7
 10
-664.5000000000001
 20
240.6716775978024
 11
-550.5000000000001
 21
240.6716775978024
  0
LINE
  8
0
  6
CONTINUOUS
 62
     7
 10
-550.5000000000001
 20
90.8283224021976
 11
-664.5000000000001
 21
90.8283224021976
  0
ARC
  8
0
  6
CONTINUOUS
 62
     7
 10
-664.5000000000001
 20
239.5999546541037
 40
0.896745616646842
 50
90.0
 51
180.0
  0
ARC
  8
0
  6
CONTINUOUS
 62
     7
 10
-550.5
 20
91.90004534589632
 40
0.896745616646849
 50
270.0
 51
0.0
  0
ARC
  8
0
  6
CONTINUOUS
 62
     7
 10
-550.5
 20
239.5999546541037
 40
0.896745616646842
 50
0.0
 51
90.0
  0
ARC
  8
0
  6
CONTINUOUS
 62
     7
 10
-664.5000000000001
 20
91.90004534589632
 40
0.896745616646849
 50
180.0
 51
270.0
  0
LINE
  8
0
  6
CONTINUOUS
 62
     7
 10
-664.5000000000001
 20
240.4967002707506
 11
-550.5000000000001
 21
240.4967002707506
  0
LINE
  8
0
  6
CONTINUOUS
 62
     7
 10
-550.5
 20
91.00329972924948
 11
-664.5
 21
91.00329972924948
  0
ARC
  8
0
  6
CONTINUOUS
 62
     7
 10
-664.5000000000001
 20
239.4249773270519
 40
0.896745616646842
 50
90.0
 51
180.0
  0
ARC
  8
0
  6
CONTINUOUS
 62
     7
 10
-550.5
 20
92.07502267294818
 40
0.896745616646849
 50
270.0000000000009
 51
0.0
  0
ARC
  8
0
  6
CONTINUOUS
 62
     7
 10
-550.5
 20
239.4249773270519
 40
0.896745616646842
 50
0.0
 51
90.0
  0
ARC
  8
0
  6
CONTINUOUS
 62
     7
 10
-664.5000000000001
 20
92.07502267294818
 40
0.896745616646849
 50
180.0
 51
270.0000000000005
  0
LINE
  8
0
  6
CONTINUOUS
 62
     7
 10
-664.5000000000001
 20
240.3217229436987
 11
-550.5000000000001
 21
240.3217229436987
  0
LINE
  8
0
  6
CONTINUOUS
 62
     7
 10
-550.5
 20
91.1782770563013
 11
-664.5
 21
91.17827705630131
  0
LINE
  8
0
  6
CONTINUOUS
 62
     7
 10
-608.8689441114979
 20
243.9659472982918
 11
-608.864276933292
 21
244.0324358463206
  0
LINE
  8
0
  6
CONTINUOUS
 62
     7
 10
-631.9357230667081
 20
244.0324358463216
 11
-631.9310558885023
 21
243.9659472982927
  0
POLYLINE
  8
0
  6
CONTINUOUS
 62
     7
 66
     1
  0
VERTEX
  8
0
  6
CONTINUOUS
 62
     7
 10
-631.9310929085491
 20
243.9664736907462
  0
VERTEX
  8
0
  6
CONTINUOUS
 62
     7
 10
-631.9121022093198
 20
243.8271213390171
  0
VERTEX
  8
0
  6
CONTINUOUS
 62
     7
 10
-631.8786828618111
 20
243.7017818993308
  0
VERTEX
  8
0
  6
CONTINUOUS
 62
     7
 10
-631.835189591867
 20
243.5910946589152
  0
VERTEX
  8
0
  6
CONTINUOUS
 62
     7
 10
-631.7788802687315
 20
243.4836398358109
  0
VERTEX
  8
0
  6
CONTINUOUS
 62
     7
 10
-631.7196046009427
 20
243.3939165988116
  0
VERTEX
  8
0
  6
CONTINUOUS
 62
     7
 10
-631.6527294165576
 20
243.310592853028
  0
VERTEX
  8
0
  6
CONTINUOUS
 62
     7
 10
-631.5536592351004
 20
243.2104046580468
  0
VERTEX
  8
0
  6
CONTINUOUS
 62
     7
 10
-631.464221673671
 20
243.1368269048697
  0
VERTEX
  8
0
  6
CONTINUOUS
 62
     7
 10
-631.2687113396157
 20
243.0129472518539
  0
SEQEND
  8
0
  6
CONTINUOUS
 62
     7
  0
ARC
  8
0
  6
CONTINUOUS
 62
     7
 10
-627.5496361523491
 20
253.7511401831311
 40
11.36399171408861
 50
250.8969389660322
 51
268.7089711591356
  0
LINE
  8
0
  6
CONTINUOUS
 62
     7
 10
-627.8056759465411
 20
242.390033225547
 11
-627.6199287295843
 21
242.374862429276
  0
ARC
  8
0
  6
CONTINUOUS
 62
     7
 10
-613.3808376460433
 20
254.6725159642307
 40
12.28870262164268
 50
271.7840300638029
 51
287.9692734805827
  0
POLYLINE
  8
0
  6
CONTINUOUS
 62
     7
 66
     1
  0
VERTEX
  8
0
  6
CONTINUOUS
 62
     7
 10
-609.589687869215
 20
242.9832304645595
  0
VERTEX
  8
0
  6
CONTINUOUS
 62
     7
 10
-609.4266095350183
 20
243.0755758511375
  0
VERTEX
  8
0
  6
CONTINUOUS
 62
     7
 10
-609.3219038943895
 20
243.1502039525163
  0
VERTEX
  8
0
  6
CONTINUOUS
 62
     7
 10
-609.2087202471732
 20
243.2496544266183
  0
VERTEX
  8
0
  6
CONTINUOUS
 62
     7
 10
-609.0950789607314
 20
243.3784039334113
  0
VERTEX
  8
0
  6
CONTINUOUS
 62
     7
 10
-609.0068489660904
 20
243.511951974811
  0
VERTEX
  8
0
  6
CONTINUOUS
 62
     7
 10
-608.9332675832787
 20
243.6700388196642
  0
VERTEX
  8
0
  6
CONTINUOUS
 62
     7
 10
-608.891473222238
 20
243.8113216970772
  0
VERTEX
  8
0
  6
CONTINUOUS
 62
     7
 10
-608.8689040784446
 20
243.9665168998215
  0
SEQEND
  8
0
  6
CONTINUOUS
 62
     7
  0
POLYLINE
  8
0
  6
CONTINUOUS
 62
     7
 66
     1
  0
VERTEX
  8
0
  6
CONTINUOUS
 62
     7
 10
-657.931092908549
 20
243.9664736907457
  0
VERTEX
  8
0
  6
CONTINUOUS
 62
     7
 10
-657.9121022093199
 20
243.827121339017
  0
VERTEX
  8
0
  6
CONTINUOUS
 62
     7
 10
-657.8786828618112
 20
243.7017818993312
  0
VERTEX
  8
0
  6
CONTINUOUS
 62
     7
 10
-657.8351895918674
 20
243.5910946589158
  0
VERTEX
  8
0
  6
CONTINUOUS
 62
     7
 10
-657.7788802687323
 20
243.4836398358118
  0
VERTEX
  8
0
  6
CONTINUOUS
 62
     7
 10
-657.7196046009437
 20
243.3939165988127
  0
VERTEX
  8
0
  6
CONTINUOUS
 62
     7
 10
-657.6527294165592
 20
243.3105928530293
  0
VERTEX
  8
0
  6
CONTINUOUS
 62
     7
 10
-657.5536592351027
 20
243.2104046580482
  0
VERTEX
  8
0
  6
CONTINUOUS
 62
     7
 10
-657.4642216736736
 20
243.1368269048709
  0
VERTEX
  8
0
  6
CONTINUOUS
 62
     7
 10
-657.2687113396184
 20
243.0129472518546
  0
SEQEND
  8
0
  6
CONTINUOUS
 62
     7
  0
ARC
  8
0
  6
CONTINUOUS
 62
     7
 10
-653.5496361523453
 20
253.7511401831664
 40
11.36399171412344
 50
250.8969389660586
 51
268.7089711590765
  0
LINE
  8
0
  6
CONTINUOUS
 62
     7
 10
-653.8056759465499
 20
242.3900332255478
 11
-653.6199287295879
 21
242.3748624292763
  0
ARC
  8
0
  6
CONTINUOUS
 62
     7
 10
-639.3808376460429
 20
254.6725159642295
 40
12.28870262164141
 50
271.7840300638031
 51
287.969273480583
  0
POLYLINE
  8
0
  6
CONTINUOUS
 62
     7
 66
     1
  0
VERTEX
  8
0
  6
CONTINUOUS
 62
     7
 10
-635.5896878692151
 20
242.9832304645595
  0
VERTEX
  8
0
  6
CONTINUOUS
 62
     7
 10
-635.4266095350184
 20
243.0755758511374
  0
VERTEX
  8
0
  6
CONTINUOUS
 62
     7
 10
-635.3219038943895
 20
243.1502039525163
  0
VERTEX
  8
0
  6
CONTINUOUS
 62
     7
 10
-635.2087202471732
 20
243.2496544266183
  0
VERTEX
  8
0
  6
CONTINUOUS
 62
     7
 10
-635.0950789607314
 20
243.3784039334112
  0
VERTEX
  8
0
  6
CONTINUOUS
 62
     7
 10
-635.0068489660904
 20
243.5119519748109
  0
VERTEX
  8
0
  6
CONTINUOUS
 62
     7
 10
-634.9332675832787
 20
243.6700388196641
  0
VERTEX
  8
0
  6
CONTINUOUS
 62
     7
 10
-634.891473222238
 20
243.8113216970772
  0
VERTEX
  8
0
  6
CONTINUOUS
 62
     7
 10
-634.8689040784446
 20
243.9665168998215
  0
SEQEND
  8
0
  6
CONTINUOUS
 62
     7
  0
LINE
  8
0
  6
CONTINUOUS
 62
     7
 10
-634.8689441114979
 20
243.9659472982918
 11
-634.8642769332921
 21
244.0324358463206
  0
LINE
  8
0
  6
CONTINUOUS
 62
     7
 10
-657.9357230667081
 20
244.0324358463215
 11
-657.9310558885023
 21
243.9659472982927
  0
POLYLINE
  8
0
  6
CONTINUOUS
 62
     7
 66
     1
  0
VERTEX
  8
0
  6
CONTINUOUS
 62
     7
 10
-606.1310959215555
 20
243.9665168998217
  0
VERTEX
  8
0
  6
CONTINUOUS
 62
     7
 10
-606.1140113944249
 20
243.8366730990428
  0
VERTEX
  8
0
  6
CONTINUOUS
 62
     7
 10
-606.084271578092
 20
243.719014725892
  0
VERTEX
  8
0
  6
CONTINUOUS
 62
     7
 10
-606.0454332187569
 20
243.6141031858591
  0
VERTEX
  8
0
  6
CONTINUOUS
 62
     7
 10
-605.9923542441081
 20
243.5068040359718
  0
VERTEX
  8
0
  6
CONTINUOUS
 62
     7
 10
-605.9357329695956
 20
243.4165021694137
  0
VERTEX
  8
0
  6
CONTINUOUS
 62
     7
 10
-605.8645674369573
 20
243.3242429796482
  0
VERTEX
  8
0
  6
CONTINUOUS
 62
     7
 10
-605.7706955920108
 20
243.2261335290442
  0
VERTEX
  8
0
  6
CONTINUOUS
 62
     7
 10
-605.560054678304
 20
243.0659068924066
  0
VERTEX
  8
0
  6
CONTINUOUS
 62
     7
 10
-605.3840255601565
 20
242.9708389015058
  0
SEQEND
  8
0
  6
CONTINUOUS
 62
     7
  0
ARC
  8
0
  6
CONTINUOUS
 62
     7
 10
-601.5029493871449
 20
255.3294883276604
 40
12.95372409383925
 50
252.5657691464293
 51
268.2080505949305
  0
ARC
  8
0
  6
CONTINUOUS
 62
     7
 10
-587.2345163744104
 20
251.5175351556462
 40
9.147237127015753
 50
268.8689781133844
 51
294.0982080792142
  0
POLYLINE
  8
0
  6
CONTINUOUS
 62
     7
 66
     1
  0
VERTEX
  8
0
  6
CONTINUOUS
 62
     7
 10
-583.4996819717137
 20
243.1675076681292
  0
VERTEX
  8
0
  6
CONTINUOUS
 62
     7
 10
-583.3918342737373
 20
243.2662173532946
  0
VERTEX
  8
0
  6
CONTINUOUS
 62
     7
 10
-583.2951634948021
 20
243.3779980383245
  0
VERTEX
  8
0
  6
CONTINUOUS
 62
     7
 10
-583.2154860342989
 20
243.4967471975533
  0
VERTEX
  8
0
  6
CONTINUOUS
 62
     7
 10
-583.146659452395
 20
243.6357449857917
  0
VERTEX
  8
0
  6
CONTINUOUS
 62
     7
 10
-583.1044335038924
 20
243.75921198449
  0
VERTEX
  8
0
  6
CONTINUOUS
 62
     7
 10
-583.0764302986287
 20
243.8946340146297
  0
VERTEX
  8
0
  6
CONTINUOUS
 62
     7
 10
-583.068907091451
 20
243.9664736907457
  0
SEQEND
  8
0
  6
CONTINUOUS
 62
     7
  0
LINE
  8
0
  6
CONTINUOUS
 62
     7
 10
-583.0689441114979
 20
243.9659472982918
 11
-583.064276933292
 21
244.0324358463206
  0
LINE
  8
0
  6
CONTINUOUS
 62
     7
 10
-606.135723066708
 20
244.0324358463215
 11
-606.1310558885023
 21
243.9659472982927
  0
POLYLINE
  8
0
  6
CONTINUOUS
 62
     7
 66
     1
  0
VERTEX
  8
0
  6
CONTINUOUS
 62
     7
 10
-580.1310959215555
 20
243.9665168998217
  0
VERTEX
  8
0
  6
CONTINUOUS
 62
     7
 10
-580.1140113944248
 20
243.8366730990425
  0
VERTEX
  8
0
  6
CONTINUOUS
 62
     7
 10
-580.0842715780918
 20
243.7190147258916
  0
VERTEX
  8
0
  6
CONTINUOUS
 62
     7
 10
-580.0454332187567
 20
243.6141031858585
  0
VERTEX
  8
0
  6
CONTINUOUS
 62
     7
 10
-579.9923542441078
 20
243.5068040359711
  0
VERTEX
  8
0
  6
CONTINUOUS
 62
     7
 10
-579.9357329695953
 20
243.4165021694131
  0
VERTEX
  8
0
  6
CONTINUOUS
 62
     7
 10
-579.8645674369567
 20
243.3242429796476
  0
VERTEX
  8
0
  6
CONTINUOUS
 62
     7
 10
-579.7706955920103
 20
243.2261335290437
  0
VERTEX
  8
0
  6
CONTINUOUS
 62
     7
 10
-579.5600546783038
 20
243.0659068924063
  0
VERTEX
  8
0
  6
CONTINUOUS
 62
     7
 10
-579.3840255601564
 20
242.9708389015057
  0
SEQEND
  8
0
  6
CONTINUOUS
 62
     7
  0
ARC
  8
0
  6
CONTINUOUS
 62
     7
 10
-575.5029493871451
 20
255.3294883276634
 40
12.95372409384206
 50
252.5657691464357
 51
268.2080505949231
  0
ARC
  8
0
  6
CONTINUOUS
 62
     7
 10
-561.2345163744105
 20
251.5175351556435
 40
9.147237127013206
 50
268.8689781133692
 51
294.0982080792248
  0
POLYLINE
  8
0
  6
CONTINUOUS
 62
     7
 66
     1
  0
VERTEX
  8
0
  6
CONTINUOUS
 62
     7
 10
-557.4996819717134
 20
243.1675076681294
  0
VERTEX
  8
0
  6
CONTINUOUS
 62
     7
 10
-557.391834273737
 20
243.2662173532949
  0
VERTEX
  8
0
  6
CONTINUOUS
 62
     7
 10
-557.2951634948017
 20
243.3779980383248
  0
VERTEX
  8
0
  6
CONTINUOUS
 62
     7
 10
-557.2154860342988
 20
243.4967471975536
  0
VERTEX
  8
0
  6
CONTINUOUS
 62
     7
 10
-557.1466594523949
 20
243.6357449857919
  0
VERTEX
  8
0
  6
CONTINUOUS
 62
     7
 10
-557.1044335038923
 20
243.7592119844901
  0
VERTEX
  8
0
  6
CONTINUOUS
 62
     7
 10
-557.0764302986286
 20
243.8946340146297
  0
VERTEX
  8
0
  6
CONTINUOUS
 62
     7
 10
-557.0689070914509
 20
243.9664736907458
  0
SEQEND
  8
0
  6
CONTINUOUS
 62
     7
  0
LINE
  8
0
  6
CONTINUOUS
 62
     7
 10
-557.0689441114979
 20
243.9659472982918
 11
-557.064276933292
 21
244.0324358463205
  0
LINE
  8
0
  6
CONTINUOUS
 62
     7
 10
-580.1357230667081
 20
244.0324358463214
 11
-580.1310558885024
 21
243.9659472982927
  0
ARC
  8
0
  6
CONTINUOUS
 62
     7
 10
-635.9562965766514
 20
87.45614165791592
 40
1.090139583617789
 50
4.071384937740628
 51
27.5839116374818
  0
POLYLINE
  8
0
  6
CONTINUOUS
 62
     7
 66
     1
  0
VERTEX
  8
0
  6
CONTINUOUS
 62
     7
 10
-634.9900691963496
 20
87.96092771291902
  0
VERTEX
  8
0
  6
CONTINUOUS
 62
     7
 10
-635.0679822731599
 20
88.08897828366548
  0
VERTEX
  8
0
  6
CONTINUOUS
 62
     7
 10
-635.1482371808696
 20
88.19060608317952
  0
VERTEX
  8
0
  6
CONTINUOUS
 62
     7
 10
-635.2325295972176
 20
88.27684137895129
  0
VERTEX
  8
0
  6
CONTINUOUS
 62
     7
 10
-635.3711621168574
 20
88.38845954881879
  0
VERTEX
  8
0
  6
CONTINUOUS
 62
     7
 10
-635.5239657517
 20
88.48229744771551
  0
SEQEND
  8
0
  6
CONTINUOUS
 62
     7
  0
ARC
  8
0
  6
CONTINUOUS
 62
     7
 10
-639.2559959115586
 20
77.81242638810916
 40
11.30372494104131
 50
70.7215540445377
 51
88.939908579729
  0
ARC
  8
0
  6
CONTINUOUS
 62
     7
 10
-654.1549683320117
 20
82.16739507614673
 40
6.970462673078008
 50
86.01893137001453
 51
119.9772384574092
  0
POLYLINE
  8
0
  6
CONTINUOUS
 62
     7
 66
     1
  0
VERTEX
  8
0
  6
CONTINUOUS
 62
     7
 10
-657.6378012714665
 20
88.2053769072408
  0
VERTEX
  8
0
  6
CONTINUOUS
 62
     7
 10
-657.7218537278812
 20
88.10217798905727
  0
VERTEX
  8
0
  6
CONTINUOUS
 62
     7
 10
-657.7858755561315
 20
88.00363229305296
  0
VERTEX
  8
0
  6
CONTINUOUS
 62
     7
 10
-657.8439627603047
 20
87.88851039327061
  0
VERTEX
  8
0
  6
CONTINUOUS
 62
     7
 10
-657.8911302179611
 20
87.75768432365244
  0
VERTEX
  8
0
  6
CONTINUOUS
 62
     7
 10
-657.9226618996372
 20
87.61202839679773
  0
VERTEX
  8
0
  6
CONTINUOUS
 62
     7
 10
-657.9310854101141
 20
87.53363253878682
  0
SEQEND
  8
0
  6
CONTINUOUS
 62
     7
  0
LINE
  8
0
  6
CONTINUOUS
 62
     7
 10
-657.9310558999288
 20
87.53405253892615
 11
-657.9357230756739
 21
87.46756402595126
  0
LINE
  8
0
  6
CONTINUOUS
 62
     7
 10
-634.8642769243261
 20
87.46756402595034
 11
-634.8689441000713
 21
87.5340525389252
  0
POLYLINE
  8
0
  6
CONTINUOUS
 62
     7
 66
     1
  0
VERTEX
  8
0
  6
CONTINUOUS
 62
     7
 10
-583.068914589886
 20
87.53363253878635
  0
VERTEX
  8
0
  6
CONTINUOUS
 62
     7
 10
-583.0875749439356
 20
87.67138638090385
  0
VERTEX
  8
0
  6
CONTINUOUS
 62
     7
 10
-583.1202687769112
 20
87.79524639786555
  0
VERTEX
  8
0
  6
CONTINUOUS
 62
     7
 10
-583.1699415993987
 20
87.92023754073064
  0
VERTEX
  8
0
  6
CONTINUOUS
 62
     7
 10
-583.2347521579204
 20
88.03891270071111
  0
VERTEX
  8
0
  6
CONTINUOUS
 62
     7
 10
-583.3000600246431
 20
88.13238344741826
  0
VERTEX
  8
0
  6
CONTINUOUS
 62
     7
 10
-583.3908363245787
 20
88.23633434390783
  0
VERTEX
  8
0
  6
CONTINUOUS
 62
     7
 10
-583.5891756922188
 20
88.40120488882842
  0
SEQEND
  8
0
  6
CONTINUOUS
 62
     7
  0
ARC
  8
0
  6
CONTINUOUS
 62
     7
 10
-587.2500319753989
 20
79.42804015509974
 40
9.691210144493368
 50
67.80560751840224
 51
90.32320648060143
  0
ARC
  8
0
  6
CONTINUOUS
 62
     7
 10
-602.1319839414415
 20
80.72969165294143
 40
8.386085908247306
 50
88.80264849701153
 51
115.4577151790722
  0
POLYLINE
  8
0
  6
CONTINUOUS
 62
     7
 66
     1
  0
VERTEX
  8
0
  6
CONTINUOUS
 62
     7
 10
-605.7366998918766
 20
88.30151176287424
  0
VERTEX
  8
0
  6
CONTINUOUS
 62
     7
 10
-605.8496149556985
 20
88.18903121172552
  0
VERTEX
  8
0
  6
CONTINUOUS
 62
     7
 10
-605.9505761536421
 20
88.05764763487272
  0
VERTEX
  8
0
  6
CONTINUOUS
 62
     7
 10
-606.0322426640689
 20
87.91226345386343
  0
VERTEX
  8
0
  6
CONTINUOUS
 62
     7
 10
-606.0896484986788
 20
87.76141782633228
  0
VERTEX
  8
0
  6
CONTINUOUS
 62
     7
 10
-606.1224916705331
 20
87.61288704187234
  0
VERTEX
  8
0
  6
CONTINUOUS
 62
     7
 10
-606.1310918939678
 20
87.5335407905679
  0
SEQEND
  8
0
  6
CONTINUOUS
 62
     7
  0
LINE
  8
0
  6
CONTINUOUS
 62
     7
 10
-606.1310558999288
 20
87.534052538926
 11
-606.1357230756736
 21
87.46756402595747
  0
LINE
  8
0
  6
CONTINUOUS
 62
     7
 10
-583.0642769243265
 20
87.46756402595652
 11
-583.0689441000712
 21
87.53405253892505
  0
ARC
  8
0
  6
CONTINUOUS
 62
     7
 10
-609.9562965766523
 20
87.45614165791555
 40
1.090139583618823
 50
4.071384937759443
 51
27.58391163744686
  0
POLYLINE
  8
0
  6
CONTINUOUS
 62
     7
 66
     1
  0
VERTEX
  8
0
  6
CONTINUOUS
 62
     7
 10
-608.9900691963494
 20
87.96092771291855
  0
VERTEX
  8
0
  6
CONTINUOUS
 62
     7
 10
-609.0679822731596
 20
88.08897828366507
  0
VERTEX
  8
0
  6
CONTINUOUS
 62
     7
 10
-609.1482371808696
 20
88.1906060831794
  0
VERTEX
  8
0
  6
CONTINUOUS
 62
     7
 10
-609.232529597218
 20
88.27684137895153
  0
VERTEX
  8
0
  6
CONTINUOUS
 62
     7
 10
-609.3711621168583
 20
88.38845954881933
  0
VERTEX
  8
0
  6
CONTINUOUS
 62
     7
 10
-609.5239657517013
 20
88.48229744771615
  0
SEQEND
  8
0
  6
CONTINUOUS
 62
     7
  0
ARC
  8
0
  6
CONTINUOUS
 62
     7
 10
-613.2559959115608
 20
77.81242638809461
 40
11.30372494105598
 50
70.72155404455839
 51
88.93990857972138
  0
ARC
  8
0
  6
CONTINUOUS
 62
     7
 10
-628.1549683320144
 20
82.16739507616026
 40
6.970462673064452
 50
86.01893136999888
 51
119.9772384574601
  0
POLYLINE
  8
0
  6
CONTINUOUS
 62
     7
 66
     1
  0
VERTEX
  8
0
  6
CONTINUOUS
 62
     7
 10
-631.637801271468
 20
88.20537690723951
  0
VERTEX
  8
0
  6
CONTINUOUS
 62
     7
 10
-631.7218537278824
 20
88.10217798905603
  0
VERTEX
  8
0
  6
CONTINUOUS
 62
     7
 10
-631.7858755561322
 20
88.00363229305195
  0
VERTEX
  8
0
  6
CONTINUOUS
 62
     7
 10
-631.8439627603052
 20
87.88851039326981
  0
VERTEX
  8
0
  6
CONTINUOUS
 62
     7
 10
-631.8911302179613
 20
87.75768432365189
  0
VERTEX
  8
0
  6
CONTINUOUS
 62
     7
 10
-631.9226618996372
 20
87.61202839679751
  0
VERTEX
  8
0
  6
CONTINUOUS
 62
     7
 10
-631.931085410114
 20
87.53363253878678
  0
SEQEND
  8
0
  6
CONTINUOUS
 62
     7
  0
LINE
  8
0
  6
CONTINUOUS
 62
     7
 10
-631.9310558999287
 20
87.53405253892605
 11
-631.9357230756739
 21
87.46756402595108
  0
LINE
  8
0
  6
CONTINUOUS
 62
     7
 10
-608.8642769243261
 20
87.46756402595014
 11
-608.8689441000713
 21
87.53405253892514
  0
LINE
  8
0
  6
CONTINUOUS
 62
     7
 10
-580.1310558999287
 20
87.53405253892606
 11
-580.1357230756735
 21
87.4675640259576
  0
LINE
  8
0
  6
CONTINUOUS
 62
     7
 10
-557.0642769243266
 20
87.46756402595672
 11
-557.0689441000713
 21
87.53405253892515
  0
POLYLINE
  8
0
  6
CONTINUOUS
 62
     7
 66
     1
  0
VERTEX
  8
0
  6
CONTINUOUS
 62
     7
 10
-557.068914589886
 20
87.53363253878675
  0
VERTEX
  8
0
  6
CONTINUOUS
 62
     7
 10
-557.0875749439355
 20
87.67138638090358
  0
VERTEX
  8
0
  6
CONTINUOUS
 62
     7
 10
-557.120268776911
 20
87.79524639786494
  0
VERTEX
  8
0
  6
CONTINUOUS
 62
     7
 10
-557.1699415993983
 20
87.9202375407297
  0
VERTEX
  8
0
  6
CONTINUOUS
 62
     7
 10
-557.2347521579195
 20
88.03891270070994
  0
VERTEX
  8
0
  6
CONTINUOUS
 62
     7
 10
-557.3000600246419
 20
88.13238344741703
  0
VERTEX
  8
0
  6
CONTINUOUS
 62
     7
 10
-557.3908363245773
 20
88.2363343439067
  0
VERTEX
  8
0
  6
CONTINUOUS
 62
     7
 10
-557.5891756922167
 20
88.40120488882748
  0
SEQEND
  8
0
  6
CONTINUOUS
 62
     7
  0
ARC
  8
0
  6
CONTINUOUS
 62
     7
 10
-561.2500319754032
 20
79.42804015507801
 40
9.691210144515034
 50
67.80560751841364
 51
90.32320648057451
  0
ARC
  8
0
  6
CONTINUOUS
 62
     7
 10
-576.1319839414473
 20
80.72969165296733
 40
8.386085908221135
 50
88.80264849699553
 51
115.4577151791214
  0
POLYLINE
  8
0
  6
CONTINUOUS
 62
     7
 66
     1
  0
VERTEX
  8
0
  6
CONTINUOUS
 62
     7
 10
-579.7366998918776
 20
88.30151176287343
  0
VERTEX
  8
0
  6
CONTINUOUS
 62
     7
 10
-579.8496149556992
 20
88.18903121172474
  0
VERTEX
  8
0
  6
CONTINUOUS
 62
     7
 10
-579.9505761536425
 20
88.05764763487197
  0
VERTEX
  8
0
  6
CONTINUOUS
 62
     7
 10
-580.0322426640693
 20
87.91226345386283
  0
VERTEX
  8
0
  6
CONTINUOUS
 62
     7
 10
-580.0896484986789
 20
87.76141782633191
  0
VERTEX
  8
0
  6
CONTINUOUS
 62
     7
 10
-580.1224916705331
 20
87.6128870418722
  0
VERTEX
  8
0
  6
CONTINUOUS
 62
     7
 10
-580.1310918939677
 20
87.53354079056781
  0
SEQEND
  8
0
  6
CONTINUOUS
 62
     7
  0
POLYLINE
  8
0
  6
CONTINUOUS
 62
     7
 66
     1
  0
VERTEX
  8
0
  6
CONTINUOUS
 62
     7
 10
-563.5843016083766
 20
89.0559441899856
  0
VERTEX
  8
0
  6
CONTINUOUS
 62
     7
 10
-563.6042847023499
 20
89.1841548912767
  0
VERTEX
  8
0
  6
CONTINUOUS
 62
     7
 10
-563.6381676821765
 20
89.30189632443462
  0
VERTEX
  8
0
  6
CONTINUOUS
 62
     7
 10
-563.6928410129009
 20
89.42806717432464
  0
VERTEX
  8
0
  6
CONTINUOUS
 62
     7
 10
-563.7609204733728
 20
89.54130309489639
  0
VERTEX
  8
0
  6
CONTINUOUS
 62
     7
 10
-563.8415112662468
 20
89.6433146558705
  0
VERTEX
  8
0
  6
CONTINUOUS
 62
     7
 10
-563.9236985026125
 20
89.72533449286856
  0
VERTEX
  8
0
  6
CONTINUOUS
 62
     7
 10
-564.0045157828133
 20
89.79082192403135
  0
VERTEX
  8
0
  6
CONTINUOUS
 62
     7
 10
-564.106346279124
 20
89.85721137546373
  0
SEQEND
  8
0
  6
CONTINUOUS
 62
     7
  0
ARC
  8
0
  6
CONTINUOUS
 62
     7
 10
-565.3498539493005
 20
86.91959834466093
 40
3.189965774821185
 50
67.0567936481116
 51
88.82873675482413
  0
LINE
  8
0
  6
CONTINUOUS
 62
     7
 10
-565.2846479345611
 20
90.10889761255228
 11
-567.1000000000032
 21
90.1704405719876
  0
POLYLINE
  8
0
  6
CONTINUOUS
 62
     7
 66
     1
  0
VERTEX
  8
0
  6
CONTINUOUS
 62
     7
 10
-589.5843016083766
 20
89.05594418998567
  0
VERTEX
  8
0
  6
CONTINUOUS
 62
     7
 10
-589.6042847023499
 20
89.18415489127679
  0
VERTEX
  8
0
  6
CONTINUOUS
 62
     7
 10
-589.6381676821763
 20
89.30189632443472
  0
VERTEX
  8
0
  6
CONTINUOUS
 62
     7
 10
-589.6928410129009
 20
89.42806717432468
  0
VERTEX
  8
0
  6
CONTINUOUS
 62
     7
 10
-589.760920473373
 20
89.54130309489649
  0
VERTEX
  8
0
  6
CONTINUOUS
 62
     7
 10
-589.8415112662468
 20
89.64331465587058
  0
VERTEX
  8
0
  6
CONTINUOUS
 62
     7
 10
-589.9236985026124
 20
89.72533449286863
  0
VERTEX
  8
0
  6
CONTINUOUS
 62
     7
 10
-590.0045157828132
 20
89.79082192403142
  0
VERTEX
  8
0
  6
CONTINUOUS
 62
     7
 10
-590.106346279124
 20
89.85721137546378
  0
SEQEND
  8
0
  6
CONTINUOUS
 62
     7
  0
ARC
  8
0
  6
CONTINUOUS
 62
     7
 10
-591.3498539492986
 20
86.91959834466736
 40
3.189965774814573
 50
67.0567936480974
 51
88.82873675481622
  0
LINE
  8
0
  6
CONTINUOUS
 62
     7
 10
-591.284647934559
 20
90.1088976125521
 11
-593.1000000000032
 21
90.1704405719876
  0
LINE
  8
0
  6
CONTINUOUS
 62
     7
 10
-647.9000000000041
 20
90.1704405719876
 11
-649.7153520654355
 21
90.10889761255261
  0
ARC
  8
0
  6
CONTINUOUS
 62
     7
 10
-649.7531841774552
 20
87.46131273338654
 40
2.64785516240763
 50
89.18133962280385
 51
116.7410645098414
  0
POLYLINE
  8
0
  6
CONTINUOUS
 62
     7
 66
     1
  0
VERTEX
  8
0
  6
CONTINUOUS
 62
     7
 10
-650.9446108943666
 20
89.82597747480727
  0
VERTEX
  8
0
  6
CONTINUOUS
 62
     7
 10
-651.0497004813664
 20
89.74833879253028
  0
VERTEX
  8
0
  6
CONTINUOUS
 62
     7
 10
-651.1328113604613
 20
89.67092281776327
  0
VERTEX
  8
0
  6
CONTINUOUS
 62
     7
 10
-651.2137466076938
 20
89.57628999549644
  0
VERTEX
  8
0
  6
CONTINUOUS
 62
     7
 10
-651.2863422839234
 20
89.46635301800023
  0
VERTEX
  8
0
  6
CONTINUOUS
 62
     7
 10
-651.3450844518924
 20
89.34582658676054
  0
VERTEX
  8
0
  6
CONTINUOUS
 62
     7
 10
-651.3858098979213
 20
89.22462593209463
  0
VERTEX
  8
0
  6
CONTINUOUS
 62
     7
 10
-651.4107774833565
 20
89.09975744427936
  0
VERTEX
  8
0
  6
CONTINUOUS
 62
     7
 10
-651.4156983916233
 20
89.05594418998555
  0
SEQEND
  8
0
  6
CONTINUOUS
 62
     7
  0
LINE
  8
0
  6
CONTINUOUS
 62
     7
 10
-621.900000000004
 20
90.1704405719876
 11
-623.7153520654371
 21
90.10889761255247
  0
ARC
  8
0
  6
CONTINUOUS
 62
     7
 10
-623.7531841774565
 20
87.46131273339039
 40
2.647855162403631
 50
89.18133962280629
 51
116.7410645098524
  0
POLYLINE
  8
0
  6
CONTINUOUS
 62
     7
 66
     1
  0
VERTEX
  8
0
  6
CONTINUOUS
 62
     7
 10
-624.9446108943666
 20
89.82597747480733
  0
VERTEX
  8
0
  6
CONTINUOUS
 62
     7
 10
-625.0497004813664
 20
89.74833879253033
  0
VERTEX
  8
0
  6
CONTINUOUS
 62
     7
 10
-625.1328113604612
 20
89.67092281776335
  0
VERTEX
  8
0
  6
CONTINUOUS
 62
     7
 10
-625.2137466076938
 20
89.57628999549654
  0
VERTEX
  8
0
  6
CONTINUOUS
 62
     7
 10
-625.2863422839235
 20
89.46635301800029
  0
VERTEX
  8
0
  6
CONTINUOUS
 62
     7
 10
-625.3450844518924
 20
89.34582658676064
  0
VERTEX
  8
0
  6
CONTINUOUS
 62
     7
 10
-625.3858098979213
 20
89.2246259320947
  0
VERTEX
  8
0
  6
CONTINUOUS
 62
     7
 10
-625.4107774833566
 20
89.09975744427945
  0
VERTEX
  8
0
  6
CONTINUOUS
 62
     7
 10
-625.4156983916234
 20
89.05594418998562
  0
SEQEND
  8
0
  6
CONTINUOUS
 62
     7
  0
POLYLINE
  8
0
  6
CONTINUOUS
 62
     7
 66
     1
  0
VERTEX
  8
0
  6
CONTINUOUS
 62
     7
 10
-651.4156958592259
 20
242.4440534932208
  0
VERTEX
  8
0
  6
CONTINUOUS
 62
     7
 10
-651.3957327821782
 20
242.3159372749181
  0
VERTEX
  8
0
  6
CONTINUOUS
 62
     7
 10
-651.3618875793474
 20
242.1982723621804
  0
VERTEX
  8
0
  6
CONTINUOUS
 62
     7
 10
-651.3072728716083
 20
242.0721677405686
  0
VERTEX
  8
0
  6
CONTINUOUS
 62
     7
 10
-651.2392585915767
 20
241.9589718741231
  0
VERTEX
  8
0
  6
CONTINUOUS
 62
     7
 10
-651.1587313723073
 20
241.856974467585
  0
VERTEX
  8
0
  6
CONTINUOUS
 62
     7
 10
-651.0765912343586
 20
241.7749449815617
  0
VERTEX
  8
0
  6
CONTINUOUS
 62
     7
 10
-650.9957992597233
 20
241.7094309413655
  0
VERTEX
  8
0
  6
CONTINUOUS
 62
     7
 10
-650.8939621582538
 20
241.6429892960596
  0
SEQEND
  8
0
  6
CONTINUOUS
 62
     7
  0
ARC
  8
0
  6
CONTINUOUS
 62
     7
 10
-649.649767940605
 20
244.5810934498918
 40
3.190685705298575
 50
247.0488783474457
 51
268.8291533207637
  0
LINE
  8
0
  6
CONTINUOUS
 62
     7
 10
-649.7149654785594
 20
241.3910739278447
 11
-647.8999999999967
 21
241.3295594280124
  0
POLYLINE
  8
0
  6
CONTINUOUS
 62
     7
 66
     1
  0
VERTEX
  8
0
  6
CONTINUOUS
 62
     7
 10
-625.415695859226
 20
242.4440534932208
  0
VERTEX
  8
0
  6
CONTINUOUS
 62
     7
 10
-625.3957327821782
 20
242.3159372749182
  0
VERTEX
  8
0
  6
CONTINUOUS
 62
     7
 10
-625.3618875793474
 20
242.1982723621803
  0
VERTEX
  8
0
  6
CONTINUOUS
 62
     7
 10
-625.3072728716083
 20
242.0721677405686
  0
VERTEX
  8
0
  6
CONTINUOUS
 62
     7
 10
-625.2392585915767
 20
241.9589718741231
  0
VERTEX
  8
0
  6
CONTINUOUS
 62
     7
 10
-625.1587313723074
 20
241.856974467585
  0
VERTEX
  8
0
  6
CONTINUOUS
 62
     7
 10
-625.0765912343586
 20
241.7749449815617
  0
VERTEX
  8
0
  6
CONTINUOUS
 62
     7
 10
-624.9957992597234
 20
241.7094309413655
  0
VERTEX
  8
0
  6
CONTINUOUS
 62
     7
 10
-624.8939621582539
 20
241.6429892960596
  0
SEQEND
  8
0
  6
CONTINUOUS
 62
     7
  0
ARC
  8
0
  6
CONTINUOUS
 62
     7
 10
-623.6497679406059
 20
244.5810934498888
 40
3.190685705295561
 50
247.0488783474374
 51
268.8291533207678
  0
LINE
  8
0
  6
CONTINUOUS
 62
     7
 10
-623.71496547856
 20
241.3910739278448
 11
-621.8999999999967
 21
241.3295594280124
  0
LINE
  8
0
  6
CONTINUOUS
 62
     7
 10
-567.0999999999962
 20
241.3295594280124
 11
-565.2850345214423
 21
241.3910739278445
  0
ARC
  8
0
  6
CONTINUOUS
 62
     7
 10
-565.2470993414735
 20
244.0390253171281
 40
2.648223109537356
 50
269.1792232155508
 51
296.7516256019932
  0
POLYLINE
  8
0
  6
CONTINUOUS
 62
     7
 66
     1
  0
VERTEX
  8
0
  6
CONTINUOUS
 62
     7
 10
-564.0550711542601
 20
241.674251662256
  0
VERTEX
  8
0
  6
CONTINUOUS
 62
     7
 10
-563.9499989355608
 20
241.7519335760055
  0
VERTEX
  8
0
  6
CONTINUOUS
 62
     7
 10
-563.8669292193175
 20
241.8293655017706
  0
VERTEX
  8
0
  6
CONTINUOUS
 62
     7
 10
-563.7860526543392
 20
241.9239925450856
  0
VERTEX
  8
0
  6
CONTINUOUS
 62
     7
 10
-563.713522887611
 20
242.0338978184191
  0
VERTEX
  8
0
  6
CONTINUOUS
 62
     7
 10
-563.6548418475268
 20
242.1543672977887
  0
VERTEX
  8
0
  6
CONTINUOUS
 62
     7
 10
-563.6141616290945
 20
242.275493846684
  0
VERTEX
  8
0
  6
CONTINUOUS
 62
     7
 10
-563.5892208172205
 20
242.400273558325
  0
VERTEX
  8
0
  6
CONTINUOUS
 62
     7
 10
-563.5843041407741
 20
242.4440534932208
  0
SEQEND
  8
0
  6
CONTINUOUS
 62
     7
  0
LINE
  8
0
  6
CONTINUOUS
 62
     7
 10
-593.099999999996
 20
241.3295594280124
 11
-591.2850345214413
 21
241.3910739278446
  0
ARC
  8
0
  6
CONTINUOUS
 62
     7
 10
-591.2470993414726
 20
244.0390253171257
 40
2.648223109534968
 50
269.179223215552
 51
296.7516256020008
  0
POLYLINE
  8
0
  6
CONTINUOUS
 62
     7
 66
     1
  0
VERTEX
  8
0
  6
CONTINUOUS
 62
     7
 10
-590.0550711542601
 20
241.674251662256
  0
VERTEX
  8
0
  6
CONTINUOUS
 62
     7
 10
-589.9499989355606
 20
241.7519335760055
  0
VERTEX
  8
0
  6
CONTINUOUS
 62
     7
 10
-589.8669292193175
 20
241.8293655017706
  0
VERTEX
  8
0
  6
CONTINUOUS
 62
     7
 10
-589.7860526543392
 20
241.9239925450856
  0
VERTEX
  8
0
  6
CONTINUOUS
 62
     7
 10
-589.713522887611
 20
242.0338978184191
  0
VERTEX
  8
0
  6
CONTINUOUS
 62
     7
 10
-589.6548418475267
 20
242.1543672977887
  0
VERTEX
  8
0
  6
CONTINUOUS
 62
     7
 10
-589.6141616290944
 20
242.275493846684
  0
VERTEX
  8
0
  6
CONTINUOUS
 62
     7
 10
-589.5892208172204
 20
242.400273558325
  0
VERTEX
  8
0
  6
CONTINUOUS
 62
     7
 10
-589.584304140774
 20
242.4440534932208
  0
SEQEND
  8
0
  6
CONTINUOUS
 62
     7
  0
POLYLINE
  8
0
  6
CONTINUOUS
 62
     7
 66
     1
  0
VERTEX
  8
0
  6
CONTINUOUS
 62
     7
 10
-615.3693565480735
 20
89.03329079270475
  0
VERTEX
  8
0
  6
CONTINUOUS
 62
     7
 10
-615.3896133817517
 20
89.17206630413688
  0
VERTEX
  8
0
  6
CONTINUOUS
 62
     7
 10
-615.425551771971
 20
89.29786601096176
  0
VERTEX
  8
0
  6
CONTINUOUS
 62
     7
 10
-615.4788503990727
 20
89.4212048499903
  0
VERTEX
  8
0
  6
CONTINUOUS
 62
     7
 10
-615.544475351196
 20
89.53184265301476
  0
VERTEX
  8
0
  6
CONTINUOUS
 62
     7
 10
-615.6205386011883
 20
89.63049939437231
  0
SEQEND
  8
0
  6
CONTINUOUS
 62
     7
  0
ARC
  8
0
  6
CONTINUOUS
 62
     7
 10
-616.448817382865
 20
88.90493218415688
 40
1.101132833365525
 50
41.21816399734348
 51
68.90328321071931
  0
ARC
  8
0
  6
CONTINUOUS
 62
     7
 10
-617.2167672788589
 20
86.23278738585526
 40
3.878361274933968
 50
72.53020934605608
 51
88.08276014745114
  0
LINE
  8
0
  6
CONTINUOUS
 62
     7
 10
-617.0870131977368
 20
90.10897753306676
 11
-618.9000000000037
 21
90.1704405719876
  0
POLYLINE
  8
0
  6
CONTINUOUS
 62
     7
 66
     1
  0
VERTEX
  8
0
  6
CONTINUOUS
 62
     7
 10
-641.3693565480735
 20
89.0332907927048
  0
VERTEX
  8
0
  6
CONTINUOUS
 62
     7
 10
-641.3896133817517
 20
89.17206630413695
  0
VERTEX
  8
0
  6
CONTINUOUS
 62
     7
 10
-641.425551771971
 20
89.29786601096183
  0
VERTEX
  8
0
  6
CONTINUOUS
 62
     7
 10
-641.4788503990728
 20
89.4212048499905
  0
VERTEX
  8
0
  6
CONTINUOUS
 62
     7
 10
-641.5444753511961
 20
89.53184265301495
  0
VERTEX
  8
0
  6
CONTINUOUS
 62
     7
 10
-641.6205386011885
 20
89.63049939437255
  0
SEQEND
  8
0
  6
CONTINUOUS
 62
     7
  0
ARC
  8
0
  6
CONTINUOUS
 62
     7
 10
-642.4488173828655
 20
88.90493218415605
 40
1.101132833366487
 50
41.21816399737256
 51
68.90328321072784
  0
ARC
  8
0
  6
CONTINUOUS
 62
     7
 10
-643.2167672788594
 20
86.23278738585172
 40
3.878361274937468
 50
72.53020934607204
 51
88.08276014743215
  0
LINE
  8
0
  6
CONTINUOUS
 62
     7
 10
-643.0870131977358
 20
90.10897753306669
 11
-644.900000000004
 21
90.1704405719876
  0
LINE
  8
0
  6
CONTINUOUS
 62
     7
 10
-596.1000000000035
 20
90.1704405719876
 11
-597.8994109862936
 21
90.11022620405973
  0
ARC
  8
0
  6
CONTINUOUS
 62
     7
 10
-597.895812221059
 20
87.11882590660802
 40
2.991402462174786
 50
90.06892890934667
 51
113.5861162315654
  0
POLYLINE
  8
0
  6
CONTINUOUS
 62
     7
 66
     1
  0
VERTEX
  8
0
  6
CONTINUOUS
 62
     7
 10
-599.0927530246149
 20
89.86032575221961
  0
VERTEX
  8
0
  6
CONTINUOUS
 62
     7
 10
-599.2072218712558
 20
89.78628537569651
  0
VERTEX
  8
0
  6
CONTINUOUS
 62
     7
 10
-599.3075085862921
 20
89.70278820251383
  0
VERTEX
  8
0
  6
CONTINUOUS
 62
     7
 10
-599.3776570268383
 20
89.63029386922128
  0
VERTEX
  8
0
  6
CONTINUOUS
 62
     7
 10
-599.4573548059567
 20
89.52742070572039
  0
VERTEX
  8
0
  6
CONTINUOUS
 62
     7
 10
-599.52502798808
 20
89.41238426491701
  0
VERTEX
  8
0
  6
CONTINUOUS
 62
     7
 10
-599.5791642179959
 20
89.28366858877334
  0
VERTEX
  8
0
  6
CONTINUOUS
 62
     7
 10
-599.612096548705
 20
89.16372977927648
  0
VERTEX
  8
0
  6
CONTINUOUS
 62
     7
 10
-599.6306434519254
 20
89.03329079271019
  0
SEQEND
  8
0
  6
CONTINUOUS
 62
     7
  0
LINE
  8
0
  6
CONTINUOUS
 62
     7
 10
-570.1000000000034
 20
90.1704405719876
 11
-571.8994109862924
 21
90.11022620405981
  0
ARC
  8
0
  6
CONTINUOUS
 62
     7
 10
-571.895812221058
 20
87.11882590660466
 40
2.991402462178228
 50
90.06892890934579
 51
113.5861162315603
  0
POLYLINE
  8
0
  6
CONTINUOUS
 62
     7
 66
     1
  0
VERTEX
  8
0
  6
CONTINUOUS
 62
     7
 10
-573.092753024615
 20
89.86032575221951
  0
VERTEX
  8
0
  6
CONTINUOUS
 62
     7
 10
-573.2072218712559
 20
89.78628537569638
  0
VERTEX
  8
0
  6
CONTINUOUS
 62
     7
 10
-573.3075085862922
 20
89.70278820251369
  0
VERTEX
  8
0
  6
CONTINUOUS
 62
     7
 10
-573.3776570268384
 20
89.63029386922115
  0
VERTEX
  8
0
  6
CONTINUOUS
 62
     7
 10
-573.4573548059568
 20
89.52742070572025
  0
VERTEX
  8
0
  6
CONTINUOUS
 62
     7
 10
-573.5250279880801
 20
89.41238426491691
  0
VERTEX
  8
0
  6
CONTINUOUS
 62
     7
 10
-573.5791642179958
 20
89.2836685887733
  0
VERTEX
  8
0
  6
CONTINUOUS
 62
     7
 10
-573.6120965487052
 20
89.16372977927647
  0
VERTEX
  8
0
  6
CONTINUOUS
 62
     7
 10
-573.6306434519254
 20
89.03329079271028
  0
SEQEND
  8
0
  6
CONTINUOUS
 62
     7
  0
POLYLINE
  8
0
  6
CONTINUOUS
 62
     7
 66
     1
  0
VERTEX
  8
0
  6
CONTINUOUS
 62
     7
 10
-573.6306773443875
 20
242.466861247325
  0
VERTEX
  8
0
  6
CONTINUOUS
 62
     7
 10
-573.6105594745604
 20
242.3285770142523
  0
VERTEX
  8
0
  6
CONTINUOUS
 62
     7
 10
-573.5748677778143
 20
242.2031906091362
  0
VERTEX
  8
0
  6
CONTINUOUS
 62
     7
 10
-573.5219251237098
 20
242.0802082295724
  0
VERTEX
  8
0
  6
CONTINUOUS
 62
     7
 10
-573.4567195244207
 20
241.9698286850547
  0
VERTEX
  8
0
  6
CONTINUOUS
 62
     7
 10
-573.3811135664289
 20
241.8713305671519
  0
SEQEND
  8
0
  6
CONTINUOUS
 62
     7
  0
ARC
  8
0
  6
CONTINUOUS
 62
     7
 10
-572.5518529151618
 20
242.5943584865523
 40
1.100201163411711
 50
221.0849989170929
 51
248.7891663545329
  0
ARC
  8
0
  6
CONTINUOUS
 62
     7
 10
-571.7856979250699
 20
245.2490397610505
 40
3.860097959438181
 50
252.4462225777399
 51
268.1056467873848
  0
LINE
  8
0
  6
CONTINUOUS
 62
     7
 10
-571.9132999379688
 20
241.3910514273768
 11
-570.0999999999962
 21
241.3295594280124
  0
POLYLINE
  8
0
  6
CONTINUOUS
 62
     7
 66
     1
  0
VERTEX
  8
0
  6
CONTINUOUS
 62
     7
 10
-599.6306773443874
 20
242.466861247325
  0
VERTEX
  8
0
  6
CONTINUOUS
 62
     7
 10
-599.6105594745604
 20
242.3285770142523
  0
VERTEX
  8
0
  6
CONTINUOUS
 62
     7
 10
-599.5748677778145
 20
242.2031906091362
  0
VERTEX
  8
0
  6
CONTINUOUS
 62
     7
 10
-599.5219251237099
 20
242.0802082295725
  0
VERTEX
  8
0
  6
CONTINUOUS
 62
     7
 10
-599.4567195244208
 20
241.9698286850548
  0
VERTEX
  8
0
  6
CONTINUOUS
 62
     7
 10
-599.3811135664291
 20
241.871330567152
  0
SEQEND
  8
0
  6
CONTINUOUS
 62
     7
  0
ARC
  8
0
  6
CONTINUOUS
 62
     7
 10
-598.5518529151618
 20
242.5943584865524
 40
1.100201163411807
 50
221.0849989170818
 51
248.7891663545318
  0
ARC
  8
0
  6
CONTINUOUS
 62
     7
 10
-597.7856979250711
 20
245.2490397610468
 40
3.860097959434369
 50
252.4462225777399
 51
268.1056467873758
  0
LINE
  8
0
  6
CONTINUOUS
 62
     7
 10
-597.9132999379705
 20
241.3910514273769
 11
-596.0999999999963
 21
241.3295594280124
  0
LINE
  8
0
  6
CONTINUOUS
 62
     7
 10
-644.8999999999966
 20
241.3295594280124
 11
-643.1000525629116
 21
241.3898158306272
  0
ARC
  8
0
  6
CONTINUOUS
 62
     7
 10
-643.1033405100263
 20
244.3786071634951
 40
2.988793141390398
 50
270.0630306354503
 51
293.5831296500121
  0
POLYLINE
  8
0
  6
CONTINUOUS
 62
     7
 66
     1
  0
VERTEX
  8
0
  6
CONTINUOUS
 62
     7
 10
-641.9075865456123
 20
241.6394363220524
  0
VERTEX
  8
0
  6
CONTINUOUS
 62
     7
 10
-641.7932024405949
 20
241.7133536530614
  0
VERTEX
  8
0
  6
CONTINUOUS
 62
     7
 10
-641.6928869898395
 20
241.796787917579
  0
VERTEX
  8
0
  6
CONTINUOUS
 62
     7
 10
-641.6226773921376
 20
241.8692696988159
  0
VERTEX
  8
0
  6
CONTINUOUS
 62
     7
 10
-641.5428780269872
 20
241.9721722189935
  0
VERTEX
  8
0
  6
CONTINUOUS
 62
     7
 10
-641.4750976977097
 20
242.087289345119
  0
VERTEX
  8
0
  6
CONTINUOUS
 62
     7
 10
-641.4208680284767
 20
242.2161385377005
  0
VERTEX
  8
0
  6
CONTINUOUS
 62
     7
 10
-641.3878829602136
 20
242.3362315645353
  0
VERTEX
  8
0
  6
CONTINUOUS
 62
     7
 10
-641.3693226556136
 20
242.46686124732
  0
SEQEND
  8
0
  6
CONTINUOUS
 62
     7
  0
LINE
  8
0
  6
CONTINUOUS
 62
     7
 10
-618.8999999999966
 20
241.3295594280124
 11
-617.1000525629113
 21
241.3898158306273
  0
ARC
  8
0
  6
CONTINUOUS
 62
     7
 10
-617.1033405100253
 20
244.378607163491
 40
2.98879314138629
 50
270.0630306354378
 51
293.5831296500319
  0
POLYLINE
  8
0
  6
CONTINUOUS
 62
     7
 66
     1
  0
VERTEX
  8
0
  6
CONTINUOUS
 62
     7
 10
-615.9075865456119
 20
241.6394363220525
  0
VERTEX
  8
0
  6
CONTINUOUS
 62
     7
 10
-615.7932024405945
 20
241.7133536530616
  0
VERTEX
  8
0
  6
CONTINUOUS
 62
     7
 10
-615.6928869898393
 20
241.7967879175792
  0
VERTEX
  8
0
  6
CONTINUOUS
 62
     7
 10
-615.6226773921373
 20
241.8692696988161
  0
VERTEX
  8
0
  6
CONTINUOUS
 62
     7
 10
-615.5428780269871
 20
241.9721722189937
  0
VERTEX
  8
0
  6
CONTINUOUS
 62
     7
 10
-615.4750976977097
 20
242.0872893451192
  0
VERTEX
  8
0
  6
CONTINUOUS
 62
     7
 10
-615.4208680284767
 20
242.2161385377006
  0
VERTEX
  8
0
  6
CONTINUOUS
 62
     7
 10
-615.3878829602135
 20
242.3362315645354
  0
VERTEX
  8
0
  6
CONTINUOUS
 62
     7
 10
-615.3693226556137
 20
242.4668612473199
  0
SEQEND
  8
0
  6
CONTINUOUS
 62
     7
  0
LINE
  8
0
  6
CONTINUOUS
 62
     7
 10
-563.5290792379338
 20
88.46398876135052
 11
-563.5689944939556
 21
89.03262121995964
  0
LINE
  8
0
  6
CONTINUOUS
 62
     7
 10
-589.5290792379338
 20
88.46398876135063
 11
-589.5689944939558
 21
89.03262121995967
  0
LINE
  8
0
  6
CONTINUOUS
 62
     7
 10
-651.4310055059882
 20
89.03262122075965
 11
-651.4709207714817
 21
88.46398862721801
  0
LINE
  8
0
  6
CONTINUOUS
 62
     7
 10
-625.4310055059882
 20
89.03262122075961
 11
-625.4709207714817
 21
88.4639886272179
  0
LINE
  8
0
  6
CONTINUOUS
 62
     7
 10
-651.4709209513671
 20
243.0360139354286
 11
-651.4310054996901
 21
242.4673786895151
  0
LINE
  8
0
  6
CONTINUOUS
 62
     7
 10
-625.4709209513671
 20
243.0360139354287
 11
-625.43100549969
 21
242.4673786895151
  0
LINE
  8
0
  6
CONTINUOUS
 62
     7
 10
-563.5689945004192
 20
242.4673786879621
 11
-563.5290790303554
 21
243.0360141958112
  0
LINE
  8
0
  6
CONTINUOUS
 62
     7
 10
-589.5689945004192
 20
242.4673786879621
 11
-589.5290790303554
 21
243.0360141958112
  0
LINE
  8
0
  6
CONTINUOUS
 62
     7
 10
-615.3290792378531
 20
88.46398876020022
 11
-615.3689945074948
 21
89.03262141283818
  0
LINE
  8
0
  6
CONTINUOUS
 62
     7
 10
-641.3290792378531
 20
88.46398876020011
 11
-641.3689945074948
 21
89.03262141283825
  0
LINE
  8
0
  6
CONTINUOUS
 62
     7
 10
-599.6310054925052
 20
89.03262141283834
 11
-599.670920762147
 21
88.46398876020017
  0
LINE
  8
0
  6
CONTINUOUS
 62
     7
 10
-573.6310054925052
 20
89.03262141283831
 11
-573.6709207621469
 21
88.46398876020005
  0
LINE
  8
0
  6
CONTINUOUS
 62
     7
 10
-573.6709209697394
 20
243.0360141971612
 11
-573.631005483702
 21
242.4673784617515
  0
LINE
  8
0
  6
CONTINUOUS
 62
     7
 10
-599.6709209697395
 20
243.0360141971612
 11
-599.6310054837021
 21
242.4673784617515
  0
LINE
  8
0
  6
CONTINUOUS
 62
     7
 10
-641.3689945162981
 20
242.4673784617503
 11
-641.3290790302607
 21
243.0360141971604
  0
LINE
  8
0
  6
CONTINUOUS
 62
     7
 10
-615.3689945162981
 20
242.4673784617503
 11
-615.3290790302607
 21
243.0360141971604
  0
LINE
  8
0
  6
CONTINUOUS
 62
     7
 10
-570.0999999999942
 20
241.3202394421904
 11
-567.0999999999941
 21
241.3202394421904
  0
LINE
  8
0
  6
CONTINUOUS
 62
     7
 10
-647.8999999999947
 20
241.3202394421904
 11
-644.9000000000004
 21
241.3202394421904
  0
LINE
  8
0
  6
CONTINUOUS
 62
     7
 10
-596.0999999999943
 20
241.3202394421904
 11
-593.0999999999942
 21
241.3202394421904
  0
LINE
  8
0
  6
CONTINUOUS
 62
     7
 10
-621.8999999999947
 20
241.3202394421904
 11
-618.9000000000004
 21
241.3202394421904
  0
LINE
  8
0
  6
CONTINUOUS
 62
     7
 10
-644.9000000000057
 20
90.17976055780956
 11
-647.9000000000059
 21
90.17976055780956
  0
LINE
  8
0
  6
CONTINUOUS
 62
     7
 10
-618.9000000000057
 20
90.17976055780956
 11
-621.9000000000059
 21
90.17976055780956
  0
LINE
  8
0
  6
CONTINUOUS
 62
     7
 10
-567.1000000000051
 20
90.17976055780956
 11
-570.1000000000054
 21
90.17976055780956
  0
LINE
  8
0
  6
CONTINUOUS
 62
     7
 10
-593.1000000000051
 20
90.17976055780956
 11
-596.1000000000054
 21
90.17976055780956
  0
ENDBLK
  8
0
  0
ENDSEC
  0
SECTION
  2
ENTITIES
  0
LINE
  8
0
  6
CENTER
 62
     1
 10
-607.5
 20
43.00000000000001
 11
-607.5
 21
289.0000000000001
  0
LINE
  8
0
  6
CENTER
 62
     1
 10
-703.5
 20
165.75
 11
-505.5000000000001
 21
165.75
  0
LINE
  8
0
  6
CENTER
 62
     1
 10
-418.0
 20
165.75
 11
-322.0
 21
165.75
  0
INSERT
  8
0
  6
CONTINUOUS
 62
     7
  2
D_FRAME_VIEW_2207
 10
0.0
 20
0.0
 30
0.0
  0
INSERT
  8
0
  6
CONTINUOUS
 62
     7
  2
D_FRAME_VIEW_2024
 10
0.0
 20
0.0
 30
0.0
  0
INSERT
  8
0
  6
CONTINUOUS
 62
     7
  2
D_FRAME_VIEW_1495
 10
0.0
 20
0.0
 30
0.0
  0
LINE
  8
0
  6
CENTER
 62
     1
 10
-607.5000000000002
 20
-98.49999999999989
 11
-607.5
 21
-32.4999999999998
  0
TEXT
  8
0
  6
CONTINUOUS
 62
     7
 10
-502.0985119419783
 20
-126.6715799674878
 40
3.0
  1
SB-2YSA
  0
LINE
  8
0
  6
CENTER
 62
     1
 10
-659.4346942647068
 20
-58.37421274357464
 11
-633.364958280804
 21
-58.37421274357464
  0
LINE
  8
0
  6
CENTER
 62
     1
 10
-581.6283215305702
 20
-58.36597282503499
 11
-555.5727109438471
 21
-58.36597282503499
  0
LINE
  8
0
  6
CENTER
 62
     1
 10
-568.6005162372087
 20
-71.39377811839651
 11
-568.6005162372087
 21
-45.33816753167348
  0
LINE
  8
0
  6
CENTER
 62
     1
 10
-594.6005162372074
 20
-71.39377811840825
 11
-594.6005162372074
 21
-45.33816753167347
  0
LINE
  8
0
  6
CENTER
 62
     1
 10
-646.3998262727554
 20
-71.40908073552602
 11
-646.3998262727554
 21
-45.33934475162327
  0
LINE
  8
0
  6
CENTER
 62
     1
 10
-607.6283215305749
 20
-58.36597282504086
 11
-581.57271094384
 21
-58.36597282504086
  0
LINE
  8
0
  6
CENTER
 62
     1
 10
-620.4020362945903
 20
-71.3858671685993
 11
-620.4020362945903
 21
-45.33825819641897
  0
LINE
  8
0
  6
CENTER
 62
     1
 10
-633.4258407806806
 20
-58.36206268250914
 11
-607.3782318085001
 21
-58.36206268250914
  0
ENDSEC
  0
EOF
