  0
SECTION
  2
HEADER
  9
$ACADVER
  1
AC1006
  9
$DWGCODEPAGE
  3
ansi_932
  9
$INSBASE
 10
0.0
 20
0.0
 30
0.0
  9
$EXTMIN
 10
-434.4552500570109
 20
88.58579642418326
  9
$EXTMAX
 10
-219.9737547753989
 20
274.0897237544976
  9
$LIMMIN
 10
0.0
 20
0.0
  9
$LIMMAX
 10
12.0
 20
9.0
  9
$ORTHOMODE
 70
     0
  9
$REGENMODE
 70
     1
  9
$FILLMODE
 70
     1
  9
$QTEXTMODE
 70
     0
  9
$MIRRTEXT
 70
     1
  9
$DRAGMODE
 70
     2
  9
$LTSCALE
 40
1.0
  9
$OSMODE
 70
    37
  9
$ATTMODE
 70
     1
  9
$TEXTSIZE
 40
0.2
  9
$TRACEWID
 40
0.05
  9
$TEXTSTYLE
  7
STANDARD
  9
$CLAYER
  8
0
  9
$CELTYPE
  6
BYLAYER
  9
$CECOLOR
 62
   256
  9
$DIMSCALE
 40
1.0
  9
$DIMASZ
 40
3.0
  9
$DIMEXO
 40
0.0625
  9
$DIMDLI
 40
0.38
  9
$DIMRND
 40
0.0
  9
$DIMDLE
 40
0.0
  9
$DIMEXE
 40
1.5
  9
$DIMTP
 40
0.0
  9
$DIMTM
 40
0.0
  9
$DIMTXT
 40
3.0
  9
$DIMCEN
 40
0.09
  9
$DIMTSZ
 40
0.0
  9
$DIMTOL
 70
     0
  9
$DIMLIM
 70
     0
  9
$DIMTIH
 70
     1
  9
$DIMTOH
 70
     1
  9
$DIMSE1
 70
     0
  9
$DIMSE2
 70
     0
  9
$DIMTAD
 70
     1
  9
$DIMZIN
 70
     0
  9
$DIMBLK
  1

  9
$DIMASO
 70
     1
  9
$DIMSHO
 70
     1
  9
$DIMPOST
  1

  9
$DIMAPOST
  1

  9
$DIMALT
 70
     0
  9
$DIMALTD
 70
     2
  9
$DIMALTF
 40
25.4
  9
$DIMLFAC
 40
1.0
  9
$DIMTOFL
 70
     0
  9
$DIMTVP
 40
0.0
  9
$DIMTIX
 70
     0
  9
$DIMSOXD
 70
     0
  9
$DIMSAH
 70
     0
  9
$DIMBLK1
  1

  9
$DIMBLK2
  1

  9
$LUNITS
 70
     2
  9
$LUPREC
 70
     4
  9
$SKETCHINC
 40
0.1
  9
$FILLETRAD
 40
0.5
  9
$AUNITS
 70
     0
  9
$AUPREC
 70
     0
  9
$MENU
  1
.
  9
$ELEVATION
 40
0.0
  9
$THICKNESS
 40
0.0
  9
$LIMCHECK
 70
     0
  9
$CHAMFERA
 40
0.0
  9
$CHAMFERB
 40
0.0
  9
$SKPOLY
 70
     0
  9
$TDCREATE
 40
2459692.426463889
  9
$TDUPDATE
 40
2459692.426464225
  9
$TDINDWG
 40
0.0000000116
  9
$TDUSRTIMER
 40
0.0000000116
  9
$USRTIMER
 70
     1
  9
$ANGBASE
 50
0.0
  9
$ANGDIR
 70
     0
  9
$PDMODE
 70
     0
  9
$PDSIZE
 40
0.0
  9
$PLINEWID
 40
0.0
  9
$COORDS
 70
     1
  9
$SPLFRAME
 70
     0
  9
$SPLINETYPE
 70
     6
  9
$SPLINESEGS
 70
     8
  9
$ATTDIA
 70
     0
  9
$ATTREQ
 70
     1
  9
$HANDLING
 70
     1
  9
$HANDSEED
  5
502
  9
$SURFTAB1
 70
     6
  9
$SURFTAB2
 70
     6
  9
$SURFTYPE
 70
     6
  9
$SURFU
 70
     6
  9
$SURFV
 70
     6
  9
$UCSNAME
  2

  9
$UCSORG
 10
0.0
 20
0.0
 30
0.0
  9
$UCSXDIR
 10
1.0
 20
0.0
 30
0.0
  9
$UCSYDIR
 10
0.0
 20
1.0
 30
0.0
  9
$USERI1
 70
     0
  9
$USERI2
 70
     0
  9
$USERI3
 70
     0
  9
$USERI4
 70
     0
  9
$USERI5
 70
     0
  9
$USERR1
 40
0.0
  9
$USERR2
 40
0.0
  9
$USERR3
 40
0.0
  9
$USERR4
 40
0.0
  9
$USERR5
 40
0.0
  9
$WORLDVIEW
 70
     1
  0
ENDSEC
  0
SECTION
  2
TABLES
  0
TABLE
  2
VPORT
 70
     1
  0
VPORT
  2
*ACTIVE
 70
     0
 10
0.0
 20
0.0
 11
1.0
 21
1.0
 12
-327.2145024162049
 22
181.3377600893404
 13
0.0
 23
0.0
 14
0.5
 24
0.5
 15
0.5
 25
0.5
 16
0.0
 26
0.0
 36
1.0
 17
0.0
 27
0.0
 37
0.0
 40
185.5039273303143
 41
1.6
 42
50.0
 43
0.0
 44
0.0
 50
0.0
 51
0.0
 71
     0
 72
   100
 73
     1
 74
     3
 75
     0
 76
     0
 77
     0
 78
     0
  0
ENDTAB
  0
TABLE
  2
LTYPE
 70
     1
  0
LTYPE
  2
CONTINUOUS
 70
     0
  3
Solid line
 72
    65
 73
     0
 40
0.0
  0
ENDTAB
  0
TABLE
  2
LAYER
 70
     1
  0
LAYER
  2
0
 70
     0
 62
     7
  6
CONTINUOUS
  0
ENDTAB
  0
TABLE
  2
STYLE
 70
     2
  0
STYLE
  2
STANDARD
 70
     0
 40
0.0
 41
1.0
 50
0.0
 71
     0
 42
0.2
  3
txt
  4

  0
STYLE
  2
ＭＳ_ゴシック
 70
     0
 40
0.0
 41
1.0
 50
0.0
 71
     0
 42
0.2
  3
ＭＳ ゴシック.shx
  4

  0
ENDTAB
  0
TABLE
  2
VIEW
 70
     0
  0
ENDTAB
  0
TABLE
  2
UCS
 70
     0
  0
ENDTAB
  0
ENDSEC
  0
SECTION
  2
BLOCKS
  0
ENDSEC
  0
SECTION
  2
ENTITIES
  0
LINE
  5
6F
  8
0
  6
CONTINUOUS
 62
   253
 10
-393.7999907400173
 20
252.6808138376748
 30
0.0
 11
-393.7836533344685
 21
252.6968978314013
 31
0.0
  0
LINE
  5
70
  8
0
  6
CONTINUOUS
 62
   253
 10
-408.2725370556709
 20
259.9644805585029
 30
0.0
 11
-408.3663259133742
 21
259.9929367772179
 31
0.0
  0
LINE
  5
71
  8
0
  6
CONTINUOUS
 62
   253
 10
-315.9734952241736
 20
259.6001060880174
 30
0.0
 11
-316.0019514428886
 21
259.6938949457207
 31
0.0
  0
LINE
  5
72
  8
0
  6
CONTINUOUS
 62
   253
 10
-347.6379630583507
 20
259.9644805585029
 30
0.0
 11
-347.7244000897208
 21
259.9182750650733
 31
0.0
  0
LINE
  5
73
  8
0
  6
CONTINUOUS
 62
   253
 10
-393.8299150909289
 20
252.6467284041061
 30
0.0
 11
-393.8154235812358
 21
252.6640774042856
 31
0.0
  0
LINE
  5
74
  8
0
  6
CONTINUOUS
 62
   253
 10
-393.4607627833868
 20
252.83821102115
 30
0.0
 11
-393.4363899960211
 21
252.8399438610124
 31
0.0
  0
LINE
  5
75
  8
0
  6
CONTINUOUS
 62
   253
 10
-316.0151704268159
 20
178.6472729167503
 30
0.0
 11
-316.0233728658374
 21
178.6271605037446
 31
0.0
  0
LINE
  5
76
  8
0
  6
CONTINUOUS
 62
   253
 10
-393.7664502868175
 20
252.7122910669647
 30
0.0
 11
-393.7484225815986
 21
252.7269568715268
 31
0.0
  0
LINE
  5
77
  8
0
  6
CONTINUOUS
 62
   253
 10
-362.3663259133742
 20
259.9929367772179
 30
0.0
 11
-362.4638626925441
 21
260.0025502703795
 31
0.0
  0
LINE
  5
78
  8
0
  6
CONTINUOUS
 62
   253
 10
-316.067069369492
 20
178.550639339608
 30
0.0
 11
-316.0805850230929
 21
178.5327191048891
 31
0.0
  0
LINE
  5
79
  8
0
  6
CONTINUOUS
 62
   253
 10
-315.9974179535669
 20
178.7092049842883
 30
0.0
 11
-316.002177493501
 21
178.6883440809848
 31
0.0
  0
LINE
  5
7A
  8
0
  6
CONTINUOUS
 62
   253
 10
-393.4850391829717
 20
252.8354507586372
 30
0.0
 11
-393.4607627833868
 21
252.83821102115
 31
0.0
  0
LINE
  5
7B
  8
0
  6
CONTINUOUS
 62
   253
 10
-316.0080996875949
 20
178.667683651339
 30
0.0
 11
-316.0151704268159
 21
178.6472729167503
 31
0.0
  0
LINE
  5
7C
  8
0
  6
CONTINUOUS
 62
   253
 10
-316.4497373306349
 20
178.3412364878451
 30
0.0
 11
-316.4741101180005
 21
178.3395036479828
 31
0.0
  0
LINE
  5
7D
  8
0
  6
CONTINUOUS
 62
   253
 10
-316.0233728658374
 20
178.6271605037446
 30
0.0
 11
-316.0326874631721
 21
178.6073943281269
 31
0.0
  0
LINE
  5
7E
  8
0
  6
CONTINUOUS
 62
   253
 10
-393.5091613586914
 20
252.8316696495222
 30
0.0
 11
-393.4850391829717
 21
252.8354507586372
 31
0.0
  0
LINE
  5
7F
  8
0
  6
CONTINUOUS
 62
   253
 10
-393.7484225815986
 20
252.7269568715268
 30
0.0
 11
-393.7296131680095
 21
252.7408603052805
 31
0.0
  0
LINE
  5
80
  8
0
  6
CONTINUOUS
 62
   253
 10
-407.9734952241737
 20
259.6001060880174
 30
0.0
 11
-408.0019514428886
 21
259.6938949457206
 31
0.0
  0
LINE
  5
81
  8
0
  6
CONTINUOUS
 62
   253
 10
-316.2630197891076
 20
178.3912307780055
 30
0.0
 11
-316.285032147159
 21
178.3815970599555
 31
0.0
  0
LINE
  5
82
  8
0
  6
CONTINUOUS
 62
   253
 10
-316.1440498272041
 20
178.4671564420305
 30
0.0
 11
-316.162077532423
 21
178.4524906374684
 31
0.0
  0
LINE
  5
83
  8
0
  6
CONTINUOUS
 62
   253
 10
-316.4741101180005
 20
178.3395036479828
 30
0.0
 11
-316.4985212274277
 21
178.3388023590879
 31
0.0
  0
LINE
  5
84
  8
0
  6
CONTINUOUS
 62
   253
 10
-347.8623431777033
 20
259.7803319770907
 30
0.0
 11
-347.908548671133
 21
259.6938949457207
 31
0.0
  0
LINE
  5
85
  8
0
  6
CONTINUOUS
 62
   253
 10
-393.7836533344685
 20
252.6968978314013
 30
0.0
 11
-393.7664502868175
 21
252.7122910669647
 31
0.0
  0
LINE
  5
86
  8
0
  6
CONTINUOUS
 62
   253
 10
-408.1861000243008
 20
171.2611724439221
 30
0.0
 11
-408.1103362248728
 21
171.3233517324765
 31
0.0
  0
LINE
  5
87
  8
0
  6
CONTINUOUS
 62
   253
 10
-316.3663259133742
 20
259.9929367772179
 30
0.0
 11
-316.4638626925441
 21
260.0025502703795
 31
0.0
  0
LINE
  5
88
  8
0
  6
CONTINUOUS
 62
   253
 10
-408.0481569363184
 20
259.7803319770907
 30
0.0
 11
-408.1103362248728
 21
259.8560957765188
 31
0.0
  0
LINE
  5
89
  8
0
  6
CONTINUOUS
 62
   253
 10
-316.33046960059
 20
178.3651441594882
 30
0.0
 11
-316.3537864457986
 21
178.3583641744544
 31
0.0
  0
LINE
  5
8A
  8
0
  6
CONTINUOUS
 62
   253
 10
-347.8001638891489
 20
259.8560957765188
 30
0.0
 11
-347.8623431777033
 21
259.7803319770907
 31
0.0
  0
LINE
  5
8B
  8
0
  6
CONTINUOUS
 62
   253
 10
-316.285032147159
 20
178.3815970599555
 30
0.0
 11
-316.307533286555
 21
178.3728946095449
 31
0.0
  0
LINE
  5
8C
  8
0
  6
CONTINUOUS
 62
   253
 10
-408.2725370556709
 20
171.2149669504924
 30
0.0
 11
-408.1861000243008
 21
171.2611724439221
 31
0.0
  0
LINE
  5
8D
  8
0
  6
CONTINUOUS
 62
   253
 10
-408.1861000243009
 20
259.9182750650731
 30
0.0
 11
-408.2725370556709
 21
259.9644805585029
 31
0.0
  0
LINE
  5
8E
  8
0
  6
CONTINUOUS
 62
   253
 10
-408.1103362248728
 20
259.8560957765188
 30
0.0
 11
-408.1861000243009
 21
259.9182750650731
 31
0.0
  0
LINE
  5
8F
  8
0
  6
CONTINUOUS
 62
   253
 10
-316.377428272138
 20
178.3525708070773
 30
0.0
 11
-316.4013387553303
 21
178.347777859473
 31
0.0
  0
LINE
  5
90
  8
0
  6
CONTINUOUS
 62
   253
 10
-316.2725370556709
 20
259.9644805585029
 30
0.0
 11
-316.3663259133742
 21
259.9929367772179
 31
0.0
  0
LINE
  5
91
  8
0
  6
CONTINUOUS
 62
   253
 10
-316.1103362248728
 20
259.8560957765188
 30
0.0
 11
-316.1861000243009
 21
259.9182750650733
 31
0.0
  0
LINE
  5
92
  8
0
  6
CONTINUOUS
 62
   253
 10
-316.1861000243009
 20
259.9182750650733
 30
0.0
 11
-316.2725370556709
 21
259.9644805585029
 31
0.0
  0
LINE
  5
93
  8
0
  6
CONTINUOUS
 62
   253
 10
-362.1861000243008
 20
259.9182750650732
 30
0.0
 11
-362.2725370556709
 21
259.9644805585029
 31
0.0
  0
LINE
  5
94
  8
0
  6
CONTINUOUS
 62
   253
 10
-316.0326874631721
 20
178.6073943281269
 30
0.0
 11
-316.0430920277269
 21
178.5880214808261
 31
0.0
  0
LINE
  5
95
  8
0
  6
CONTINUOUS
 62
   253
 10
-316.002177493501
 20
178.6883440809848
 30
0.0
 11
-316.0080996875949
 21
178.667683651339
 31
0.0
  0
LINE
  5
96
  8
0
  6
CONTINUOUS
 62
   253
 10
-347.937004889848
 20
259.6001060880174
 30
0.0
 11
-347.9466183830096
 21
259.5025693088474
 31
0.0
  0
LINE
  5
97
  8
0
  6
CONTINUOUS
 62
   253
 10
-408.3663259133742
 20
171.1865107317774
 30
0.0
 11
-408.2725370556709
 21
171.2149669504924
 31
0.0
  0
LINE
  5
98
  8
0
  6
CONTINUOUS
 62
   253
 10
-316.162077532423
 20
178.4524906374684
 30
0.0
 11
-316.1808869460122
 21
178.4385872037146
 31
0.0
  0
LINE
  5
99
  8
0
  6
CONTINUOUS
 62
   253
 10
-315.9638817310121
 20
259.5025693088474
 30
0.0
 11
-315.9734952241736
 21
259.6001060880174
 31
0.0
  0
LINE
  5
9A
  8
0
  6
CONTINUOUS
 62
   253
 10
-393.8778126508496
 20
252.5720531808682
 30
0.0
 11
-393.8674080862947
 21
252.5914260281691
 31
0.0
  0
LINE
  5
9B
  8
0
  6
CONTINUOUS
 62
   253
 10
-347.7244000897208
 20
259.9182750650733
 30
0.0
 11
-347.8001638891489
 21
259.8560957765188
 31
0.0
  0
LINE
  5
9C
  8
0
  6
CONTINUOUS
 62
   253
 10
-316.0481569363183
 20
259.7803319770907
 30
0.0
 11
-316.1103362248728
 21
259.8560957765188
 31
0.0
  0
LINE
  5
9D
  8
0
  6
CONTINUOUS
 62
   253
 10
-347.908548671133
 20
259.6938949457207
 30
0.0
 11
-347.937004889848
 21
259.6001060880174
 31
0.0
  0
LINE
  5
9E
  8
0
  6
CONTINUOUS
 62
   253
 10
-347.4466374214775
 20
260.0025502703795
 30
0.0
 11
-347.5441742006475
 21
259.9929367772179
 31
0.0
  0
LINE
  5
9F
  8
0
  6
CONTINUOUS
 62
   253
 10
-408.0019514428886
 20
171.4855525632747
 30
0.0
 11
-407.9734952241736
 21
171.579341420978
 31
0.0
  0
LINE
  5
A0
  8
0
  6
CONTINUOUS
 62
   253
 10
-347.5441742006475
 20
259.9929367772179
 30
0.0
 11
-347.6379630583507
 21
259.9644805585029
 31
0.0
  0
LINE
  5
A1
  8
0
  6
CONTINUOUS
 62
   253
 10
-316.0019514428886
 20
259.6938949457207
 30
0.0
 11
-316.0481569363183
 21
259.7803319770907
 31
0.0
  0
LINE
  5
A2
  8
0
  6
CONTINUOUS
 62
   253
 10
-393.6254679668627
 20
252.7978504490397
 30
0.0
 11
-393.6029668274667
 21
252.8065528994503
 31
0.0
  0
LINE
  5
A3
  8
0
  6
CONTINUOUS
 62
   253
 10
-316.0950765327859
 20
178.5153701047095
 30
0.0
 11
-316.1105093740043
 21
178.4986336713203
 31
0.0
  0
LINE
  5
A4
  8
0
  6
CONTINUOUS
 62
   253
 10
-316.4013387553303
 20
178.347777859473
 30
0.0
 11
-316.4254609310499
 21
178.343996750358
 31
0.0
  0
LINE
  5
A5
  8
0
  6
CONTINUOUS
 62
   253
 10
-315.9914293957613
 20
178.7513290566315
 30
0.0
 11
-315.9938324069187
 21
178.7302166622416
 31
0.0
  0
LINE
  5
A6
  8
0
  6
CONTINUOUS
 62
   253
 10
-422.7528454169514
 20
260.0897427929655
 30
0.0
 11
-423.2412565444639
 21
260.0417721134107
 31
0.0
  0
LINE
  5
A7
  8
0
  6
CONTINUOUS
 62
     7
 10
-256.1737547753989
 20
263.5897237544976
 30
0.0
 11
-256.1737547753989
 21
167.5897237544976
 31
0.0
  0
LINE
  5
A8
  8
0
  6
CONTINUOUS
 62
     7
 10
-394.2318446729682
 20
90.18607503512324
 30
0.0
 11
-394.2431824449914
 21
91.48525502672588
 31
0.0
  0
ARC
  5
A9
  8
0
  6
CONTINUOUS
 62
     7
 10
-427.4552500570109
 20
267.0897237544976
 30
0.0
 40
7.000000000000006
 50
90.0
 51
180.0
  0
LINE
  5
AA
  8
0
  6
CONTINUOUS
 62
   253
 10
-284.8450767323037
 20
172.6321275222489
 30
0.0
 11
-284.7026842849521
 21
173.1009438627793
 31
0.0
  0
LINE
  5
AB
  8
0
  6
CONTINUOUS
 62
   253
 10
-408.2624539991952
 20
88.92718726577495
 30
0.0
 11
-408.1669269925233
 21
88.98704622586125
 31
0.0
  0
LINE
  5
AC
  8
0
  6
CONTINUOUS
 62
   253
 10
-424.522904376931
 20
259.3580069321522
 30
0.0
 11
-424.8341587366661
 21
258.9793522915662
 31
0.0
  0
ARC
  5
AD
  8
0
  6
CONTINUOUS
 62
     7
 10
-427.4552500570108
 20
164.0897237544976
 30
0.0
 40
7.000000000000006
 50
180.0
 51
270.0
  0
LINE
  5
AE
  8
0
  6
CONTINUOUS
 62
   253
 10
-347.7250665387349
 20
88.97415943555826
 30
0.0
 11
-347.6323048616784
 21
88.9188145851335
 31
0.0
  0
LINE
  5
AF
  8
0
  6
CONTINUOUS
 62
     7
 10
-242.1737547753989
 20
257.4728802971813
 30
0.0
 11
-242.1737547753989
 21
252.7420078721804
 31
0.0
  0
LINE
  5
B0
  8
0
  6
CONTINUOUS
 62
     7
 10
-348.2318446729682
 20
90.18607503512324
 30
0.0
 11
-348.2431824449914
 21
91.48525502672588
 31
0.0
  0
LINE
  5
B1
  8
0
  6
CONTINUOUS
 62
   253
 10
-425.2558670261765
 20
173.5885377980356
 30
0.0
 11
-425.2078158290695
 21
173.1009438627792
 31
0.0
  0
LINE
  5
B2
  8
0
  6
CONTINUOUS
 62
   253
 10
-425.065423381718
 20
258.5473199867465
 30
0.0
 11
-425.2078158290695
 21
258.0785036462161
 31
0.0
  0
LINE
  5
B3
  8
0
  6
CONTINUOUS
 62
   253
 10
-285.7668850591351
 20
171.5107070834071
 30
0.0
 11
-285.3875957370906
 21
171.8214405768432
 31
0.0
  0
LINE
  5
B4
  8
0
  6
CONTINUOUS
 62
   253
 10
-423.710858630488
 20
171.2798294839029
 30
0.0
 11
-423.2412565444639
 21
171.1376753955846
 31
0.0
  0
LINE
  5
B5
  8
0
  6
CONTINUOUS
 62
   253
 10
-285.0763413773556
 20
258.9793522915662
 30
0.0
 11
-285.3875957370906
 21
259.3580069321522
 31
0.0
  0
LINE
  5
B6
  8
0
  6
CONTINUOUS
 62
   253
 10
-347.5159181562987
 20
88.86842912461492
 30
0.0
 11
-347.3901273473141
 21
88.8345157155046
 31
0.0
  0
LINE
  5
B7
  8
0
  6
CONTINUOUS
 62
   253
 10
-362.0563848641066
 20
89.07928233850292
 30
0.0
 11
-361.9580172416896
 21
89.18941912241498
 31
0.0
  0
LINE
  5
B8
  8
0
  6
CONTINUOUS
 62
   253
 10
-362.6825746935575
 20
88.81910658589436
 30
0.0
 11
-362.5608287941917
 21
88.82777018915544
 31
0.0
  0
LINE
  5
B9
  8
0
  6
CONTINUOUS
 62
   253
 10
-422.5939405331174
 20
259.9281636171636
 30
0.0
 11
-423.0631042066261
 21
259.7859325843764
 31
0.0
  0
LINE
  5
BA
  8
0
  6
CONTINUOUS
 62
   253
 10
-422.7528454169514
 20
171.0897047160298
 30
0.0
 11
-287.1576546970703
 21
171.0897047160298
 31
0.0
  0
ARC
  5
BB
  8
0
  6
CONTINUOUS
 62
     7
 10
-282.4552500570109
 20
267.0897237544976
 30
0.0
 40
7.000000000000006
 50
0.0
 51
90.0
  0
LINE
  5
BC
  8
0
  6
CONTINUOUS
 62
   253
 10
-285.0763413773556
 20
172.2000952174292
 30
0.0
 11
-284.8450767323037
 21
172.6321275222489
 31
0.0
  0
LINE
  5
BD
  8
0
  6
CONTINUOUS
 62
   253
 10
-423.0631042066261
 20
259.7859325843764
 30
0.0
 11
-423.495473900113
 21
259.5549871108872
 31
0.0
  0
LINE
  5
BE
  8
0
  6
CONTINUOUS
 62
   253
 10
-285.3875957370906
 20
171.8214405768432
 30
0.0
 11
-285.0763413773556
 21
172.2000952174292
 31
0.0
  0
LINE
  5
BF
  8
0
  6
CONTINUOUS
 62
   253
 10
-425.2558670261766
 20
257.5909097109597
 30
0.0
 11
-425.2558670261766
 21
173.5885377980356
 31
0.0
  0
LINE
  5
C0
  8
0
  6
CONTINUOUS
 62
     7
 10
-275.4552500570109
 20
267.0897237544976
 30
0.0
 11
-275.4552500570109
 21
164.0897237544976
 31
0.0
  0
LINE
  5
C1
  8
0
  6
CONTINUOUS
 62
   253
 10
-284.7026842849521
 20
173.1009438627793
 30
0.0
 11
-284.6546330878451
 21
173.5885377980356
 31
0.0
  0
LINE
  5
C2
  8
0
  6
CONTINUOUS
 62
   253
 10
-362.3597168006198
 20
88.88148994740946
 30
0.0
 11
-362.2624539991952
 21
88.92718726577495
 31
0.0
  0
LINE
  5
C3
  8
0
  6
CONTINUOUS
 62
   253
 10
-422.1060026610427
 20
259.9762173563641
 30
0.0
 11
-422.5939405331174
 21
259.9281636171636
 31
0.0
  0
LINE
  5
C4
  8
0
  6
CONTINUOUS
 62
   253
 10
-407.9638817310121
 20
259.5025693088474
 30
0.0
 11
-407.9734952241737
 21
259.6001060880174
 31
0.0
  0
LINE
  5
C5
  8
0
  6
CONTINUOUS
 62
     7
 10
-282.4552500570109
 20
157.0897237544976
 30
0.0
 11
-427.4552500570108
 21
157.0897237544976
 31
0.0
  0
LINE
  5
C6
  8
0
  6
CONTINUOUS
 62
   253
 10
-393.6776858850776
 20
88.9440492324127
 30
0.0
 11
-393.5800048842761
 21
88.89374483520531
 31
0.0
  0
ARC
  5
C7
  8
0
  6
CONTINUOUS
 62
     7
 10
-382.4994330185172
 20
91.58579642418327
 30
0.0
 40
3.000000000000006
 50
270.0
 51
358.0182377470442
  0
LINE
  5
C8
  8
0
  6
CONTINUOUS
 62
   253
 10
-347.8230726282156
 20
89.05049284729454
 30
0.0
 11
-347.7250665387349
 21
88.97415943555826
 31
0.0
  0
LINE
  5
C9
  8
0
  6
CONTINUOUS
 62
   253
 10
-362.1669269925233
 20
88.98704622586123
 30
0.0
 11
-362.0563848641066
 21
89.07928233850292
 31
0.0
  0
LINE
  5
CA
  8
0
  6
CONTINUOUS
 62
   253
 10
-425.065423381718
 20
172.6321275222488
 30
0.0
 11
-424.8341587366661
 21
172.2000952174292
 31
0.0
  0
LINE
  5
CB
  8
0
  6
CONTINUOUS
 62
   253
 10
-287.1576546970703
 20
260.0897427929655
 30
0.0
 11
-422.7528454169514
 21
260.0897427929655
 31
0.0
  0
LINE
  5
CC
  8
0
  6
CONTINUOUS
 62
   253
 10
-424.8341587366661
 20
172.2000952174292
 30
0.0
 11
-424.522904376931
 21
171.8214405768432
 31
0.0
  0
LINE
  5
CD
  8
0
  6
CONTINUOUS
 62
   253
 10
-286.1996414835336
 20
171.2798294839029
 30
0.0
 11
-285.7668850591351
 21
171.5107070834071
 31
0.0
  0
LINE
  5
CE
  8
0
  6
CONTINUOUS
 62
   253
 10
-423.2412565444639
 20
260.0417721134107
 30
0.0
 11
-423.710858630488
 21
259.8996180250924
 31
0.0
  0
LINE
  5
CF
  8
0
  6
CONTINUOUS
 62
   253
 10
-424.522904376931
 20
171.8214405768432
 30
0.0
 11
-424.1436150548865
 21
171.5107070834071
 31
0.0
  0
LINE
  5
D0
  8
0
  6
CONTINUOUS
 62
   253
 10
-285.7668850591351
 20
259.6687404255883
 30
0.0
 11
-286.1996414835336
 21
259.8996180250924
 31
0.0
  0
LINE
  5
D1
  8
0
  6
CONTINUOUS
 62
   253
 10
-287.1576546970703
 20
171.0897047160298
 30
0.0
 11
-286.6692435695579
 21
171.1376753955846
 31
0.0
  0
LINE
  5
D2
  8
0
  6
CONTINUOUS
 62
     7
 10
-256.1737547753989
 20
274.0897237544976
 30
0.0
 11
-256.1737547753989
 21
267.0897237544976
 31
0.0
  0
LINE
  5
D3
  8
0
  6
CONTINUOUS
 62
   253
 10
-393.785195715532
 20
89.01854086435225
 30
0.0
 11
-393.6776858850776
 21
88.9440492324127
 31
0.0
  0
LINE
  5
D4
  8
0
  6
CONTINUOUS
 62
   253
 10
-408.4595386734365
 20
88.84841217608746
 30
0.0
 11
-408.3597168006198
 21
88.88148994740946
 31
0.0
  0
LINE
  5
D5
  8
0
  6
CONTINUOUS
 62
   253
 10
-284.6546330878452
 20
173.5885377980356
 30
0.0
 11
-284.6546330878452
 21
257.5909097109597
 31
0.0
  0
LINE
  5
D6
  8
0
  6
CONTINUOUS
 62
   253
 10
-347.6323048616784
 20
88.9188145851335
 30
0.0
 11
-347.5159181562987
 21
88.86842912461492
 31
0.0
  0
LINE
  5
D7
  8
0
  6
CONTINUOUS
 62
   253
 10
-393.4797593078777
 20
88.85660988376151
 30
0.0
 11
-393.3501301889243
 21
88.82783572870781
 31
0.0
  0
LINE
  5
D8
  8
0
  6
CONTINUOUS
 62
   253
 10
-284.8450767323037
 20
258.5473199867465
 30
0.0
 11
-285.0763413773556
 21
258.9793522915662
 31
0.0
  0
LINE
  5
D9
  8
0
  6
CONTINUOUS
 62
     7
 10
-256.6737547753989
 20
267.0897237544976
 30
0.0
 11
-256.6737547753989
 21
274.0897237544976
 31
0.0
  0
LINE
  5
DA
  8
0
  6
CONTINUOUS
 62
   253
 10
-362.5608287941917
 20
88.82777018915544
 30
0.0
 11
-362.4595386734365
 21
88.84841217608746
 31
0.0
  0
LINE
  5
DB
  8
0
  6
CONTINUOUS
 62
   253
 10
-408.3597168006198
 20
88.88148994740946
 30
0.0
 11
-408.2624539991952
 21
88.92718726577495
 31
0.0
  0
LINE
  5
DC
  8
0
  6
CONTINUOUS
 62
   253
 10
-425.2078158290695
 20
258.0785036462161
 30
0.0
 11
-425.2558670261765
 21
257.5909097109597
 31
0.0
  0
ARC
  5
DD
  8
0
  6
CONTINUOUS
 62
     7
 10
-241.6737547753989
 20
253.8396049380849
 30
0.0
 40
0.5000000000000004
 50
180.0
 51
267.3687731891121
  0
ARC
  5
DE
  8
0
  6
CONTINUOUS
 62
     7
 10
-222.9737547753989
 20
249.476535986945
 30
0.0
 40
3.000000000000003
 50
0.0000000000001325
 51
87.36877318911188
  0
ARC
  5
DF
  8
0
  6
CONTINUOUS
 62
     7
 10
-385.4552500570108
 20
98.58579642418327
 30
0.0
 40
3.000000000000001
 50
42.72000328171326
 51
90.0
  0
ARC
  5
E0
  8
0
  6
CONTINUOUS
 62
     7
 10
-342.4552500570108
 20
98.58579642418327
 30
0.0
 40
3.000000000000001
 50
180.0
 51
270.0
  0
LINE
  5
E1
  8
0
  6
CONTINUOUS
 62
   253
 10
-347.9241373944457
 20
89.154320490414
 30
0.0
 11
-347.8230726282156
 21
89.05049284729454
 31
0.0
  0
ARC
  5
E2
  8
0
  6
CONTINUOUS
 62
     7
 10
-367.4552500570109
 20
98.58579642418327
 30
0.0
 40
3.000000000000001
 50
270.0
 51
0.0
  0
ARC
  5
E3
  8
0
  6
CONTINUOUS
 62
     7
 10
-242.6737547753989
 20
171.2075555088659
 30
0.0
 40
0.5000000000000004
 50
270.5000000000005
 51
359.999999999996
  0
ARC
  5
E4
  8
0
  6
CONTINUOUS
 62
     7
 10
-241.6737547753989
 20
177.3398425709102
 30
0.0
 40
0.4999999999999776
 50
92.63122681088788
 51
180.0
  0
ARC
  5
E5
  8
0
  6
CONTINUOUS
 62
     7
 10
-416.4552500570109
 20
98.58579642418327
 30
0.0
 40
3.000000000000001
 50
90.0
 51
180.0
  0
LINE
  5
E6
  8
0
  6
CONTINUOUS
 62
   253
 10
-408.5608287941917
 20
88.82777018915544
 30
0.0
 11
-408.4595386734365
 21
88.84841217608746
 31
0.0
  0
LINE
  5
E7
  8
0
  6
CONTINUOUS
 62
   253
 10
-408.1669269925233
 20
88.98704622586125
 30
0.0
 11
-408.0563848641066
 21
89.07928233850295
 31
0.0
  0
ARC
  5
E8
  8
0
  6
CONTINUOUS
 62
     7
 10
-370.4552500570109
 20
98.58579642418327
 30
0.0
 40
3.000000000000001
 50
226.6835277876254
 51
270.0
  0
ARC
  5
E9
  8
0
  6
CONTINUOUS
 62
   253
 10
-385.4269449745908
 20
98.61499641265948
 30
0.0
 40
2.962000772128964
 50
359.502715637662
 51
24.88271512369005
  0
LINE
  5
EA
  8
0
  6
CONTINUOUS
 62
     7
 10
-376.4092727511169
 20
91.48205228385068
 30
0.0
 11
-377.0605196310612
 21
110.3030871142387
 31
0.0
  0
LINE
  5
EB
  8
0
  6
CONTINUOUS
 62
     7
 10
-242.6693915076497
 20
170.7075745473337
 30
0.0
 11
-256.1737547753989
 21
170.5897237544977
 31
0.0
  0
LINE
  5
EC
  8
0
  6
CONTINUOUS
 62
     7
 10
-284.8284795645611
 20
111.2464029945605
 30
0.0
 11
-284.8750098315751
 21
110.3106276246115
 31
0.0
  0
LINE
  5
ED
  8
0
  6
CONTINUOUS
 62
     7
 10
-315.4902336834954
 20
111.7770698886849
 30
0.0
 11
-315.6673176690304
 21
91.48525502672588
 31
0.0
  0
LINE
  5
EE
  8
0
  6
CONTINUOUS
 62
     7
 10
-256.1737547753989
 20
164.0897237544976
 30
0.0
 11
-256.1737547753989
 21
157.0897237544976
 31
0.0
  0
LINE
  5
EF
  8
0
  6
CONTINUOUS
 62
     7
 10
-383.3971673916166
 20
96.40306974811871
 30
0.0
 11
-382.9348968684744
 21
96.9585841439216
 31
0.0
  0
LINE
  5
F0
  8
0
  6
CONTINUOUS
 62
     7
 10
-413.4552500570108
 20
101.5857964241833
 30
0.0
 11
-416.4552500570109
 21
101.5857964241833
 31
0.0
  0
LINE
  5
F1
  8
0
  6
CONTINUOUS
 62
     7
 10
-370.4552500570109
 20
95.58579642418327
 30
0.0
 11
-367.4552500570109
 21
95.58579642418327
 31
0.0
  0
LINE
  5
F2
  8
0
  6
CONTINUOUS
 62
   253
 10
-348.0106300513108
 20
89.27235189119698
 30
0.0
 11
-347.9241373944457
 21
89.154320490414
 31
0.0
  0
LINE
  5
F3
  8
0
  6
CONTINUOUS
 62
     7
 10
-407.6673176690303
 20
91.48525502672588
 30
0.0
 11
-407.6786554410534
 21
90.18607503512324
 31
0.0
  0
LINE
  5
F4
  8
0
  6
CONTINUOUS
 62
     7
 10
-241.6967084908887
 20
253.3401320890278
 30
0.0
 11
-222.8360324824603
 21
252.4733730812876
 31
0.0
  0
LINE
  5
F5
  8
0
  6
CONTINUOUS
 62
   253
 10
-347.2689412849556
 20
88.8200963796735
 30
0.0
 11
-347.2279254204642
 21
88.81910658589435
 31
0.0
  0
LINE
  5
F6
  8
0
  6
CONTINUOUS
 62
   253
 10
-393.3501301889243
 20
88.82783572870781
 30
0.0
 11
-393.2279254204642
 21
88.81910658589435
 31
0.0
  0
LINE
  5
F7
  8
0
  6
CONTINUOUS
 62
   253
 10
-393.5800048842761
 20
88.89374483520531
 30
0.0
 11
-393.4797593078777
 21
88.85660988376151
 31
0.0
  0
LINE
  5
F8
  8
0
  6
CONTINUOUS
 62
   253
 10
-408.0563848641066
 20
89.07928233850295
 30
0.0
 11
-407.9580172416896
 21
89.18941912241498
 31
0.0
  0
LINE
  5
F9
  8
0
  6
CONTINUOUS
 62
   253
 10
-347.3901273473141
 20
88.8345157155046
 30
0.0
 11
-347.2689412849556
 21
88.8200963796735
 31
0.0
  0
ARC
  5
FA
  8
0
  6
CONTINUOUS
 62
   253
 10
-363.2515900747689
 20
90.08948687544816
 30
0.0
 40
1.575897406093155
 50
325.1698102488311
 51
3.513911896227796
  0
LINE
  5
FB
  8
0
  6
CONTINUOUS
 62
     7
 10
-361.6673176690303
 20
91.48525502672588
 30
0.0
 11
-361.6786554410534
 21
90.18607503512324
 31
0.0
  0
ARC
  5
FC
  8
0
  6
CONTINUOUS
 62
     7
 10
-373.4110670955044
 20
91.5857964241833
 30
0.0
 40
3.000000000000003
 50
181.9817622529559
 51
270.0
  0
LINE
  5
FD
  8
0
  6
CONTINUOUS
 62
     7
 10
-378.8499804829605
 20
110.3030871142387
 30
0.0
 11
-379.5012273629047
 21
91.48205228385068
 31
0.0
  0
LINE
  5
FE
  8
0
  6
CONTINUOUS
 62
     7
 10
-321.4552500570108
 20
101.5857964241833
 30
0.0
 11
-324.4552500570108
 21
101.5857964241833
 31
0.0
  0
LINE
  5
FF
  8
0
  6
CONTINUOUS
 62
     7
 10
-256.1737547753989
 20
157.0897237544976
 30
0.0
 11
-256.6737547753989
 21
157.0897237544976
 31
0.0
  0
LINE
  5
100
  8
0
  6
CONTINUOUS
 62
     7
 10
-372.6592834244365
 20
100.6210450368285
 30
0.0
 11
-373.1705963130274
 21
99.86129425245915
 31
0.0
  0
ARC
  5
101
  8
0
  6
CONTINUOUS
 62
   253
 10
-409.2515900747689
 20
90.08948687544816
 30
0.0
 40
1.575897406093155
 50
325.1698102488311
 51
3.513911896227796
  0
ARC
  5
102
  8
0
  6
CONTINUOUS
 62
     7
 10
-339.4552500570108
 20
98.58579642418327
 30
0.0
 40
3.000000000000001
 50
270.0
 51
0.0
  0
LINE
  5
103
  8
0
  6
CONTINUOUS
 62
     7
 10
-378.816574994383
 20
111.2685057341278
 30
0.0
 11
-378.8170760210156
 21
111.2540260644475
 31
0.0
  0
LINE
  5
104
  8
0
  6
CONTINUOUS
 62
   253
 10
-362.2624539991952
 20
88.92718726577495
 30
0.0
 11
-362.1669269925233
 21
88.98704622586123
 31
0.0
  0
LINE
  5
105
  8
0
  6
CONTINUOUS
 62
     7
 10
-425.0354902824465
 20
110.3106276246115
 30
0.0
 11
-425.0819863732031
 21
111.2457156720488
 31
0.0
  0
LINE
  5
106
  8
0
  6
CONTINUOUS
 62
     7
 10
-256.6737547753989
 20
274.0897237544976
 30
0.0
 11
-256.1737547753989
 21
274.0897237544976
 31
0.0
  0
LINE
  5
107
  8
0
  6
CONTINUOUS
 62
   253
 10
-408.6825746935575
 20
88.81910658589436
 30
0.0
 11
-408.5608287941917
 21
88.82777018915544
 31
0.0
  0
LINE
  5
108
  8
0
  6
CONTINUOUS
 62
     7
 10
-242.1737547753989
 20
178.4374396368148
 30
0.0
 11
-242.1737547753989
 21
173.7065672118141
 31
0.0
  0
LINE
  5
109
  8
0
  6
CONTINUOUS
 62
   253
 10
-393.9819430141739
 20
89.22940206487111
 30
0.0
 11
-393.8922514231472
 21
89.11826200264207
 31
0.0
  0
LINE
  5
10A
  8
0
  6
CONTINUOUS
 62
     7
 10
-256.1737547753989
 20
167.5897237544976
 30
0.0
 11
-256.1737547753989
 21
164.0897237544976
 31
0.0
  0
LINE
  5
10B
  8
0
  6
CONTINUOUS
 62
   253
 10
-394.0840794705132
 20
89.40671143097056
 30
0.0
 11
-394.037197468222
 21
89.3163395026638
 31
0.0
  0
ARC
  5
10C
  8
0
  6
CONTINUOUS
 62
     7
 10
-370.4552500570109
 20
98.58579642418327
 30
0.0
 40
3.000000000000001
 50
90.0
 51
137.2799967182866
  0
LINE
  5
10D
  8
0
  6
CONTINUOUS
 62
     7
 10
-348.2431824449914
 20
91.48525502672588
 30
0.0
 11
-348.4202664305262
 21
111.7770698886849
 31
0.0
  0
ARC
  5
10E
  8
0
  6
CONTINUOUS
 62
     7
 10
-388.4552500570109
 20
98.58579642418327
 30
0.0
 40
3.000000000000001
 50
90.0
 51
180.0
  0
LINE
  5
10F
  8
0
  6
CONTINUOUS
 62
     7
 10
-385.4552500570108
 20
101.5857964241833
 30
0.0
 11
-388.4552500570109
 21
101.5857964241833
 31
0.0
  0
ARC
  5
110
  8
0
  6
CONTINUOUS
 62
   253
 10
-370.4732544489124
 20
98.61277069535691
 30
0.0
 40
2.972282658925078
 50
155.1619110916924
 51
180.4526581469557
  0
LINE
  5
111
  8
0
  6
CONTINUOUS
 62
   253
 10
-362.4595386734365
 20
88.84841217608746
 30
0.0
 11
-362.3597168006198
 21
88.88148994740946
 31
0.0
  0
LINE
  5
112
  8
0
  6
CONTINUOUS
 62
     7
 10
-256.1737547753989
 20
267.0897237544976
 30
0.0
 11
-256.1737547753989
 21
263.5897237544976
 31
0.0
  0
LINE
  5
113
  8
0
  6
CONTINUOUS
 62
     7
 10
-242.1737547753989
 20
259.9718920001295
 30
0.0
 11
-242.1737547753989
 21
257.4728802971813
 31
0.0
  0
LINE
  5
114
  8
0
  6
CONTINUOUS
 62
     7
 10
-219.9737547753989
 20
249.476535986945
 30
0.0
 11
-219.9737547753989
 21
181.7029115220502
 31
0.0
  0
LINE
  5
115
  8
0
  6
CONTINUOUS
 62
     7
 10
-342.4552500570108
 20
95.58579642418327
 30
0.0
 11
-339.4552500570108
 21
95.58579642418327
 31
0.0
  0
ARC
  5
116
  8
0
  6
CONTINUOUS
 62
   253
 10
-346.5100728574043
 20
90.11928035455061
 30
0.0
 40
1.7230669500119
 50
177.7783727783992
 51
209.4407876698001
  0
LINE
  5
117
  8
0
  6
CONTINUOUS
 62
   253
 10
-394.037197468222
 20
89.3163395026638
 30
0.0
 11
-393.9819430141739
 21
89.22940206487111
 31
0.0
  0
LINE
  5
118
  8
0
  6
CONTINUOUS
 62
     7
 10
-382.7399038009942
 20
99.86129425245913
 30
0.0
 11
-383.2512166895852
 21
100.6210450368285
 31
0.0
  0
LINE
  5
119
  8
0
  6
CONTINUOUS
 62
   253
 10
-393.8922514231472
 20
89.11826200264207
 30
0.0
 11
-393.785195715532
 21
89.01854086435225
 31
0.0
  0
LINE
  5
11A
  8
0
  6
CONTINUOUS
 62
   253
 10
-393.6029668274667
 20
252.8065528994503
 30
0.0
 11
-393.5800305134316
 21
252.814303349507
 31
0.0
  0
LINE
  5
11B
  8
0
  6
CONTINUOUS
 62
   253
 10
-393.4466374214774
 20
260.0025502703796
 30
0.0
 11
-393.420304507462
 21
259.9762173563641
 31
0.0
  0
LINE
  5
11C
  8
0
  6
CONTINUOUS
 62
   253
 10
-361.9734952241736
 20
259.6001060880173
 30
0.0
 11
-362.0019514428886
 21
259.6938949457206
 31
0.0
  0
LINE
  5
11D
  8
0
  6
CONTINUOUS
 62
   253
 10
-408.3663259133742
 20
259.9929367772179
 30
0.0
 11
-408.4638626925441
 21
260.0025502703795
 31
0.0
  0
LINE
  5
11E
  8
0
  6
CONTINUOUS
 62
   253
 10
-316.307533286555
 20
178.3728946095449
 30
0.0
 11
-316.33046960059
 21
178.3651441594882
 31
0.0
  0
LINE
  5
11F
  8
0
  6
CONTINUOUS
 62
   253
 10
-393.556713668223
 20
252.8210833345408
 30
0.0
 11
-393.5330718418837
 21
252.8268767019179
 31
0.0
  0
LINE
  5
120
  8
0
  6
CONTINUOUS
 62
   253
 10
-316.0805850230929
 20
178.5327191048891
 30
0.0
 11
-316.0950765327859
 21
178.5153701047095
 31
0.0
  0
LINE
  5
121
  8
0
  6
CONTINUOUS
 62
   253
 10
-407.9734952241736
 20
171.579341420978
 30
0.0
 11
-407.9638817310121
 21
171.6768782001479
 31
0.0
  0
LINE
  5
122
  8
0
  6
CONTINUOUS
 62
   253
 10
-316.3663259133742
 20
171.1865107317774
 30
0.0
 11
-316.272537055671
 21
171.2149669504923
 31
0.0
  0
LINE
  5
123
  8
0
  6
CONTINUOUS
 62
   253
 10
-316.0481569363184
 20
171.3991155319046
 30
0.0
 11
-316.0019514428886
 21
171.4855525632747
 31
0.0
  0
LINE
  5
124
  8
0
  6
CONTINUOUS
 62
   253
 10
-408.1103362248728
 20
171.3233517324765
 30
0.0
 11
-408.0481569363184
 21
171.3991155319046
 31
0.0
  0
LINE
  5
125
  8
0
  6
CONTINUOUS
 62
   253
 10
-347.5441742006474
 20
171.1865107317774
 30
0.0
 11
-347.4466374214775
 21
171.1768972386158
 31
0.0
  0
LINE
  5
126
  8
0
  6
CONTINUOUS
 62
     7
 10
-376.611374236976
 20
259.9762173563641
 30
0.0
 11
-376.68884637012
 21
259.9957563302968
 31
0.0
  0
LINE
  5
127
  8
0
  6
CONTINUOUS
 62
   253
 10
-316.272537055671
 20
171.2149669504923
 30
0.0
 11
-316.1861000243009
 21
171.2611724439221
 31
0.0
  0
LINE
  5
128
  8
0
  6
CONTINUOUS
 62
   253
 10
-362.2725370556709
 20
171.2149669504924
 30
0.0
 11
-362.1861000243008
 21
171.2611724439221
 31
0.0
  0
LINE
  5
129
  8
0
  6
CONTINUOUS
 62
   253
 10
-347.937004889848
 20
171.579341420978
 30
0.0
 11
-347.908548671133
 21
171.4855525632747
 31
0.0
  0
LINE
  5
12A
  8
0
  6
CONTINUOUS
 62
   253
 10
-408.4638626925441
 20
171.1768972386158
 30
0.0
 11
-408.3663259133742
 21
171.1865107317774
 31
0.0
  0
LINE
  5
12B
  8
0
  6
CONTINUOUS
 62
   253
 10
-393.8001638891488
 20
171.3233517324765
 30
0.0
 11
-393.7244000897207
 21
171.2611724439221
 31
0.0
  0
LINE
  5
12C
  8
0
  6
CONTINUOUS
 62
   253
 10
-393.9370048898479
 20
259.6001060880174
 30
0.0
 11
-393.9466183830095
 21
259.5025693088474
 31
0.0
  0
LINE
  5
12D
  8
0
  6
CONTINUOUS
 62
   253
 10
-393.908548671133
 20
259.6938949457207
 30
0.0
 11
-393.9370048898479
 21
259.6001060880174
 31
0.0
  0
LINE
  5
12E
  8
0
  6
CONTINUOUS
 62
   253
 10
-347.8001638891489
 20
171.3233517324765
 30
0.0
 11
-347.7244000897207
 21
171.2611724439221
 31
0.0
  0
LINE
  5
12F
  8
0
  6
CONTINUOUS
 62
     7
 10
-376.68884637012
 20
259.9957563302967
 30
0.0
 11
-377.6882482553241
 21
260.0041814109553
 31
0.0
  0
LINE
  5
130
  8
0
  6
CONTINUOUS
 62
   253
 10
-301.7244000897209
 20
259.9182750650733
 30
0.0
 11
-301.8001638891489
 21
259.8560957765189
 31
0.0
  0
LINE
  5
131
  8
0
  6
CONTINUOUS
 62
   253
 10
-361.9734952241736
 20
171.579341420978
 30
0.0
 11
-361.9638817310121
 21
171.6768782001479
 31
0.0
  0
LINE
  5
132
  8
0
  6
CONTINUOUS
 62
   253
 10
-393.7244000897207
 20
171.2611724439221
 30
0.0
 11
-393.6379630583507
 21
171.2149669504924
 31
0.0
  0
LINE
  5
133
  8
0
  6
CONTINUOUS
 62
   253
 10
-408.0481569363184
 20
171.3991155319046
 30
0.0
 11
-408.0019514428886
 21
171.4855525632747
 31
0.0
  0
LINE
  5
134
  8
0
  6
CONTINUOUS
 62
   253
 10
-301.8623431777033
 20
259.7803319770907
 30
0.0
 11
-301.9085486711331
 21
259.6938949457207
 31
0.0
  0
LINE
  5
135
  8
0
  6
CONTINUOUS
 62
   253
 10
-301.5441742006475
 20
259.992936777218
 30
0.0
 11
-301.6379630583508
 21
259.964480558503
 31
0.0
  0
LINE
  5
136
  8
0
  6
CONTINUOUS
 62
   253
 10
-362.2725370556709
 20
259.9644805585029
 30
0.0
 11
-362.3663259133742
 21
259.9929367772179
 31
0.0
  0
LINE
  5
137
  8
0
  6
CONTINUOUS
 62
   253
 10
-316.0019514428886
 20
171.4855525632747
 30
0.0
 11
-315.9734952241737
 21
171.579341420978
 31
0.0
  0
LINE
  5
138
  8
0
  6
CONTINUOUS
 62
     7
 10
-379.2216537439016
 20
259.9957563302968
 30
0.0
 11
-379.2991258770456
 21
259.9762173563641
 31
0.0
  0
LINE
  5
139
  8
0
  6
CONTINUOUS
 62
   253
 10
-408.0019514428886
 20
259.6938949457206
 30
0.0
 11
-408.0481569363184
 21
259.7803319770907
 31
0.0
  0
LINE
  5
13A
  8
0
  6
CONTINUOUS
 62
   253
 10
-393.908548671133
 20
171.4855525632746
 30
0.0
 11
-393.8623431777032
 21
171.3991155319046
 31
0.0
  0
LINE
  5
13B
  8
0
  6
CONTINUOUS
 62
   253
 10
-361.9638817310121
 20
259.5025693088473
 30
0.0
 11
-361.9734952241736
 21
259.6001060880173
 31
0.0
  0
LINE
  5
13C
  8
0
  6
CONTINUOUS
 62
   253
 10
-347.6379630583507
 20
171.2149669504923
 30
0.0
 11
-347.5441742006474
 21
171.1865107317774
 31
0.0
  0
ARC
  5
13D
  8
0
  6
CONTINUOUS
 62
     7
 10
-339.4552500570108
 20
98.58579642418327
 30
0.0
 40
3.000000000000001
 50
0.0
 51
90.0
  0
LINE
  5
13E
  8
0
  6
CONTINUOUS
 62
   253
 10
-423.8744430265284
 20
259.2441974208743
 30
0.0
 11
-424.1854560240884
 21
258.8655004195352
 31
0.0
  0
LINE
  5
13F
  8
0
  6
CONTINUOUS
 62
     7
 10
-361.4902336834954
 20
111.7770698886849
 30
0.0
 11
-361.6673176690303
 21
91.48525502672588
 31
0.0
  0
ARC
  5
140
  8
0
  6
CONTINUOUS
 62
   253
 10
-300.1479726910133
 20
90.15956986266039
 30
0.0
 40
2.084040537356223
 50
179.2712831475968
 51
197.1213073573478
  0
ARC
  5
141
  8
0
  6
CONTINUOUS
 62
   253
 10
-370.4312448340959
 20
98.57470655082282
 30
0.0
 40
3.014234788468115
 50
179.7228138530505
 51
212.4228455553795
  0
ARC
  5
142
  8
0
  6
CONTINUOUS
 62
     7
 10
-342.4552500570108
 20
98.58579642418327
 30
0.0
 40
3.000000000000001
 50
90.0
 51
180.0
  0
LINE
  5
143
  8
0
  6
CONTINUOUS
 62
   253
 10
-423.710858630488
 20
259.8996180250924
 30
0.0
 11
-424.1436150548865
 21
259.6687404255883
 31
0.0
  0
LINE
  5
144
  8
0
  6
CONTINUOUS
 62
   253
 10
-423.495473900113
 20
259.5549871108872
 30
0.0
 11
-423.8744430265284
 21
259.2441974208743
 31
0.0
  0
LINE
  5
145
  8
0
  6
CONTINUOUS
 62
   253
 10
-301.981943014174
 20
89.22940206487112
 30
0.0
 11
-301.8922514231472
 21
89.11826200264208
 31
0.0
  0
LINE
  5
146
  8
0
  6
CONTINUOUS
 62
   253
 10
-316.1669269925234
 20
88.98704622586125
 30
0.0
 11
-316.0563848641066
 21
89.07928233850295
 31
0.0
  0
LINE
  5
147
  8
0
  6
CONTINUOUS
 62
     7
 10
-416.4552500570109
 20
95.58579642418327
 30
0.0
 11
-413.4552500570108
 21
95.58579642418327
 31
0.0
  0
ARC
  5
148
  8
0
  6
CONTINUOUS
 62
     7
 10
-385.4552500570108
 20
98.58579642418327
 30
0.0
 40
3.000000000000001
 50
270.0
 51
313.3164722123748
  0
LINE
  5
149
  8
0
  6
CONTINUOUS
 62
   253
 10
-286.6692435695578
 20
260.0417721134107
 30
0.0
 11
-287.1576546970703
 21
260.0897427929655
 31
0.0
  0
LINE
  5
14A
  8
0
  6
CONTINUOUS
 62
   253
 10
-284.7026842849521
 20
258.0785036462161
 30
0.0
 11
-284.8450767323037
 21
258.5473199867465
 31
0.0
  0
ARC
  5
14B
  8
0
  6
CONTINUOUS
 62
     7
 10
-324.4552500570108
 20
98.58579642418327
 30
0.0
 40
3.000000000000001
 50
90.0
 51
180.0
  0
LINE
  5
14C
  8
0
  6
CONTINUOUS
 62
     7
 10
-424.0970131242864
 20
91.43680922161393
 30
0.0
 11
-425.0354902824465
 21
110.3106276246115
 31
0.0
  0
ARC
  5
14D
  8
0
  6
CONTINUOUS
 62
     7
 10
-421.1007149392804
 20
91.5857964241833
 30
0.0
 40
3.000000000000003
 50
182.8466169158162
 51
270.0
  0
LINE
  5
14E
  8
0
  6
CONTINUOUS
 62
   253
 10
-302.037197468222
 20
89.3163395026638
 30
0.0
 11
-301.981943014174
 21
89.22940206487112
 31
0.0
  0
LINE
  5
14F
  8
0
  6
CONTINUOUS
 62
     7
 10
-284.8277554758166
 20
111.260965223755
 30
0.0
 11
-284.8284795645611
 21
111.2464029945605
 31
0.0
  0
LINE
  5
150
  8
0
  6
CONTINUOUS
 62
   253
 10
-302.1396560541994
 20
89.54603718859006
 30
0.0
 11
-302.0840794705132
 21
89.40671143097056
 31
0.0
  0
LINE
  5
151
  8
0
  6
CONTINUOUS
 62
   253
 10
-394.1396560541994
 20
89.54603718859005
 30
0.0
 11
-394.0840794705132
 21
89.40671143097056
 31
0.0
  0
LINE
  5
152
  8
0
  6
CONTINUOUS
 62
   253
 10
-316.6825746935575
 20
88.81910658589436
 30
0.0
 11
-316.5608287941917
 21
88.82777018915544
 31
0.0
  0
ARC
  5
153
  8
0
  6
CONTINUOUS
 62
     7
 10
-413.4552500570108
 20
98.58579642418327
 30
0.0
 40
3.000000000000001
 50
0.0
 51
90.0
  0
ARC
  5
154
  8
0
  6
CONTINUOUS
 62
   253
 10
-392.1479726910157
 20
90.15956986265986
 30
0.0
 40
2.084040537353844
 50
179.2712831475819
 51
197.1213073573532
  0
LINE
  5
155
  8
0
  6
CONTINUOUS
 62
   253
 10
-424.1436150548865
 20
171.5107070834071
 30
0.0
 11
-423.710858630488
 21
171.2798294839029
 31
0.0
  0
LINE
  5
156
  8
0
  6
CONTINUOUS
 62
     7
 10
-315.6673176690304
 20
91.48525502672588
 30
0.0
 11
-315.6786554410534
 21
90.18607503512324
 31
0.0
  0
LINE
  5
157
  8
0
  6
CONTINUOUS
 62
     7
 10
-382.4994330185172
 20
88.58579642418329
 30
0.0
 11
-421.1007149392804
 21
88.58579642418329
 31
0.0
  0
LINE
  5
158
  8
0
  6
CONTINUOUS
 62
   253
 10
-424.8341587366661
 20
258.9793522915662
 30
0.0
 11
-425.065423381718
 21
258.5473199867465
 31
0.0
  0
LINE
  5
159
  8
0
  6
CONTINUOUS
 62
     7
 10
-377.0605196310612
 20
110.3030871142387
 30
0.0
 11
-377.0934004318833
 21
111.2533422579981
 31
0.0
  0
LINE
  5
15A
  8
0
  6
CONTINUOUS
 62
   253
 10
-316.5608287941917
 20
88.82777018915544
 30
0.0
 11
-316.4595386734365
 21
88.84841217608746
 31
0.0
  0
LINE
  5
15B
  8
0
  6
CONTINUOUS
 62
     7
 10
-378.8170760210156
 20
111.2540260644475
 30
0.0
 11
-378.8499804829605
 21
110.3030871142387
 31
0.0
  0
LINE
  5
15C
  8
0
  6
CONTINUOUS
 62
     7
 10
-434.4552500570109
 20
164.0897237544976
 30
0.0
 11
-434.4552500570109
 21
267.0897237544976
 31
0.0
  0
LINE
  5
15D
  8
0
  6
CONTINUOUS
 62
   253
 10
-284.6546330878451
 20
257.5909097109597
 30
0.0
 11
-284.7026842849521
 21
258.0785036462161
 31
0.0
  0
LINE
  5
15E
  8
0
  6
CONTINUOUS
 62
   253
 10
-425.2078158290695
 20
173.1009438627792
 30
0.0
 11
-425.065423381718
 21
172.6321275222488
 31
0.0
  0
LINE
  5
15F
  8
0
  6
CONTINUOUS
 62
   253
 10
-286.6692435695579
 20
171.1376753955846
 30
0.0
 11
-286.1996414835336
 21
171.2798294839029
 31
0.0
  0
ARC
  5
160
  8
0
  6
CONTINUOUS
 62
   253
 10
-385.4470699841139
 20
98.56543327443144
 30
0.0
 40
2.982109637683005
 50
327.3959955903179
 51
0.4583450012464141
  0
LINE
  5
161
  8
0
  6
CONTINUOUS
 62
   253
 10
-285.3875957370906
 20
259.3580069321522
 30
0.0
 11
-285.7668850591351
 21
259.6687404255883
 31
0.0
  0
LINE
  5
162
  8
0
  6
CONTINUOUS
 62
   253
 10
-423.2412565444639
 20
171.1376753955846
 30
0.0
 11
-422.7528454169514
 21
171.0897047160298
 31
0.0
  0
LINE
  5
163
  8
0
  6
CONTINUOUS
 62
   253
 10
-316.0563848641066
 20
89.07928233850295
 30
0.0
 11
-315.9580172416896
 21
89.18941912241498
 31
0.0
  0
LINE
  5
164
  8
0
  6
CONTINUOUS
 62
   253
 10
-301.785195715532
 20
89.01854086435226
 30
0.0
 11
-301.6776858850776
 21
88.9440492324127
 31
0.0
  0
ARC
  5
165
  8
0
  6
CONTINUOUS
 62
   253
 10
-317.251590074769
 20
90.08948687544816
 30
0.0
 40
1.575897406093155
 50
325.1698102488311
 51
3.513911896227796
  0
LINE
  5
166
  8
0
  6
CONTINUOUS
 62
   253
 10
-316.2624539991951
 20
88.92718726577495
 30
0.0
 11
-316.1669269925234
 21
88.98704622586125
 31
0.0
  0
ARC
  5
167
  8
0
  6
CONTINUOUS
 62
     7
 10
-296.4552500570109
 20
98.58579642418327
 30
0.0
 40
3.000000000000001
 50
90.0
 51
180.0
  0
LINE
  5
168
  8
0
  6
CONTINUOUS
 62
   253
 10
-316.4595386734365
 20
88.84841217608746
 30
0.0
 11
-316.3597168006198
 21
88.88148994740946
 31
0.0
  0
ARC
  5
169
  8
0
  6
CONTINUOUS
 62
     7
 10
-321.4552500570108
 20
98.58579642418327
 30
0.0
 40
3.000000000000001
 50
0.0
 51
90.0
  0
LINE
  5
16A
  8
0
  6
CONTINUOUS
 62
   253
 10
-301.3501301889243
 20
88.82783572870781
 30
0.0
 11
-301.2279254204642
 21
88.81910658589436
 31
0.0
  0
ARC
  5
16B
  8
0
  6
CONTINUOUS
 62
     7
 10
-282.4552500570109
 20
164.0897237544976
 30
0.0
 40
6.999999999999979
 50
270.0
 51
0.0
  0
LINE
  5
16C
  8
0
  6
CONTINUOUS
 62
     7
 10
-293.4552500570109
 20
101.5857964241833
 30
0.0
 11
-296.4552500570109
 21
101.5857964241833
 31
0.0
  0
LINE
  5
16D
  8
0
  6
CONTINUOUS
 62
   253
 10
-316.3597168006198
 20
88.88148994740946
 30
0.0
 11
-316.2624539991951
 21
88.92718726577495
 31
0.0
  0
LINE
  5
16E
  8
0
  6
CONTINUOUS
 62
   253
 10
-286.1996414835336
 20
259.8996180250924
 30
0.0
 11
-286.6692435695578
 21
260.0417721134107
 31
0.0
  0
LINE
  5
16F
  8
0
  6
CONTINUOUS
 62
   253
 10
-301.580004884276
 20
88.89374483520531
 30
0.0
 11
-301.4797593078777
 21
88.85660988376151
 31
0.0
  0
LINE
  5
170
  8
0
  6
CONTINUOUS
 62
     7
 10
-288.8097851747413
 20
88.58579642418329
 30
0.0
 11
-373.4110670955044
 21
88.58579642418329
 31
0.0
  0
LINE
  5
171
  8
0
  6
CONTINUOUS
 62
   253
 10
-301.6776858850776
 20
88.9440492324127
 30
0.0
 11
-301.580004884276
 21
88.89374483520531
 31
0.0
  0
LINE
  5
172
  8
0
  6
CONTINUOUS
 62
     7
 10
-302.2318446729682
 20
90.18607503512325
 30
0.0
 11
-302.2431824449914
 21
91.48525502672588
 31
0.0
  0
LINE
  5
173
  8
0
  6
CONTINUOUS
 62
   253
 10
-301.4797593078777
 20
88.85660988376151
 30
0.0
 11
-301.3501301889243
 21
88.82783572870781
 31
0.0
  0
LINE
  5
174
  8
0
  6
CONTINUOUS
 62
   253
 10
-302.0840794705132
 20
89.40671143097056
 30
0.0
 11
-302.037197468222
 21
89.3163395026638
 31
0.0
  0
LINE
  5
175
  8
0
  6
CONTINUOUS
 62
   253
 10
-301.8922514231472
 20
89.11826200264208
 30
0.0
 11
-301.785195715532
 21
89.01854086435226
 31
0.0
  0
ARC
  5
176
  8
0
  6
CONTINUOUS
 62
     7
 10
-296.4552500570109
 20
98.58579642418327
 30
0.0
 40
3.000000000000001
 50
180.0
 51
270.0
  0
LINE
  5
177
  8
0
  6
CONTINUOUS
 62
     7
 10
-222.8360324824603
 20
178.7060744277076
 30
0.0
 11
-241.6967084908887
 21
177.8393154199673
 31
0.0
  0
LINE
  5
178
  8
0
  6
CONTINUOUS
 62
     7
 10
-256.6737547753989
 20
267.0897237544976
 30
0.0
 11
-256.6737547753989
 21
164.0897237544976
 31
0.0
  0
ARC
  5
179
  8
0
  6
CONTINUOUS
 62
     7
 10
-324.4552500570108
 20
98.58579642418327
 30
0.0
 40
3.000000000000001
 50
180.0
 51
270.0
  0
ARC
  5
17A
  8
0
  6
CONTINUOUS
 62
     7
 10
-288.8097851747413
 20
91.5857964241833
 30
0.0
 40
2.999999999999968
 50
270.0000000000002
 51
357.153383084184
  0
LINE
  5
17B
  8
0
  6
CONTINUOUS
 62
     7
 10
-394.2431824449914
 20
91.48525502672588
 30
0.0
 11
-394.4202664305262
 21
111.7770698886849
 31
0.0
  0
LINE
  5
17C
  8
0
  6
CONTINUOUS
 62
     7
 10
-256.6737547753989
 20
157.0897237544976
 30
0.0
 11
-256.6737547753989
 21
164.0897237544976
 31
0.0
  0
ARC
  5
17D
  8
0
  6
CONTINUOUS
 62
     7
 10
-416.4552500570109
 20
98.58579642418327
 30
0.0
 40
3.000000000000001
 50
180.0
 51
270.0
  0
ARC
  5
17E
  8
0
  6
CONTINUOUS
 62
     7
 10
-321.4552500570108
 20
98.58579642418327
 30
0.0
 40
3.000000000000001
 50
270.0
 51
0.0
  0
LINE
  5
17F
  8
0
  6
CONTINUOUS
 62
     7
 10
-256.1737547753989
 20
260.5897237544976
 30
0.0
 11
-242.6693915076497
 21
260.4718729616616
 31
0.0
  0
LINE
  5
180
  8
0
  6
CONTINUOUS
 62
     7
 10
-425.0819863732031
 20
111.2457156720488
 30
0.0
 11
-425.082744638205
 21
111.260965223755
 31
0.0
  0
LINE
  5
181
  8
0
  6
CONTINUOUS
 62
     7
 10
-242.1737547753989
 20
173.7065672118141
 30
0.0
 11
-242.1737547753989
 21
171.2075555088659
 31
0.0
  0
ARC
  5
182
  8
0
  6
CONTINUOUS
 62
     7
 10
-293.4552500570109
 20
98.58579642418327
 30
0.0
 40
3.000000000000001
 50
270.0
 51
0.0
  0
ARC
  5
183
  8
0
  6
CONTINUOUS
 62
     7
 10
-413.4552500570108
 20
98.58579642418327
 30
0.0
 40
3.000000000000001
 50
270.0
 51
0.0
  0
ARC
  5
184
  8
0
  6
CONTINUOUS
 62
     7
 10
-388.4552500570109
 20
98.58579642418327
 30
0.0
 40
3.000000000000001
 50
180.0
 51
270.0
  0
LINE
  5
185
  8
0
  6
CONTINUOUS
 62
     7
 10
-377.0934004318833
 20
111.2533422579981
 30
0.0
 11
-377.0939251196387
 21
111.2685057341278
 31
0.0
  0
ARC
  5
186
  8
0
  6
CONTINUOUS
 62
     7
 10
-293.4552500570109
 20
98.58579642418327
 30
0.0
 40
3.000000000000001
 50
0.0
 51
90.0
  0
ARC
  5
187
  8
0
  6
CONTINUOUS
 62
     7
 10
-222.9737547753989
 20
181.7029115220502
 30
0.0
 40
3.0
 50
272.6312268108879
 51
0.0000000000003979
  0
LINE
  5
188
  8
0
  6
CONTINUOUS
 62
     7
 10
-339.4552500570108
 20
101.5857964241833
 30
0.0
 11
-342.4552500570108
 21
101.5857964241833
 31
0.0
  0
LINE
  5
189
  8
0
  6
CONTINUOUS
 62
     7
 10
-367.4552500570109
 20
101.5857964241833
 30
0.0
 11
-370.4552500570109
 21
101.5857964241833
 31
0.0
  0
ARC
  5
18A
  8
0
  6
CONTINUOUS
 62
     7
 10
-242.6737547753989
 20
259.9718920001295
 30
0.0
 40
0.5000000000000571
 50
0.0
 51
89.49999999999989
  0
LINE
  5
18B
  8
0
  6
CONTINUOUS
 62
     7
 10
-407.4902336834954
 20
111.7770698886849
 30
0.0
 11
-407.6673176690303
 21
91.48525502672588
 31
0.0
  0
LINE
  5
18C
  8
0
  6
CONTINUOUS
 62
     7
 10
-296.4552500570109
 20
95.58579642418327
 30
0.0
 11
-293.4552500570109
 21
95.58579642418327
 31
0.0
  0
LINE
  5
18D
  8
0
  6
CONTINUOUS
 62
     7
 10
-302.2431824449914
 20
91.48525502672588
 30
0.0
 11
-302.4202664305262
 21
111.7770698886849
 31
0.0
  0
LINE
  5
18E
  8
0
  6
CONTINUOUS
 62
     7
 10
-324.4552500570108
 20
95.58579642418327
 30
0.0
 11
-321.4552500570108
 21
95.58579642418327
 31
0.0
  0
LINE
  5
18F
  8
0
  6
CONTINUOUS
 62
     7
 10
-372.9756032455474
 20
96.95858414392185
 30
0.0
 11
-372.513332722405
 21
96.40306974811871
 31
0.0
  0
LINE
  5
190
  8
0
  6
CONTINUOUS
 62
     7
 10
-284.8750098315751
 20
110.3106276246115
 30
0.0
 11
-285.8134869897352
 21
91.43680922161393
 31
0.0
  0
ARC
  5
191
  8
0
  6
CONTINUOUS
 62
     7
 10
-367.4552500570109
 20
98.58579642418327
 30
0.0
 40
3.000000000000001
 50
0.0
 51
90.0
  0
LINE
  5
192
  8
0
  6
CONTINUOUS
 62
     7
 10
-388.4552500570109
 20
95.58579642418327
 30
0.0
 11
-385.4552500570108
 21
95.58579642418327
 31
0.0
  0
LINE
  5
193
  8
0
  6
CONTINUOUS
 62
     7
 10
-354.9602500570108
 20
255.3397237544976
 30
0.0
 11
-354.9502500570109
 21
255.3397237544976
 31
0.0
  0
LINE
  5
194
  8
0
  6
CONTINUOUS
 62
     7
 10
-308.9502500570108
 20
257.3347237544976
 30
0.0
 11
-306.9552500570109
 21
257.3347237544976
 31
0.0
  0
LINE
  5
195
  8
0
  6
CONTINUOUS
 62
     7
 10
-400.9502500570109
 20
257.3447237544976
 30
0.0
 11
-400.9502500570109
 21
259.3397237544976
 31
0.0
  0
LINE
  5
196
  8
0
  6
CONTINUOUS
 62
     7
 10
-398.9552500570108
 20
173.8447237544976
 30
0.0
 11
-400.9502500570109
 21
173.8447237544976
 31
0.0
  0
LINE
  5
197
  8
0
  6
CONTINUOUS
 62
     7
 10
-400.9502500570109
 20
171.8397237544976
 30
0.0
 11
-400.9502500570109
 21
173.8347237544976
 31
0.0
  0
LINE
  5
198
  8
0
  6
CONTINUOUS
 62
     7
 10
-400.9602500570109
 20
255.3397237544976
 30
0.0
 11
-400.9502500570109
 21
255.3397237544976
 31
0.0
  0
LINE
  5
199
  8
0
  6
CONTINUOUS
 62
     7
 10
-354.9502500570109
 20
175.8397237544976
 30
0.0
 11
-354.9602500570108
 21
175.8397237544976
 31
0.0
  0
LINE
  5
19A
  8
0
  6
CONTINUOUS
 62
     7
 10
-308.9602500570109
 20
257.3447237544976
 30
0.0
 11
-310.9552500570109
 21
257.3447237544976
 31
0.0
  0
LINE
  5
19B
  8
0
  6
CONTINUOUS
 62
     7
 10
-400.9602500570109
 20
257.3447237544976
 30
0.0
 11
-402.9552500570108
 21
257.3447237544976
 31
0.0
  0
LINE
  5
19C
  8
0
  6
CONTINUOUS
 62
   253
 10
-303.4465612676058
 20
180.1111196864825
 30
0.0
 11
-314.4639388464159
 21
180.1111196864825
 31
0.0
  0
LINE
  5
19D
  8
0
  6
CONTINUOUS
 62
     7
 10
-308.9502500570108
 20
257.3447237544976
 30
0.0
 11
-308.9502500570108
 21
259.3397237544976
 31
0.0
  0
LINE
  5
19E
  8
0
  6
CONTINUOUS
 62
     7
 10
-306.9552500570109
 20
257.3347237544976
 30
0.0
 11
-306.9552500570109
 21
257.3447237544976
 31
0.0
  0
LINE
  5
19F
  8
0
  6
CONTINUOUS
 62
     7
 10
-308.9602500570109
 20
259.3397237544976
 30
0.0
 11
-308.9602500570109
 21
257.3447237544976
 31
0.0
  0
LINE
  5
1A0
  8
0
  6
CONTINUOUS
 62
   253
 10
-407.9638817310121
 20
179.1349514117254
 30
0.0
 11
-407.9638817310121
 21
171.6768782001479
 31
0.0
  0
LINE
  5
1A1
  8
0
  6
CONTINUOUS
 62
   253
 10
-347.9659007361498
 20
251.8496605065729
 30
0.0
 11
-347.9466183830095
 21
252.0444960972697
 31
0.0
  0
LINE
  5
1A2
  8
0
  6
CONTINUOUS
 62
   253
 10
-301.9466183830095
 20
179.1349514117254
 30
0.0
 11
-301.9659007361498
 21
179.3297870024222
 31
0.0
  0
LINE
  5
1A3
  8
0
  6
CONTINUOUS
 62
     7
 10
-308.9502500570108
 20
255.3397237544976
 30
0.0
 11
-308.9502500570108
 21
257.3347237544976
 31
0.0
  0
LINE
  5
1A4
  8
0
  6
CONTINUOUS
 62
   253
 10
-361.5193440180882
 20
179.9654054859582
 30
0.0
 11
-361.6708580745858
 21
179.8411712427028
 31
0.0
  0
LINE
  5
1A5
  8
0
  6
CONTINUOUS
 62
   253
 10
-348.2396420394359
 20
251.3382762662923
 30
0.0
 11
-348.1152814129968
 21
251.4896363445624
 31
0.0
  0
LINE
  5
1A6
  8
0
  6
CONTINUOUS
 62
   253
 10
-361.1589536044018
 20
180.1146343526539
 30
0.0
 11
-361.3464961717046
 21
180.0577420689996
 31
0.0
  0
LINE
  5
1A7
  8
0
  6
CONTINUOUS
 62
     7
 10
-306.9552500570109
 20
173.8447237544976
 30
0.0
 11
-308.9502500570108
 21
173.8447237544976
 31
0.0
  0
LINE
  5
1A8
  8
0
  6
CONTINUOUS
 62
     7
 10
-402.9552500570108
 20
257.3447237544976
 30
0.0
 11
-402.9552500570108
 21
257.3347237544976
 31
0.0
  0
LINE
  5
1A9
  8
0
  6
CONTINUOUS
 62
   253
 10
-394.3911560959335
 20
251.2140420230369
 30
0.0
 11
-394.239642039436
 21
251.3382762662923
 31
0.0
  0
LINE
  5
1AA
  8
0
  6
CONTINUOUS
 62
   253
 10
-348.0228508961814
 20
251.6623085319634
 30
0.0
 11
-347.9659007361498
 21
251.8496605065729
 31
0.0
  0
LINE
  5
1AB
  8
0
  6
CONTINUOUS
 62
     7
 10
-354.9602500570108
 20
257.3347237544976
 30
0.0
 11
-354.9602500570108
 21
255.3397237544976
 31
0.0
  0
LINE
  5
1AC
  8
0
  6
CONTINUOUS
 62
     7
 10
-354.9502500570109
 20
173.8347237544976
 30
0.0
 11
-352.9552500570109
 21
173.8347237544976
 31
0.0
  0
LINE
  5
1AD
  8
0
  6
CONTINUOUS
 62
     7
 10
-400.9602500570109
 20
171.8397237544976
 30
0.0
 11
-400.9502500570109
 21
171.8397237544976
 31
0.0
  0
LINE
  5
1AE
  8
0
  6
CONTINUOUS
 62
   253
 10
-394.1152814129969
 20
251.4896363445624
 30
0.0
 11
-394.0228508961814
 21
251.6623085319634
 31
0.0
  0
LINE
  5
1AF
  8
0
  6
CONTINUOUS
 62
   253
 10
-348.1152814129968
 20
251.4896363445624
 30
0.0
 11
-348.0228508961814
 21
251.6623085319634
 31
0.0
  0
LINE
  5
1B0
  8
0
  6
CONTINUOUS
 62
     7
 10
-400.9502500570109
 20
257.3347237544976
 30
0.0
 11
-398.9552500570108
 21
257.3347237544976
 31
0.0
  0
LINE
  5
1B1
  8
0
  6
CONTINUOUS
 62
     7
 10
-398.9552500570108
 20
257.3447237544976
 30
0.0
 11
-400.9502500570109
 21
257.3447237544976
 31
0.0
  0
LINE
  5
1B2
  8
0
  6
CONTINUOUS
 62
   253
 10
-315.5193440180882
 20
179.9654054859583
 30
0.0
 11
-315.6708580745859
 21
179.8411712427029
 31
0.0
  0
LINE
  5
1B3
  8
0
  6
CONTINUOUS
 62
   253
 10
-348.3911560959334
 20
251.2140420230369
 30
0.0
 11
-348.2396420394359
 21
251.3382762662923
 31
0.0
  0
LINE
  5
1B4
  8
0
  6
CONTINUOUS
 62
     7
 10
-398.9552500570108
 20
257.3347237544976
 30
0.0
 11
-398.9552500570108
 21
257.3447237544976
 31
0.0
  0
LINE
  5
1B5
  8
0
  6
CONTINUOUS
 62
     7
 10
-400.9502500570109
 20
255.3397237544976
 30
0.0
 11
-400.9502500570109
 21
257.3347237544976
 31
0.0
  0
LINE
  5
1B6
  8
0
  6
CONTINUOUS
 62
   253
 10
-301.8623431777033
 20
171.3991155319046
 30
0.0
 11
-301.8001638891489
 21
171.3233517324765
 31
0.0
  0
LINE
  5
1B7
  8
0
  6
CONTINUOUS
 62
   253
 10
-315.7952187010249
 20
179.6898111644328
 30
0.0
 11
-315.8876492178404
 21
179.5171389770317
 31
0.0
  0
LINE
  5
1B8
  8
0
  6
CONTINUOUS
 62
     7
 10
-308.9602500570109
 20
171.8397237544976
 30
0.0
 11
-308.9502500570108
 21
171.8397237544976
 31
0.0
  0
LINE
  5
1B9
  8
0
  6
CONTINUOUS
 62
     7
 10
-354.9602500570108
 20
175.8397237544976
 30
0.0
 11
-354.9602500570108
 21
173.8447237544976
 31
0.0
  0
LINE
  5
1BA
  8
0
  6
CONTINUOUS
 62
     7
 10
-354.9502500570109
 20
259.3397237544976
 30
0.0
 11
-354.9602500570108
 21
259.3397237544976
 31
0.0
  0
LINE
  5
1BB
  8
0
  6
CONTINUOUS
 62
   253
 10
-315.8876492178404
 20
179.5171389770317
 30
0.0
 11
-315.9445993778719
 21
179.3297870024222
 31
0.0
  0
LINE
  5
1BC
  8
0
  6
CONTINUOUS
 62
     7
 10
-402.9552500570108
 20
257.3347237544976
 30
0.0
 11
-400.9602500570109
 21
257.3347237544976
 31
0.0
  0
LINE
  5
1BD
  8
0
  6
CONTINUOUS
 62
   253
 10
-315.3464961717046
 20
180.0577420689997
 30
0.0
 11
-315.5193440180882
 21
179.9654054859583
 31
0.0
  0
LINE
  5
1BE
  8
0
  6
CONTINUOUS
 62
     7
 10
-310.9552500570109
 20
173.8447237544976
 30
0.0
 11
-310.9552500570109
 21
173.8347237544976
 31
0.0
  0
LINE
  5
1BF
  8
0
  6
CONTINUOUS
 62
     7
 10
-352.9552500570109
 20
173.8347237544976
 30
0.0
 11
-352.9552500570109
 21
173.8447237544976
 31
0.0
  0
LINE
  5
1C0
  8
0
  6
CONTINUOUS
 62
   253
 10
-315.6708580745859
 20
179.8411712427029
 30
0.0
 11
-315.7952187010249
 21
179.6898111644328
 31
0.0
  0
LINE
  5
1C1
  8
0
  6
CONTINUOUS
 62
   253
 10
-394.5640039423172
 20
251.1217054399955
 30
0.0
 11
-394.3911560959335
 21
251.2140420230369
 31
0.0
  0
LINE
  5
1C2
  8
0
  6
CONTINUOUS
 62
     7
 10
-356.9552500570109
 20
173.8447237544976
 30
0.0
 11
-356.9552500570109
 21
173.8347237544976
 31
0.0
  0
LINE
  5
1C3
  8
0
  6
CONTINUOUS
 62
   253
 10
-406.4639388464158
 20
251.0683278225127
 30
0.0
 11
-395.4465612676058
 21
251.0683278225127
 31
0.0
  0
LINE
  5
1C4
  8
0
  6
CONTINUOUS
 62
     7
 10
-354.9502500570109
 20
171.8397237544976
 30
0.0
 11
-354.9502500570109
 21
173.8347237544976
 31
0.0
  0
LINE
  5
1C5
  8
0
  6
CONTINUOUS
 62
     7
 10
-354.9502500570109
 20
173.8447237544976
 30
0.0
 11
-354.9502500570109
 21
175.8397237544976
 31
0.0
  0
LINE
  5
1C6
  8
0
  6
CONTINUOUS
 62
     7
 10
-400.9602500570109
 20
257.3347237544976
 30
0.0
 11
-400.9602500570109
 21
255.3397237544976
 31
0.0
  0
LINE
  5
1C7
  8
0
  6
CONTINUOUS
 62
   253
 10
-394.0228508961814
 20
251.6623085319634
 30
0.0
 11
-393.9659007361499
 21
251.8496605065729
 31
0.0
  0
LINE
  5
1C8
  8
0
  6
CONTINUOUS
 62
     7
 10
-400.9502500570109
 20
173.8347237544976
 30
0.0
 11
-398.9552500570108
 21
173.8347237544976
 31
0.0
  0
LINE
  5
1C9
  8
0
  6
CONTINUOUS
 62
   253
 10
-394.9465803060738
 20
251.0455503991556
 30
0.0
 11
-394.7515465096199
 21
251.0648131563413
 31
0.0
  0
LINE
  5
1CA
  8
0
  6
CONTINUOUS
 62
     7
 10
-354.9602500570108
 20
173.8347237544976
 30
0.0
 11
-354.9602500570108
 21
171.8397237544976
 31
0.0
  0
LINE
  5
1CB
  8
0
  6
CONTINUOUS
 62
     7
 10
-400.9502500570109
 20
173.8447237544976
 30
0.0
 11
-400.9502500570109
 21
175.8397237544976
 31
0.0
  0
LINE
  5
1CC
  8
0
  6
CONTINUOUS
 62
     7
 10
-356.9552500570109
 20
257.3347237544976
 30
0.0
 11
-354.9602500570108
 21
257.3347237544976
 31
0.0
  0
LINE
  5
1CD
  8
0
  6
CONTINUOUS
 62
   253
 10
-315.1589536044018
 20
180.1146343526539
 30
0.0
 11
-315.3464961717046
 21
180.0577420689997
 31
0.0
  0
LINE
  5
1CE
  8
0
  6
CONTINUOUS
 62
   253
 10
-394.239642039436
 20
251.3382762662923
 30
0.0
 11
-394.1152814129969
 21
251.4896363445624
 31
0.0
  0
LINE
  5
1CF
  8
0
  6
CONTINUOUS
 62
     7
 10
-356.9552500570109
 20
257.3447237544976
 30
0.0
 11
-356.9552500570109
 21
257.3347237544976
 31
0.0
  0
LINE
  5
1D0
  8
0
  6
CONTINUOUS
 62
   253
 10
-408.307533286555
 20
252.8065528994503
 30
0.0
 11
-408.2850321471589
 21
252.7978504490397
 31
0.0
  0
LINE
  5
1D1
  8
0
  6
CONTINUOUS
 62
   253
 10
-347.6898302174611
 20
252.7662494614081
 30
0.0
 11
-347.6689514593876
 21
252.7776746966663
 31
0.0
  0
LINE
  5
1D2
  8
0
  6
CONTINUOUS
 62
   253
 10
-394.7515465096199
 20
251.0648131563413
 30
0.0
 11
-394.5640039423172
 21
251.1217054399955
 31
0.0
  0
LINE
  5
1D3
  8
0
  6
CONTINUOUS
 62
   253
 10
-395.4465612676058
 20
251.0683278225127
 30
0.0
 11
-394.9465803060737
 21
251.0455503991555
 31
0.0
  0
LINE
  5
1D4
  8
0
  6
CONTINUOUS
 62
   253
 10
-408.1268467795533
 20
252.6968978314013
 30
0.0
 11
-408.1105093740043
 21
252.6808138376748
 31
0.0
  0
LINE
  5
1D5
  8
0
  6
CONTINUOUS
 62
     7
 10
-354.9602500570108
 20
173.8447237544976
 30
0.0
 11
-356.9552500570109
 21
173.8447237544976
 31
0.0
  0
LINE
  5
1D6
  8
0
  6
CONTINUOUS
 62
   253
 10
-347.4363899960211
 20
252.8399438610124
 30
0.0
 11
-347.411978886594
 21
252.8406451499073
 31
0.0
  0
LINE
  5
1D7
  8
0
  6
CONTINUOUS
 62
   253
 10
-408.377428272138
 20
252.8268767019179
 30
0.0
 11
-408.3537864457987
 21
252.8210833345408
 31
0.0
  0
LINE
  5
1D8
  8
0
  6
CONTINUOUS
 62
   253
 10
-347.7999907400174
 20
252.6808138376748
 30
0.0
 11
-347.7836533344685
 21
252.6968978314013
 31
0.0
  0
LINE
  5
1D9
  8
0
  6
CONTINUOUS
 62
   253
 10
-347.8299150909289
 20
252.6467284041061
 30
0.0
 11
-347.8154235812358
 21
252.6640774042856
 31
0.0
  0
LINE
  5
1DA
  8
0
  6
CONTINUOUS
 62
     7
 10
-310.9552500570109
 20
257.3447237544976
 30
0.0
 11
-310.9552500570109
 21
257.3347237544976
 31
0.0
  0
LINE
  5
1DB
  8
0
  6
CONTINUOUS
 62
   253
 10
-314.9639198079479
 20
251.0455503991555
 30
0.0
 11
-314.4639388464159
 21
251.0683278225127
 31
0.0
  0
LINE
  5
1DC
  8
0
  6
CONTINUOUS
 62
   253
 10
-301.8559383423503
 20
178.5690881157059
 30
0.0
 11
-301.8674080862948
 21
178.5880214808261
 31
0.0
  0
LINE
  5
1DD
  8
0
  6
CONTINUOUS
 62
   253
 10
-301.9024004264267
 20
178.667683651339
 30
0.0
 11
-301.9083226205207
 21
178.6883440809848
 31
0.0
  0
LINE
  5
1DE
  8
0
  6
CONTINUOUS
 62
   253
 10
-301.8299150909288
 20
178.5327191048891
 30
0.0
 11
-301.8434307445296
 21
178.550639339608
 31
0.0
  0
LINE
  5
1DF
  8
0
  6
CONTINUOUS
 62
   253
 10
-393.9466183830095
 20
252.0444960972697
 30
0.0
 11
-393.9466183830095
 21
259.5025693088475
 31
0.0
  0
LINE
  5
1E0
  8
0
  6
CONTINUOUS
 62
   253
 10
-301.4850391829718
 20
178.343996750358
 30
0.0
 11
-301.5091613586913
 21
178.347777859473
 31
0.0
  0
LINE
  5
1E1
  8
0
  6
CONTINUOUS
 62
   253
 10
-393.916667707103
 20
252.4492308467536
 30
0.0
 11
-393.9130821604548
 21
252.4702425247069
 31
0.0
  0
LINE
  5
1E2
  8
0
  6
CONTINUOUS
 62
   253
 10
-347.6254679668627
 20
252.7978504490397
 30
0.0
 11
-347.6029668274667
 21
252.8065528994503
 31
0.0
  0
LINE
  5
1E3
  8
0
  6
CONTINUOUS
 62
   253
 10
-407.9938324069187
 20
252.4492308467536
 30
0.0
 11
-407.9914293957613
 21
252.4281184523637
 31
0.0
  0
LINE
  5
1E4
  8
0
  6
CONTINUOUS
 62
   253
 10
-408.4013387553304
 20
252.8316696495222
 30
0.0
 11
-408.377428272138
 21
252.8268767019179
 31
0.0
  0
LINE
  5
1E5
  8
0
  6
CONTINUOUS
 62
   253
 10
-301.8674080862948
 20
178.5880214808261
 30
0.0
 11
-301.8778126508496
 21
178.6073943281269
 31
0.0
  0
LINE
  5
1E6
  8
0
  6
CONTINUOUS
 62
   253
 10
-301.8953296872058
 20
178.6472729167503
 30
0.0
 11
-301.9024004264267
 21
178.667683651339
 31
0.0
  0
LINE
  5
1E7
  8
0
  6
CONTINUOUS
 62
     7
 10
-308.9602500570109
 20
255.3397237544976
 30
0.0
 11
-308.9502500570108
 21
255.3397237544976
 31
0.0
  0
LINE
  5
1E8
  8
0
  6
CONTINUOUS
 62
     7
 10
-400.9602500570109
 20
175.8397237544976
 30
0.0
 11
-400.9602500570109
 21
173.8447237544976
 31
0.0
  0
LINE
  5
1E9
  8
0
  6
CONTINUOUS
 62
     7
 10
-354.9602500570108
 20
259.3397237544976
 30
0.0
 11
-354.9602500570108
 21
257.3447237544976
 31
0.0
  0
LINE
  5
1EA
  8
0
  6
CONTINUOUS
 62
   253
 10
-407.9445993778718
 20
251.849660506573
 30
0.0
 11
-407.8876492178404
 21
251.6623085319634
 31
0.0
  0
LINE
  5
1EB
  8
0
  6
CONTINUOUS
 62
     7
 10
-354.9602500570108
 20
257.3447237544976
 30
0.0
 11
-356.9552500570109
 21
257.3447237544976
 31
0.0
  0
LINE
  5
1EC
  8
0
  6
CONTINUOUS
 62
     7
 10
-354.9602500570108
 20
171.8397237544976
 30
0.0
 11
-354.9502500570109
 21
171.8397237544976
 31
0.0
  0
LINE
  5
1ED
  8
0
  6
CONTINUOUS
 62
     7
 10
-400.9602500570109
 20
259.3397237544976
 30
0.0
 11
-400.9602500570109
 21
257.3447237544976
 31
0.0
  0
LINE
  5
1EE
  8
0
  6
CONTINUOUS
 62
     7
 10
-400.9502500570109
 20
175.8397237544976
 30
0.0
 11
-400.9602500570109
 21
175.8397237544976
 31
0.0
  0
LINE
  5
1EF
  8
0
  6
CONTINUOUS
 62
   253
 10
-361.5193440180882
 20
251.214042023037
 30
0.0
 11
-361.3464961717046
 21
251.1217054399956
 31
0.0
  0
LINE
  5
1F0
  8
0
  6
CONTINUOUS
 62
   253
 10
-393.9130821604548
 20
252.4702425247069
 30
0.0
 11
-393.9083226205207
 21
252.4911034280103
 31
0.0
  0
LINE
  5
1F1
  8
0
  6
CONTINUOUS
 62
     7
 10
-306.9552500570109
 20
257.3447237544976
 30
0.0
 11
-308.9502500570108
 21
257.3447237544976
 31
0.0
  0
LINE
  5
1F2
  8
0
  6
CONTINUOUS
 62
   253
 10
-301.7484225815987
 20
178.4524906374684
 30
0.0
 11
-301.7664502868176
 21
178.4671564420305
 31
0.0
  0
LINE
  5
1F3
  8
0
  6
CONTINUOUS
 62
     7
 10
-398.9552500570108
 20
173.8347237544976
 30
0.0
 11
-398.9552500570108
 21
173.8447237544976
 31
0.0
  0
LINE
  5
1F4
  8
0
  6
CONTINUOUS
 62
   253
 10
-347.8778126508496
 20
252.5720531808682
 30
0.0
 11
-347.8674080862948
 21
252.5914260281691
 31
0.0
  0
LINE
  5
1F5
  8
0
  6
CONTINUOUS
 62
   253
 10
-393.9024004264267
 20
252.5117638576562
 30
0.0
 11
-393.8953296872058
 21
252.5321745922449
 31
0.0
  0
LINE
  5
1F6
  8
0
  6
CONTINUOUS
 62
   253
 10
-347.8154235812358
 20
252.6640774042856
 30
0.0
 11
-347.7999907400174
 21
252.6808138376748
 31
0.0
  0
LINE
  5
1F7
  8
0
  6
CONTINUOUS
 62
   253
 10
-347.5091613586914
 20
252.8316696495222
 30
0.0
 11
-347.4850391829717
 21
252.8354507586372
 31
0.0
  0
LINE
  5
1F8
  8
0
  6
CONTINUOUS
 62
   253
 10
-361.9445993778718
 20
251.849660506573
 30
0.0
 11
-361.8876492178404
 21
251.6623085319635
 31
0.0
  0
LINE
  5
1F9
  8
0
  6
CONTINUOUS
 62
   253
 10
-360.9639198079479
 20
251.0455503991555
 30
0.0
 11
-360.4639388464159
 21
251.0683278225127
 31
0.0
  0
LINE
  5
1FA
  8
0
  6
CONTINUOUS
 62
   253
 10
-407.1589536044018
 20
251.0648131563412
 30
0.0
 11
-406.9639198079479
 21
251.0455503991555
 31
0.0
  0
LINE
  5
1FB
  8
0
  6
CONTINUOUS
 62
     7
 10
-400.9502500570109
 20
259.3397237544976
 30
0.0
 11
-400.9602500570109
 21
259.3397237544976
 31
0.0
  0
LINE
  5
1FC
  8
0
  6
CONTINUOUS
 62
   253
 10
-347.6689514593876
 20
252.7776746966663
 30
0.0
 11
-347.6474803249141
 21
252.7882167309897
 31
0.0
  0
LINE
  5
1FD
  8
0
  6
CONTINUOUS
 62
     7
 10
-402.9552500570108
 20
173.8447237544976
 30
0.0
 11
-402.9552500570108
 21
173.8347237544976
 31
0.0
  0
LINE
  5
1FE
  8
0
  6
CONTINUOUS
 62
   253
 10
-347.4607627833867
 20
252.83821102115
 30
0.0
 11
-347.4363899960211
 21
252.8399438610124
 31
0.0
  0
LINE
  5
1FF
  8
0
  6
CONTINUOUS
 62
   253
 10
-395.4465612676058
 20
180.1111196864825
 30
0.0
 11
-406.4639388464158
 21
180.1111196864825
 31
0.0
  0
LINE
  5
200
  8
0
  6
CONTINUOUS
 62
     7
 10
-310.9552500570109
 20
257.3347237544976
 30
0.0
 11
-308.9602500570109
 21
257.3347237544976
 31
0.0
  0
LINE
  5
201
  8
0
  6
CONTINUOUS
 62
   253
 10
-408.2004332564321
 20
252.7539682446909
 30
0.0
 11
-408.1808869460122
 21
252.7408603052805
 31
0.0
  0
LINE
  5
202
  8
0
  6
CONTINUOUS
 62
   253
 10
-347.7100668575896
 20
252.7539682446909
 30
0.0
 11
-347.6898302174611
 21
252.7662494614081
 31
0.0
  0
LINE
  5
203
  8
0
  6
CONTINUOUS
 62
   253
 10
-347.7484225815987
 20
252.7269568715268
 30
0.0
 11
-347.7296131680095
 21
252.7408603052805
 31
0.0
  0
LINE
  5
204
  8
0
  6
CONTINUOUS
 62
   253
 10
-393.9083226205207
 20
252.4911034280103
 30
0.0
 11
-393.9024004264267
 21
252.5117638576562
 31
0.0
  0
LINE
  5
205
  8
0
  6
CONTINUOUS
 62
   253
 10
-347.6474803249141
 20
252.7882167309897
 30
0.0
 11
-347.6254679668627
 21
252.7978504490397
 31
0.0
  0
LINE
  5
206
  8
0
  6
CONTINUOUS
 62
   253
 10
-301.5091613586913
 20
178.347777859473
 30
0.0
 11
-301.5330718418837
 21
178.3525708070773
 31
0.0
  0
LINE
  5
207
  8
0
  6
CONTINUOUS
 62
   253
 10
-347.556713668223
 20
252.8210833345408
 30
0.0
 11
-347.5330718418837
 21
252.8268767019179
 31
0.0
  0
LINE
  5
208
  8
0
  6
CONTINUOUS
 62
     7
 10
-352.9552500570109
 20
173.8447237544976
 30
0.0
 11
-354.9502500570109
 21
173.8447237544976
 31
0.0
  0
LINE
  5
209
  8
0
  6
CONTINUOUS
 62
   253
 10
-347.8559383423503
 20
252.6103593932892
 30
0.0
 11
-347.8434307445296
 21
252.6288081693872
 31
0.0
  0
LINE
  5
20A
  8
0
  6
CONTINUOUS
 62
   253
 10
-347.7836533344685
 20
252.6968978314013
 30
0.0
 11
-347.7664502868176
 21
252.7122910669647
 31
0.0
  0
LINE
  5
20B
  8
0
  6
CONTINUOUS
 62
   253
 10
-361.3464961717046
 20
251.1217054399956
 30
0.0
 11
-361.1589536044018
 21
251.0648131563413
 31
0.0
  0
LINE
  5
20C
  8
0
  6
CONTINUOUS
 62
   253
 10
-347.8674080862948
 20
252.5914260281691
 30
0.0
 11
-347.8559383423503
 21
252.6103593932892
 31
0.0
  0
LINE
  5
20D
  8
0
  6
CONTINUOUS
 62
   253
 10
-347.8953296872058
 20
252.5321745922449
 30
0.0
 11
-347.8871272481842
 21
252.5522870052505
 31
0.0
  0
LINE
  5
20E
  8
0
  6
CONTINUOUS
 62
   253
 10
-301.5800305134316
 20
178.3651441594882
 30
0.0
 11
-301.6029668274667
 21
178.3728946095449
 31
0.0
  0
LINE
  5
20F
  8
0
  6
CONTINUOUS
 62
   253
 10
-301.7296131680095
 20
178.4385872037146
 30
0.0
 11
-301.7484225815987
 21
178.4524906374684
 31
0.0
  0
LINE
  5
210
  8
0
  6
CONTINUOUS
 62
   253
 10
-316.1808869460122
 20
178.4385872037146
 30
0.0
 11
-316.2004332564321
 21
178.4254792643043
 31
0.0
  0
LINE
  5
211
  8
0
  6
CONTINUOUS
 62
   253
 10
-362.1105093740043
 20
178.4986336713203
 30
0.0
 11
-362.1268467795532
 21
178.4825496775939
 31
0.0
  0
LINE
  5
212
  8
0
  6
CONTINUOUS
 62
   253
 10
-301.6254679668627
 20
178.3815970599555
 30
0.0
 11
-301.6474803249141
 21
178.3912307780055
 31
0.0
  0
LINE
  5
213
  8
0
  6
CONTINUOUS
 62
   253
 10
-362.0151704268159
 20
178.6472729167503
 30
0.0
 11
-362.0233728658374
 21
178.6271605037446
 31
0.0
  0
LINE
  5
214
  8
0
  6
CONTINUOUS
 62
   253
 10
-408.162077532423
 20
252.7269568715268
 30
0.0
 11
-408.1440498272041
 21
252.7122910669647
 31
0.0
  0
LINE
  5
215
  8
0
  6
CONTINUOUS
 62
   253
 10
-301.9083226205207
 20
178.6883440809848
 30
0.0
 11
-301.9130821604547
 21
178.7092049842883
 31
0.0
  0
LINE
  5
216
  8
0
  6
CONTINUOUS
 62
   253
 10
-362.4013387553303
 20
178.347777859473
 30
0.0
 11
-362.4254609310499
 21
178.343996750358
 31
0.0
  0
LINE
  5
217
  8
0
  6
CONTINUOUS
 62
   253
 10
-408.0080996875949
 20
178.667683651339
 30
0.0
 11
-408.0151704268158
 21
178.6472729167503
 31
0.0
  0
LINE
  5
218
  8
0
  6
CONTINUOUS
 62
   253
 10
-347.7664502868176
 20
252.7122910669647
 30
0.0
 11
-347.7484225815987
 21
252.7269568715268
 31
0.0
  0
LINE
  5
219
  8
0
  6
CONTINUOUS
 62
   253
 10
-301.6898302174611
 20
178.4131980475871
 30
0.0
 11
-301.7100668575896
 21
178.4254792643043
 31
0.0
  0
LINE
  5
21A
  8
0
  6
CONTINUOUS
 62
   253
 10
-407.9974179535669
 20
252.4702425247069
 30
0.0
 11
-407.9938324069187
 21
252.4492308467536
 31
0.0
  0
LINE
  5
21B
  8
0
  6
CONTINUOUS
 62
   253
 10
-347.4850391829717
 20
252.8354507586372
 30
0.0
 11
-347.4607627833867
 21
252.83821102115
 31
0.0
  0
LINE
  5
21C
  8
0
  6
CONTINUOUS
 62
   253
 10
-393.8871272481843
 20
252.5522870052505
 30
0.0
 11
-393.8778126508496
 21
252.5720531808682
 31
0.0
  0
LINE
  5
21D
  8
0
  6
CONTINUOUS
 62
   253
 10
-316.3537864457986
 20
178.3583641744544
 30
0.0
 11
-316.377428272138
 21
178.3525708070773
 31
0.0
  0
LINE
  5
21E
  8
0
  6
CONTINUOUS
 62
   253
 10
-361.9974179535669
 20
178.7092049842883
 30
0.0
 11
-362.002177493501
 21
178.6883440809848
 31
0.0
  0
LINE
  5
21F
  8
0
  6
CONTINUOUS
 62
   253
 10
-408.33046960059
 20
178.3651441594882
 30
0.0
 11
-408.3537864457987
 21
178.3583641744544
 31
0.0
  0
LINE
  5
220
  8
0
  6
CONTINUOUS
 62
   253
 10
-407.9902146450275
 20
178.7724918692979
 30
0.0
 11
-407.9914293957613
 21
178.7513290566315
 31
0.0
  0
LINE
  5
221
  8
0
  6
CONTINUOUS
 62
   253
 10
-316.0430920277269
 20
178.5880214808261
 30
0.0
 11
-316.0545617716713
 21
178.5690881157059
 31
0.0
  0
LINE
  5
222
  8
0
  6
CONTINUOUS
 62
   253
 10
-301.7664502868176
 20
178.4671564420305
 30
0.0
 11
-301.7836533344685
 21
178.4825496775939
 31
0.0
  0
LINE
  5
223
  8
0
  6
CONTINUOUS
 62
   253
 10
-393.9190707182603
 20
252.4281184523637
 30
0.0
 11
-393.916667707103
 21
252.4492308467536
 31
0.0
  0
LINE
  5
224
  8
0
  6
CONTINUOUS
 62
   253
 10
-347.5800305134316
 20
252.814303349507
 30
0.0
 11
-347.556713668223
 21
252.8210833345408
 31
0.0
  0
LINE
  5
225
  8
0
  6
CONTINUOUS
 62
   253
 10
-301.916667707103
 20
252.4492308467536
 30
0.0
 11
-301.9130821604547
 21
252.4702425247069
 31
0.0
  0
LINE
  5
226
  8
0
  6
CONTINUOUS
 62
   253
 10
-408.0430920277269
 20
252.5914260281691
 30
0.0
 11
-408.0326874631721
 21
252.5720531808682
 31
0.0
  0
LINE
  5
227
  8
0
  6
CONTINUOUS
 62
   253
 10
-347.411978886594
 20
252.8406451499073
 30
0.0
 11
-347.4078151478971
 21
252.8406592399707
 31
0.0
  0
LINE
  5
228
  8
0
  6
CONTINUOUS
 62
   253
 10
-393.7100668575896
 20
252.7539682446909
 30
0.0
 11
-393.6898302174611
 21
252.7662494614081
 31
0.0
  0
LINE
  5
229
  8
0
  6
CONTINUOUS
 62
   253
 10
-393.7296131680095
 20
252.7408603052805
 30
0.0
 11
-393.7100668575896
 21
252.7539682446909
 31
0.0
  0
LINE
  5
22A
  8
0
  6
CONTINUOUS
 62
   253
 10
-393.6898302174611
 20
252.7662494614081
 30
0.0
 11
-393.6689514593876
 21
252.7776746966663
 31
0.0
  0
LINE
  5
22B
  8
0
  6
CONTINUOUS
 62
   253
 10
-393.4363899960211
 20
252.8399438610124
 30
0.0
 11
-393.411978886594
 21
252.8406451499073
 31
0.0
  0
LINE
  5
22C
  8
0
  6
CONTINUOUS
 62
   253
 10
-361.9902146450275
 20
178.7724918692979
 30
0.0
 11
-361.9914293957613
 21
178.7513290566315
 31
0.0
  0
LINE
  5
22D
  8
0
  6
CONTINUOUS
 62
   253
 10
-347.5330718418837
 20
252.8268767019179
 30
0.0
 11
-347.5091613586914
 21
252.8316696495222
 31
0.0
  0
LINE
  5
22E
  8
0
  6
CONTINUOUS
 62
   253
 10
-347.8434307445296
 20
252.6288081693872
 30
0.0
 11
-347.8299150909289
 21
252.6467284041061
 31
0.0
  0
LINE
  5
22F
  8
0
  6
CONTINUOUS
 62
   253
 10
-315.9938324069187
 20
178.7302166622416
 30
0.0
 11
-315.9974179535669
 21
178.7092049842883
 31
0.0
  0
LINE
  5
230
  8
0
  6
CONTINUOUS
 62
   253
 10
-301.7100668575896
 20
178.4254792643043
 30
0.0
 11
-301.7296131680095
 21
178.4385872037146
 31
0.0
  0
LINE
  5
231
  8
0
  6
CONTINUOUS
 62
   253
 10
-393.6689514593876
 20
252.7776746966663
 30
0.0
 11
-393.6474803249141
 21
252.7882167309897
 31
0.0
  0
LINE
  5
232
  8
0
  6
CONTINUOUS
 62
   253
 10
-393.8674080862947
 20
252.5914260281691
 30
0.0
 11
-393.8559383423503
 21
252.6103593932892
 31
0.0
  0
LINE
  5
233
  8
0
  6
CONTINUOUS
 62
   253
 10
-362.0670693694921
 20
178.550639339608
 30
0.0
 11
-362.0805850230928
 21
178.5327191048891
 31
0.0
  0
LINE
  5
234
  8
0
  6
CONTINUOUS
 62
   253
 10
-408.002177493501
 20
178.6883440809848
 30
0.0
 11
-408.0080996875949
 21
178.667683651339
 31
0.0
  0
LINE
  5
235
  8
0
  6
CONTINUOUS
 62
   253
 10
-393.8953296872058
 20
252.5321745922449
 30
0.0
 11
-393.8871272481843
 21
252.5522870052505
 31
0.0
  0
LINE
  5
236
  8
0
  6
CONTINUOUS
 62
   253
 10
-408.0151704268158
 20
252.5321745922449
 30
0.0
 11
-408.0080996875949
 21
252.5117638576562
 31
0.0
  0
LINE
  5
237
  8
0
  6
CONTINUOUS
 62
   253
 10
-362.002177493501
 20
178.6883440809848
 30
0.0
 11
-362.0080996875949
 21
178.667683651339
 31
0.0
  0
LINE
  5
238
  8
0
  6
CONTINUOUS
 62
   253
 10
-393.8154235812358
 20
252.6640774042856
 30
0.0
 11
-393.7999907400173
 21
252.6808138376748
 31
0.0
  0
LINE
  5
239
  8
0
  6
CONTINUOUS
 62
   253
 10
-362.0950765327859
 20
178.5153701047095
 30
0.0
 11
-362.1105093740043
 21
178.4986336713203
 31
0.0
  0
LINE
  5
23A
  8
0
  6
CONTINUOUS
 62
   253
 10
-408.241548654634
 20
252.7776746966663
 30
0.0
 11
-408.2206698965605
 21
252.7662494614081
 31
0.0
  0
LINE
  5
23B
  8
0
  6
CONTINUOUS
 62
   253
 10
-362.4254609310499
 20
178.343996750358
 30
0.0
 11
-362.4497373306349
 21
178.3412364878451
 31
0.0
  0
LINE
  5
23C
  8
0
  6
CONTINUOUS
 62
   253
 10
-362.0430920277269
 20
178.5880214808261
 30
0.0
 11
-362.0545617716714
 21
178.5690881157059
 31
0.0
  0
LINE
  5
23D
  8
0
  6
CONTINUOUS
 62
   253
 10
-408.0430920277269
 20
178.5880214808261
 30
0.0
 11
-408.0545617716714
 21
178.5690881157059
 31
0.0
  0
LINE
  5
23E
  8
0
  6
CONTINUOUS
 62
   253
 10
-408.2206698965605
 20
178.4131980475871
 30
0.0
 11
-408.241548654634
 21
178.4017728123288
 31
0.0
  0
LINE
  5
23F
  8
0
  6
CONTINUOUS
 62
   253
 10
-347.7296131680095
 20
252.7408603052805
 30
0.0
 11
-347.7100668575896
 21
252.7539682446909
 31
0.0
  0
LINE
  5
240
  8
0
  6
CONTINUOUS
 62
   253
 10
-393.5800305134316
 20
252.814303349507
 30
0.0
 11
-393.556713668223
 21
252.8210833345408
 31
0.0
  0
LINE
  5
241
  8
0
  6
CONTINUOUS
 62
   253
 10
-408.2850321471589
 20
252.7978504490397
 30
0.0
 11
-408.2630197891076
 21
252.7882167309897
 31
0.0
  0
LINE
  5
242
  8
0
  6
CONTINUOUS
 62
   253
 10
-362.0233728658374
 20
178.6271605037446
 30
0.0
 11
-362.0326874631721
 21
178.6073943281269
 31
0.0
  0
LINE
  5
243
  8
0
  6
CONTINUOUS
 62
   253
 10
-316.2004332564321
 20
178.4254792643043
 30
0.0
 11
-316.2206698965605
 21
178.4131980475871
 31
0.0
  0
LINE
  5
244
  8
0
  6
CONTINUOUS
 62
   253
 10
-361.9914293957613
 20
178.7513290566315
 30
0.0
 11
-361.9938324069187
 21
178.7302166622416
 31
0.0
  0
LINE
  5
245
  8
0
  6
CONTINUOUS
 62
   253
 10
-301.7836533344685
 20
178.4825496775939
 30
0.0
 11
-301.7999907400174
 21
178.4986336713203
 31
0.0
  0
LINE
  5
246
  8
0
  6
CONTINUOUS
 62
   253
 10
-362.2004332564321
 20
178.4254792643043
 30
0.0
 11
-362.2206698965605
 21
178.4131980475871
 31
0.0
  0
LINE
  5
247
  8
0
  6
CONTINUOUS
 62
   253
 10
-316.0545617716713
 20
178.5690881157059
 30
0.0
 11
-316.067069369492
 21
178.550639339608
 31
0.0
  0
LINE
  5
248
  8
0
  6
CONTINUOUS
 62
   253
 10
-408.0080996875949
 20
252.5117638576562
 30
0.0
 11
-408.002177493501
 21
252.4911034280103
 31
0.0
  0
LINE
  5
249
  8
0
  6
CONTINUOUS
 62
   253
 10
-362.0080996875949
 20
178.667683651339
 30
0.0
 11
-362.0151704268159
 21
178.6472729167503
 31
0.0
  0
LINE
  5
24A
  8
0
  6
CONTINUOUS
 62
   253
 10
-301.9130821604547
 20
252.4702425247069
 30
0.0
 11
-301.9083226205207
 21
252.4911034280103
 31
0.0
  0
LINE
  5
24B
  8
0
  6
CONTINUOUS
 62
   253
 10
-362.33046960059
 20
178.3651441594882
 30
0.0
 11
-362.3537864457986
 21
178.3583641744544
 31
0.0
  0
LINE
  5
24C
  8
0
  6
CONTINUOUS
 62
   253
 10
-393.8559383423503
 20
252.6103593932892
 30
0.0
 11
-393.8434307445297
 21
252.6288081693872
 31
0.0
  0
LINE
  5
24D
  8
0
  6
CONTINUOUS
 62
     7
 10
-308.9502500570108
 20
259.3397237544976
 30
0.0
 11
-308.9602500570109
 21
259.3397237544976
 31
0.0
  0
LINE
  5
24E
  8
0
  6
CONTINUOUS
 62
   253
 10
-361.9638817310121
 20
252.0444960972698
 30
0.0
 11
-361.9445993778718
 21
251.849660506573
 31
0.0
  0
LINE
  5
24F
  8
0
  6
CONTINUOUS
 62
   253
 10
-407.6708580745858
 20
179.8411712427028
 30
0.0
 11
-407.7952187010249
 21
179.6898111644327
 31
0.0
  0
LINE
  5
250
  8
0
  6
CONTINUOUS
 62
     7
 10
-400.9602500570109
 20
173.8447237544976
 30
0.0
 11
-402.9552500570108
 21
173.8447237544976
 31
0.0
  0
LINE
  5
251
  8
0
  6
CONTINUOUS
 62
   253
 10
-361.8876492178404
 20
251.6623085319635
 30
0.0
 11
-361.7952187010249
 21
251.4896363445625
 31
0.0
  0
LINE
  5
252
  8
0
  6
CONTINUOUS
 62
   253
 10
-393.9659007361499
 20
251.8496605065729
 30
0.0
 11
-393.9466183830096
 21
252.0444960972697
 31
0.0
  0
LINE
  5
253
  8
0
  6
CONTINUOUS
 62
     7
 10
-400.9602500570109
 20
173.8347237544976
 30
0.0
 11
-400.9602500570109
 21
171.8397237544976
 31
0.0
  0
LINE
  5
254
  8
0
  6
CONTINUOUS
 62
     7
 10
-402.9552500570108
 20
173.8347237544976
 30
0.0
 11
-400.9602500570109
 21
173.8347237544976
 31
0.0
  0
LINE
  5
255
  8
0
  6
CONTINUOUS
 62
   253
 10
-315.9445993778719
 20
179.3297870024222
 30
0.0
 11
-315.9638817310122
 21
179.1349514117254
 31
0.0
  0
LINE
  5
256
  8
0
  6
CONTINUOUS
 62
   253
 10
-407.5193440180882
 20
251.2140420230369
 30
0.0
 11
-407.3464961717046
 21
251.1217054399955
 31
0.0
  0
LINE
  5
257
  8
0
  6
CONTINUOUS
 62
   253
 10
-361.7952187010249
 20
251.4896363445625
 30
0.0
 11
-361.6708580745859
 21
251.3382762662924
 31
0.0
  0
LINE
  5
258
  8
0
  6
CONTINUOUS
 62
   253
 10
-302.0228508961814
 20
179.5171389770317
 30
0.0
 11
-302.1152814129968
 21
179.6898111644327
 31
0.0
  0
LINE
  5
259
  8
0
  6
CONTINUOUS
 62
   253
 10
-407.3464961717046
 20
251.1217054399955
 30
0.0
 11
-407.1589536044018
 21
251.0648131563412
 31
0.0
  0
LINE
  5
25A
  8
0
  6
CONTINUOUS
 62
   253
 10
-302.9465803060737
 20
180.1338971098396
 30
0.0
 11
-303.4465612676058
 21
180.1111196864825
 31
0.0
  0
LINE
  5
25B
  8
0
  6
CONTINUOUS
 62
     7
 10
-308.9602500570109
 20
257.3347237544976
 30
0.0
 11
-308.9602500570109
 21
255.3397237544976
 31
0.0
  0
LINE
  5
25C
  8
0
  6
CONTINUOUS
 62
   253
 10
-302.7515465096199
 20
180.1146343526539
 30
0.0
 11
-302.9465803060737
 21
180.1338971098396
 31
0.0
  0
LINE
  5
25D
  8
0
  6
CONTINUOUS
 62
   253
 10
-406.9639198079479
 20
251.0455503991555
 30
0.0
 11
-406.4639388464158
 21
251.0683278225127
 31
0.0
  0
LINE
  5
25E
  8
0
  6
CONTINUOUS
 62
   253
 10
-302.3911560959335
 20
179.9654054859582
 30
0.0
 11
-302.5640039423171
 21
180.0577420689996
 31
0.0
  0
LINE
  5
25F
  8
0
  6
CONTINUOUS
 62
   253
 10
-361.9638817310121
 20
179.1349514117254
 30
0.0
 11
-361.9638817310121
 21
171.6768782001479
 31
0.0
  0
LINE
  5
260
  8
0
  6
CONTINUOUS
 62
   253
 10
-407.9638817310121
 20
252.0444960972697
 30
0.0
 11
-407.9445993778718
 21
251.849660506573
 31
0.0
  0
LINE
  5
261
  8
0
  6
CONTINUOUS
 62
   253
 10
-361.6708580745859
 20
251.3382762662924
 30
0.0
 11
-361.5193440180882
 21
251.214042023037
 31
0.0
  0
LINE
  5
262
  8
0
  6
CONTINUOUS
 62
     7
 10
-356.9552500570109
 20
173.8347237544976
 30
0.0
 11
-354.9602500570108
 21
173.8347237544976
 31
0.0
  0
LINE
  5
263
  8
0
  6
CONTINUOUS
 62
   253
 10
-361.7952187010249
 20
179.6898111644327
 30
0.0
 11
-361.8876492178402
 21
179.5171389770317
 31
0.0
  0
LINE
  5
264
  8
0
  6
CONTINUOUS
 62
   253
 10
-302.1152814129968
 20
179.6898111644327
 30
0.0
 11
-302.2396420394359
 21
179.8411712427028
 31
0.0
  0
LINE
  5
265
  8
0
  6
CONTINUOUS
 62
   253
 10
-301.9659007361498
 20
179.3297870024222
 30
0.0
 11
-302.0228508961814
 21
179.5171389770317
 31
0.0
  0
LINE
  5
266
  8
0
  6
CONTINUOUS
 62
   253
 10
-407.6708580745858
 20
251.3382762662923
 30
0.0
 11
-407.5193440180882
 21
251.2140420230369
 31
0.0
  0
LINE
  5
267
  8
0
  6
CONTINUOUS
 62
   253
 10
-407.7952187010249
 20
251.4896363445624
 30
0.0
 11
-407.6708580745858
 21
251.3382762662923
 31
0.0
  0
LINE
  5
268
  8
0
  6
CONTINUOUS
 62
   253
 10
-315.963881731012
 20
252.0444960972698
 30
0.0
 11
-315.9445993778717
 21
251.849660506573
 31
0.0
  0
LINE
  5
269
  8
0
  6
CONTINUOUS
 62
   253
 10
-302.2396420394359
 20
179.8411712427028
 30
0.0
 11
-302.3911560959335
 21
179.9654054859582
 31
0.0
  0
LINE
  5
26A
  8
0
  6
CONTINUOUS
 62
   253
 10
-407.8876492178404
 20
251.6623085319634
 30
0.0
 11
-407.7952187010249
 21
251.4896363445624
 31
0.0
  0
LINE
  5
26B
  8
0
  6
CONTINUOUS
 62
   253
 10
-361.1589536044018
 20
251.0648131563413
 30
0.0
 11
-360.9639198079479
 21
251.0455503991555
 31
0.0
  0
LINE
  5
26C
  8
0
  6
CONTINUOUS
 62
   253
 10
-302.5640039423171
 20
180.0577420689996
 30
0.0
 11
-302.7515465096199
 21
180.1146343526539
 31
0.0
  0
LINE
  5
26D
  8
0
  6
CONTINUOUS
 62
     7
 10
-377.5928242289298
 20
114.476606219508
 30
0.0
 11
-377.6164871780474
 21
114.4806199763593
 31
0.0
  0
LINE
  5
26E
  8
0
  6
CONTINUOUS
 62
   253
 10
-301.7244000897208
 20
171.2611724439221
 30
0.0
 11
-301.6379630583507
 21
171.2149669504923
 31
0.0
  0
LINE
  5
26F
  8
0
  6
CONTINUOUS
 62
   253
 10
-348.5640039423171
 20
180.0577420689996
 30
0.0
 11
-348.7515465096199
 21
180.1146343526539
 31
0.0
  0
LINE
  5
270
  8
0
  6
CONTINUOUS
 62
     7
 10
-378.5144291625757
 20
114.391545636257
 30
0.0
 11
-378.5335636670318
 21
114.377057153099
 31
0.0
  0
LINE
  5
271
  8
0
  6
CONTINUOUS
 62
     7
 10
-434.4552500570109
 20
124.7857964241833
 30
0.0
 11
-434.4552500570109
 21
125.2857964241833
 31
0.0
  0
LINE
  5
272
  8
0
  6
CONTINUOUS
 62
     7
 10
-282.4552500570109
 20
125.2857964241833
 30
0.0
 11
-427.4552500570108
 21
125.2857964241833
 31
0.0
  0
LINE
  5
273
  8
0
  6
CONTINUOUS
 62
     7
 10
-378.4316223770825
 20
114.4398492691597
 30
0.0
 11
-378.4531702803126
 21
114.4292788731694
 31
0.0
  0
LINE
  5
274
  8
0
  6
CONTINUOUS
 62
     7
 10
-378.551980852541
 20
114.3616671341607
 30
0.0
 11
-378.5696382825631
 21
114.345411040841
 31
0.0
  0
LINE
  5
275
  8
0
  6
CONTINUOUS
 62
     7
 10
-377.2530165374649
 20
114.2319129652147
 30
0.0
 11
-377.2653286203019
 21
114.2525153442332
 31
0.0
  0
LINE
  5
276
  8
0
  6
CONTINUOUS
 62
   253
 10
-347.9024004264267
 20
252.5117638576562
 30
0.0
 11
-347.8953296872058
 21
252.5321745922449
 31
0.0
  0
ARC
  5
277
  8
0
  6
CONTINUOUS
 62
     7
 10
-395.4465612676058
 20
114.7857964241833
 30
0.0
 40
1.000000000000001
 50
0.4999999999996835
 51
90.00000000000001
  0
LINE
  5
278
  8
0
  6
CONTINUOUS
 62
     7
 10
-378.2940129359743
 20
114.4806199763593
 30
0.0
 11
-378.3176758850918
 21
114.476606219508
 31
0.0
  0
LINE
  5
279
  8
0
  6
CONTINUOUS
 62
   253
 10
-394.5640039423171
 20
180.0577420689996
 30
0.0
 11
-394.7515465096199
 21
180.1146343526539
 31
0.0
  0
LINE
  5
27A
  8
0
  6
CONTINUOUS
 62
   253
 10
-348.0228508961814
 20
179.5171389770317
 30
0.0
 11
-348.1152814129968
 21
179.6898111644327
 31
0.0
  0
LINE
  5
27B
  8
0
  6
CONTINUOUS
 62
     7
 10
-395.4465612676058
 20
115.7857964241833
 30
0.0
 11
-406.4639388464158
 21
115.7857964241833
 31
0.0
  0
LINE
  5
27C
  8
0
  6
CONTINUOUS
 62
     7
 10
-425.082744638205
 20
111.260965223755
 30
0.0
 11
-425.7552500570109
 21
124.7857964241833
 31
0.0
  0
LINE
  5
27D
  8
0
  6
CONTINUOUS
 62
   253
 10
-314.4639388464159
 20
180.1111196864825
 30
0.0
 11
-314.9639198079479
 21
180.1338971098396
 31
0.0
  0
LINE
  5
27E
  8
0
  6
CONTINUOUS
 62
     7
 10
-378.6574835765567
 20
114.2319129652147
 30
0.0
 11
-378.6687928064689
 21
114.210743488986
 31
0.0
  0
LINE
  5
27F
  8
0
  6
CONTINUOUS
 62
     7
 10
-434.4552500570108
 20
125.2857964241833
 30
0.0
 11
-427.4552500570108
 21
125.2857964241833
 31
0.0
  0
LINE
  5
280
  8
0
  6
CONTINUOUS
 62
     7
 10
-377.5462119706599
 20
114.4651978153356
 30
0.0
 11
-377.5693811540999
 21
114.4714615477474
 31
0.0
  0
LINE
  5
281
  8
0
  6
CONTINUOUS
 62
     7
 10
-427.4552500570108
 20
124.7857964241833
 30
0.0
 11
-434.4552500570108
 21
124.7857964241833
 31
0.0
  0
ARC
  5
282
  8
0
  6
CONTINUOUS
 62
     7
 10
-314.4639388464159
 20
114.7857964241833
 30
0.0
 40
1.000000000000001
 50
90.0
 51
179.5000000000004
  0
LINE
  5
283
  8
0
  6
CONTINUOUS
 62
     7
 10
-352.9552500570109
 20
257.3447237544976
 30
0.0
 11
-354.9502500570109
 21
257.3447237544976
 31
0.0
  0
LINE
  5
284
  8
0
  6
CONTINUOUS
 62
     7
 10
-377.5693811540999
 20
114.4714615477474
 30
0.0
 11
-377.5928242289298
 21
114.476606219508
 31
0.0
  0
LINE
  5
285
  8
0
  6
CONTINUOUS
 62
   253
 10
-301.5441742006474
 20
171.1865107317774
 30
0.0
 11
-301.4466374214774
 21
171.1768972386158
 31
0.0
  0
LINE
  5
286
  8
0
  6
CONTINUOUS
 62
     7
 10
-354.9502500570109
 20
257.3347237544976
 30
0.0
 11
-352.9552500570109
 21
257.3347237544976
 31
0.0
  0
LINE
  5
287
  8
0
  6
CONTINUOUS
 62
     7
 10
-377.1885473127221
 20
114.0030871142387
 30
0.0
 11
-377.1899527603305
 21
114.0270468747138
 31
0.0
  0
LINE
  5
288
  8
0
  6
CONTINUOUS
 62
     7
 10
-378.4531702803126
 20
114.4292788731694
 30
0.0
 11
-378.4741861055599
 21
114.4176866130714
 31
0.0
  0
LINE
  5
289
  8
0
  6
CONTINUOUS
 62
   253
 10
-406.9639198079479
 20
180.1338971098396
 30
0.0
 11
-407.1589536044018
 21
180.1146343526539
 31
0.0
  0
LINE
  5
28A
  8
0
  6
CONTINUOUS
 62
     7
 10
-354.9502500570109
 20
257.3447237544976
 30
0.0
 11
-354.9502500570109
 21
259.3397237544976
 31
0.0
  0
LINE
  5
28B
  8
0
  6
CONTINUOUS
 62
     7
 10
-377.2221992697825
 20
114.166899552471
 30
0.0
 11
-377.231426989085
 21
114.1890556938651
 31
0.0
  0
LINE
  5
28C
  8
0
  6
CONTINUOUS
 62
     7
 10
-378.6451714937198
 20
114.2525153442332
 30
0.0
 11
-378.6574835765567
 21
114.2319129652147
 31
0.0
  0
LINE
  5
28D
  8
0
  6
CONTINUOUS
 62
     7
 10
-378.2462458908033
 20
114.4852203787783
 30
0.0
 11
-378.2701846363013
 21
114.4834935698765
 31
0.0
  0
LINE
  5
28E
  8
0
  6
CONTINUOUS
 62
     7
 10
-303.4465612676058
 20
115.7857964241833
 30
0.0
 11
-314.4639388464159
 21
115.7857964241833
 31
0.0
  0
ARC
  5
28F
  8
0
  6
CONTINUOUS
 62
     7
 10
-303.4465612676058
 20
114.7857964241833
 30
0.0
 40
1.000000000000001
 50
0.4999999999996835
 51
90.00000000000001
  0
LINE
  5
290
  8
0
  6
CONTINUOUS
 62
     7
 10
-377.2417073075528
 20
114.210743488986
 30
0.0
 11
-377.2530165374649
 21
114.2319129652147
 31
0.0
  0
LINE
  5
291
  8
0
  6
CONTINUOUS
 62
   253
 10
-348.5640039423171
 20
251.1217054399955
 30
0.0
 11
-348.3911560959334
 21
251.2140420230369
 31
0.0
  0
LINE
  5
292
  8
0
  6
CONTINUOUS
 62
     7
 10
-377.4363140084617
 20
114.4176866130714
 30
0.0
 11
-377.457329833709
 21
114.4292788731694
 31
0.0
  0
LINE
  5
293
  8
0
  6
CONTINUOUS
 62
   253
 10
-360.9639198079479
 20
180.1338971098396
 30
0.0
 11
-361.1589536044018
 21
180.1146343526539
 31
0.0
  0
LINE
  5
294
  8
0
  6
CONTINUOUS
 62
     7
 10
-352.9552500570109
 20
257.3347237544976
 30
0.0
 11
-352.9552500570109
 21
257.3447237544976
 31
0.0
  0
LINE
  5
295
  8
0
  6
CONTINUOUS
 62
     7
 10
-378.4095920461522
 20
114.44937344493
 30
0.0
 11
-378.4316223770825
 21
114.4398492691597
 31
0.0
  0
LINE
  5
296
  8
0
  6
CONTINUOUS
 62
     7
 10
-379.3162759369851
 20
259.476236394832
 30
0.0
 11
-379.3162759369851
 21
252.7561729339318
 31
0.0
  0
LINE
  5
297
  8
0
  6
CONTINUOUS
 62
     7
 10
-378.4741861055599
 20
114.4176866130714
 30
0.0
 11
-378.4946214285461
 21
114.4050991995383
 31
0.0
  0
LINE
  5
298
  8
0
  6
CONTINUOUS
 62
     7
 10
-377.3769364469899
 20
114.377057153099
 30
0.0
 11
-377.396070951446
 21
114.391545636257
 31
0.0
  0
LINE
  5
299
  8
0
  6
CONTINUOUS
 62
     7
 10
-377.3079871372165
 20
114.3104523683079
 30
0.0
 11
-377.3240048428494
 21
114.3283263301312
 31
0.0
  0
ARC
  5
29A
  8
0
  6
CONTINUOUS
 62
     7
 10
-360.4639388464159
 20
114.7857964241833
 30
0.0
 40
1.000000000000001
 50
90.0
 51
179.5000000000004
  0
LINE
  5
29B
  8
0
  6
CONTINUOUS
 62
     7
 10
-377.2010319151285
 20
114.0981362561498
 30
0.0
 11
-377.2069842036664
 21
114.1213873994801
 31
0.0
  0
LINE
  5
29C
  8
0
  6
CONTINUOUS
 62
     7
 10
-349.4465612676058
 20
115.7857964241833
 30
0.0
 11
-360.4639388464159
 21
115.7857964241833
 31
0.0
  0
LINE
  5
29D
  8
0
  6
CONTINUOUS
 62
     7
 10
-377.1925063712597
 20
114.050911586659
 30
0.0
 11
-377.1962022615265
 21
114.0746262614436
 31
0.0
  0
LINE
  5
29E
  8
0
  6
CONTINUOUS
 62
     7
 10
-378.3411189599217
 20
114.4714615477474
 30
0.0
 11
-378.3642881433618
 21
114.4651978153356
 31
0.0
  0
LINE
  5
29F
  8
0
  6
CONTINUOUS
 62
     7
 10
-377.6164871780474
 20
114.4806199763593
 30
0.0
 11
-377.6403154777203
 21
114.4834935698765
 31
0.0
  0
LINE
  5
2A0
  8
0
  6
CONTINUOUS
 62
     7
 10
-377.4788777369391
 20
114.4398492691597
 30
0.0
 11
-377.5009080678694
 21
114.44937344493
 31
0.0
  0
LINE
  5
2A1
  8
0
  6
CONTINUOUS
 62
     7
 10
-378.3642881433618
 20
114.4651978153356
 30
0.0
 11
-378.3871300494052
 21
114.4578294550497
 31
0.0
  0
LINE
  5
2A2
  8
0
  6
CONTINUOUS
 62
     7
 10
-377.1899527603305
 20
114.0270468747138
 30
0.0
 11
-377.1925063712597
 21
114.050911586659
 31
0.0
  0
LINE
  5
2A3
  8
0
  6
CONTINUOUS
 62
   253
 10
-302.2396420394358
 20
251.3382762662923
 30
0.0
 11
-302.1152814129968
 21
251.4896363445624
 31
0.0
  0
LINE
  5
2A4
  8
0
  6
CONTINUOUS
 62
     7
 10
-377.231426989085
 20
114.1890556938651
 30
0.0
 11
-377.2417073075528
 21
114.210743488986
 31
0.0
  0
LINE
  5
2A5
  8
0
  6
CONTINUOUS
 62
   253
 10
-301.937004889848
 20
171.579341420978
 30
0.0
 11
-301.908548671133
 21
171.4855525632746
 31
0.0
  0
LINE
  5
2A6
  8
0
  6
CONTINUOUS
 62
   253
 10
-361.3464961717046
 20
180.0577420689996
 30
0.0
 11
-361.5193440180882
 21
179.9654054859582
 31
0.0
  0
LINE
  5
2A7
  8
0
  6
CONTINUOUS
 62
     7
 10
-377.1962022615265
 20
114.0746262614436
 30
0.0
 11
-377.2010319151285
 21
114.0981362561498
 31
0.0
  0
LINE
  5
2A8
  8
0
  6
CONTINUOUS
 62
     7
 10
-377.2069842036664
 20
114.1213873994801
 30
0.0
 11
-377.2140454119865
 21
114.1443261165773
 31
0.0
  0
LINE
  5
2A9
  8
0
  6
CONTINUOUS
 62
     7
 10
-377.2786151867886
 20
114.2725031544183
 30
0.0
 11
-377.2928456222627
 21
114.2918303402254
 31
0.0
  0
LINE
  5
2AA
  8
0
  6
CONTINUOUS
 62
   253
 10
-362.5026849661246
 20
252.8406592399707
 30
0.0
 11
-362.4985212274277
 21
252.8406451499073
 31
0.0
  0
LINE
  5
2AB
  8
0
  6
CONTINUOUS
 62
   253
 10
-408.4741101180005
 20
252.8399438610124
 30
0.0
 11
-408.4497373306349
 21
252.83821102115
 31
0.0
  0
LINE
  5
2AC
  8
0
  6
CONTINUOUS
 62
   253
 10
-286.4830788205132
 20
252.4209856843926
 30
0.0
 11
-286.9150563758412
 21
252.6514129385352
 31
0.0
  0
LINE
  5
2AD
  8
0
  6
CONTINUOUS
 62
   253
 10
-362.3075332865549
 20
252.8065528994503
 30
0.0
 11
-362.285032147159
 21
252.7978504490397
 31
0.0
  0
LINE
  5
2AE
  8
0
  6
CONTINUOUS
 62
   253
 10
-362.241548654634
 20
252.7776746966663
 30
0.0
 11
-362.2206698965605
 21
252.7662494614081
 31
0.0
  0
LINE
  5
2AF
  8
0
  6
CONTINUOUS
 62
   253
 10
-380.89041769512
 20
178.5284643292329
 30
0.0
 11
-380.4585702328044
 21
178.7592061173533
 31
0.0
  0
LINE
  5
2B0
  8
0
  6
CONTINUOUS
 62
   253
 10
-424.5361072516122
 20
180.8355485439713
 30
0.0
 11
-424.4885464566091
 21
180.3477518416325
 31
0.0
  0
LINE
  5
2B1
  8
0
  6
CONTINUOUS
 62
   253
 10
-362.285032147159
 20
252.7978504490397
 30
0.0
 11
-362.2630197891075
 21
252.7882167309897
 31
0.0
  0
LINE
  5
2B2
  8
0
  6
CONTINUOUS
 62
   253
 10
-362.2206698965605
 20
252.7662494614081
 30
0.0
 11
-362.2004332564321
 21
252.7539682446909
 31
0.0
  0
LINE
  5
2B3
  8
0
  6
CONTINUOUS
 62
   253
 10
-393.9024004264267
 20
178.667683651339
 30
0.0
 11
-393.9083226205207
 21
178.6883440809848
 31
0.0
  0
LINE
  5
2B4
  8
0
  6
CONTINUOUS
 62
   253
 10
-362.4741101180005
 20
252.8399438610124
 30
0.0
 11
-362.4497373306349
 21
252.83821102115
 31
0.0
  0
LINE
  5
2B5
  8
0
  6
CONTINUOUS
 62
   253
 10
-424.3467993274283
 20
179.8789527770411
 30
0.0
 11
-424.1162973764143
 21
179.4471149443886
 31
0.0
  0
LINE
  5
2B6
  8
0
  6
CONTINUOUS
 62
   253
 10
-362.0233728658374
 20
252.5522870052505
 30
0.0
 11
-362.0151704268159
 21
252.5321745922449
 31
0.0
  0
LINE
  5
2B7
  8
0
  6
CONTINUOUS
 62
   253
 10
-362.0805850230928
 20
252.6467284041061
 30
0.0
 11
-362.0670693694921
 21
252.6288081693872
 31
0.0
  0
LINE
  5
2B8
  8
0
  6
CONTINUOUS
 62
   253
 10
-380.89041769512
 20
252.6509831797622
 30
0.0
 11
-381.3591581604937
 21
252.7929372051292
 31
0.0
  0
LINE
  5
2B9
  8
0
  6
CONTINUOUS
 62
   253
 10
-375.0200824189016
 20
178.5284643292329
 30
0.0
 11
-374.5513419535279
 21
178.386510303866
 31
0.0
  0
LINE
  5
2BA
  8
0
  6
CONTINUOUS
 62
   253
 10
-381.8468144715127
 20
178.3387882690244
 30
0.0
 11
-381.3591581604937
 21
178.386510303866
 31
0.0
  0
LINE
  5
2BB
  8
0
  6
CONTINUOUS
 62
   253
 10
-285.5637007865934
 20
251.3004947319541
 30
0.0
 11
-285.7942027376074
 21
251.7323325646065
 31
0.0
  0
LINE
  5
2BC
  8
0
  6
CONTINUOUS
 62
   253
 10
-316.1440498272041
 20
252.7122910669647
 30
0.0
 11
-316.1268467795532
 21
252.6968978314013
 31
0.0
  0
LINE
  5
2BD
  8
0
  6
CONTINUOUS
 62
   253
 10
-379.3496814255626
 20
250.3414732493709
 30
0.0
 11
-379.3973639032532
 21
250.8295301163133
 31
0.0
  0
LINE
  5
2BE
  8
0
  6
CONTINUOUS
 62
   253
 10
-393.411978886594
 20
178.3388023590879
 30
0.0
 11
-393.4363899960211
 21
178.3395036479828
 31
0.0
  0
LINE
  5
2BF
  8
0
  6
CONTINUOUS
 62
   253
 10
-315.9938324069187
 20
252.4492308467536
 30
0.0
 11
-315.9914293957613
 21
252.4281184523637
 31
0.0
  0
LINE
  5
2C0
  8
0
  6
CONTINUOUS
 62
   253
 10
-393.8434307445297
 20
178.550639339608
 30
0.0
 11
-393.8559383423503
 21
178.5690881157059
 31
0.0
  0
LINE
  5
2C1
  8
0
  6
CONTINUOUS
 62
   253
 10
-316.307533286555
 20
252.8065528994503
 30
0.0
 11
-316.285032147159
 21
252.7978504490397
 31
0.0
  0
LINE
  5
2C2
  8
0
  6
CONTINUOUS
 62
   253
 10
-286.1046270621391
 20
252.1106618635692
 30
0.0
 11
-286.4830788205132
 21
252.4209856843926
 31
0.0
  0
LINE
  5
2C3
  8
0
  6
CONTINUOUS
 62
   253
 10
-422.0385386082077
 20
252.8406592399708
 30
0.0
 11
-422.5264930415884
 21
252.7931140399404
 31
0.0
  0
LINE
  5
2C4
  8
0
  6
CONTINUOUS
 62
   253
 10
-362.4013387553303
 20
252.8316696495222
 30
0.0
 11
-362.377428272138
 21
252.8268767019179
 31
0.0
  0
LINE
  5
2C5
  8
0
  6
CONTINUOUS
 62
   253
 10
-362.4254609310499
 20
252.8354507586372
 30
0.0
 11
-362.4013387553303
 21
252.8316696495222
 31
0.0
  0
LINE
  5
2C6
  8
0
  6
CONTINUOUS
 62
   253
 10
-361.9974179535669
 20
252.4702425247069
 30
0.0
 11
-361.9938324069187
 21
252.4492308467536
 31
0.0
  0
LINE
  5
2C7
  8
0
  6
CONTINUOUS
 62
   253
 10
-376.5131362107685
 20
250.8295301163133
 30
0.0
 11
-376.5608186884591
 21
250.3414732493709
 31
0.0
  0
LINE
  5
2C8
  8
0
  6
CONTINUOUS
 62
   253
 10
-362.1808869460122
 20
252.7408603052805
 30
0.0
 11
-362.162077532423
 21
252.7269568715268
 31
0.0
  0
LINE
  5
2C9
  8
0
  6
CONTINUOUS
 62
   253
 10
-393.8953296872058
 20
178.6472729167503
 30
0.0
 11
-393.9024004264267
 21
178.667683651339
 31
0.0
  0
LINE
  5
2CA
  8
0
  6
CONTINUOUS
 62
   253
 10
-376.371299057463
 20
251.298655678096
 30
0.0
 11
-376.5131362107685
 21
250.8295301163133
 31
0.0
  0
LINE
  5
2CB
  8
0
  6
CONTINUOUS
 62
   253
 10
-393.8559383423503
 20
178.5690881157059
 30
0.0
 11
-393.8674080862947
 21
178.5880214808261
 31
0.0
  0
LINE
  5
2CC
  8
0
  6
CONTINUOUS
 62
   253
 10
-316.067069369492
 20
252.6288081693872
 30
0.0
 11
-316.0545617716713
 21
252.6103593932893
 31
0.0
  0
LINE
  5
2CD
  8
0
  6
CONTINUOUS
 62
   253
 10
-301.916667707103
 20
178.7302166622416
 30
0.0
 11
-301.9190707182604
 21
178.7513290566315
 31
0.0
  0
LINE
  5
2CE
  8
0
  6
CONTINUOUS
 62
   253
 10
-393.4078151478971
 20
178.3387882690244
 30
0.0
 11
-393.411978886594
 21
178.3388023590879
 31
0.0
  0
LINE
  5
2CF
  8
0
  6
CONTINUOUS
 62
   253
 10
-362.1105093740043
 20
252.6808138376748
 30
0.0
 11
-362.0950765327859
 21
252.6640774042856
 31
0.0
  0
LINE
  5
2D0
  8
0
  6
CONTINUOUS
 62
   253
 10
-285.4219536574126
 20
180.3477518416325
 30
0.0
 11
-285.3743928624095
 21
180.8355485439712
 31
0.0
  0
LINE
  5
2D1
  8
0
  6
CONTINUOUS
 62
   253
 10
-379.3973639032532
 20
180.3499173926819
 30
0.0
 11
-379.3496814255626
 21
180.8379742596243
 31
0.0
  0
LINE
  5
2D2
  8
0
  6
CONTINUOUS
 62
   253
 10
-424.4885464566091
 20
180.3477518416325
 30
0.0
 11
-424.3467993274283
 21
179.8789527770411
 31
0.0
  0
LINE
  5
2D3
  8
0
  6
CONTINUOUS
 62
   253
 10
-362.1440498272041
 20
252.7122910669647
 30
0.0
 11
-362.1268467795532
 21
252.6968978314013
 31
0.0
  0
LINE
  5
2D4
  8
0
  6
CONTINUOUS
 62
   253
 10
-375.0200824189016
 20
252.6509831797622
 30
0.0
 11
-375.4519298812173
 21
252.4202413916418
 31
0.0
  0
LINE
  5
2D5
  8
0
  6
CONTINUOUS
 62
   253
 10
-376.1407469740315
 20
251.7308580080697
 30
0.0
 11
-376.371299057463
 21
251.298655678096
 31
0.0
  0
LINE
  5
2D6
  8
0
  6
CONTINUOUS
 62
   253
 10
-393.8871272481843
 20
178.6271605037446
 30
0.0
 11
-393.8953296872058
 21
178.6472729167503
 31
0.0
  0
LINE
  5
2D7
  8
0
  6
CONTINUOUS
 62
   253
 10
-380.4585702328044
 20
252.4202413916418
 30
0.0
 11
-380.89041769512
 21
252.6509831797622
 31
0.0
  0
LINE
  5
2D8
  8
0
  6
CONTINUOUS
 62
   253
 10
-393.7100668575896
 20
178.4254792643043
 30
0.0
 11
-393.7296131680095
 21
178.4385872037146
 31
0.0
  0
LINE
  5
2D9
  8
0
  6
CONTINUOUS
 62
   253
 10
-379.7697531399902
 20
179.4485895009255
 30
0.0
 11
-379.5392010565587
 21
179.8807918308991
 31
0.0
  0
LINE
  5
2DA
  8
0
  6
CONTINUOUS
 62
   253
 10
-316.162077532423
 20
252.7269568715268
 30
0.0
 11
-316.1440498272041
 21
252.7122910669647
 31
0.0
  0
LINE
  5
2DB
  8
0
  6
CONTINUOUS
 62
   253
 10
-393.9130821604548
 20
178.7092049842883
 30
0.0
 11
-393.916667707103
 21
178.7302166622416
 31
0.0
  0
LINE
  5
2DC
  8
0
  6
CONTINUOUS
 62
   253
 10
-316.002177493501
 20
252.4911034280103
 30
0.0
 11
-315.9974179535669
 21
252.4702425247069
 31
0.0
  0
LINE
  5
2DD
  8
0
  6
CONTINUOUS
 62
   253
 10
-287.3840070724333
 20
252.7931140399403
 30
0.0
 11
-287.871961505814
 21
252.8406592399707
 31
0.0
  0
LINE
  5
2DE
  8
0
  6
CONTINUOUS
 62
   253
 10
-362.0151704268159
 20
252.5321745922449
 30
0.0
 11
-362.0080996875949
 21
252.5117638576562
 31
0.0
  0
LINE
  5
2DF
  8
0
  6
CONTINUOUS
 62
   253
 10
-287.3840070724333
 20
178.3863334690548
 30
0.0
 11
-286.9150563758412
 21
178.5280345704599
 31
0.0
  0
LINE
  5
2E0
  8
0
  6
CONTINUOUS
 62
   253
 10
-393.7664502868176
 20
178.4671564420305
 30
0.0
 11
-393.7836533344685
 21
178.4825496775939
 31
0.0
  0
LINE
  5
2E1
  8
0
  6
CONTINUOUS
 62
   253
 10
-315.9914293957613
 20
252.4281184523637
 30
0.0
 11
-315.9902146450275
 21
252.4069556396972
 31
0.0
  0
LINE
  5
2E2
  8
0
  6
CONTINUOUS
 62
   253
 10
-362.002177493501
 20
252.4911034280103
 30
0.0
 11
-361.9974179535669
 21
252.4702425247069
 31
0.0
  0
LINE
  5
2E3
  8
0
  6
CONTINUOUS
 62
   253
 10
-374.5513419535279
 20
252.7929372051292
 30
0.0
 11
-375.0200824189016
 21
252.6509831797622
 31
0.0
  0
LINE
  5
2E4
  8
0
  6
CONTINUOUS
 62
   253
 10
-316.2415486546341
 20
252.7776746966663
 30
0.0
 11
-316.2206698965605
 21
252.7662494614081
 31
0.0
  0
LINE
  5
2E5
  8
0
  6
CONTINUOUS
 62
   253
 10
-375.4519298812173
 20
178.7592061173533
 30
0.0
 11
-375.0200824189016
 21
178.5284643292329
 31
0.0
  0
LINE
  5
2E6
  8
0
  6
CONTINUOUS
 62
   253
 10
-285.4219536574126
 20
250.8316956673627
 30
0.0
 11
-285.5637007865934
 21
251.3004947319541
 31
0.0
  0
LINE
  5
2E7
  8
0
  6
CONTINUOUS
 62
     7
 10
-282.4552500570109
 20
125.2857964241833
 30
0.0
 11
-275.4552500570109
 21
125.2857964241833
 31
0.0
  0
LINE
  5
2E8
  8
0
  6
CONTINUOUS
 62
   253
 10
-408.5026849661245
 20
178.3387882690244
 30
0.0
 11
-422.0385386082077
 21
178.3387882690244
 31
0.0
  0
LINE
  5
2E9
  8
0
  6
CONTINUOUS
 62
   253
 10
-362.4497373306349
 20
252.83821102115
 30
0.0
 11
-362.4254609310499
 21
252.8354507586372
 31
0.0
  0
LINE
  5
2EA
  8
0
  6
CONTINUOUS
 62
   253
 10
-362.2630197891075
 20
252.7882167309897
 30
0.0
 11
-362.241548654634
 21
252.7776746966663
 31
0.0
  0
LINE
  5
2EB
  8
0
  6
CONTINUOUS
 62
   253
 10
-362.1268467795532
 20
252.6968978314013
 30
0.0
 11
-362.1105093740043
 21
252.6808138376748
 31
0.0
  0
LINE
  5
2EC
  8
0
  6
CONTINUOUS
 62
   253
 10
-362.4985212274277
 20
252.8406451499073
 30
0.0
 11
-362.4741101180005
 21
252.8399438610124
 31
0.0
  0
LINE
  5
2ED
  8
0
  6
CONTINUOUS
 62
   253
 10
-316.0151704268159
 20
252.5321745922449
 30
0.0
 11
-316.0080996875949
 21
252.5117638576562
 31
0.0
  0
LINE
  5
2EE
  8
0
  6
CONTINUOUS
 62
   253
 10
-424.4885464566091
 20
250.8316956673627
 30
0.0
 11
-424.5361072516122
 21
250.343898965024
 31
0.0
  0
LINE
  5
2EF
  8
0
  6
CONTINUOUS
 62
   253
 10
-362.377428272138
 20
252.8268767019179
 30
0.0
 11
-362.3537864457986
 21
252.8210833345408
 31
0.0
  0
LINE
  5
2F0
  8
0
  6
CONTINUOUS
 62
   253
 10
-422.5264930415884
 20
178.3863334690548
 30
0.0
 11
-422.0385386082077
 21
178.3387882690244
 31
0.0
  0
LINE
  5
2F1
  8
0
  6
CONTINUOUS
 62
   253
 10
-362.3537864457986
 20
252.8210833345408
 30
0.0
 11
-362.33046960059
 21
252.814303349507
 31
0.0
  0
LINE
  5
2F2
  8
0
  6
CONTINUOUS
 62
   253
 10
-362.0080996875949
 20
252.5117638576562
 30
0.0
 11
-362.002177493501
 21
252.4911034280103
 31
0.0
  0
LINE
  5
2F3
  8
0
  6
CONTINUOUS
 62
   253
 10
-393.4203045074621
 20
177.3398946176073
 30
0.0
 11
-393.4078151478972
 21
177.3398425709102
 31
0.0
  0
LINE
  5
2F4
  8
0
  6
CONTINUOUS
 62
   253
 10
-423.4274212935085
 20
252.4209856843927
 30
0.0
 11
-423.8058730518827
 21
252.1106618635693
 31
0.0
  0
LINE
  5
2F5
  8
0
  6
CONTINUOUS
 62
   253
 10
-361.9914293957613
 20
252.4281184523637
 30
0.0
 11
-361.9902146450275
 21
252.4069556396972
 31
0.0
  0
LINE
  5
2F6
  8
0
  6
CONTINUOUS
 62
   253
 10
-362.33046960059
 20
252.814303349507
 30
0.0
 11
-362.3075332865549
 21
252.8065528994503
 31
0.0
  0
LINE
  5
2F7
  8
0
  6
CONTINUOUS
 62
   253
 10
-407.9638817310121
 20
259.5025693088474
 30
0.0
 11
-407.9638817310121
 21
252.0444960972697
 31
0.0
  0
LINE
  5
2F8
  8
0
  6
CONTINUOUS
 62
   253
 10
-361.8876492178402
 20
179.5171389770317
 30
0.0
 11
-361.9445993778718
 21
179.3297870024222
 31
0.0
  0
LINE
  5
2F9
  8
0
  6
CONTINUOUS
 62
   253
 10
-315.3464961717046
 20
251.1217054399956
 30
0.0
 11
-315.1589536044019
 21
251.0648131563413
 31
0.0
  0
LINE
  5
2FA
  8
0
  6
CONTINUOUS
 62
   253
 10
-424.1162973764143
 20
251.7323325646066
 30
0.0
 11
-424.3467993274283
 21
251.3004947319541
 31
0.0
  0
LINE
  5
2FB
  8
0
  6
CONTINUOUS
 62
   253
 10
-286.4830788205132
 20
178.7584618246025
 30
0.0
 11
-286.1046270621391
 21
179.0687856454259
 31
0.0
  0
LINE
  5
2FC
  8
0
  6
CONTINUOUS
 62
   253
 10
-375.8303221053321
 20
179.0698862478054
 30
0.0
 11
-375.4519298812173
 21
178.7592061173533
 31
0.0
  0
LINE
  5
2FD
  8
0
  6
CONTINUOUS
 62
   253
 10
-422.5264930415884
 20
252.7931140399404
 30
0.0
 11
-422.9954437381805
 21
252.6514129385353
 31
0.0
  0
LINE
  5
2FE
  8
0
  6
CONTINUOUS
 62
   253
 10
-379.5392010565587
 20
251.298655678096
 30
0.0
 11
-379.7697531399902
 21
251.7308580080697
 31
0.0
  0
LINE
  5
2FF
  8
0
  6
CONTINUOUS
 62
   253
 10
-376.5608186884591
 20
180.8379742596242
 30
0.0
 11
-376.5131362107685
 21
180.3499173926818
 31
0.0
  0
LINE
  5
300
  8
0
  6
CONTINUOUS
 62
   253
 10
-381.3591581604937
 20
252.7929372051292
 30
0.0
 11
-381.8468144715127
 21
252.8406592399707
 31
0.0
  0
LINE
  5
301
  8
0
  6
CONTINUOUS
 62
   253
 10
-423.4274212935085
 20
178.7584618246025
 30
0.0
 11
-422.9954437381805
 21
178.5280345704599
 31
0.0
  0
LINE
  5
302
  8
0
  6
CONTINUOUS
 62
   253
 10
-347.4078151478971
 20
252.8406592399707
 30
0.0
 11
-316.5026849661246
 21
252.8406592399708
 31
0.0
  0
LINE
  5
303
  8
0
  6
CONTINUOUS
 62
   253
 10
-362.5026849661246
 20
178.3387882690244
 30
0.0
 11
-374.0636856425089
 21
178.3387882690244
 31
0.0
  0
LINE
  5
304
  8
0
  6
CONTINUOUS
 62
     7
 10
-275.4552500570109
 20
124.7857964241833
 30
0.0
 11
-282.4552500570109
 21
124.7857964241833
 31
0.0
  0
LINE
  5
305
  8
0
  6
CONTINUOUS
 62
   253
 10
-376.5131362107685
 20
180.3499173926818
 30
0.0
 11
-376.371299057463
 21
179.8807918308991
 31
0.0
  0
LINE
  5
306
  8
0
  6
CONTINUOUS
 62
   253
 10
-362.0670693694921
 20
252.6288081693872
 30
0.0
 11
-362.0545617716714
 21
252.6103593932892
 31
0.0
  0
LINE
  5
307
  8
0
  6
CONTINUOUS
 62
   253
 10
-287.8719615058139
 20
178.3387882690244
 30
0.0
 11
-301.4078151478971
 21
178.3387882690244
 31
0.0
  0
LINE
  5
308
  8
0
  6
CONTINUOUS
 62
   253
 10
-362.0430920277269
 20
252.5914260281691
 30
0.0
 11
-362.0326874631721
 21
252.5720531808682
 31
0.0
  0
LINE
  5
309
  8
0
  6
CONTINUOUS
 62
   253
 10
-381.8468144715127
 20
178.3387882690244
 30
0.0
 11
-393.4078151478971
 21
178.3387882690244
 31
0.0
  0
LINE
  5
30A
  8
0
  6
CONTINUOUS
 62
   253
 10
-422.9954437381805
 20
252.6514129385353
 30
0.0
 11
-423.4274212935085
 21
252.4209856843927
 31
0.0
  0
LINE
  5
30B
  8
0
  6
CONTINUOUS
 62
   253
 10
-408.5026849661245
 20
177.3398425709102
 30
0.0
 11
-408.4901956065596
 21
177.3398946176073
 31
0.0
  0
LINE
  5
30C
  8
0
  6
CONTINUOUS
 62
   253
 10
-424.3467993274283
 20
251.3004947319541
 30
0.0
 11
-424.4885464566091
 21
250.8316956673627
 31
0.0
  0
LINE
  5
30D
  8
0
  6
CONTINUOUS
 62
   253
 10
-362.0545617716714
 20
252.6103593932892
 30
0.0
 11
-362.0430920277269
 21
252.5914260281691
 31
0.0
  0
LINE
  5
30E
  8
0
  6
CONTINUOUS
 62
   253
 10
-375.4519298812173
 20
252.4202413916418
 30
0.0
 11
-375.8303221053321
 21
252.1095612611897
 31
0.0
  0
LINE
  5
30F
  8
0
  6
CONTINUOUS
 62
   253
 10
-301.4078151478971
 20
252.8406592399707
 30
0.0
 11
-287.8719615058139
 21
252.8406592399708
 31
0.0
  0
LINE
  5
310
  8
0
  6
CONTINUOUS
 62
   253
 10
-347.9083226205207
 20
252.4911034280103
 30
0.0
 11
-347.9024004264267
 21
252.5117638576562
 31
0.0
  0
LINE
  5
311
  8
0
  6
CONTINUOUS
 62
   253
 10
-374.0636856425089
 20
252.8406592399708
 30
0.0
 11
-362.5026849661246
 21
252.8406592399708
 31
0.0
  0
LINE
  5
312
  8
0
  6
CONTINUOUS
 62
   253
 10
-362.162077532423
 20
252.7269568715268
 30
0.0
 11
-362.1440498272041
 21
252.7122910669647
 31
0.0
  0
LINE
  5
313
  8
0
  6
CONTINUOUS
 62
   253
 10
-362.4901956065596
 20
253.8395528913879
 30
0.0
 11
-362.5026849661245
 21
253.8396049380849
 31
0.0
  0
LINE
  5
314
  8
0
  6
CONTINUOUS
 62
   253
 10
-367.4552500570109
 20
181.003085747429
 30
0.0
 11
-367.4552500570109
 21
181.0039291889377
 31
0.0
  0
LINE
  5
315
  8
0
  6
CONTINUOUS
 62
   253
 10
-362.5026849661245
 20
177.3398425709102
 30
0.0
 11
-362.4901956065596
 21
177.3398946176073
 31
0.0
  0
LINE
  5
316
  8
0
  6
CONTINUOUS
 62
   253
 10
-394.1152814129968
 20
179.6898111644327
 30
0.0
 11
-394.2396420394359
 21
179.8411712427028
 31
0.0
  0
LINE
  5
317
  8
0
  6
CONTINUOUS
 62
   253
 10
-393.4078151478971
 20
252.8406592399707
 30
0.0
 11
-381.8468144715127
 21
252.8406592399708
 31
0.0
  0
LINE
  5
318
  8
0
  6
CONTINUOUS
 62
   253
 10
-362.0326874631721
 20
252.5720531808682
 30
0.0
 11
-362.0233728658374
 21
252.5522870052505
 31
0.0
  0
LINE
  5
319
  8
0
  6
CONTINUOUS
 62
   253
 10
-422.0385386082078
 20
252.8406592399708
 30
0.0
 11
-408.5026849661246
 21
252.8406592399708
 31
0.0
  0
LINE
  5
31A
  8
0
  6
CONTINUOUS
 62
   253
 10
-362.0950765327859
 20
252.6640774042856
 30
0.0
 11
-362.0805850230928
 21
252.6467284041061
 31
0.0
  0
LINE
  5
31B
  8
0
  6
CONTINUOUS
 62
   253
 10
-286.9150563758412
 20
252.6514129385352
 30
0.0
 11
-287.3840070724333
 21
252.7931140399403
 31
0.0
  0
LINE
  5
31C
  8
0
  6
CONTINUOUS
 62
   253
 10
-362.2004332564321
 20
252.7539682446909
 30
0.0
 11
-362.1808869460122
 21
252.7408603052805
 31
0.0
  0
LINE
  5
31D
  8
0
  6
CONTINUOUS
 62
   253
 10
-370.4552500570109
 20
181.003085747429
 30
0.0
 11
-370.4552500570109
 21
181.0039291889377
 31
0.0
  0
LINE
  5
31E
  8
0
  6
CONTINUOUS
 62
   253
 10
-374.0636856425089
 20
252.8406592399707
 30
0.0
 11
-374.5513419535279
 21
252.7929372051292
 31
0.0
  0
LINE
  5
31F
  8
0
  6
CONTINUOUS
 62
   253
 10
-316.5026849661246
 20
178.3387882690244
 30
0.0
 11
-347.4078151478971
 21
178.3387882690244
 31
0.0
  0
LINE
  5
320
  8
0
  6
CONTINUOUS
 62
   253
 10
-408.4901956065596
 20
253.8395528913879
 30
0.0
 11
-408.5026849661245
 21
253.8396049380849
 31
0.0
  0
LINE
  5
321
  8
0
  6
CONTINUOUS
 62
   253
 10
-423.8058730518827
 20
252.1106618635693
 30
0.0
 11
-424.1162973764143
 21
251.7323325646066
 31
0.0
  0
LINE
  5
322
  8
0
  6
CONTINUOUS
 62
   253
 10
-361.9938324069187
 20
252.4492308467536
 30
0.0
 11
-361.9914293957613
 21
252.4281184523637
 31
0.0
  0
LINE
  5
323
  8
0
  6
CONTINUOUS
 62
   253
 10
-408.4985212274277
 20
252.8406451499073
 30
0.0
 11
-408.4741101180005
 21
252.8399438610124
 31
0.0
  0
LINE
  5
324
  8
0
  6
CONTINUOUS
 62
     7
 10
-308.9502500570108
 20
175.8397237544976
 30
0.0
 11
-308.9602500570109
 21
175.8397237544976
 31
0.0
  0
LINE
  5
325
  8
0
  6
CONTINUOUS
 62
   253
 10
-407.5193440180882
 20
179.9654054859582
 30
0.0
 11
-407.6708580745858
 21
179.8411712427028
 31
0.0
  0
LINE
  5
326
  8
0
  6
CONTINUOUS
 62
   253
 10
-349.4465612676058
 20
251.0683278225127
 30
0.0
 11
-348.9465803060737
 21
251.0455503991555
 31
0.0
  0
LINE
  5
327
  8
0
  6
CONTINUOUS
 62
   253
 10
-301.908548671133
 20
171.4855525632746
 30
0.0
 11
-301.8623431777033
 21
171.3991155319046
 31
0.0
  0
LINE
  5
328
  8
0
  6
CONTINUOUS
 62
     7
 10
-306.9552500570109
 20
173.8347237544976
 30
0.0
 11
-306.9552500570109
 21
173.8447237544976
 31
0.0
  0
LINE
  5
329
  8
0
  6
CONTINUOUS
 62
     7
 10
-308.9602500570109
 20
173.8347237544976
 30
0.0
 11
-308.9602500570109
 21
171.8397237544976
 31
0.0
  0
LINE
  5
32A
  8
0
  6
CONTINUOUS
 62
   253
 10
-407.9445993778718
 20
179.3297870024222
 30
0.0
 11
-407.9638817310121
 21
179.1349514117254
 31
0.0
  0
LINE
  5
32B
  8
0
  6
CONTINUOUS
 62
   253
 10
-361.9445993778718
 20
179.3297870024222
 30
0.0
 11
-361.9638817310121
 21
179.1349514117254
 31
0.0
  0
LINE
  5
32C
  8
0
  6
CONTINUOUS
 62
   253
 10
-360.4639388464159
 20
180.1111196864825
 30
0.0
 11
-360.9639198079479
 21
180.1338971098396
 31
0.0
  0
LINE
  5
32D
  8
0
  6
CONTINUOUS
 62
   253
 10
-301.8001638891489
 20
171.3233517324765
 30
0.0
 11
-301.7244000897208
 21
171.2611724439221
 31
0.0
  0
LINE
  5
32E
  8
0
  6
CONTINUOUS
 62
   253
 10
-347.9130821604548
 20
252.4702425247069
 30
0.0
 11
-347.9083226205207
 21
252.4911034280103
 31
0.0
  0
LINE
  5
32F
  8
0
  6
CONTINUOUS
 62
     7
 10
-379.3162759369851
 20
178.4232745750634
 30
0.0
 11
-379.3496814255626
 21
180.8379742596243
 31
0.0
  0
LINE
  5
330
  8
0
  6
CONTINUOUS
 62
     7
 10
-310.9552500570109
 20
173.8347237544976
 30
0.0
 11
-308.9602500570109
 21
173.8347237544976
 31
0.0
  0
LINE
  5
331
  8
0
  6
CONTINUOUS
 62
     7
 10
-308.9502500570108
 20
173.8347237544976
 30
0.0
 11
-306.9552500570109
 21
173.8347237544976
 31
0.0
  0
LINE
  5
332
  8
0
  6
CONTINUOUS
 62
   253
 10
-407.3464961717046
 20
180.0577420689996
 30
0.0
 11
-407.5193440180882
 21
179.9654054859582
 31
0.0
  0
LINE
  5
333
  8
0
  6
CONTINUOUS
 62
   253
 10
-301.9659007361498
 20
251.8496605065729
 30
0.0
 11
-301.9466183830095
 21
252.0444960972697
 31
0.0
  0
LINE
  5
334
  8
0
  6
CONTINUOUS
 62
     7
 10
-308.9602500570109
 20
173.8447237544976
 30
0.0
 11
-310.9552500570109
 21
173.8447237544976
 31
0.0
  0
LINE
  5
335
  8
0
  6
CONTINUOUS
 62
     7
 10
-308.9502500570108
 20
171.8397237544976
 30
0.0
 11
-308.9502500570108
 21
173.8347237544976
 31
0.0
  0
LINE
  5
336
  8
0
  6
CONTINUOUS
 62
   253
 10
-314.9639198079479
 20
180.1338971098397
 30
0.0
 11
-315.1589536044018
 21
180.1146343526539
 31
0.0
  0
LINE
  5
337
  8
0
  6
CONTINUOUS
 62
   253
 10
-407.1589536044018
 20
180.1146343526539
 30
0.0
 11
-407.3464961717046
 21
180.0577420689996
 31
0.0
  0
LINE
  5
338
  8
0
  6
CONTINUOUS
 62
   253
 10
-407.8876492178402
 20
179.5171389770317
 30
0.0
 11
-407.9445993778718
 21
179.3297870024222
 31
0.0
  0
LINE
  5
339
  8
0
  6
CONTINUOUS
 62
   253
 10
-407.7952187010249
 20
179.6898111644327
 30
0.0
 11
-407.8876492178402
 21
179.5171389770317
 31
0.0
  0
LINE
  5
33A
  8
0
  6
CONTINUOUS
 62
   253
 10
-361.6708580745858
 20
179.8411712427028
 30
0.0
 11
-361.7952187010249
 21
179.6898111644327
 31
0.0
  0
LINE
  5
33B
  8
0
  6
CONTINUOUS
 62
   253
 10
-406.4639388464158
 20
180.1111196864825
 30
0.0
 11
-406.9639198079479
 21
180.1338971098396
 31
0.0
  0
LINE
  5
33C
  8
0
  6
CONTINUOUS
 62
   253
 10
-348.9465803060737
 20
251.0455503991555
 30
0.0
 11
-348.7515465096199
 21
251.0648131563412
 31
0.0
  0
LINE
  5
33D
  8
0
  6
CONTINUOUS
 62
   253
 10
-301.6379630583507
 20
171.2149669504923
 30
0.0
 11
-301.5441742006474
 21
171.1865107317774
 31
0.0
  0
LINE
  5
33E
  8
0
  6
CONTINUOUS
 62
   253
 10
-315.6708580745858
 20
251.3382762662924
 30
0.0
 11
-315.5193440180882
 21
251.214042023037
 31
0.0
  0
LINE
  5
33F
  8
0
  6
CONTINUOUS
 62
   253
 10
-360.4639388464159
 20
251.0683278225127
 30
0.0
 11
-349.4465612676058
 21
251.0683278225127
 31
0.0
  0
LINE
  5
340
  8
0
  6
CONTINUOUS
 62
     7
 10
-308.9602500570109
 20
175.8397237544976
 30
0.0
 11
-308.9602500570109
 21
173.8447237544976
 31
0.0
  0
LINE
  5
341
  8
0
  6
CONTINUOUS
 62
   253
 10
-315.7952187010249
 20
251.4896363445625
 30
0.0
 11
-315.6708580745858
 21
251.3382762662924
 31
0.0
  0
LINE
  5
342
  8
0
  6
CONTINUOUS
 62
     7
 10
-354.9502500570109
 20
255.3397237544976
 30
0.0
 11
-354.9502500570109
 21
257.3347237544976
 31
0.0
  0
LINE
  5
343
  8
0
  6
CONTINUOUS
 62
   253
 10
-349.4465612676058
 20
180.1111196864825
 30
0.0
 11
-360.4639388464159
 21
180.1111196864825
 31
0.0
  0
LINE
  5
344
  8
0
  6
CONTINUOUS
 62
   253
 10
-348.7515465096199
 20
251.0648131563412
 30
0.0
 11
-348.5640039423171
 21
251.1217054399955
 31
0.0
  0
LINE
  5
345
  8
0
  6
CONTINUOUS
 62
   253
 10
-301.9466183830095
 20
171.6768782001479
 30
0.0
 11
-301.937004889848
 21
171.579341420978
 31
0.0
  0
LINE
  5
346
  8
0
  6
CONTINUOUS
 62
     7
 10
-308.9502500570108
 20
173.8447237544976
 30
0.0
 11
-308.9502500570108
 21
175.8397237544976
 31
0.0
  0
LINE
  5
347
  8
0
  6
CONTINUOUS
 62
     7
 10
-377.3240048428494
 20
114.3283263301312
 30
0.0
 11
-377.3408618314585
 21
114.345411040841
 31
0.0
  0
LINE
  5
348
  8
0
  6
CONTINUOUS
 62
   253
 10
-394.7515465096199
 20
180.1146343526539
 30
0.0
 11
-394.9465803060738
 21
180.1338971098396
 31
0.0
  0
LINE
  5
349
  8
0
  6
CONTINUOUS
 62
     7
 10
-315.4639007694801
 20
114.7945229596816
 30
0.0
 11
-315.4902336834954
 21
111.7770698886849
 31
0.0
  0
LINE
  5
34A
  8
0
  6
CONTINUOUS
 62
     7
 10
-422.0813577406545
 20
110.7857964241833
 30
0.0
 11
-424.5833616073707
 21
110.7857964241833
 31
0.0
  0
ARC
  5
34B
  8
0
  6
CONTINUOUS
 62
     7
 10
-379.3162759369851
 20
111.2857964241833
 30
0.0
 40
0.5000000000000004
 50
270.0
 51
358.0182377470441
  0
LINE
  5
34C
  8
0
  6
CONTINUOUS
 62
     7
 10
-408.4901956065596
 20
110.7857964241833
 30
0.0
 11
-422.0813577406545
 21
110.7857964241833
 31
0.0
  0
LINE
  5
34D
  8
0
  6
CONTINUOUS
 62
   253
 10
-393.9659007361498
 20
179.3297870024222
 30
0.0
 11
-394.0228508961814
 21
179.5171389770317
 31
0.0
  0
LINE
  5
34E
  8
0
  6
CONTINUOUS
 62
     7
 10
-378.6883008442392
 20
114.166899552471
 30
0.0
 11
-378.6964547020351
 21
114.1443261165773
 31
0.0
  0
ARC
  5
34F
  8
0
  6
CONTINUOUS
 62
     7
 10
-362.4901956065596
 20
111.7857964241833
 30
0.0
 40
1.000000000000001
 50
270.0
 51
359.5000000000003
  0
LINE
  5
350
  8
0
  6
CONTINUOUS
 62
     7
 10
-316.4901956065596
 20
110.7857964241833
 30
0.0
 11
-347.4203045074621
 21
110.7857964241833
 31
0.0
  0
LINE
  5
351
  8
0
  6
CONTINUOUS
 62
     7
 10
-302.4202664305262
 20
111.7770698886849
 30
0.0
 11
-302.4465993445417
 21
114.7945229596816
 31
0.0
  0
LINE
  5
352
  8
0
  6
CONTINUOUS
 62
     7
 10
-379.3162759369851
 20
252.7561729339318
 30
0.0
 11
-379.3496814255626
 21
250.3414732493709
 31
0.0
  0
LINE
  5
353
  8
0
  6
CONTINUOUS
 62
     7
 10
-379.2991258770456
 20
259.9762173563641
 30
0.0
 11
-379.3162759369851
 21
259.476236394832
 31
0.0
  0
LINE
  5
354
  8
0
  6
CONTINUOUS
 62
   253
 10
-348.1152814129968
 20
179.6898111644327
 30
0.0
 11
-348.2396420394359
 21
179.8411712427028
 31
0.0
  0
LINE
  5
355
  8
0
  6
CONTINUOUS
 62
   253
 10
-348.7515465096199
 20
180.1146343526539
 30
0.0
 11
-348.9465803060737
 21
180.1338971098396
 31
0.0
  0
LINE
  5
356
  8
0
  6
CONTINUOUS
 62
   253
 10
-302.9465803060737
 20
251.0455503991555
 30
0.0
 11
-302.7515465096198
 21
251.0648131563412
 31
0.0
  0
LINE
  5
357
  8
0
  6
CONTINUOUS
 62
     7
 10
-376.5942241770366
 20
252.7561729339318
 30
0.0
 11
-376.5608186884591
 21
250.3414732493709
 31
0.0
  0
LINE
  5
358
  8
0
  6
CONTINUOUS
 62
     7
 10
-378.7094681988932
 20
114.0981362561498
 30
0.0
 11
-378.7142978524952
 21
114.0746262614436
 31
0.0
  0
LINE
  5
359
  8
0
  6
CONTINUOUS
 62
   253
 10
-394.0228508961814
 20
179.5171389770317
 30
0.0
 11
-394.1152814129968
 21
179.6898111644327
 31
0.0
  0
LINE
  5
35A
  8
0
  6
CONTINUOUS
 62
   253
 10
-394.2396420394359
 20
179.8411712427028
 30
0.0
 11
-394.3911560959335
 21
179.9654054859582
 31
0.0
  0
LINE
  5
35B
  8
0
  6
CONTINUOUS
 62
   253
 10
-302.7515465096198
 20
251.0648131563412
 30
0.0
 11
-302.564003942317
 21
251.1217054399955
 31
0.0
  0
LINE
  5
35C
  8
0
  6
CONTINUOUS
 62
     7
 10
-378.7179937427619
 20
114.050911586659
 30
0.0
 11
-378.7205473536912
 21
114.0270468747138
 31
0.0
  0
LINE
  5
35D
  8
0
  6
CONTINUOUS
 62
     7
 10
-377.2928456222627
 20
114.2918303402254
 30
0.0
 11
-377.3079871372165
 21
114.3104523683079
 31
0.0
  0
LINE
  5
35E
  8
0
  6
CONTINUOUS
 62
     7
 10
-376.5942241770366
 20
178.4232745750634
 30
0.0
 11
-376.5608186884591
 21
180.8379742596242
 31
0.0
  0
LINE
  5
35F
  8
0
  6
CONTINUOUS
 62
   253
 10
-347.9466183830095
 20
252.0444960972697
 30
0.0
 11
-347.9466183830095
 21
259.5025693088474
 31
0.0
  0
LINE
  5
360
  8
0
  6
CONTINUOUS
 62
     7
 10
-378.6687928064689
 20
114.210743488986
 30
0.0
 11
-378.6790731249367
 21
114.1890556938651
 31
0.0
  0
LINE
  5
361
  8
0
  6
CONTINUOUS
 62
   253
 10
-315.9445993778717
 20
251.849660506573
 30
0.0
 11
-315.8876492178402
 21
251.6623085319635
 31
0.0
  0
LINE
  5
362
  8
0
  6
CONTINUOUS
 62
   253
 10
-347.9466183830095
 20
179.1349514117254
 30
0.0
 11
-347.9659007361498
 21
179.3297870024222
 31
0.0
  0
LINE
  5
363
  8
0
  6
CONTINUOUS
 62
     7
 10
-379.3162759369851
 20
110.7857964241833
 30
0.0
 11
-393.420304507462
 21
110.7857964241833
 31
0.0
  0
LINE
  5
364
  8
0
  6
CONTINUOUS
 62
   253
 10
-302.564003942317
 20
251.1217054399955
 30
0.0
 11
-302.3911560959334
 21
251.2140420230369
 31
0.0
  0
LINE
  5
365
  8
0
  6
CONTINUOUS
 62
   253
 10
-315.9638817310121
 20
179.1349514117254
 30
0.0
 11
-315.9638817310121
 21
171.6768782001479
 31
0.0
  0
LINE
  5
366
  8
0
  6
CONTINUOUS
 62
     7
 10
-407.46390076948
 20
114.7945229596816
 30
0.0
 11
-407.4902336834954
 21
111.7770698886849
 31
0.0
  0
LINE
  5
367
  8
0
  6
CONTINUOUS
 62
     7
 10
-378.6176544917589
 20
114.2918303402254
 30
0.0
 11
-378.6318849272331
 21
114.2725031544183
 31
0.0
  0
LINE
  5
368
  8
0
  6
CONTINUOUS
 62
     7
 10
-394.4202664305262
 20
111.7770698886849
 30
0.0
 11
-394.4465993445416
 21
114.7945229596816
 31
0.0
  0
LINE
  5
369
  8
0
  6
CONTINUOUS
 62
   253
 10
-314.4639388464159
 20
251.0683278225127
 30
0.0
 11
-303.4465612676058
 21
251.0683278225127
 31
0.0
  0
LINE
  5
36A
  8
0
  6
CONTINUOUS
 62
     7
 10
-378.7035159103553
 20
114.1213873994801
 30
0.0
 11
-378.7094681988932
 21
114.0981362561498
 31
0.0
  0
LINE
  5
36B
  8
0
  6
CONTINUOUS
 62
   253
 10
-348.3911560959335
 20
179.9654054859582
 30
0.0
 11
-348.5640039423171
 21
180.0577420689996
 31
0.0
  0
ARC
  5
36C
  8
0
  6
CONTINUOUS
 62
     7
 10
-316.4901956065596
 20
111.7857964241833
 30
0.0
 40
1.000000000000001
 50
270.0
 51
359.5000000000003
  0
LINE
  5
36D
  8
0
  6
CONTINUOUS
 62
     7
 10
-361.46390076948
 20
114.7945229596816
 30
0.0
 11
-361.4902336834954
 21
111.7770698886849
 31
0.0
  0
LINE
  5
36E
  8
0
  6
CONTINUOUS
 62
     7
 10
-287.8291423733672
 20
110.7857964241833
 30
0.0
 11
-301.420304507462
 21
110.7857964241833
 31
0.0
  0
LINE
  5
36F
  8
0
  6
CONTINUOUS
 62
   253
 10
-393.9466183830095
 20
179.1349514117254
 30
0.0
 11
-393.9659007361498
 21
179.3297870024222
 31
0.0
  0
LINE
  5
370
  8
0
  6
CONTINUOUS
 62
     7
 10
-378.6318849272331
 20
114.2725031544183
 30
0.0
 11
-378.6451714937198
 21
114.2525153442332
 31
0.0
  0
LINE
  5
371
  8
0
  6
CONTINUOUS
 62
     7
 10
-377.2140454119865
 20
114.1443261165773
 30
0.0
 11
-377.2221992697825
 21
114.166899552471
 31
0.0
  0
LINE
  5
372
  8
0
  6
CONTINUOUS
 62
     7
 10
-378.7142978524952
 20
114.0746262614436
 30
0.0
 11
-378.7179937427619
 21
114.050911586659
 31
0.0
  0
LINE
  5
373
  8
0
  6
CONTINUOUS
 62
   253
 10
-315.9638817310121
 20
259.5025693088474
 30
0.0
 11
-315.9638817310121
 21
252.0444960972697
 31
0.0
  0
LINE
  5
374
  8
0
  6
CONTINUOUS
 62
     7
 10
-377.5233700646164
 20
114.4578294550497
 30
0.0
 11
-377.5462119706599
 21
114.4651978153356
 31
0.0
  0
LINE
  5
375
  8
0
  6
CONTINUOUS
 62
     7
 10
-378.4946214285461
 20
114.4050991995383
 30
0.0
 11
-378.5144291625757
 21
114.391545636257
 31
0.0
  0
LINE
  5
376
  8
0
  6
CONTINUOUS
 62
   253
 10
-379.2216537439016
 20
259.9957563302968
 30
0.0
 11
-379.2216537439016
 21
171.1836911786985
 31
0.0
  0
LINE
  5
377
  8
0
  6
CONTINUOUS
 62
     7
 10
-348.4202664305262
 20
111.7770698886849
 30
0.0
 11
-348.4465993445417
 21
114.7945229596816
 31
0.0
  0
LINE
  5
378
  8
0
  6
CONTINUOUS
 62
     7
 10
-378.7205473536912
 20
114.0270468747138
 30
0.0
 11
-378.7219528012996
 21
114.0030871142387
 31
0.0
  0
LINE
  5
379
  8
0
  6
CONTINUOUS
 62
     7
 10
-378.7219528012996
 20
114.0030871142387
 30
0.0
 11
-378.816574994383
 21
111.2685057341278
 31
0.0
  0
ARC
  5
37A
  8
0
  6
CONTINUOUS
 62
     7
 10
-285.327138506651
 20
111.2857964241833
 30
0.0
 40
0.5000000000000004
 50
270.0
 51
357.1533830841839
  0
LINE
  5
37B
  8
0
  6
CONTINUOUS
 62
     7
 10
-378.5696382825631
 20
114.345411040841
 30
0.0
 11
-378.5864952711723
 21
114.3283263301312
 31
0.0
  0
LINE
  5
37C
  8
0
  6
CONTINUOUS
 62
   253
 10
-315.8876492178402
 20
251.6623085319635
 30
0.0
 11
-315.7952187010249
 21
251.4896363445625
 31
0.0
  0
LINE
  5
37D
  8
0
  6
CONTINUOUS
 62
     7
 10
-376.5942241770366
 20
259.476236394832
 30
0.0
 11
-376.5942241770366
 21
252.7561729339318
 31
0.0
  0
LINE
  5
37E
  8
0
  6
CONTINUOUS
 62
   253
 10
-316.4901956065596
 20
259.9762173563641
 30
0.0
 11
-316.4638626925442
 21
260.0025502703796
 31
0.0
  0
LINE
  5
37F
  8
0
  6
CONTINUOUS
 62
   253
 10
-424.60698878525
 20
173.702420476522
 30
0.0
 11
-424.5589005898356
 21
173.2148330347278
 31
0.0
  0
LINE
  5
380
  8
0
  6
CONTINUOUS
 62
   253
 10
-393.9466183830095
 20
171.6768782001479
 30
0.0
 11
-393.9466183830095
 21
179.1349514117254
 31
0.0
  0
LINE
  5
381
  8
0
  6
CONTINUOUS
 62
   253
 10
-362.4638626925442
 20
171.1768972386158
 30
0.0
 11
-362.4901956065596
 21
171.2032301526312
 31
0.0
  0
LINE
  5
382
  8
0
  6
CONTINUOUS
 62
   253
 10
-361.9638817310121
 20
259.5025693088474
 30
0.0
 11
-361.9638817310121
 21
252.0444960972697
 31
0.0
  0
LINE
  5
383
  8
0
  6
CONTINUOUS
 62
     7
 10
-376.5942241770366
 20
259.476236394832
 30
0.0
 11
-376.611374236976
 21
259.9762173563641
 31
0.0
  0
LINE
  5
384
  8
0
  6
CONTINUOUS
 62
   253
 10
-285.7250440899333
 20
172.3139470894602
 30
0.0
 11
-285.4939327032903
 21
172.7460062922046
 31
0.0
  0
LINE
  5
385
  8
0
  6
CONTINUOUS
 62
   253
 10
-287.3165595809043
 20
171.2512838918319
 30
0.0
 11
-286.8473959073957
 21
171.393514924619
 31
0.0
  0
LINE
  5
386
  8
0
  6
CONTINUOUS
 62
   253
 10
-424.4165674107314
 20
258.4334412167908
 30
0.0
 11
-424.5589005898356
 21
257.9646144742676
 31
0.0
  0
LINE
  5
387
  8
0
  6
CONTINUOUS
 62
   253
 10
-285.3035113287717
 20
257.4770270324735
 30
0.0
 11
-285.3515995241861
 21
257.9646144742676
 31
0.0
  0
LINE
  5
388
  8
0
  6
CONTINUOUS
 62
   253
 10
-424.1854560240884
 20
258.8655004195352
 30
0.0
 11
-424.4165674107314
 21
258.4334412167908
 31
0.0
  0
LINE
  5
389
  8
0
  6
CONTINUOUS
 62
   253
 10
-348.9465803060737
 20
180.1338971098396
 30
0.0
 11
-349.4465612676058
 21
180.1111196864825
 31
0.0
  0
LINE
  5
38A
  8
0
  6
CONTINUOUS
 62
   253
 10
-302.3911560959334
 20
251.2140420230369
 30
0.0
 11
-302.2396420394358
 21
251.3382762662923
 31
0.0
  0
LINE
  5
38B
  8
0
  6
CONTINUOUS
 62
   253
 10
-302.1152814129968
 20
251.4896363445624
 30
0.0
 11
-302.0228508961813
 21
251.6623085319634
 31
0.0
  0
LINE
  5
38C
  8
0
  6
CONTINUOUS
 62
   253
 10
-347.9466183830095
 20
171.6768782001479
 30
0.0
 11
-347.9466183830095
 21
179.1349514117254
 31
0.0
  0
LINE
  5
38D
  8
0
  6
CONTINUOUS
 62
   253
 10
-347.916667707103
 20
252.4492308467536
 30
0.0
 11
-347.9130821604548
 21
252.4702425247069
 31
0.0
  0
LINE
  5
38E
  8
0
  6
CONTINUOUS
 62
   253
 10
-285.4939327032903
 20
172.7460062922046
 30
0.0
 11
-285.3515995241861
 21
173.2148330347278
 31
0.0
  0
LINE
  5
38F
  8
0
  6
CONTINUOUS
 62
   253
 10
-424.6069887852499
 20
178.0168846187756
 30
0.0
 11
-424.5361072516122
 21
180.8355485439713
 31
0.0
  0
LINE
  5
390
  8
0
  6
CONTINUOUS
 62
   253
 10
-286.8473959073957
 20
171.393514924619
 30
0.0
 11
-286.4150262139087
 21
171.6244603981082
 31
0.0
  0
LINE
  5
391
  8
0
  6
CONTINUOUS
 62
   253
 10
-315.1589536044019
 20
251.0648131563413
 30
0.0
 11
-314.9639198079479
 21
251.0455503991555
 31
0.0
  0
LINE
  5
392
  8
0
  6
CONTINUOUS
 62
   253
 10
-408.4638626925442
 20
171.1768972386158
 30
0.0
 11
-408.4901956065596
 21
171.2032301526312
 31
0.0
  0
LINE
  5
393
  8
0
  6
CONTINUOUS
 62
   253
 10
-408.4901956065596
 20
259.9762173563641
 30
0.0
 11
-408.4638626925442
 21
260.0025502703796
 31
0.0
  0
LINE
  5
394
  8
0
  6
CONTINUOUS
 62
   253
 10
-379.2991258770456
 20
171.2032301526312
 30
0.0
 11
-393.420304507462
 21
171.2032301526312
 31
0.0
  0
LINE
  5
395
  8
0
  6
CONTINUOUS
 62
   253
 10
-315.5193440180882
 20
251.214042023037
 30
0.0
 11
-315.3464961717046
 21
251.1217054399956
 31
0.0
  0
LINE
  5
396
  8
0
  6
CONTINUOUS
 62
     7
 10
-379.3162759369851
 20
178.4232745750634
 30
0.0
 11
-379.3162759369851
 21
171.7032111141633
 31
0.0
  0
LINE
  5
397
  8
0
  6
CONTINUOUS
 62
   253
 10
-301.9466183830095
 20
252.0444960972697
 30
0.0
 11
-301.9466183830095
 21
259.5025693088474
 31
0.0
  0
LINE
  5
398
  8
0
  6
CONTINUOUS
 62
   253
 10
-347.9202854689942
 20
252.4069556396972
 30
0.0
 11
-347.9190707182604
 21
252.4281184523637
 31
0.0
  0
LINE
  5
399
  8
0
  6
CONTINUOUS
 62
   253
 10
-285.3035113287717
 20
257.4770270324734
 30
0.0
 11
-285.3035113287717
 21
253.1625628902196
 31
0.0
  0
LINE
  5
39A
  8
0
  6
CONTINUOUS
 62
     7
 10
-377.6882482553241
 20
171.17526609804
 30
0.0
 11
-378.2222518586975
 21
171.17526609804
 31
0.0
  0
LINE
  5
39B
  8
0
  6
CONTINUOUS
 62
   253
 10
-394.3911560959335
 20
179.9654054859582
 30
0.0
 11
-394.5640039423171
 21
180.0577420689996
 31
0.0
  0
LINE
  5
39C
  8
0
  6
CONTINUOUS
 62
   253
 10
-301.4466374214775
 20
260.0025502703796
 30
0.0
 11
-301.4203045074621
 21
259.9762173563641
 31
0.0
  0
LINE
  5
39D
  8
0
  6
CONTINUOUS
 62
   253
 10
-302.0228508961813
 20
251.6623085319634
 30
0.0
 11
-301.9659007361498
 21
251.8496605065729
 31
0.0
  0
LINE
  5
39E
  8
0
  6
CONTINUOUS
 62
   253
 10
-394.9465803060737
 20
180.1338971098396
 30
0.0
 11
-395.4465612676058
 21
180.1111196864825
 31
0.0
  0
LINE
  5
39F
  8
0
  6
CONTINUOUS
 62
     7
 10
-379.3162759369851
 20
171.7032111141633
 30
0.0
 11
-379.2991258770456
 21
171.2032301526312
 31
0.0
  0
LINE
  5
3A0
  8
0
  6
CONTINUOUS
 62
   253
 10
-422.1060026610426
 20
259.9762173563641
 30
0.0
 11
-408.4901956065596
 21
259.9762173563641
 31
0.0
  0
LINE
  5
3A1
  8
0
  6
CONTINUOUS
 62
   253
 10
-424.5361072516122
 20
250.343898965024
 30
0.0
 11
-424.6069887852499
 21
253.1625628902196
 31
0.0
  0
LINE
  5
3A2
  8
0
  6
CONTINUOUS
 62
   253
 10
-286.4150262139087
 20
259.5549871108872
 30
0.0
 11
-286.8473959073957
 21
259.7859325843765
 31
0.0
  0
LINE
  5
3A3
  8
0
  6
CONTINUOUS
 62
   253
 10
-424.6069887852499
 20
253.1625628902196
 30
0.0
 11
-424.6069887852499
 21
257.4770270324734
 31
0.0
  0
LINE
  5
3A4
  8
0
  6
CONTINUOUS
 62
     7
 10
-376.6113742369761
 20
171.2032301526312
 30
0.0
 11
-376.5942241770366
 21
171.7032111141633
 31
0.0
  0
LINE
  5
3A5
  8
0
  6
CONTINUOUS
 62
   253
 10
-376.68884637012
 20
171.1836911786985
 30
0.0
 11
-376.68884637012
 21
259.9957563302968
 31
0.0
  0
LINE
  5
3A6
  8
0
  6
CONTINUOUS
 62
   253
 10
-285.3035113287717
 20
253.1625628902196
 30
0.0
 11
-285.3743928624095
 21
250.343898965024
 31
0.0
  0
LINE
  5
3A7
  8
0
  6
CONTINUOUS
 62
   253
 10
-286.4150262139087
 20
171.6244603981082
 30
0.0
 11
-286.0360570874934
 21
171.9352500881211
 31
0.0
  0
LINE
  5
3A8
  8
0
  6
CONTINUOUS
 62
   253
 10
-287.804497452979
 20
171.2032301526313
 30
0.0
 11
-301.420304507462
 21
171.2032301526312
 31
0.0
  0
LINE
  5
3A9
  8
0
  6
CONTINUOUS
 62
     7
 10
-379.2216537439016
 20
171.1836911786985
 30
0.0
 11
-379.2991258770456
 21
171.2032301526312
 31
0.0
  0
LINE
  5
3AA
  8
0
  6
CONTINUOUS
 62
   253
 10
-424.4165674107314
 20
172.7460062922046
 30
0.0
 11
-424.1854560240884
 21
172.3139470894602
 31
0.0
  0
LINE
  5
3AB
  8
0
  6
CONTINUOUS
 62
   253
 10
-347.9190707182604
 20
252.4281184523637
 30
0.0
 11
-347.916667707103
 21
252.4492308467536
 31
0.0
  0
LINE
  5
3AC
  8
0
  6
CONTINUOUS
 62
   253
 10
-303.4465612676058
 20
251.0683278225127
 30
0.0
 11
-302.9465803060737
 21
251.0455503991555
 31
0.0
  0
LINE
  5
3AD
  8
0
  6
CONTINUOUS
 62
   253
 10
-285.3743928624095
 20
180.8355485439712
 30
0.0
 11
-285.3035113287717
 21
178.0168846187756
 31
0.0
  0
LINE
  5
3AE
  8
0
  6
CONTINUOUS
 62
   253
 10
-301.9466183830095
 20
171.6768782001479
 30
0.0
 11
-301.9466183830095
 21
179.1349514117254
 31
0.0
  0
LINE
  5
3AF
  8
0
  6
CONTINUOUS
 62
   253
 10
-316.4638626925442
 20
171.1768972386158
 30
0.0
 11
-316.4901956065596
 21
171.2032301526312
 31
0.0
  0
LINE
  5
3B0
  8
0
  6
CONTINUOUS
 62
   253
 10
-286.0360570874934
 20
171.9352500881211
 30
0.0
 11
-285.7250440899333
 21
172.3139470894602
 31
0.0
  0
LINE
  5
3B1
  8
0
  6
CONTINUOUS
 62
   253
 10
-285.3035113287717
 20
178.0168846187756
 30
0.0
 11
-285.3035113287717
 21
173.7024204765219
 31
0.0
  0
LINE
  5
3B2
  8
0
  6
CONTINUOUS
 62
   253
 10
-287.3165595809043
 20
259.9281636171635
 30
0.0
 11
-287.804497452979
 21
259.9762173563641
 31
0.0
  0
LINE
  5
3B3
  8
0
  6
CONTINUOUS
 62
   253
 10
-287.804497452979
 20
171.2032301526313
 30
0.0
 11
-287.3165595809043
 21
171.2512838918319
 31
0.0
  0
LINE
  5
3B4
  8
0
  6
CONTINUOUS
 62
   253
 10
-286.8473959073957
 20
259.7859325843765
 30
0.0
 11
-287.3165595809043
 21
259.9281636171635
 31
0.0
  0
LINE
  5
3B5
  8
0
  6
CONTINUOUS
 62
   253
 10
-424.1854560240884
 20
172.3139470894602
 30
0.0
 11
-423.8744430265284
 21
171.9352500881211
 31
0.0
  0
LINE
  5
3B6
  8
0
  6
CONTINUOUS
 62
     7
 10
-376.5942241770366
 20
178.4232745750634
 30
0.0
 11
-376.5942241770366
 21
171.7032111141633
 31
0.0
  0
LINE
  5
3B7
  8
0
  6
CONTINUOUS
 62
   253
 10
-347.9659007361498
 20
179.3297870024222
 30
0.0
 11
-348.0228508961814
 21
179.5171389770317
 31
0.0
  0
LINE
  5
3B8
  8
0
  6
CONTINUOUS
 62
   253
 10
-286.0360570874934
 20
259.2441974208743
 30
0.0
 11
-286.4150262139087
 21
259.5549871108872
 31
0.0
  0
LINE
  5
3B9
  8
0
  6
CONTINUOUS
 62
   253
 10
-285.3515995241861
 20
173.2148330347278
 30
0.0
 11
-285.3035113287717
 21
173.702420476522
 31
0.0
  0
LINE
  5
3BA
  8
0
  6
CONTINUOUS
 62
   253
 10
-347.4203045074621
 20
171.2032301526312
 30
0.0
 11
-347.4466374214775
 21
171.1768972386158
 31
0.0
  0
LINE
  5
3BB
  8
0
  6
CONTINUOUS
 62
   253
 10
-393.5441742006474
 20
259.9929367772179
 30
0.0
 11
-393.6379630583507
 21
259.9644805585029
 31
0.0
  0
LINE
  5
3BC
  8
0
  6
CONTINUOUS
 62
     7
 10
-376.68884637012
 20
171.1836911786985
 30
0.0
 11
-376.611374236976
 21
171.2032301526312
 31
0.0
  0
LINE
  5
3BD
  8
0
  6
CONTINUOUS
 62
   253
 10
-424.5589005898356
 20
257.9646144742676
 30
0.0
 11
-424.6069887852499
 21
257.4770270324735
 31
0.0
  0
LINE
  5
3BE
  8
0
  6
CONTINUOUS
 62
   253
 10
-347.9466183830095
 20
171.6768782001479
 30
0.0
 11
-347.937004889848
 21
171.579341420978
 31
0.0
  0
LINE
  5
3BF
  8
0
  6
CONTINUOUS
 62
   253
 10
-393.6379630583507
 20
171.2149669504924
 30
0.0
 11
-393.5441742006474
 21
171.1865107317774
 31
0.0
  0
LINE
  5
3C0
  8
0
  6
CONTINUOUS
 62
   253
 10
-315.9734952241737
 20
171.579341420978
 30
0.0
 11
-315.9638817310121
 21
171.6768782001479
 31
0.0
  0
LINE
  5
3C1
  8
0
  6
CONTINUOUS
 62
   253
 10
-362.4638626925441
 20
171.1768972386158
 30
0.0
 11
-362.3663259133742
 21
171.1865107317774
 31
0.0
  0
LINE
  5
3C2
  8
0
  6
CONTINUOUS
 62
   253
 10
-285.7250440899333
 20
258.8655004195352
 30
0.0
 11
-286.0360570874934
 21
259.2441974208743
 31
0.0
  0
LINE
  5
3C3
  8
0
  6
CONTINUOUS
 62
     7
 10
-377.6882482553241
 20
260.0041814109553
 30
0.0
 11
-378.2222518586975
 21
260.0041814109553
 31
0.0
  0
LINE
  5
3C4
  8
0
  6
CONTINUOUS
 62
   253
 10
-347.7244000897207
 20
171.2611724439221
 30
0.0
 11
-347.6379630583507
 21
171.2149669504923
 31
0.0
  0
LINE
  5
3C5
  8
0
  6
CONTINUOUS
 62
   253
 10
-423.0631042066261
 20
171.393514924619
 30
0.0
 11
-422.5939405331174
 21
171.2512838918319
 31
0.0
  0
LINE
  5
3C6
  8
0
  6
CONTINUOUS
 62
   253
 10
-393.8623431777032
 20
171.3991155319046
 30
0.0
 11
-393.8001638891488
 21
171.3233517324765
 31
0.0
  0
LINE
  5
3C7
  8
0
  6
CONTINUOUS
 62
   253
 10
-362.1103362248728
 20
171.3233517324765
 30
0.0
 11
-362.0481569363184
 21
171.3991155319046
 31
0.0
  0
LINE
  5
3C8
  8
0
  6
CONTINUOUS
 62
   253
 10
-301.420304507462
 20
171.2032301526312
 30
0.0
 11
-301.4466374214775
 21
171.1768972386158
 31
0.0
  0
LINE
  5
3C9
  8
0
  6
CONTINUOUS
 62
   253
 10
-393.9370048898479
 20
171.5793414209779
 30
0.0
 11
-393.908548671133
 21
171.4855525632746
 31
0.0
  0
LINE
  5
3CA
  8
0
  6
CONTINUOUS
 62
   253
 10
-393.8001638891488
 20
259.8560957765188
 30
0.0
 11
-393.8623431777032
 21
259.7803319770907
 31
0.0
  0
LINE
  5
3CB
  8
0
  6
CONTINUOUS
 62
   253
 10
-301.4466374214775
 20
260.0025502703795
 30
0.0
 11
-301.5441742006475
 21
259.992936777218
 31
0.0
  0
LINE
  5
3CC
  8
0
  6
CONTINUOUS
 62
   253
 10
-347.4466374214775
 20
260.0025502703796
 30
0.0
 11
-347.4203045074621
 21
259.9762173563641
 31
0.0
  0
LINE
  5
3CD
  8
0
  6
CONTINUOUS
 62
   253
 10
-362.1103362248728
 20
259.8560957765188
 30
0.0
 11
-362.1861000243008
 21
259.9182750650732
 31
0.0
  0
LINE
  5
3CE
  8
0
  6
CONTINUOUS
 62
   253
 10
-362.0481569363184
 20
171.3991155319046
 30
0.0
 11
-362.0019514428886
 21
171.4855525632747
 31
0.0
  0
LINE
  5
3CF
  8
0
  6
CONTINUOUS
 62
   253
 10
-316.4638626925442
 20
171.1768972386158
 30
0.0
 11
-316.3663259133742
 21
171.1865107317774
 31
0.0
  0
LINE
  5
3D0
  8
0
  6
CONTINUOUS
 62
   253
 10
-362.0019514428886
 20
259.6938949457206
 30
0.0
 11
-362.0481569363183
 21
259.7803319770907
 31
0.0
  0
LINE
  5
3D1
  8
0
  6
CONTINUOUS
 62
   253
 10
-424.60698878525
 20
173.7024204765219
 30
0.0
 11
-424.6069887852499
 21
178.0168846187756
 31
0.0
  0
LINE
  5
3D2
  8
0
  6
CONTINUOUS
 62
   253
 10
-362.3663259133742
 20
171.1865107317774
 30
0.0
 11
-362.2725370556709
 21
171.2149669504924
 31
0.0
  0
LINE
  5
3D3
  8
0
  6
CONTINUOUS
 62
   253
 10
-362.4901956065596
 20
171.2032301526312
 30
0.0
 11
-376.611374236976
 21
171.2032301526312
 31
0.0
  0
LINE
  5
3D4
  8
0
  6
CONTINUOUS
 62
   253
 10
-393.6379630583507
 20
259.9644805585029
 30
0.0
 11
-393.7244000897207
 21
259.9182750650731
 31
0.0
  0
LINE
  5
3D5
  8
0
  6
CONTINUOUS
 62
   253
 10
-301.9085486711331
 20
259.6938949457207
 30
0.0
 11
-301.9370048898481
 21
259.6001060880174
 31
0.0
  0
LINE
  5
3D6
  8
0
  6
CONTINUOUS
 62
   253
 10
-316.1103362248728
 20
171.3233517324765
 30
0.0
 11
-316.0481569363184
 21
171.3991155319046
 31
0.0
  0
LINE
  5
3D7
  8
0
  6
CONTINUOUS
 62
   253
 10
-408.4901956065596
 20
171.2032301526312
 30
0.0
 11
-422.1060026610426
 21
171.2032301526312
 31
0.0
  0
LINE
  5
3D8
  8
0
  6
CONTINUOUS
 62
     7
 10
-378.2222518586975
 20
260.0041814109553
 30
0.0
 11
-379.2216537439016
 21
259.9957563302967
 31
0.0
  0
LINE
  5
3D9
  8
0
  6
CONTINUOUS
 62
   253
 10
-393.8623431777032
 20
259.7803319770907
 30
0.0
 11
-393.908548671133
 21
259.6938949457207
 31
0.0
  0
LINE
  5
3DA
  8
0
  6
CONTINUOUS
 62
   253
 10
-285.3515995241861
 20
257.9646144742676
 30
0.0
 11
-285.4939327032903
 21
258.4334412167908
 31
0.0
  0
LINE
  5
3DB
  8
0
  6
CONTINUOUS
 62
   253
 10
-362.1861000243008
 20
171.2611724439221
 30
0.0
 11
-362.1103362248728
 21
171.3233517324765
 31
0.0
  0
LINE
  5
3DC
  8
0
  6
CONTINUOUS
 62
   253
 10
-422.5939405331174
 20
171.2512838918319
 30
0.0
 11
-422.1060026610427
 21
171.2032301526313
 31
0.0
  0
LINE
  5
3DD
  8
0
  6
CONTINUOUS
 62
   253
 10
-301.6379630583508
 20
259.964480558503
 30
0.0
 11
-301.7244000897209
 21
259.9182750650733
 31
0.0
  0
LINE
  5
3DE
  8
0
  6
CONTINUOUS
 62
   253
 10
-424.5589005898356
 20
173.2148330347278
 30
0.0
 11
-424.4165674107314
 21
172.7460062922046
 31
0.0
  0
LINE
  5
3DF
  8
0
  6
CONTINUOUS
 62
   253
 10
-393.9466183830095
 20
171.6768782001479
 30
0.0
 11
-393.9370048898479
 21
171.5793414209779
 31
0.0
  0
LINE
  5
3E0
  8
0
  6
CONTINUOUS
 62
   253
 10
-393.420304507462
 20
259.9762173563641
 30
0.0
 11
-379.2991258770456
 21
259.9762173563641
 31
0.0
  0
LINE
  5
3E1
  8
0
  6
CONTINUOUS
 62
     7
 10
-427.4552500570109
 20
274.0897237544976
 30
0.0
 11
-282.4552500570109
 21
274.0897237544976
 31
0.0
  0
LINE
  5
3E2
  8
0
  6
CONTINUOUS
 62
     7
 10
-378.2222518586975
 20
171.17526609804
 30
0.0
 11
-379.2216537439016
 21
171.1836911786985
 31
0.0
  0
LINE
  5
3E3
  8
0
  6
CONTINUOUS
 62
   253
 10
-393.420304507462
 20
171.2032301526312
 30
0.0
 11
-393.4466374214775
 21
171.1768972386158
 31
0.0
  0
LINE
  5
3E4
  8
0
  6
CONTINUOUS
 62
   253
 10
-316.4901956065596
 20
171.2032301526312
 30
0.0
 11
-347.4203045074621
 21
171.2032301526312
 31
0.0
  0
LINE
  5
3E5
  8
0
  6
CONTINUOUS
 62
   253
 10
-376.611374236976
 20
259.9762173563641
 30
0.0
 11
-362.4901956065596
 21
259.9762173563641
 31
0.0
  0
LINE
  5
3E6
  8
0
  6
CONTINUOUS
 62
     7
 10
-376.68884637012
 20
171.1836911786985
 30
0.0
 11
-377.6882482553242
 21
171.17526609804
 31
0.0
  0
LINE
  5
3E7
  8
0
  6
CONTINUOUS
 62
   253
 10
-316.1861000243009
 20
171.2611724439221
 30
0.0
 11
-316.1103362248728
 21
171.3233517324765
 31
0.0
  0
LINE
  5
3E8
  8
0
  6
CONTINUOUS
 62
   253
 10
-347.908548671133
 20
171.4855525632747
 30
0.0
 11
-347.8623431777033
 21
171.3991155319046
 31
0.0
  0
LINE
  5
3E9
  8
0
  6
CONTINUOUS
 62
   253
 10
-423.495473900113
 20
171.6244603981082
 30
0.0
 11
-423.0631042066261
 21
171.393514924619
 31
0.0
  0
LINE
  5
3EA
  8
0
  6
CONTINUOUS
 62
   253
 10
-301.9370048898481
 20
259.6001060880174
 30
0.0
 11
-301.9466183830096
 21
259.5025693088474
 31
0.0
  0
LINE
  5
3EB
  8
0
  6
CONTINUOUS
 62
   253
 10
-393.5441742006474
 20
171.1865107317774
 30
0.0
 11
-393.4466374214774
 21
171.1768972386158
 31
0.0
  0
LINE
  5
3EC
  8
0
  6
CONTINUOUS
 62
   253
 10
-347.4203045074621
 20
259.9762173563641
 30
0.0
 11
-316.4901956065596
 21
259.9762173563641
 31
0.0
  0
LINE
  5
3ED
  8
0
  6
CONTINUOUS
 62
   253
 10
-285.4939327032903
 20
258.4334412167908
 30
0.0
 11
-285.7250440899333
 21
258.8655004195352
 31
0.0
  0
LINE
  5
3EE
  8
0
  6
CONTINUOUS
 62
   253
 10
-393.7244000897207
 20
259.9182750650731
 30
0.0
 11
-393.8001638891488
 21
259.8560957765188
 31
0.0
  0
LINE
  5
3EF
  8
0
  6
CONTINUOUS
 62
   253
 10
-423.8744430265284
 20
171.9352500881211
 30
0.0
 11
-423.495473900113
 21
171.6244603981082
 31
0.0
  0
LINE
  5
3F0
  8
0
  6
CONTINUOUS
 62
   253
 10
-362.4901956065596
 20
259.9762173563641
 30
0.0
 11
-362.4638626925442
 21
260.0025502703796
 31
0.0
  0
LINE
  5
3F1
  8
0
  6
CONTINUOUS
 62
   253
 10
-362.0019514428886
 20
171.4855525632747
 30
0.0
 11
-361.9734952241736
 21
171.579341420978
 31
0.0
  0
LINE
  5
3F2
  8
0
  6
CONTINUOUS
 62
   253
 10
-301.8001638891489
 20
259.8560957765189
 30
0.0
 11
-301.8623431777033
 21
259.7803319770907
 31
0.0
  0
LINE
  5
3F3
  8
0
  6
CONTINUOUS
 62
   253
 10
-424.1436150548865
 20
259.6687404255883
 30
0.0
 11
-424.522904376931
 21
259.3580069321522
 31
0.0
  0
LINE
  5
3F4
  8
0
  6
CONTINUOUS
 62
   253
 10
-301.4203045074621
 20
259.9762173563641
 30
0.0
 11
-287.804497452979
 21
259.9762173563641
 31
0.0
  0
LINE
  5
3F5
  8
0
  6
CONTINUOUS
 62
   253
 10
-347.8623431777033
 20
171.3991155319046
 30
0.0
 11
-347.8001638891489
 21
171.3233517324765
 31
0.0
  0
LINE
  5
3F6
  8
0
  6
CONTINUOUS
 62
   253
 10
-393.4466374214774
 20
260.0025502703795
 30
0.0
 11
-393.5441742006474
 21
259.9929367772179
 31
0.0
  0
LINE
  5
3F7
  8
0
  6
CONTINUOUS
 62
   253
 10
-362.0481569363183
 20
259.7803319770907
 30
0.0
 11
-362.1103362248728
 21
259.8560957765188
 31
0.0
  0
LINE
  5
3F8
  8
0
  6
CONTINUOUS
 62
     7
 10
-378.5864952711723
 20
114.3283263301312
 30
0.0
 11
-378.6025129768052
 21
114.3104523683079
 31
0.0
  0
LINE
  5
3F9
  8
0
  6
CONTINUOUS
 62
   253
 10
-348.2396420394359
 20
179.8411712427028
 30
0.0
 11
-348.3911560959335
 21
179.9654054859582
 31
0.0
  0
LINE
  5
3FA
  8
0
  6
CONTINUOUS
 62
     7
 10
-378.6964547020351
 20
114.1443261165773
 30
0.0
 11
-378.7035159103553
 21
114.1213873994801
 31
0.0
  0
LINE
  5
3FB
  8
0
  6
CONTINUOUS
 62
     7
 10
-378.2222518586975
 20
114.4857964241833
 30
0.0
 11
-378.2462458908033
 21
114.4852203787783
 31
0.0
  0
LINE
  5
3FC
  8
0
  6
CONTINUOUS
 62
     7
 10
-377.457329833709
 20
114.4292788731694
 30
0.0
 11
-377.4788777369391
 21
114.4398492691597
 31
0.0
  0
ARC
  5
3FD
  8
0
  6
CONTINUOUS
 62
     7
 10
-406.4639388464158
 20
114.7857964241833
 30
0.0
 40
1.000000000000001
 50
90.0
 51
179.5000000000004
  0
LINE
  5
3FE
  8
0
  6
CONTINUOUS
 62
     7
 10
-377.4158786854755
 20
114.4050991995383
 30
0.0
 11
-377.4363140084617
 21
114.4176866130714
 31
0.0
  0
ARC
  5
3FF
  8
0
  6
CONTINUOUS
 62
     7
 10
-301.420304507462
 20
111.7857964241833
 30
0.0
 40
1.000000000000001
 50
180.4999999999997
 51
270.0
  0
LINE
  5
400
  8
0
  6
CONTINUOUS
 62
     7
 10
-284.155250057011
 20
124.7857964241833
 30
0.0
 11
-284.8277554758166
 21
111.260965223755
 31
0.0
  0
LINE
  5
401
  8
0
  6
CONTINUOUS
 62
     7
 10
-378.3871300494052
 20
114.4578294550497
 30
0.0
 11
-378.4095920461522
 21
114.44937344493
 31
0.0
  0
LINE
  5
402
  8
0
  6
CONTINUOUS
 62
     7
 10
-378.6790731249367
 20
114.1890556938651
 30
0.0
 11
-378.6883008442392
 21
114.166899552471
 31
0.0
  0
ARC
  5
403
  8
0
  6
CONTINUOUS
 62
     7
 10
-408.4901956065596
 20
111.7857964241833
 30
0.0
 40
1.000000000000001
 50
270.0
 51
359.5000000000003
  0
LINE
  5
404
  8
0
  6
CONTINUOUS
 62
     7
 10
-377.0939251196387
 20
111.2685057341278
 30
0.0
 11
-377.1885473127221
 21
114.0030871142387
 31
0.0
  0
ARC
  5
405
  8
0
  6
CONTINUOUS
 62
     7
 10
-376.5942241770366
 20
111.2857964241833
 30
0.0
 40
0.5000000000000004
 50
181.9817622529557
 51
270.0
  0
LINE
  5
406
  8
0
  6
CONTINUOUS
 62
     7
 10
-377.3408618314585
 20
114.345411040841
 30
0.0
 11
-377.3585192614806
 21
114.3616671341607
 31
0.0
  0
ARC
  5
407
  8
0
  6
CONTINUOUS
 62
     7
 10
-393.420304507462
 20
111.7857964241833
 30
0.0
 40
1.000000000000001
 50
180.4999999999997
 51
270.0
  0
LINE
  5
408
  8
0
  6
CONTINUOUS
 62
     7
 10
-377.2653286203019
 20
114.2525153442332
 30
0.0
 11
-377.2786151867886
 21
114.2725031544183
 31
0.0
  0
LINE
  5
409
  8
0
  6
CONTINUOUS
 62
     7
 10
-282.4552500570109
 20
124.7857964241833
 30
0.0
 11
-427.4552500570108
 21
124.7857964241833
 31
0.0
  0
LINE
  5
40A
  8
0
  6
CONTINUOUS
 62
     7
 10
-377.3585192614806
 20
114.3616671341607
 30
0.0
 11
-377.3769364469899
 21
114.377057153099
 31
0.0
  0
LINE
  5
40B
  8
0
  6
CONTINUOUS
 62
     7
 10
-377.6403154777203
 20
114.4834935698765
 30
0.0
 11
-377.6642542232183
 21
114.4852203787783
 31
0.0
  0
LINE
  5
40C
  8
0
  6
CONTINUOUS
 62
     7
 10
-275.4552500570109
 20
125.2857964241833
 30
0.0
 11
-275.4552500570109
 21
124.7857964241833
 31
0.0
  0
ARC
  5
40D
  8
0
  6
CONTINUOUS
 62
     7
 10
-349.4465612676058
 20
114.7857964241833
 30
0.0
 40
1.000000000000001
 50
0.4999999999996835
 51
90.00000000000001
  0
LINE
  5
40E
  8
0
  6
CONTINUOUS
 62
     7
 10
-378.3176758850918
 20
114.476606219508
 30
0.0
 11
-378.3411189599217
 21
114.4714615477474
 31
0.0
  0
LINE
  5
40F
  8
0
  6
CONTINUOUS
 62
   253
 10
-301.4078151478971
 20
110.308750139673
 30
0.0
 11
-301.416141697028
 21
110.308785595804
 31
0.0
  0
ARC
  5
410
  8
0
  6
CONTINUOUS
 62
     7
 10
-347.4203045074621
 20
111.7857964241833
 30
0.0
 40
1.000000000000001
 50
180.4999999999997
 51
270.0
  0
LINE
  5
411
  8
0
  6
CONTINUOUS
 62
     7
 10
-377.396070951446
 20
114.391545636257
 30
0.0
 11
-377.4158786854755
 21
114.4050991995383
 31
0.0
  0
LINE
  5
412
  8
0
  6
CONTINUOUS
 62
     7
 10
-362.4901956065596
 20
110.7857964241833
 30
0.0
 11
-376.5942241770366
 21
110.7857964241833
 31
0.0
  0
LINE
  5
413
  8
0
  6
CONTINUOUS
 62
     7
 10
-378.2701846363013
 20
114.4834935698765
 30
0.0
 11
-378.2940129359743
 21
114.4806199763593
 31
0.0
  0
LINE
  5
414
  8
0
  6
CONTINUOUS
 62
     7
 10
-377.6642542232183
 20
114.4852203787783
 30
0.0
 11
-377.6882482553241
 21
114.4857964241833
 31
0.0
  0
LINE
  5
415
  8
0
  6
CONTINUOUS
 62
     7
 10
-377.5009080678694
 20
114.44937344493
 30
0.0
 11
-377.5233700646164
 21
114.4578294550497
 31
0.0
  0
ARC
  5
416
  8
0
  6
CONTINUOUS
 62
     7
 10
-424.5833616073707
 20
111.2857964241833
 30
0.0
 40
0.5000000000000133
 50
182.8466169158164
 51
269.9999999999999
  0
LINE
  5
417
  8
0
  6
CONTINUOUS
 62
     7
 10
-285.327138506651
 20
110.7857964241833
 30
0.0
 11
-287.8291423733672
 21
110.7857964241833
 31
0.0
  0
LINE
  5
418
  8
0
  6
CONTINUOUS
 62
     7
 10
-377.6882482553241
 20
114.4857964241833
 30
0.0
 11
-378.2222518586975
 21
114.4857964241833
 31
0.0
  0
LINE
  5
419
  8
0
  6
CONTINUOUS
 62
     7
 10
-378.5335636670318
 20
114.377057153099
 30
0.0
 11
-378.551980852541
 21
114.3616671341607
 31
0.0
  0
LINE
  5
41A
  8
0
  6
CONTINUOUS
 62
     7
 10
-378.6025129768052
 20
114.3104523683079
 30
0.0
 11
-378.6176544917589
 21
114.2918303402254
 31
0.0
  0
LINE
  5
41B
  8
0
  6
CONTINUOUS
 62
   253
 10
-347.9083226205207
 20
178.6883440809848
 30
0.0
 11
-347.9130821604548
 21
178.7092049842883
 31
0.0
  0
LINE
  5
41C
  8
0
  6
CONTINUOUS
 62
   253
 10
-347.9130821604548
 20
178.7092049842883
 30
0.0
 11
-347.916667707103
 21
178.7302166622416
 31
0.0
  0
LINE
  5
41D
  8
0
  6
CONTINUOUS
 62
   253
 10
-347.916667707103
 20
178.7302166622416
 30
0.0
 11
-347.9190707182604
 21
178.7513290566315
 31
0.0
  0
LINE
  5
41E
  8
0
  6
CONTINUOUS
 62
   253
 10
-408.0670693694921
 20
178.550639339608
 30
0.0
 11
-408.0805850230929
 21
178.5327191048891
 31
0.0
  0
LINE
  5
41F
  8
0
  6
CONTINUOUS
 62
   253
 10
-301.9202854689941
 20
252.4069556396972
 30
0.0
 11
-301.9190707182604
 21
252.4281184523637
 31
0.0
  0
LINE
  5
420
  8
0
  6
CONTINUOUS
 62
   253
 10
-301.8674080862947
 20
252.5914260281691
 30
0.0
 11
-301.8559383423503
 21
252.6103593932892
 31
0.0
  0
LINE
  5
421
  8
0
  6
CONTINUOUS
 62
   253
 10
-408.1268467795533
 20
178.4825496775939
 30
0.0
 11
-408.1440498272041
 21
178.4671564420305
 31
0.0
  0
LINE
  5
422
  8
0
  6
CONTINUOUS
 62
   253
 10
-347.4850391829717
 20
178.343996750358
 30
0.0
 11
-347.5091613586914
 21
178.347777859473
 31
0.0
  0
LINE
  5
423
  8
0
  6
CONTINUOUS
 62
   253
 10
-301.6898302174611
 20
252.7662494614081
 30
0.0
 11
-301.6689514593876
 21
252.7776746966663
 31
0.0
  0
LINE
  5
424
  8
0
  6
CONTINUOUS
 62
   253
 10
-362.1268467795532
 20
178.4825496775939
 30
0.0
 11
-362.1440498272041
 21
178.4671564420305
 31
0.0
  0
LINE
  5
425
  8
0
  6
CONTINUOUS
 62
   253
 10
-362.0326874631721
 20
178.6073943281269
 30
0.0
 11
-362.0430920277269
 21
178.5880214808261
 31
0.0
  0
LINE
  5
426
  8
0
  6
CONTINUOUS
 62
   253
 10
-347.4607627833868
 20
178.3412364878451
 30
0.0
 11
-347.4850391829717
 21
178.343996750358
 31
0.0
  0
LINE
  5
427
  8
0
  6
CONTINUOUS
 62
   253
 10
-301.4607627833867
 20
252.83821102115
 30
0.0
 11
-301.4363899960211
 21
252.8399438610124
 31
0.0
  0
LINE
  5
428
  8
0
  6
CONTINUOUS
 62
   253
 10
-408.1808869460122
 20
178.4385872037146
 30
0.0
 11
-408.2004332564321
 21
178.4254792643043
 31
0.0
  0
LINE
  5
429
  8
0
  6
CONTINUOUS
 62
   253
 10
-408.1440498272041
 20
178.4671564420305
 30
0.0
 11
-408.162077532423
 21
178.4524906374684
 31
0.0
  0
LINE
  5
42A
  8
0
  6
CONTINUOUS
 62
   253
 10
-408.307533286555
 20
178.3728946095449
 30
0.0
 11
-408.33046960059
 21
178.3651441594882
 31
0.0
  0
LINE
  5
42B
  8
0
  6
CONTINUOUS
 62
   253
 10
-347.6029668274667
 20
178.3728946095449
 30
0.0
 11
-347.6254679668627
 21
178.3815970599555
 31
0.0
  0
LINE
  5
42C
  8
0
  6
CONTINUOUS
 62
   253
 10
-301.8299150909288
 20
252.6467284041061
 30
0.0
 11
-301.8154235812357
 21
252.6640774042856
 31
0.0
  0
LINE
  5
42D
  8
0
  6
CONTINUOUS
 62
   253
 10
-301.8154235812357
 20
252.6640774042856
 30
0.0
 11
-301.7999907400174
 21
252.6808138376748
 31
0.0
  0
LINE
  5
42E
  8
0
  6
CONTINUOUS
 62
   253
 10
-301.8778126508496
 20
252.5720531808682
 30
0.0
 11
-301.8674080862947
 21
252.5914260281691
 31
0.0
  0
LINE
  5
42F
  8
0
  6
CONTINUOUS
 62
   253
 10
-301.6689514593876
 20
252.7776746966663
 30
0.0
 11
-301.6474803249141
 21
252.7882167309897
 31
0.0
  0
LINE
  5
430
  8
0
  6
CONTINUOUS
 62
   253
 10
-347.411978886594
 20
178.3388023590879
 30
0.0
 11
-347.4363899960211
 21
178.3395036479828
 31
0.0
  0
LINE
  5
431
  8
0
  6
CONTINUOUS
 62
   253
 10
-347.6254679668627
 20
178.3815970599555
 30
0.0
 11
-347.6474803249141
 21
178.3912307780055
 31
0.0
  0
LINE
  5
432
  8
0
  6
CONTINUOUS
 62
   253
 10
-362.162077532423
 20
178.4524906374684
 30
0.0
 11
-362.1808869460122
 21
178.4385872037146
 31
0.0
  0
LINE
  5
433
  8
0
  6
CONTINUOUS
 62
   253
 10
-301.8871272481843
 20
252.5522870052505
 30
0.0
 11
-301.8778126508496
 21
252.5720531808682
 31
0.0
  0
LINE
  5
434
  8
0
  6
CONTINUOUS
 62
   253
 10
-362.4497373306349
 20
178.3412364878451
 30
0.0
 11
-362.4741101180005
 21
178.3395036479828
 31
0.0
  0
LINE
  5
435
  8
0
  6
CONTINUOUS
 62
   253
 10
-408.4985212274277
 20
178.3388023590879
 30
0.0
 11
-408.5026849661245
 21
178.3387882690244
 31
0.0
  0
LINE
  5
436
  8
0
  6
CONTINUOUS
 62
   253
 10
-408.0326874631721
 20
178.6073943281269
 30
0.0
 11
-408.0430920277269
 21
178.5880214808261
 31
0.0
  0
LINE
  5
437
  8
0
  6
CONTINUOUS
 62
   253
 10
-408.241548654634
 20
178.4017728123288
 30
0.0
 11
-408.2630197891076
 21
178.3912307780055
 31
0.0
  0
LINE
  5
438
  8
0
  6
CONTINUOUS
 62
   253
 10
-408.3537864457987
 20
178.3583641744544
 30
0.0
 11
-408.377428272138
 21
178.3525708070773
 31
0.0
  0
LINE
  5
439
  8
0
  6
CONTINUOUS
 62
   253
 10
-301.6029668274667
 20
252.8065528994503
 30
0.0
 11
-301.5800305134316
 21
252.814303349507
 31
0.0
  0
LINE
  5
43A
  8
0
  6
CONTINUOUS
 62
   253
 10
-301.4363899960211
 20
252.8399438610124
 30
0.0
 11
-301.411978886594
 21
252.8406451499073
 31
0.0
  0
LINE
  5
43B
  8
0
  6
CONTINUOUS
 62
   253
 10
-347.5800305134316
 20
178.3651441594882
 30
0.0
 11
-347.6029668274667
 21
178.3728946095449
 31
0.0
  0
LINE
  5
43C
  8
0
  6
CONTINUOUS
 62
   253
 10
-408.2850321471589
 20
178.3815970599555
 30
0.0
 11
-408.307533286555
 21
178.3728946095449
 31
0.0
  0
LINE
  5
43D
  8
0
  6
CONTINUOUS
 62
   253
 10
-347.6898302174611
 20
178.4131980475871
 30
0.0
 11
-347.7100668575896
 21
178.4254792643043
 31
0.0
  0
LINE
  5
43E
  8
0
  6
CONTINUOUS
 62
   253
 10
-408.4497373306349
 20
178.3412364878451
 30
0.0
 11
-408.4741101180005
 21
178.3395036479828
 31
0.0
  0
LINE
  5
43F
  8
0
  6
CONTINUOUS
 62
   253
 10
-347.6474803249141
 20
178.3912307780055
 30
0.0
 11
-347.6689514593876
 21
178.4017728123288
 31
0.0
  0
LINE
  5
440
  8
0
  6
CONTINUOUS
 62
   253
 10
-301.7296131680095
 20
252.7408603052805
 30
0.0
 11
-301.7100668575896
 21
252.7539682446909
 31
0.0
  0
LINE
  5
441
  8
0
  6
CONTINUOUS
 62
   253
 10
-362.0805850230928
 20
178.5327191048891
 30
0.0
 11
-362.0950765327859
 21
178.5153701047095
 31
0.0
  0
LINE
  5
442
  8
0
  6
CONTINUOUS
 62
   253
 10
-347.4363899960211
 20
178.3395036479828
 30
0.0
 11
-347.4607627833868
 21
178.3412364878451
 31
0.0
  0
LINE
  5
443
  8
0
  6
CONTINUOUS
 62
   253
 10
-362.3075332865549
 20
178.3728946095449
 30
0.0
 11
-362.33046960059
 21
178.3651441594882
 31
0.0
  0
LINE
  5
444
  8
0
  6
CONTINUOUS
 62
   253
 10
-347.5091613586914
 20
178.347777859473
 30
0.0
 11
-347.5330718418837
 21
178.3525708070773
 31
0.0
  0
LINE
  5
445
  8
0
  6
CONTINUOUS
 62
   253
 10
-408.2004332564321
 20
178.4254792643043
 30
0.0
 11
-408.2206698965605
 21
178.4131980475871
 31
0.0
  0
LINE
  5
446
  8
0
  6
CONTINUOUS
 62
   253
 10
-408.377428272138
 20
178.3525708070773
 30
0.0
 11
-408.4013387553304
 21
178.347777859473
 31
0.0
  0
LINE
  5
447
  8
0
  6
CONTINUOUS
 62
   253
 10
-408.0151704268158
 20
178.6472729167503
 30
0.0
 11
-408.0233728658374
 21
178.6271605037446
 31
0.0
  0
LINE
  5
448
  8
0
  6
CONTINUOUS
 62
   253
 10
-301.7664502868176
 20
252.7122910669647
 30
0.0
 11
-301.7484225815987
 21
252.7269568715268
 31
0.0
  0
LINE
  5
449
  8
0
  6
CONTINUOUS
 62
   253
 10
-408.4013387553304
 20
178.347777859473
 30
0.0
 11
-408.4254609310499
 21
178.343996750358
 31
0.0
  0
LINE
  5
44A
  8
0
  6
CONTINUOUS
 62
   253
 10
-408.0950765327859
 20
178.5153701047095
 30
0.0
 11
-408.1105093740043
 21
178.4986336713203
 31
0.0
  0
LINE
  5
44B
  8
0
  6
CONTINUOUS
 62
   253
 10
-301.8434307445296
 20
252.6288081693872
 30
0.0
 11
-301.8299150909288
 21
252.6467284041061
 31
0.0
  0
LINE
  5
44C
  8
0
  6
CONTINUOUS
 62
   253
 10
-362.0545617716714
 20
178.5690881157059
 30
0.0
 11
-362.0670693694921
 21
178.550639339608
 31
0.0
  0
LINE
  5
44D
  8
0
  6
CONTINUOUS
 62
   253
 10
-362.3537864457986
 20
178.3583641744544
 30
0.0
 11
-362.377428272138
 21
178.3525708070773
 31
0.0
  0
LINE
  5
44E
  8
0
  6
CONTINUOUS
 62
   253
 10
-316.4985212274277
 20
178.3388023590879
 30
0.0
 11
-316.5026849661246
 21
178.3387882690244
 31
0.0
  0
LINE
  5
44F
  8
0
  6
CONTINUOUS
 62
   253
 10
-347.7100668575896
 20
178.4254792643043
 30
0.0
 11
-347.7296131680095
 21
178.4385872037146
 31
0.0
  0
LINE
  5
450
  8
0
  6
CONTINUOUS
 62
   253
 10
-301.411978886594
 20
252.8406451499073
 30
0.0
 11
-301.4078151478971
 21
252.8406592399707
 31
0.0
  0
LINE
  5
451
  8
0
  6
CONTINUOUS
 62
   253
 10
-347.8871272481842
 20
178.6271605037446
 30
0.0
 11
-347.8953296872058
 21
178.6472729167503
 31
0.0
  0
LINE
  5
452
  8
0
  6
CONTINUOUS
 62
   253
 10
-347.7484225815987
 20
178.4524906374684
 30
0.0
 11
-347.7664502868176
 21
178.4671564420305
 31
0.0
  0
LINE
  5
453
  8
0
  6
CONTINUOUS
 62
   253
 10
-408.4741101180005
 20
178.3395036479828
 30
0.0
 11
-408.4985212274277
 21
178.3388023590879
 31
0.0
  0
LINE
  5
454
  8
0
  6
CONTINUOUS
 62
   253
 10
-301.9024004264267
 20
252.5117638576562
 30
0.0
 11
-301.8953296872058
 21
252.5321745922449
 31
0.0
  0
LINE
  5
455
  8
0
  6
CONTINUOUS
 62
   253
 10
-347.8778126508496
 20
178.6073943281269
 30
0.0
 11
-347.8871272481842
 21
178.6271605037446
 31
0.0
  0
LINE
  5
456
  8
0
  6
CONTINUOUS
 62
   253
 10
-301.5091613586913
 20
252.8316696495222
 30
0.0
 11
-301.4850391829718
 21
252.8354507586372
 31
0.0
  0
LINE
  5
457
  8
0
  6
CONTINUOUS
 62
   253
 10
-301.7484225815987
 20
252.7269568715268
 30
0.0
 11
-301.7296131680095
 21
252.7408603052805
 31
0.0
  0
LINE
  5
458
  8
0
  6
CONTINUOUS
 62
   253
 10
-408.5026849661246
 20
252.8406592399707
 30
0.0
 11
-408.4985212274277
 21
252.8406451499073
 31
0.0
  0
LINE
  5
459
  8
0
  6
CONTINUOUS
 62
   253
 10
-301.9190707182604
 20
178.7513290566315
 30
0.0
 11
-301.9202854689942
 21
178.7724918692979
 31
0.0
  0
LINE
  5
45A
  8
0
  6
CONTINUOUS
 62
   253
 10
-347.6689514593876
 20
178.4017728123288
 30
0.0
 11
-347.6898302174611
 21
178.4131980475871
 31
0.0
  0
LINE
  5
45B
  8
0
  6
CONTINUOUS
 62
   253
 10
-316.2630197891076
 20
252.7882167309897
 30
0.0
 11
-316.2415486546341
 21
252.7776746966663
 31
0.0
  0
LINE
  5
45C
  8
0
  6
CONTINUOUS
 62
   253
 10
-393.7484225815987
 20
178.4524906374684
 30
0.0
 11
-393.7664502868176
 21
178.4671564420305
 31
0.0
  0
LINE
  5
45D
  8
0
  6
CONTINUOUS
 62
   253
 10
-408.4254609310499
 20
252.8354507586372
 30
0.0
 11
-408.4013387553304
 21
252.8316696495222
 31
0.0
  0
LINE
  5
45E
  8
0
  6
CONTINUOUS
 62
   253
 10
-407.9914293957613
 20
252.4281184523637
 30
0.0
 11
-407.9902146450275
 21
252.4069556396972
 31
0.0
  0
LINE
  5
45F
  8
0
  6
CONTINUOUS
 62
   253
 10
-301.8871272481843
 20
178.6271605037446
 30
0.0
 11
-301.8953296872058
 21
178.6472729167503
 31
0.0
  0
LINE
  5
460
  8
0
  6
CONTINUOUS
 62
   253
 10
-408.4497373306349
 20
252.83821102115
 30
0.0
 11
-408.4254609310499
 21
252.8354507586372
 31
0.0
  0
LINE
  5
461
  8
0
  6
CONTINUOUS
 62
   253
 10
-347.5330718418837
 20
178.3525708070773
 30
0.0
 11
-347.556713668223
 21
178.3583641744544
 31
0.0
  0
LINE
  5
462
  8
0
  6
CONTINUOUS
 62
   253
 10
-301.8953296872058
 20
252.5321745922449
 30
0.0
 11
-301.8871272481843
 21
252.5522870052505
 31
0.0
  0
LINE
  5
463
  8
0
  6
CONTINUOUS
 62
   253
 10
-408.0670693694921
 20
252.6288081693872
 30
0.0
 11
-408.0545617716714
 21
252.6103593932892
 31
0.0
  0
LINE
  5
464
  8
0
  6
CONTINUOUS
 62
   253
 10
-316.4013387553303
 20
252.8316696495222
 30
0.0
 11
-316.377428272138
 21
252.8268767019179
 31
0.0
  0
LINE
  5
465
  8
0
  6
CONTINUOUS
 62
   253
 10
-408.3537864457987
 20
252.8210833345408
 30
0.0
 11
-408.33046960059
 21
252.814303349507
 31
0.0
  0
LINE
  5
466
  8
0
  6
CONTINUOUS
 62
   253
 10
-408.2206698965605
 20
252.7662494614081
 30
0.0
 11
-408.2004332564321
 21
252.7539682446909
 31
0.0
  0
LINE
  5
467
  8
0
  6
CONTINUOUS
 62
   253
 10
-408.33046960059
 20
252.814303349507
 30
0.0
 11
-408.307533286555
 21
252.8065528994503
 31
0.0
  0
LINE
  5
468
  8
0
  6
CONTINUOUS
 62
   253
 10
-393.8674080862947
 20
178.5880214808261
 30
0.0
 11
-393.8778126508496
 21
178.6073943281269
 31
0.0
  0
LINE
  5
469
  8
0
  6
CONTINUOUS
 62
   253
 10
-408.1105093740043
 20
252.6808138376748
 30
0.0
 11
-408.0950765327859
 21
252.6640774042856
 31
0.0
  0
LINE
  5
46A
  8
0
  6
CONTINUOUS
 62
   253
 10
-347.8154235812358
 20
178.5153701047095
 30
0.0
 11
-347.8299150909289
 21
178.5327191048891
 31
0.0
  0
LINE
  5
46B
  8
0
  6
CONTINUOUS
 62
   253
 10
-393.9190707182603
 20
178.7513290566315
 30
0.0
 11
-393.9202854689942
 21
178.7724918692979
 31
0.0
  0
LINE
  5
46C
  8
0
  6
CONTINUOUS
 62
   253
 10
-408.1440498272041
 20
252.7122910669647
 30
0.0
 11
-408.1268467795533
 21
252.6968978314013
 31
0.0
  0
LINE
  5
46D
  8
0
  6
CONTINUOUS
 62
   253
 10
-301.4850391829718
 20
252.8354507586372
 30
0.0
 11
-301.4607627833867
 21
252.83821102115
 31
0.0
  0
LINE
  5
46E
  8
0
  6
CONTINUOUS
 62
   253
 10
-301.8559383423503
 20
252.6103593932892
 30
0.0
 11
-301.8434307445296
 21
252.6288081693872
 31
0.0
  0
LINE
  5
46F
  8
0
  6
CONTINUOUS
 62
   253
 10
-301.5330718418837
 20
252.8268767019179
 30
0.0
 11
-301.5091613586913
 21
252.8316696495222
 31
0.0
  0
LINE
  5
470
  8
0
  6
CONTINUOUS
 62
   253
 10
-347.7836533344685
 20
178.4825496775939
 30
0.0
 11
-347.7999907400174
 21
178.4986336713203
 31
0.0
  0
LINE
  5
471
  8
0
  6
CONTINUOUS
 62
   253
 10
-408.0326874631721
 20
252.5720531808682
 30
0.0
 11
-408.0233728658374
 21
252.5522870052505
 31
0.0
  0
LINE
  5
472
  8
0
  6
CONTINUOUS
 62
   253
 10
-301.5800305134316
 20
252.814303349507
 30
0.0
 11
-301.556713668223
 21
252.8210833345408
 31
0.0
  0
LINE
  5
473
  8
0
  6
CONTINUOUS
 62
   253
 10
-316.4254609310499
 20
252.8354507586372
 30
0.0
 11
-316.4013387553303
 21
252.8316696495222
 31
0.0
  0
LINE
  5
474
  8
0
  6
CONTINUOUS
 62
   253
 10
-408.0805850230929
 20
252.6467284041061
 30
0.0
 11
-408.0670693694921
 21
252.6288081693872
 31
0.0
  0
LINE
  5
475
  8
0
  6
CONTINUOUS
 62
   253
 10
-316.4741101180005
 20
252.8399438610124
 30
0.0
 11
-316.4497373306349
 21
252.83821102115
 31
0.0
  0
LINE
  5
476
  8
0
  6
CONTINUOUS
 62
   253
 10
-301.7999907400174
 20
252.6808138376748
 30
0.0
 11
-301.7836533344685
 21
252.6968978314013
 31
0.0
  0
LINE
  5
477
  8
0
  6
CONTINUOUS
 62
   253
 10
-347.8871272481842
 20
252.5522870052505
 30
0.0
 11
-347.8778126508496
 21
252.5720531808682
 31
0.0
  0
LINE
  5
478
  8
0
  6
CONTINUOUS
 62
   253
 10
-393.8154235812358
 20
178.5153701047095
 30
0.0
 11
-393.8299150909289
 21
178.5327191048891
 31
0.0
  0
LINE
  5
479
  8
0
  6
CONTINUOUS
 62
   253
 10
-408.0950765327859
 20
252.6640774042856
 30
0.0
 11
-408.0805850230929
 21
252.6467284041061
 31
0.0
  0
LINE
  5
47A
  8
0
  6
CONTINUOUS
 62
   253
 10
-347.556713668223
 20
178.3583641744544
 30
0.0
 11
-347.5800305134316
 21
178.3651441594882
 31
0.0
  0
LINE
  5
47B
  8
0
  6
CONTINUOUS
 62
   253
 10
-347.9024004264267
 20
178.667683651339
 30
0.0
 11
-347.9083226205207
 21
178.6883440809848
 31
0.0
  0
LINE
  5
47C
  8
0
  6
CONTINUOUS
 62
   253
 10
-301.556713668223
 20
252.8210833345408
 30
0.0
 11
-301.5330718418837
 21
252.8268767019179
 31
0.0
  0
LINE
  5
47D
  8
0
  6
CONTINUOUS
 62
   253
 10
-347.8953296872058
 20
178.6472729167503
 30
0.0
 11
-347.9024004264267
 21
178.667683651339
 31
0.0
  0
LINE
  5
47E
  8
0
  6
CONTINUOUS
 62
   253
 10
-301.7100668575896
 20
252.7539682446909
 30
0.0
 11
-301.6898302174611
 21
252.7662494614081
 31
0.0
  0
LINE
  5
47F
  8
0
  6
CONTINUOUS
 62
   253
 10
-301.6474803249141
 20
178.3912307780055
 30
0.0
 11
-301.6689514593876
 21
178.4017728123288
 31
0.0
  0
LINE
  5
480
  8
0
  6
CONTINUOUS
 62
   253
 10
-301.8434307445296
 20
178.550639339608
 30
0.0
 11
-301.8559383423503
 21
178.5690881157059
 31
0.0
  0
LINE
  5
481
  8
0
  6
CONTINUOUS
 62
   253
 10
-347.6029668274667
 20
252.8065528994503
 30
0.0
 11
-347.5800305134316
 21
252.814303349507
 31
0.0
  0
LINE
  5
482
  8
0
  6
CONTINUOUS
 62
   253
 10
-393.7999907400173
 20
178.4986336713203
 30
0.0
 11
-393.8154235812358
 21
178.5153701047095
 31
0.0
  0
LINE
  5
483
  8
0
  6
CONTINUOUS
 62
   253
 10
-347.8434307445296
 20
178.550639339608
 30
0.0
 11
-347.8559383423503
 21
178.5690881157059
 31
0.0
  0
LINE
  5
484
  8
0
  6
CONTINUOUS
 62
   253
 10
-393.9202854689942
 20
252.4069556396972
 30
0.0
 11
-393.9190707182603
 21
252.4281184523637
 31
0.0
  0
LINE
  5
485
  8
0
  6
CONTINUOUS
 62
   253
 10
-347.7999907400174
 20
178.4986336713203
 30
0.0
 11
-347.8154235812358
 21
178.5153701047095
 31
0.0
  0
LINE
  5
486
  8
0
  6
CONTINUOUS
 62
   253
 10
-301.7836533344685
 20
252.6968978314013
 30
0.0
 11
-301.7664502868176
 21
252.7122910669647
 31
0.0
  0
LINE
  5
487
  8
0
  6
CONTINUOUS
 62
   253
 10
-408.2630197891076
 20
252.7882167309897
 30
0.0
 11
-408.241548654634
 21
252.7776746966663
 31
0.0
  0
LINE
  5
488
  8
0
  6
CONTINUOUS
 62
   253
 10
-301.8154235812357
 20
178.5153701047095
 30
0.0
 11
-301.8299150909288
 21
178.5327191048891
 31
0.0
  0
LINE
  5
489
  8
0
  6
CONTINUOUS
 62
   253
 10
-347.8299150909289
 20
178.5327191048891
 30
0.0
 11
-347.8434307445296
 21
178.550639339608
 31
0.0
  0
LINE
  5
48A
  8
0
  6
CONTINUOUS
 62
   253
 10
-301.4607627833867
 20
178.3412364878451
 30
0.0
 11
-301.4850391829718
 21
178.343996750358
 31
0.0
  0
LINE
  5
48B
  8
0
  6
CONTINUOUS
 62
   253
 10
-408.0233728658374
 20
252.5522870052505
 30
0.0
 11
-408.0151704268158
 21
252.5321745922449
 31
0.0
  0
LINE
  5
48C
  8
0
  6
CONTINUOUS
 62
   253
 10
-347.7296131680095
 20
178.4385872037146
 30
0.0
 11
-347.7484225815987
 21
178.4524906374684
 31
0.0
  0
LINE
  5
48D
  8
0
  6
CONTINUOUS
 62
   253
 10
-347.8674080862948
 20
178.5880214808261
 30
0.0
 11
-347.8778126508496
 21
178.6073943281269
 31
0.0
  0
LINE
  5
48E
  8
0
  6
CONTINUOUS
 62
   253
 10
-301.411978886594
 20
178.3388023590879
 30
0.0
 11
-301.4363899960211
 21
178.3395036479828
 31
0.0
  0
LINE
  5
48F
  8
0
  6
CONTINUOUS
 62
   253
 10
-347.7664502868176
 20
178.4671564420305
 30
0.0
 11
-347.7836533344685
 21
178.4825496775939
 31
0.0
  0
LINE
  5
490
  8
0
  6
CONTINUOUS
 62
   253
 10
-347.8559383423503
 20
178.5690881157059
 30
0.0
 11
-347.8674080862948
 21
178.5880214808261
 31
0.0
  0
LINE
  5
491
  8
0
  6
CONTINUOUS
 62
   253
 10
-393.916667707103
 20
178.7302166622416
 30
0.0
 11
-393.9190707182603
 21
178.7513290566315
 31
0.0
  0
LINE
  5
492
  8
0
  6
CONTINUOUS
 62
   253
 10
-393.6029668274667
 20
178.3728946095449
 30
0.0
 11
-393.6254679668627
 21
178.3815970599555
 31
0.0
  0
LINE
  5
493
  8
0
  6
CONTINUOUS
 62
   253
 10
-408.002177493501
 20
252.4911034280103
 30
0.0
 11
-407.9974179535669
 21
252.4702425247069
 31
0.0
  0
LINE
  5
494
  8
0
  6
CONTINUOUS
 62
   253
 10
-301.6689514593876
 20
178.4017728123288
 30
0.0
 11
-301.6898302174611
 21
178.4131980475871
 31
0.0
  0
LINE
  5
495
  8
0
  6
CONTINUOUS
 62
   253
 10
-316.0326874631721
 20
252.5720531808682
 30
0.0
 11
-316.0233728658374
 21
252.5522870052505
 31
0.0
  0
LINE
  5
496
  8
0
  6
CONTINUOUS
 62
   253
 10
-301.7999907400174
 20
178.4986336713203
 30
0.0
 11
-301.8154235812357
 21
178.5153701047095
 31
0.0
  0
LINE
  5
497
  8
0
  6
CONTINUOUS
 62
   253
 10
-347.9190707182604
 20
178.7513290566315
 30
0.0
 11
-347.9202854689942
 21
178.7724918692979
 31
0.0
  0
LINE
  5
498
  8
0
  6
CONTINUOUS
 62
   253
 10
-316.0233728658374
 20
252.5522870052505
 30
0.0
 11
-316.0151704268159
 21
252.5321745922449
 31
0.0
  0
LINE
  5
499
  8
0
  6
CONTINUOUS
 62
   253
 10
-316.0545617716713
 20
252.6103593932893
 30
0.0
 11
-316.0430920277269
 21
252.5914260281691
 31
0.0
  0
LINE
  5
49A
  8
0
  6
CONTINUOUS
 62
   253
 10
-315.9974179535669
 20
252.4702425247069
 30
0.0
 11
-315.9938324069187
 21
252.4492308467536
 31
0.0
  0
LINE
  5
49B
  8
0
  6
CONTINUOUS
 62
   253
 10
-316.0950765327859
 20
252.6640774042856
 30
0.0
 11
-316.0805850230929
 21
252.6467284041061
 31
0.0
  0
LINE
  5
49C
  8
0
  6
CONTINUOUS
 62
   253
 10
-316.0805850230929
 20
252.6467284041061
 30
0.0
 11
-316.067069369492
 21
252.6288081693872
 31
0.0
  0
LINE
  5
49D
  8
0
  6
CONTINUOUS
 62
   253
 10
-408.1808869460122
 20
252.7408603052805
 30
0.0
 11
-408.162077532423
 21
252.7269568715268
 31
0.0
  0
LINE
  5
49E
  8
0
  6
CONTINUOUS
 62
   253
 10
-393.6474803249141
 20
178.3912307780055
 30
0.0
 11
-393.6689514593876
 21
178.4017728123288
 31
0.0
  0
LINE
  5
49F
  8
0
  6
CONTINUOUS
 62
   253
 10
-316.5026849661246
 20
252.8406592399707
 30
0.0
 11
-316.4985212274277
 21
252.8406451499073
 31
0.0
  0
LINE
  5
4A0
  8
0
  6
CONTINUOUS
 62
   253
 10
-285.5637007865934
 20
179.8789527770411
 30
0.0
 11
-285.4219536574126
 21
180.3477518416325
 31
0.0
  0
LINE
  5
4A1
  8
0
  6
CONTINUOUS
 62
   253
 10
-316.33046960059
 20
252.814303349507
 30
0.0
 11
-316.307533286555
 21
252.8065528994503
 31
0.0
  0
LINE
  5
4A2
  8
0
  6
CONTINUOUS
 62
   253
 10
-380.0801780086896
 20
179.0698862478054
 30
0.0
 11
-379.7697531399902
 21
179.4485895009255
 31
0.0
  0
LINE
  5
4A3
  8
0
  6
CONTINUOUS
 62
   253
 10
-380.0801780086896
 20
252.1095612611897
 30
0.0
 11
-380.4585702328044
 21
252.4202413916418
 31
0.0
  0
LINE
  5
4A4
  8
0
  6
CONTINUOUS
 62
   253
 10
-379.7697531399902
 20
251.7308580080697
 30
0.0
 11
-380.0801780086896
 21
252.1095612611897
 31
0.0
  0
LINE
  5
4A5
  8
0
  6
CONTINUOUS
 62
   253
 10
-301.4363899960211
 20
178.3395036479828
 30
0.0
 11
-301.4607627833867
 21
178.3412364878451
 31
0.0
  0
LINE
  5
4A6
  8
0
  6
CONTINUOUS
 62
   253
 10
-316.1268467795532
 20
252.6968978314013
 30
0.0
 11
-316.1105093740043
 21
252.6808138376748
 31
0.0
  0
LINE
  5
4A7
  8
0
  6
CONTINUOUS
 62
   253
 10
-379.5392010565587
 20
179.8807918308991
 30
0.0
 11
-379.3973639032532
 21
180.3499173926819
 31
0.0
  0
LINE
  5
4A8
  8
0
  6
CONTINUOUS
 62
   253
 10
-375.8303221053321
 20
252.1095612611897
 30
0.0
 11
-376.1407469740315
 21
251.7308580080697
 31
0.0
  0
LINE
  5
4A9
  8
0
  6
CONTINUOUS
 62
   253
 10
-393.5330718418837
 20
178.3525708070773
 30
0.0
 11
-393.556713668223
 21
178.3583641744544
 31
0.0
  0
LINE
  5
4AA
  8
0
  6
CONTINUOUS
 62
   253
 10
-393.9083226205207
 20
178.6883440809848
 30
0.0
 11
-393.9130821604548
 21
178.7092049842883
 31
0.0
  0
LINE
  5
4AB
  8
0
  6
CONTINUOUS
 62
   253
 10
-316.4497373306349
 20
252.83821102115
 30
0.0
 11
-316.4254609310499
 21
252.8354507586372
 31
0.0
  0
LINE
  5
4AC
  8
0
  6
CONTINUOUS
 62
   253
 10
-285.7942027376074
 20
251.7323325646065
 30
0.0
 11
-286.1046270621391
 21
252.1106618635692
 31
0.0
  0
LINE
  5
4AD
  8
0
  6
CONTINUOUS
 62
   253
 10
-381.3591581604937
 20
178.386510303866
 30
0.0
 11
-380.89041769512
 21
178.5284643292329
 31
0.0
  0
LINE
  5
4AE
  8
0
  6
CONTINUOUS
 62
   253
 10
-316.377428272138
 20
252.8268767019179
 30
0.0
 11
-316.3537864457986
 21
252.8210833345408
 31
0.0
  0
LINE
  5
4AF
  8
0
  6
CONTINUOUS
 62
   253
 10
-393.6898302174612
 20
178.4131980475871
 30
0.0
 11
-393.7100668575896
 21
178.4254792643043
 31
0.0
  0
LINE
  5
4B0
  8
0
  6
CONTINUOUS
 62
   253
 10
-285.7942027376074
 20
179.4471149443886
 30
0.0
 11
-285.5637007865934
 21
179.8789527770411
 31
0.0
  0
LINE
  5
4B1
  8
0
  6
CONTINUOUS
 62
   253
 10
-287.871961505814
 20
178.3387882690244
 30
0.0
 11
-287.3840070724333
 21
178.3863334690548
 31
0.0
  0
LINE
  5
4B2
  8
0
  6
CONTINUOUS
 62
   253
 10
-376.1407469740315
 20
179.4485895009254
 30
0.0
 11
-375.8303221053321
 21
179.0698862478054
 31
0.0
  0
LINE
  5
4B3
  8
0
  6
CONTINUOUS
 62
   253
 10
-316.0430920277269
 20
252.5914260281691
 30
0.0
 11
-316.0326874631721
 21
252.5720531808682
 31
0.0
  0
LINE
  5
4B4
  8
0
  6
CONTINUOUS
 62
   253
 10
-422.9954437381805
 20
178.5280345704599
 30
0.0
 11
-422.5264930415884
 21
178.3863334690548
 31
0.0
  0
LINE
  5
4B5
  8
0
  6
CONTINUOUS
 62
   253
 10
-376.371299057463
 20
179.8807918308991
 30
0.0
 11
-376.1407469740315
 21
179.4485895009254
 31
0.0
  0
LINE
  5
4B6
  8
0
  6
CONTINUOUS
 62
   253
 10
-301.556713668223
 20
178.3583641744544
 30
0.0
 11
-301.5800305134316
 21
178.3651441594882
 31
0.0
  0
LINE
  5
4B7
  8
0
  6
CONTINUOUS
 62
   253
 10
-393.7836533344685
 20
178.4825496775939
 30
0.0
 11
-393.7999907400173
 21
178.4986336713203
 31
0.0
  0
LINE
  5
4B8
  8
0
  6
CONTINUOUS
 62
   253
 10
-301.6029668274667
 20
178.3728946095449
 30
0.0
 11
-301.6254679668627
 21
178.3815970599555
 31
0.0
  0
LINE
  5
4B9
  8
0
  6
CONTINUOUS
 62
   253
 10
-380.4585702328044
 20
178.7592061173533
 30
0.0
 11
-380.0801780086896
 21
179.0698862478054
 31
0.0
  0
LINE
  5
4BA
  8
0
  6
CONTINUOUS
 62
   253
 10
-393.556713668223
 20
178.3583641744544
 30
0.0
 11
-393.5800305134317
 21
178.3651441594882
 31
0.0
  0
LINE
  5
4BB
  8
0
  6
CONTINUOUS
 62
   253
 10
-393.7296131680095
 20
178.4385872037146
 30
0.0
 11
-393.7484225815987
 21
178.4524906374684
 31
0.0
  0
LINE
  5
4BC
  8
0
  6
CONTINUOUS
 62
   253
 10
-393.4850391829717
 20
178.343996750358
 30
0.0
 11
-393.5091613586914
 21
178.347777859473
 31
0.0
  0
LINE
  5
4BD
  8
0
  6
CONTINUOUS
 62
   253
 10
-301.9130821604547
 20
178.7092049842883
 30
0.0
 11
-301.916667707103
 21
178.7302166622416
 31
0.0
  0
LINE
  5
4BE
  8
0
  6
CONTINUOUS
 62
   253
 10
-424.1162973764143
 20
179.4471149443886
 30
0.0
 11
-423.8058730518827
 21
179.0687856454259
 31
0.0
  0
LINE
  5
4BF
  8
0
  6
CONTINUOUS
 62
   253
 10
-316.2004332564321
 20
252.7539682446909
 30
0.0
 11
-316.1808869460122
 21
252.7408603052805
 31
0.0
  0
LINE
  5
4C0
  8
0
  6
CONTINUOUS
 62
   253
 10
-285.3743928624095
 20
250.3438989650239
 30
0.0
 11
-285.4219536574126
 21
250.8316956673627
 31
0.0
  0
LINE
  5
4C1
  8
0
  6
CONTINUOUS
 62
   253
 10
-316.3537864457986
 20
252.8210833345408
 30
0.0
 11
-316.33046960059
 21
252.814303349507
 31
0.0
  0
LINE
  5
4C2
  8
0
  6
CONTINUOUS
 62
   253
 10
-393.8778126508496
 20
178.6073943281269
 30
0.0
 11
-393.8871272481843
 21
178.6271605037446
 31
0.0
  0
LINE
  5
4C3
  8
0
  6
CONTINUOUS
 62
   253
 10
-316.4985212274277
 20
252.8406451499073
 30
0.0
 11
-316.4741101180005
 21
252.8399438610124
 31
0.0
  0
LINE
  5
4C4
  8
0
  6
CONTINUOUS
 62
   253
 10
-286.1046270621391
 20
179.0687856454259
 30
0.0
 11
-285.7942027376074
 21
179.4471149443886
 31
0.0
  0
LINE
  5
4C5
  8
0
  6
CONTINUOUS
 62
   253
 10
-393.4363899960211
 20
178.3395036479828
 30
0.0
 11
-393.4607627833868
 21
178.3412364878451
 31
0.0
  0
LINE
  5
4C6
  8
0
  6
CONTINUOUS
 62
   253
 10
-393.4607627833868
 20
178.3412364878451
 30
0.0
 11
-393.4850391829717
 21
178.343996750358
 31
0.0
  0
LINE
  5
4C7
  8
0
  6
CONTINUOUS
 62
   253
 10
-301.8778126508496
 20
178.6073943281269
 30
0.0
 11
-301.8871272481843
 21
178.6271605037446
 31
0.0
  0
LINE
  5
4C8
  8
0
  6
CONTINUOUS
 62
   253
 10
-408.0545617716714
 20
252.6103593932892
 30
0.0
 11
-408.0430920277269
 21
252.5914260281691
 31
0.0
  0
LINE
  5
4C9
  8
0
  6
CONTINUOUS
 62
   253
 10
-286.9150563758412
 20
178.5280345704599
 30
0.0
 11
-286.4830788205132
 21
178.7584618246025
 31
0.0
  0
LINE
  5
4CA
  8
0
  6
CONTINUOUS
 62
   253
 10
-393.8299150909289
 20
178.5327191048891
 30
0.0
 11
-393.8434307445297
 21
178.550639339608
 31
0.0
  0
LINE
  5
4CB
  8
0
  6
CONTINUOUS
 62
   253
 10
-316.1808869460122
 20
252.7408603052805
 30
0.0
 11
-316.162077532423
 21
252.7269568715268
 31
0.0
  0
LINE
  5
4CC
  8
0
  6
CONTINUOUS
 62
   253
 10
-393.6689514593876
 20
178.4017728123288
 30
0.0
 11
-393.6898302174612
 21
178.4131980475871
 31
0.0
  0
LINE
  5
4CD
  8
0
  6
CONTINUOUS
 62
   253
 10
-423.8058730518827
 20
179.0687856454259
 30
0.0
 11
-423.4274212935085
 21
178.7584618246025
 31
0.0
  0
LINE
  5
4CE
  8
0
  6
CONTINUOUS
 62
   253
 10
-316.1105093740043
 20
252.6808138376748
 30
0.0
 11
-316.0950765327859
 21
252.6640774042856
 31
0.0
  0
LINE
  5
4CF
  8
0
  6
CONTINUOUS
 62
   253
 10
-393.5091613586914
 20
178.347777859473
 30
0.0
 11
-393.5330718418837
 21
178.3525708070773
 31
0.0
  0
LINE
  5
4D0
  8
0
  6
CONTINUOUS
 62
   253
 10
-316.0080996875949
 20
252.5117638576562
 30
0.0
 11
-316.002177493501
 21
252.4911034280103
 31
0.0
  0
LINE
  5
4D1
  8
0
  6
CONTINUOUS
 62
   253
 10
-379.3973639032532
 20
250.8295301163133
 30
0.0
 11
-379.5392010565587
 21
251.298655678096
 31
0.0
  0
LINE
  5
4D2
  8
0
  6
CONTINUOUS
 62
   253
 10
-374.5513419535279
 20
178.386510303866
 30
0.0
 11
-374.0636856425089
 21
178.3387882690244
 31
0.0
  0
LINE
  5
4D3
  8
0
  6
CONTINUOUS
 62
   253
 10
-393.6254679668627
 20
178.3815970599555
 30
0.0
 11
-393.6474803249141
 21
178.3912307780055
 31
0.0
  0
LINE
  5
4D4
  8
0
  6
CONTINUOUS
 62
   253
 10
-316.2206698965605
 20
252.7662494614081
 30
0.0
 11
-316.2004332564321
 21
252.7539682446909
 31
0.0
  0
LINE
  5
4D5
  8
0
  6
CONTINUOUS
 62
   253
 10
-301.5330718418837
 20
178.3525708070773
 30
0.0
 11
-301.556713668223
 21
178.3583641744544
 31
0.0
  0
LINE
  5
4D6
  8
0
  6
CONTINUOUS
 62
   253
 10
-393.5800305134317
 20
178.3651441594882
 30
0.0
 11
-393.6029668274667
 21
178.3728946095449
 31
0.0
  0
LINE
  5
4D7
  8
0
  6
CONTINUOUS
 62
   253
 10
-316.285032147159
 20
252.7978504490397
 30
0.0
 11
-316.2630197891076
 21
252.7882167309897
 31
0.0
  0
LINE
  5
4D8
  8
0
  6
CONTINUOUS
 62
   253
 10
-408.2630197891076
 20
178.3912307780055
 30
0.0
 11
-408.2850321471589
 21
178.3815970599555
 31
0.0
  0
LINE
  5
4D9
  8
0
  6
CONTINUOUS
 62
   253
 10
-393.8434307445297
 20
252.6288081693872
 30
0.0
 11
-393.8299150909289
 21
252.6467284041061
 31
0.0
  0
LINE
  5
4DA
  8
0
  6
CONTINUOUS
 62
   253
 10
-362.4985212274277
 20
178.3388023590879
 30
0.0
 11
-362.5026849661246
 21
178.3387882690244
 31
0.0
  0
LINE
  5
4DB
  8
0
  6
CONTINUOUS
 62
   253
 10
-362.2206698965605
 20
178.4131980475871
 30
0.0
 11
-362.241548654634
 21
178.4017728123288
 31
0.0
  0
LINE
  5
4DC
  8
0
  6
CONTINUOUS
 62
   253
 10
-362.2630197891075
 20
178.3912307780055
 30
0.0
 11
-362.285032147159
 21
178.3815970599555
 31
0.0
  0
LINE
  5
4DD
  8
0
  6
CONTINUOUS
 62
   253
 10
-316.1268467795532
 20
178.4825496775939
 30
0.0
 11
-316.1440498272041
 21
178.4671564420305
 31
0.0
  0
LINE
  5
4DE
  8
0
  6
CONTINUOUS
 62
   253
 10
-362.4741101180005
 20
178.3395036479828
 30
0.0
 11
-362.4985212274277
 21
178.3388023590879
 31
0.0
  0
LINE
  5
4DF
  8
0
  6
CONTINUOUS
 62
   253
 10
-408.0233728658374
 20
178.6271605037446
 30
0.0
 11
-408.0326874631721
 21
178.6073943281269
 31
0.0
  0
LINE
  5
4E0
  8
0
  6
CONTINUOUS
 62
   253
 10
-393.5330718418837
 20
252.8268767019179
 30
0.0
 11
-393.5091613586914
 21
252.8316696495222
 31
0.0
  0
LINE
  5
4E1
  8
0
  6
CONTINUOUS
 62
   253
 10
-393.6474803249141
 20
252.7882167309897
 30
0.0
 11
-393.6254679668627
 21
252.7978504490397
 31
0.0
  0
LINE
  5
4E2
  8
0
  6
CONTINUOUS
 62
   253
 10
-301.6474803249141
 20
252.7882167309897
 30
0.0
 11
-301.6254679668627
 21
252.7978504490397
 31
0.0
  0
LINE
  5
4E3
  8
0
  6
CONTINUOUS
 62
   253
 10
-408.0545617716714
 20
178.5690881157059
 30
0.0
 11
-408.0670693694921
 21
178.550639339608
 31
0.0
  0
LINE
  5
4E4
  8
0
  6
CONTINUOUS
 62
   253
 10
-316.2415486546341
 20
178.4017728123288
 30
0.0
 11
-316.2630197891076
 21
178.3912307780055
 31
0.0
  0
LINE
  5
4E5
  8
0
  6
CONTINUOUS
 62
   253
 10
-315.9902146450275
 20
178.7724918692979
 30
0.0
 11
-315.9914293957613
 21
178.7513290566315
 31
0.0
  0
LINE
  5
4E6
  8
0
  6
CONTINUOUS
 62
   253
 10
-407.9974179535669
 20
178.7092049842883
 30
0.0
 11
-408.002177493501
 21
178.6883440809848
 31
0.0
  0
LINE
  5
4E7
  8
0
  6
CONTINUOUS
 62
   253
 10
-408.0805850230929
 20
178.5327191048891
 30
0.0
 11
-408.0950765327859
 21
178.5153701047095
 31
0.0
  0
LINE
  5
4E8
  8
0
  6
CONTINUOUS
 62
   253
 10
-361.9938324069187
 20
178.7302166622416
 30
0.0
 11
-361.9974179535669
 21
178.7092049842883
 31
0.0
  0
LINE
  5
4E9
  8
0
  6
CONTINUOUS
 62
   253
 10
-316.4254609310499
 20
178.343996750358
 30
0.0
 11
-316.4497373306349
 21
178.3412364878451
 31
0.0
  0
LINE
  5
4EA
  8
0
  6
CONTINUOUS
 62
   253
 10
-362.1440498272041
 20
178.4671564420305
 30
0.0
 11
-362.162077532423
 21
178.4524906374684
 31
0.0
  0
LINE
  5
4EB
  8
0
  6
CONTINUOUS
 62
   253
 10
-408.4254609310499
 20
178.343996750358
 30
0.0
 11
-408.4497373306349
 21
178.3412364878451
 31
0.0
  0
LINE
  5
4EC
  8
0
  6
CONTINUOUS
 62
   253
 10
-316.1105093740043
 20
178.4986336713203
 30
0.0
 11
-316.1268467795532
 21
178.4825496775939
 31
0.0
  0
LINE
  5
4ED
  8
0
  6
CONTINUOUS
 62
   253
 10
-362.285032147159
 20
178.3815970599555
 30
0.0
 11
-362.3075332865549
 21
178.3728946095449
 31
0.0
  0
LINE
  5
4EE
  8
0
  6
CONTINUOUS
 62
   253
 10
-301.9083226205207
 20
252.4911034280103
 30
0.0
 11
-301.9024004264267
 21
252.5117638576562
 31
0.0
  0
LINE
  5
4EF
  8
0
  6
CONTINUOUS
 62
   253
 10
-408.1105093740043
 20
178.4986336713203
 30
0.0
 11
-408.1268467795533
 21
178.4825496775939
 31
0.0
  0
LINE
  5
4F0
  8
0
  6
CONTINUOUS
 62
   253
 10
-316.2206698965605
 20
178.4131980475871
 30
0.0
 11
-316.2415486546341
 21
178.4017728123288
 31
0.0
  0
LINE
  5
4F1
  8
0
  6
CONTINUOUS
 62
   253
 10
-407.9914293957613
 20
178.7513290566315
 30
0.0
 11
-407.9938324069187
 21
178.7302166622416
 31
0.0
  0
LINE
  5
4F2
  8
0
  6
CONTINUOUS
 62
   253
 10
-362.377428272138
 20
178.3525708070773
 30
0.0
 11
-362.4013387553303
 21
178.347777859473
 31
0.0
  0
LINE
  5
4F3
  8
0
  6
CONTINUOUS
 62
   253
 10
-362.241548654634
 20
178.4017728123288
 30
0.0
 11
-362.2630197891075
 21
178.3912307780055
 31
0.0
  0
LINE
  5
4F4
  8
0
  6
CONTINUOUS
 62
   253
 10
-362.1808869460122
 20
178.4385872037146
 30
0.0
 11
-362.2004332564321
 21
178.4254792643043
 31
0.0
  0
LINE
  5
4F5
  8
0
  6
CONTINUOUS
 62
   253
 10
-301.6254679668627
 20
252.7978504490397
 30
0.0
 11
-301.6029668274667
 21
252.8065528994503
 31
0.0
  0
LINE
  5
4F6
  8
0
  6
CONTINUOUS
 62
   253
 10
-408.162077532423
 20
178.4524906374684
 30
0.0
 11
-408.1808869460122
 21
178.4385872037146
 31
0.0
  0
LINE
  5
4F7
  8
0
  6
CONTINUOUS
 62
   253
 10
-393.411978886594
 20
252.8406451499073
 30
0.0
 11
-393.4078151478971
 21
252.8406592399707
 31
0.0
  0
LINE
  5
4F8
  8
0
  6
CONTINUOUS
 62
   253
 10
-301.9190707182604
 20
252.4281184523637
 30
0.0
 11
-301.916667707103
 21
252.4492308467536
 31
0.0
  0
LINE
  5
4F9
  8
0
  6
CONTINUOUS
 62
   253
 10
-407.9938324069187
 20
178.7302166622416
 30
0.0
 11
-407.9974179535669
 21
178.7092049842883
 31
0.0
  0
TEXT
  5
4FA
  8
0
  6
CONTINUOUS
 62
     7
 10
-259.7080010886476
 20
90.70534523755373
 30
0.0
 40
5.0
  1
SB-3UADM
  0
ENDSEC
  0
EOF
