  0
SECTION
  2
HEADER
  9
$ACADVER
  1
AC1004
  9
$INSBASE
 10
0.0
 20
0.0
  9
$EXTMIN
 10
362.5000000000001
 20
-91.32954545454545
  9
$EXTMAX
 10
679.25
 20
291.5
  9
$LIMMIN
 10
0.0
 20
0.0
  9
$LIMMAX
 10
12.0
 20
9.0
  9
$ORTHOMODE
 70
     0
  9
$REGENMODE
 70
     1
  9
$FILLMODE
 70
     1
  9
$QTEXTMODE
 70
     0
  9
$DRAGMODE
 70
     2
  9
$LTSCALE
 40
1.0
  9
$OSMODE
 70
    37
  9
$ATTMODE
 70
     1
  9
$TEXTSIZE
 40
0.2
  9
$TRACEWID
 40
0.05
  9
$TEXTSTYLE
  7
STANDARD
  9
$CLAYER
  8
0
  9
$CELTYPE
  6
BYLAYER
  9
$CECOLOR
 62
   256
  9
$DIMSCALE
 40
1.0
  9
$DIMASZ
 40
3.0
  9
$DIMEXO
 40
0.0625
  9
$DIMDLI
 40
0.38
  9
$DIMRND
 40
0.0
  9
$DIMDLE
 40
0.0
  9
$DIMEXE
 40
1.5
  9
$DIMTP
 40
0.0
  9
$DIMTM
 40
0.0
  9
$DIMTXT
 40
3.0
  9
$DIMCEN
 40
0.09
  9
$DIMTSZ
 40
0.0
  9
$DIMTOL
 70
     0
  9
$DIMLIM
 70
     0
  9
$DIMTIH
 70
     1
  9
$DIMTOH
 70
     1
  9
$DIMSE1
 70
     0
  9
$DIMSE2
 70
     0
  9
$DIMTAD
 70
     1
  9
$DIMZIN
 70
     0
  9
$DIMBLK
  1

  9
$DIMASO
 70
     1
  9
$DIMSHO
 70
     1
  9
$DIMPOST
  1

  9
$DIMAPOST
  1

  9
$DIMALT
 70
     0
  9
$DIMALTD
 70
     2
  9
$DIMALTF
 40
25.4
  9
$DIMLFAC
 40
1.0
  9
$DIMTOFL
 70
     0
  9
$DIMTVP
 40
0.0
  9
$DIMTIX
 70
     0
  9
$DIMSOXD
 70
     0
  9
$DIMSAH
 70
     0
  9
$DIMBLK1
  1

  9
$DIMBLK2
  1

  9
$LUNITS
 70
     2
  9
$LUPREC
 70
     4
  9
$SKETCHINC
 40
0.1
  9
$FILLETRAD
 40
0.5
  9
$AUNITS
 70
     0
  9
$AUPREC
 70
     0
  9
$MENU
  1
.
  9
$ELEVATION
 40
0.0
  9
$THICKNESS
 40
0.0
  9
$LIMCHECK
 70
     0
  9
$CHAMFERA
 40
0.0
  9
$CHAMFERB
 40
0.0
  9
$SKPOLY
 70
     0
  9
$TDCREATE
 40
2460357.57595559
  9
$TDUPDATE
 40
2460357.575955776
  9
$TDINDWG
 40
0.0000000116
  9
$TDUSRTIMER
 40
0.0000000116
  9
$USRTIMER
 70
     1
  9
$ANGBASE
 50
0.0
  9
$ANGDIR
 70
     0
  9
$PDMODE
 70
     0
  9
$PDSIZE
 40
0.0
  9
$PLINEWID
 40
0.0
  9
$COORDS
 70
     1
  9
$SPLFRAME
 70
     0
  9
$SPLINETYPE
 70
     6
  9
$SPLINESEGS
 70
     8
  9
$ATTDIA
 70
     0
  9
$ATTREQ
 70
     1
  9
$SURFTAB1
 70
     6
  9
$SURFTAB2
 70
     6
  9
$SURFTYPE
 70
     6
  9
$SURFU
 70
     6
  9
$SURFV
 70
     6
  9
$UCSNAME
  2

  9
$UCSORG
 10
0.0
 20
0.0
 30
0.0
  9
$UCSXDIR
 10
1.0
 20
0.0
 30
0.0
  9
$UCSYDIR
 10
0.0
 20
1.0
 30
0.0
  9
$USERI1
 70
     0
  9
$USERI2
 70
     0
  9
$USERI3
 70
     0
  9
$USERI4
 70
     0
  9
$USERI5
 70
     0
  9
$USERR1
 40
0.0
  9
$USERR2
 40
0.0
  9
$USERR3
 40
0.0
  9
$USERR4
 40
0.0
  9
$USERR5
 40
0.0
  9
$WORLDVIEW
 70
     1
  0
ENDSEC
  0
SECTION
  2
TABLES
  0
TABLE
  2
LTYPE
 70
     2
  0
LTYPE
  2
CONTINUOUS
 70
     0
  3
Solid line
 72
    65
 73
     0
 40
0.0
  0
LTYPE
  2
CENTER
 70
     0
  3

 72
    65
 73
     0
 40
0.0
  0
ENDTAB
  0
TABLE
  2
LAYER
 70
     1
  0
LAYER
  2
0
 70
     0
 62
     7
  6
CONTINUOUS
  0
ENDTAB
  0
TABLE
  2
STYLE
 70
     2
  0
STYLE
  2
STANDARD
 70
     0
 40
0.0
 41
1.0
 50
0.0
 71
     0
 42
0.2
  3
txt
  4

  0
STYLE
  2
ＭＳ_ゴシック
 70
     0
 40
0.0
 41
1.0
 50
0.0
 71
     0
 42
0.2
  3
ＭＳ ゴシック.shx
  4

  0
ENDTAB
  0
TABLE
  2
VIEW
 70
     0
  0
ENDTAB
  0
ENDSEC
  0
SECTION
  2
BLOCKS
  0
BLOCK
  8
0
  2
D_FRAME_VIEW_1510
 70
     0
 10
0.0
 20
0.0
  0
LINE
  8
0
  6
CONTINUOUS
 62
     7
 10
561.6999999999999
 20
219.4826061575154
 11
561.6999999999999
 21
217.0
  0
LINE
  8
0
  6
CONTINUOUS
 62
     7
 10
547.5
 20
217.0
 11
547.5
 21
267.5322848191329
  0
POLYLINE
  8
0
  6
CONTINUOUS
 62
     7
 66
     1
  0
VERTEX
  8
0
  6
CONTINUOUS
 62
     7
 10
547.5
 20
267.5322848191329
  0
VERTEX
  8
0
  6
CONTINUOUS
 62
     7
 10
547.4519632010081
 20
268.0218736575142
  0
VERTEX
  8
0
  6
CONTINUOUS
 62
     7
 10
547.3096988312782
 20
268.4926478714011
  0
VERTEX
  8
0
  6
CONTINUOUS
 62
     7
 10
547.0786740307564
 20
268.9265158717671
  0
VERTEX
  8
0
  6
CONTINUOUS
 62
     7
 10
546.7677669529663
 20
269.3068043546741
  0
VERTEX
  8
0
  6
CONTINUOUS
 62
     7
 10
546.388925582549
 20
269.6188990469923
  0
VERTEX
  8
0
  6
CONTINUOUS
 62
     7
 10
545.9567085809127
 20
269.8508063247207
  0
VERTEX
  8
0
  6
CONTINUOUS
 62
     7
 10
545.4877258050403
 20
269.9936141212311
  0
VERTEX
  8
0
  6
CONTINUOUS
 62
     7
 10
545.0
 20
270.0418344129913
  0
SEQEND
  8
0
  6
CONTINUOUS
 62
     7
  0
LINE
  8
0
  6
CONTINUOUS
 62
     7
 10
545.0
 20
270.0418344129913
 11
541.3000000000001
 21
270.0418344129913
  0
LINE
  8
0
  6
CONTINUOUS
 62
     7
 10
541.3
 20
270.0418344129913
 11
541.3
 21
273.3125018489486
  0
ARC
  8
0
  6
CONTINUOUS
 62
     7
 10
536.1784458723259
 20
273.0229178183918
 40
5.129734456426425
 50
3.236184679017351
 51
25.71883969284302
  0
ARC
  8
0
  6
CONTINUOUS
 62
     7
 10
545.5879933429928
 20
272.979943397786
 40
5.298440215664985
 50
154.6435306330463
 51
176.4014449950922
  0
LINE
  8
0
  6
CONTINUOUS
 62
     7
 10
540.3
 20
270.0418344129913
 11
540.3
 21
273.3125018489486
  0
LINE
  8
0
  6
CONTINUOUS
 62
     7
 10
540.3
 20
270.0418344129913
 11
516.1
 21
270.0418344129913
  0
LINE
  8
0
  6
CONTINUOUS
 62
     7
 10
516.1
 20
270.0418344129913
 11
516.1
 21
273.3125018489486
  0
ARC
  8
0
  6
CONTINUOUS
 62
     7
 10
510.9784458723264
 20
273.0229178183919
 40
5.129734456426009
 50
3.236184679016223
 51
25.71883969284373
  0
ARC
  8
0
  6
CONTINUOUS
 62
     7
 10
520.3879933429928
 20
272.979943397786
 40
5.298440215664991
 50
154.6435306330463
 51
176.4014449950922
  0
LINE
  8
0
  6
CONTINUOUS
 62
     7
 10
515.1
 20
270.0418344129913
 11
515.1
 21
273.3125018489486
  0
LINE
  8
0
  6
CONTINUOUS
 62
     7
 10
515.1
 20
270.0418344129913
 11
490.9
 21
270.0418344129913
  0
LINE
  8
0
  6
CONTINUOUS
 62
     7
 10
490.9
 20
270.0418344129913
 11
490.9
 21
273.3125018489486
  0
ARC
  8
0
  6
CONTINUOUS
 62
     7
 10
485.7784458723264
 20
273.0229178183919
 40
5.129734456426013
 50
3.236184679016336
 51
25.71883969284388
  0
ARC
  8
0
  6
CONTINUOUS
 62
     7
 10
495.1879933429934
 20
272.9799433977859
 40
5.298440215665528
 50
154.6435306330482
 51
176.4014449950918
  0
LINE
  8
0
  6
CONTINUOUS
 62
     7
 10
489.9
 20
270.0418344129913
 11
489.9
 21
273.3125018489486
  0
LINE
  8
0
  6
CONTINUOUS
 62
     7
 10
489.9
 20
270.0418344129913
 11
465.5
 21
270.0418344129913
  0
LINE
  8
0
  6
CONTINUOUS
 62
     7
 10
465.5
 20
270.0418344129913
 11
465.5
 21
273.3125018489486
  0
ARC
  8
0
  6
CONTINUOUS
 62
     7
 10
460.3784458723262
 20
273.0229178183918
 40
5.129734456426162
 50
3.236184679016336
 51
25.7188396928433
  0
LINE
  8
0
  6
CONTINUOUS
 62
     7
 10
467.4826061575154
 20
285.7
 11
465.0
 21
285.7
  0
LINE
  8
0
  6
CONTINUOUS
 62
     7
 10
465.0000000000001
 20
289.9999999999999
 11
467.4826061575154
 21
285.7
  0
LINE
  8
0
  6
CONTINUOUS
 62
     7
 10
465.0
 20
291.5
 11
561.5
 21
291.5
  0
ARC
  8
0
  6
CONTINUOUS
 62
     7
 10
561.5
 20
285.4999999999999
 40
6.000000000000005
 50
0.0
 51
90.0
  0
LINE
  8
0
  6
CONTINUOUS
 62
     7
 10
567.5
 20
285.4999999999999
 11
567.5
 21
217.0
  0
LINE
  8
0
  6
CONTINUOUS
 62
     7
 10
565.9999999999999
 20
217.0
 11
561.6999999999999
 21
219.4826061575154
  0
LINE
  8
0
  6
CONTINUOUS
 62
     7
 10
364.0
 20
217.0
 11
368.3
 21
219.4826061575154
  0
LINE
  8
0
  6
CONTINUOUS
 62
     7
 10
362.5000000000001
 20
217.0
 11
362.5000000000001
 21
285.4999999999999
  0
ARC
  8
0
  6
CONTINUOUS
 62
     7
 10
368.5000000000001
 20
285.4999999999999
 40
6.000000000000005
 50
90.0
 51
180.0
  0
LINE
  8
0
  6
CONTINUOUS
 62
     7
 10
368.5000000000001
 20
291.5
 11
465.0
 21
291.5
  0
LINE
  8
0
  6
CONTINUOUS
 62
     7
 10
462.5173938424846
 20
285.7
 11
465.0000000000001
 21
289.9999999999999
  0
LINE
  8
0
  6
CONTINUOUS
 62
     7
 10
465.0
 20
285.7
 11
462.5173938424846
 21
285.7
  0
ARC
  8
0
  6
CONTINUOUS
 62
     7
 10
469.7879933429936
 20
272.9799433977859
 40
5.298440215665733
 50
154.6435306330486
 51
176.4014449950915
  0
LINE
  8
0
  6
CONTINUOUS
 62
     7
 10
464.5
 20
270.0418344129913
 11
464.5
 21
273.3125018489486
  0
LINE
  8
0
  6
CONTINUOUS
 62
     7
 10
464.5
 20
270.0418344129913
 11
440.1
 21
270.0418344129913
  0
LINE
  8
0
  6
CONTINUOUS
 62
     7
 10
440.1
 20
270.0418344129913
 11
440.1
 21
273.3125018489486
  0
ARC
  8
0
  6
CONTINUOUS
 62
     7
 10
434.978445872326
 20
273.0229178183918
 40
5.129734456426388
 50
3.236184679017013
 51
25.71883969284301
  0
ARC
  8
0
  6
CONTINUOUS
 62
     7
 10
444.3879933429932
 20
272.9799433977859
 40
5.298440215665384
 50
154.6435306330475
 51
176.4014449950919
  0
LINE
  8
0
  6
CONTINUOUS
 62
     7
 10
439.1
 20
270.0418344129913
 11
439.1
 21
273.3125018489486
  0
LINE
  8
0
  6
CONTINUOUS
 62
     7
 10
439.1
 20
270.0418344129913
 11
414.9
 21
270.0418344129913
  0
LINE
  8
0
  6
CONTINUOUS
 62
     7
 10
414.9
 20
270.0418344129913
 11
414.9
 21
273.3125018489486
  0
ARC
  8
0
  6
CONTINUOUS
 62
     7
 10
409.778445872326
 20
273.0229178183918
 40
5.129734456426388
 50
3.236184679017013
 51
25.71883969284301
  0
ARC
  8
0
  6
CONTINUOUS
 62
     7
 10
419.1879933429936
 20
272.9799433977859
 40
5.298440215665771
 50
154.6435306330484
 51
176.4014449950912
  0
LINE
  8
0
  6
CONTINUOUS
 62
     7
 10
413.9
 20
270.0418344129913
 11
413.9
 21
273.3125018489486
  0
LINE
  8
0
  6
CONTINUOUS
 62
     7
 10
413.9
 20
270.0418344129913
 11
389.7
 21
270.0418344129913
  0
LINE
  8
0
  6
CONTINUOUS
 62
     7
 10
389.7
 20
270.0418344129913
 11
389.7
 21
273.3125018489486
  0
ARC
  8
0
  6
CONTINUOUS
 62
     7
 10
384.5784458723255
 20
273.0229178183916
 40
5.129734456426974
 50
3.236184679018703
 51
25.71883969284215
  0
ARC
  8
0
  6
CONTINUOUS
 62
     7
 10
393.9879933429943
 20
272.9799433977857
 40
5.29844021566647
 50
154.6435306330503
 51
176.40144499509
  0
LINE
  8
0
  6
CONTINUOUS
 62
     7
 10
388.7
 20
270.0418344129913
 11
388.7
 21
273.3125018489486
  0
LINE
  8
0
  6
CONTINUOUS
 62
     7
 10
388.7
 20
270.0418344129913
 11
385.0000000000001
 21
270.0418344129913
  0
POLYLINE
  8
0
  6
CONTINUOUS
 62
     7
 66
     1
  0
VERTEX
  8
0
  6
CONTINUOUS
 62
     7
 10
385.0
 20
270.0418344129913
  0
VERTEX
  8
0
  6
CONTINUOUS
 62
     7
 10
384.5122741949597
 20
269.9936141212311
  0
VERTEX
  8
0
  6
CONTINUOUS
 62
     7
 10
384.0432914190873
 20
269.8508063247207
  0
VERTEX
  8
0
  6
CONTINUOUS
 62
     7
 10
383.611074417451
 20
269.6188990469923
  0
VERTEX
  8
0
  6
CONTINUOUS
 62
     7
 10
383.2322330470336
 20
269.3068043546741
  0
VERTEX
  8
0
  6
CONTINUOUS
 62
     7
 10
382.9213259692436
 20
268.9265158717671
  0
VERTEX
  8
0
  6
CONTINUOUS
 62
     7
 10
382.6903011687218
 20
268.4926478714011
  0
VERTEX
  8
0
  6
CONTINUOUS
 62
     7
 10
382.5480367989919
 20
268.0218736575142
  0
VERTEX
  8
0
  6
CONTINUOUS
 62
     7
 10
382.5
 20
267.5322848191329
  0
SEQEND
  8
0
  6
CONTINUOUS
 62
     7
  0
LINE
  8
0
  6
CONTINUOUS
 62
     7
 10
382.5000000000001
 20
267.5322848191329
 11
382.5000000000001
 21
217.0
  0
LINE
  8
0
  6
CONTINUOUS
 62
     7
 10
368.3
 20
219.4826061575154
 11
368.3
 21
217.0
  0
POLYLINE
  8
0
  6
CONTINUOUS
 62
     7
 66
     1
  0
VERTEX
  8
0
  6
CONTINUOUS
 62
     7
 10
382.5
 20
112.4677151808671
  0
VERTEX
  8
0
  6
CONTINUOUS
 62
     7
 10
382.5480367989919
 20
111.9781263424858
  0
VERTEX
  8
0
  6
CONTINUOUS
 62
     7
 10
382.6903011687218
 20
111.5073521285989
  0
VERTEX
  8
0
  6
CONTINUOUS
 62
     7
 10
382.9213259692436
 20
111.0734841282329
  0
VERTEX
  8
0
  6
CONTINUOUS
 62
     7
 10
383.2322330470336
 20
110.6931956453259
  0
VERTEX
  8
0
  6
CONTINUOUS
 62
     7
 10
383.611074417451
 20
110.3811009530076
  0
VERTEX
  8
0
  6
CONTINUOUS
 62
     7
 10
384.0432914190873
 20
110.1491936752793
  0
VERTEX
  8
0
  6
CONTINUOUS
 62
     7
 10
384.5122741949597
 20
110.0063858787689
  0
VERTEX
  8
0
  6
CONTINUOUS
 62
     7
 10
385.0
 20
109.9581655870087
  0
SEQEND
  8
0
  6
CONTINUOUS
 62
     7
  0
LINE
  8
0
  6
CONTINUOUS
 62
     7
 10
385.0
 20
109.9581655870087
 11
388.7
 21
109.9581655870087
  0
LINE
  8
0
  6
CONTINUOUS
 62
     7
 10
388.7
 20
109.9581655870087
 11
388.7
 21
106.6874981510514
  0
ARC
  8
0
  6
CONTINUOUS
 62
     7
 10
393.8215541276742
 20
106.9770821816082
 40
5.129734456426536
 50
183.2361846790173
 51
205.7188396928427
  0
ARC
  8
0
  6
CONTINUOUS
 62
     7
 10
384.412006657006
 20
107.0200566022143
 40
5.298440215666207
 50
334.6435306330492
 51
356.4014449950901
  0
LINE
  8
0
  6
CONTINUOUS
 62
     7
 10
389.7
 20
109.9581655870087
 11
389.7
 21
106.6874981510514
  0
LINE
  8
0
  6
CONTINUOUS
 62
     7
 10
389.7
 20
109.9581655870087
 11
413.9
 21
109.9581655870087
  0
LINE
  8
0
  6
CONTINUOUS
 62
     7
 10
413.9
 20
109.9581655870087
 11
413.9
 21
106.6874981510514
  0
ARC
  8
0
  6
CONTINUOUS
 62
     7
 10
419.0215541276742
 20
106.9770821816082
 40
5.129734456426536
 50
183.2361846790173
 51
205.7188396928427
  0
ARC
  8
0
  6
CONTINUOUS
 62
     7
 10
409.6120066570067
 20
107.0200566022141
 40
5.298440215665521
 50
334.643530633048
 51
356.4014449950918
  0
LINE
  8
0
  6
CONTINUOUS
 62
     7
 10
414.9
 20
109.9581655870087
 11
414.9
 21
106.6874981510514
  0
LINE
  8
0
  6
CONTINUOUS
 62
     7
 10
414.9
 20
109.9581655870087
 11
439.1
 21
109.9581655870087
  0
LINE
  8
0
  6
CONTINUOUS
 62
     7
 10
439.1
 20
109.9581655870087
 11
439.1
 21
106.6874981510514
  0
ARC
  8
0
  6
CONTINUOUS
 62
     7
 10
444.2215541276738
 20
106.9770821816081
 40
5.129734456426128
 50
183.2361846790164
 51
205.7188396928436
  0
ARC
  8
0
  6
CONTINUOUS
 62
     7
 10
434.8120066570066
 20
107.0200566022141
 40
5.29844021566559
 50
334.6435306330479
 51
356.4014449950914
  0
LINE
  8
0
  6
CONTINUOUS
 62
     7
 10
440.1
 20
109.9581655870087
 11
440.1
 21
106.6874981510514
  0
LINE
  8
0
  6
CONTINUOUS
 62
     7
 10
440.1
 20
109.9581655870087
 11
464.5
 21
109.9581655870087
  0
LINE
  8
0
  6
CONTINUOUS
 62
     7
 10
464.5
 20
109.9581655870087
 11
464.5
 21
106.6874981510514
  0
ARC
  8
0
  6
CONTINUOUS
 62
     7
 10
469.6215541276739
 20
106.9770821816082
 40
5.129734456426305
 50
183.2361846790165
 51
205.7188396928428
  0
LINE
  8
0
  6
CONTINUOUS
 62
     7
 10
465.0
 20
94.29999999999997
 11
462.5173938424846
 21
94.29999999999994
  0
LINE
  8
0
  6
CONTINUOUS
 62
     7
 10
462.5173938424846
 20
94.29999999999994
 11
465.0
 21
89.99999999999996
  0
LINE
  8
0
  6
CONTINUOUS
 62
     7
 10
465.0
 20
88.5
 11
368.5000000000001
 21
88.5
  0
ARC
  8
0
  6
CONTINUOUS
 62
     7
 10
368.5000000000001
 20
94.5
 40
6.000000000000005
 50
180.0
 51
270.0
  0
LINE
  8
0
  6
CONTINUOUS
 62
     7
 10
368.3
 20
160.5173938424846
 11
364.0
 21
163.0
  0
LINE
  8
0
  6
CONTINUOUS
 62
     7
 10
368.3
 20
163.0
 11
368.3
 21
160.5173938424846
  0
LINE
  8
0
  6
CONTINUOUS
 62
     7
 10
362.5000000000001
 20
94.5
 11
362.5000000000001
 21
163.0
  0
LINE
  8
0
  6
CONTINUOUS
 62
     7
 10
382.5000000000001
 20
163.0
 11
382.5000000000001
 21
112.4677151808671
  0
ARC
  8
0
  6
CONTINUOUS
 62
     7
 10
561.5
 20
94.5
 40
6.000000000000005
 50
270.0
 51
0.0
  0
LINE
  8
0
  6
CONTINUOUS
 62
     7
 10
561.5
 20
88.5
 11
465.0
 21
88.5
  0
LINE
  8
0
  6
CONTINUOUS
 62
     7
 10
465.0
 20
89.99999999999996
 11
467.4826061575154
 21
94.30000000000001
  0
LINE
  8
0
  6
CONTINUOUS
 62
     7
 10
467.4826061575154
 20
94.30000000000001
 11
465.0
 21
94.29999999999997
  0
ARC
  8
0
  6
CONTINUOUS
 62
     7
 10
460.2120066570064
 20
107.0200566022141
 40
5.298440215665738
 50
334.6435306330486
 51
356.4014449950914
  0
LINE
  8
0
  6
CONTINUOUS
 62
     7
 10
465.5
 20
109.9581655870087
 11
465.5
 21
106.6874981510514
  0
LINE
  8
0
  6
CONTINUOUS
 62
     7
 10
465.5
 20
109.9581655870087
 11
489.9
 21
109.9581655870087
  0
LINE
  8
0
  6
CONTINUOUS
 62
     7
 10
489.9
 20
109.9581655870087
 11
489.9
 21
106.6874981510514
  0
ARC
  8
0
  6
CONTINUOUS
 62
     7
 10
495.0215541276742
 20
106.9770821816082
 40
5.129734456426536
 50
183.2361846790173
 51
205.7188396928427
  0
ARC
  8
0
  6
CONTINUOUS
 62
     7
 10
485.6120066570065
 20
107.0200566022141
 40
5.298440215665665
 50
334.6435306330484
 51
356.4014449950916
  0
LINE
  8
0
  6
CONTINUOUS
 62
     7
 10
490.9
 20
109.9581655870087
 11
490.9
 21
106.6874981510514
  0
LINE
  8
0
  6
CONTINUOUS
 62
     7
 10
490.9
 20
109.9581655870087
 11
515.1
 21
109.9581655870087
  0
LINE
  8
0
  6
CONTINUOUS
 62
     7
 10
515.1
 20
109.9581655870087
 11
515.1
 21
106.6874981510514
  0
ARC
  8
0
  6
CONTINUOUS
 62
     7
 10
520.2215541276746
 20
106.9770821816083
 40
5.129734456426943
 50
183.2361846790181
 51
205.7188396928416
  0
ARC
  8
0
  6
CONTINUOUS
 62
     7
 10
510.812006657007
 20
107.020056602214
 40
5.298440215665209
 50
334.6435306330468
 51
356.4014449950919
  0
LINE
  8
0
  6
CONTINUOUS
 62
     7
 10
516.1
 20
109.9581655870087
 11
516.1
 21
106.6874981510514
  0
LINE
  8
0
  6
CONTINUOUS
 62
     7
 10
516.1
 20
109.9581655870087
 11
540.3
 21
109.9581655870087
  0
LINE
  8
0
  6
CONTINUOUS
 62
     7
 10
540.3
 20
109.9581655870087
 11
540.3
 21
106.6874981510514
  0
ARC
  8
0
  6
CONTINUOUS
 62
     7
 10
545.4215541276741
 20
106.9770821816082
 40
5.129734456426536
 50
183.2361846790173
 51
205.7188396928427
  0
ARC
  8
0
  6
CONTINUOUS
 62
     7
 10
536.0120066570062
 20
107.0200566022142
 40
5.298440215665945
 50
334.6435306330483
 51
356.4014449950903
  0
LINE
  8
0
  6
CONTINUOUS
 62
     7
 10
541.3
 20
109.9581655870087
 11
541.3
 21
106.6874981510514
  0
LINE
  8
0
  6
CONTINUOUS
 62
     7
 10
541.3
 20
109.9581655870087
 11
544.9999999999999
 21
109.9581655870087
  0
POLYLINE
  8
0
  6
CONTINUOUS
 62
     7
 66
     1
  0
VERTEX
  8
0
  6
CONTINUOUS
 62
     7
 10
545.0
 20
109.9581655870087
  0
VERTEX
  8
0
  6
CONTINUOUS
 62
     7
 10
545.4877258050403
 20
110.0063858787689
  0
VERTEX
  8
0
  6
CONTINUOUS
 62
     7
 10
545.9567085809127
 20
110.1491936752793
  0
VERTEX
  8
0
  6
CONTINUOUS
 62
     7
 10
546.388925582549
 20
110.3811009530076
  0
VERTEX
  8
0
  6
CONTINUOUS
 62
     7
 10
546.7677669529663
 20
110.6931956453259
  0
VERTEX
  8
0
  6
CONTINUOUS
 62
     7
 10
547.0786740307564
 20
111.0734841282329
  0
VERTEX
  8
0
  6
CONTINUOUS
 62
     7
 10
547.3096988312782
 20
111.5073521285989
  0
VERTEX
  8
0
  6
CONTINUOUS
 62
     7
 10
547.4519632010081
 20
111.9781263424858
  0
VERTEX
  8
0
  6
CONTINUOUS
 62
     7
 10
547.5
 20
112.4677151808671
  0
SEQEND
  8
0
  6
CONTINUOUS
 62
     7
  0
LINE
  8
0
  6
CONTINUOUS
 62
     7
 10
561.7
 20
163.0
 11
561.7
 21
160.5173938424846
  0
LINE
  8
0
  6
CONTINUOUS
 62
     7
 10
561.6999999999999
 20
160.5173938424846
 11
565.9999999999999
 21
163.0
  0
LINE
  8
0
  6
CONTINUOUS
 62
     7
 10
547.5
 20
112.4677151808671
 11
547.5
 21
163.0
  0
LINE
  8
0
  6
CONTINUOUS
 62
     7
 10
567.5
 20
163.0
 11
567.5
 21
94.5
  0
LINE
  8
0
  6
CONTINUOUS
 62
     7
 10
565.9999999999999
 20
190.0
 11
561.6999999999999
 21
192.4826061575154
  0
LINE
  8
0
  6
CONTINUOUS
 62
     7
 10
561.6999999999999
 20
192.4826061575154
 11
561.6999999999999
 21
190.0
  0
LINE
  8
0
  6
CONTINUOUS
 62
     7
 10
561.7
 20
217.0
 11
561.7
 21
214.5173938424846
  0
LINE
  8
0
  6
CONTINUOUS
 62
     7
 10
561.6999999999999
 20
214.5173938424846
 11
565.9999999999999
 21
217.0
  0
LINE
  8
0
  6
CONTINUOUS
 62
     7
 10
547.5
 20
190.0
 11
547.5
 21
217.0
  0
LINE
  8
0
  6
CONTINUOUS
 62
     7
 10
567.5
 20
217.0
 11
567.5
 21
190.0
  0
LINE
  8
0
  6
CONTINUOUS
 62
     7
 10
561.6999999999999
 20
165.4826061575154
 11
561.6999999999999
 21
163.0
  0
LINE
  8
0
  6
CONTINUOUS
 62
     7
 10
561.7
 20
190.0
 11
561.7
 21
187.5173938424846
  0
LINE
  8
0
  6
CONTINUOUS
 62
     7
 10
561.6999999999999
 20
187.5173938424846
 11
565.9999999999999
 21
190.0
  0
LINE
  8
0
  6
CONTINUOUS
 62
     7
 10
565.9999999999999
 20
163.0
 11
561.6999999999999
 21
165.4826061575154
  0
LINE
  8
0
  6
CONTINUOUS
 62
     7
 10
547.5
 20
163.0
 11
547.5
 21
190.0
  0
LINE
  8
0
  6
CONTINUOUS
 62
     7
 10
567.5
 20
190.0
 11
567.5
 21
163.0
  0
ARC
  8
0
  6
CONTINUOUS
 62
     7
 10
385.0139166814285
 20
115.6176190834582
 40
2.513946851339745
 50
179.7192970122972
 51
269.6828209861086
  0
LINE
  8
0
  6
CONTINUOUS
 62
     7
 10
364.0
 20
163.0
 11
368.3
 21
165.4826061575154
  0
LINE
  8
0
  6
CONTINUOUS
 62
     7
 10
368.3
 20
187.5173938424846
 11
364.0
 21
190.0
  0
LINE
  8
0
  6
CONTINUOUS
 62
     7
 10
368.3
 20
190.0
 11
368.3
 21
187.5173938424846
  0
LINE
  8
0
  6
CONTINUOUS
 62
     7
 10
368.3
 20
165.4826061575154
 11
368.3
 21
163.0
  0
LINE
  8
0
  6
CONTINUOUS
 62
     7
 10
362.5000000000001
 20
163.0
 11
362.5000000000001
 21
190.0
  0
LINE
  8
0
  6
CONTINUOUS
 62
     7
 10
382.5000000000001
 20
190.0
 11
382.5000000000001
 21
163.0
  0
LINE
  8
0
  6
CONTINUOUS
 62
     7
 10
368.3
 20
192.4826061575154
 11
368.3
 21
190.0
  0
LINE
  8
0
  6
CONTINUOUS
 62
     7
 10
364.0
 20
190.0
 11
368.3
 21
192.4826061575154
  0
LINE
  8
0
  6
CONTINUOUS
 62
     7
 10
368.3
 20
214.5173938424846
 11
364.0
 21
217.0
  0
LINE
  8
0
  6
CONTINUOUS
 62
     7
 10
368.3
 20
217.0
 11
368.3
 21
214.5173938424846
  0
LINE
  8
0
  6
CONTINUOUS
 62
     7
 10
362.5000000000001
 20
190.0
 11
362.5000000000001
 21
217.0
  0
LINE
  8
0
  6
CONTINUOUS
 62
     7
 10
382.5000000000001
 20
217.0
 11
382.5000000000001
 21
190.0
  0
ARC
  8
0
  6
CONTINUOUS
 62
     7
 10
544.9857559108888
 20
115.617943092341
 40
2.514272688801934
 50
270.3245990613783
 51
0.2732829402257835
  0
LINE
  8
0
  6
CONTINUOUS
 62
     7
 10
385.0000000000001
 20
113.1037107523253
 11
392.22158609177
 21
113.1037107523253
  0
LINE
  8
0
  6
CONTINUOUS
 62
     7
 10
411.3794128966741
 20
113.1037107523253
 11
417.4215860917734
 21
113.1037107523253
  0
LINE
  8
0
  6
CONTINUOUS
 62
     7
 10
436.5794128966727
 20
113.1037107523253
 11
442.621586091774
 21
113.1037107523253
  0
LINE
  8
0
  6
CONTINUOUS
 62
     7
 10
461.7794128966726
 20
113.1037107523253
 11
468.2232048967241
 21
113.1037107523253
  0
LINE
  8
0
  6
CONTINUOUS
 62
     7
 10
487.3784719089938
 20
113.1037107523253
 11
493.4232048967244
 21
113.1037107523253
  0
LINE
  8
0
  6
CONTINUOUS
 62
     7
 10
512.5784719089947
 20
113.1037107523253
 11
518.6232048967237
 21
113.1037107523253
  0
LINE
  8
0
  6
CONTINUOUS
 62
     7
 10
537.778471908995
 20
113.1037107523253
 11
545.0000000000005
 21
113.1037107523253
  0
LINE
  8
0
  6
CONTINUOUS
 62
     7
 10
541.3
 20
112.9765244786531
 11
540.8
 21
113.020268810416
  0
LINE
  8
0
  6
CONTINUOUS
 62
     7
 10
540.8000000000001
 20
113.020268810416
 11
540.3
 21
112.9765244786531
  0
LINE
  8
0
  6
CONTINUOUS
 62
     7
 10
516.1
 20
112.9765244786531
 11
515.6
 21
113.020268810416
  0
LINE
  8
0
  6
CONTINUOUS
 62
     7
 10
515.6
 20
113.020268810416
 11
515.1
 21
112.9765244786531
  0
LINE
  8
0
  6
CONTINUOUS
 62
     7
 10
490.9
 20
112.9765244786531
 11
490.4
 21
113.020268810416
  0
LINE
  8
0
  6
CONTINUOUS
 62
     7
 10
490.4
 20
113.020268810416
 11
489.9
 21
112.9765244786531
  0
LINE
  8
0
  6
CONTINUOUS
 62
     7
 10
465.5
 20
112.9765244786531
 11
465.0
 21
113.020268810416
  0
LINE
  8
0
  6
CONTINUOUS
 62
     7
 10
465.0
 20
113.020268810416
 11
464.5
 21
112.9765244786531
  0
LINE
  8
0
  6
CONTINUOUS
 62
     7
 10
440.1
 20
112.9765244786531
 11
439.6
 21
113.020268810416
  0
LINE
  8
0
  6
CONTINUOUS
 62
     7
 10
439.6
 20
113.020268810416
 11
439.1
 21
112.9765244786531
  0
LINE
  8
0
  6
CONTINUOUS
 62
     7
 10
414.9
 20
112.9765244786531
 11
414.4
 21
113.020268810416
  0
LINE
  8
0
  6
CONTINUOUS
 62
     7
 10
414.4
 20
113.020268810416
 11
413.9
 21
112.9765244786531
  0
LINE
  8
0
  6
CONTINUOUS
 62
     7
 10
389.7
 20
112.9765244786531
 11
389.2
 21
113.020268810416
  0
LINE
  8
0
  6
CONTINUOUS
 62
     7
 10
389.2
 20
113.020268810416
 11
388.7
 21
112.9765244786531
  0
LINE
  8
0
  6
CONTINUOUS
 62
     7
 10
439.1
 20
112.9765244786531
 11
439.1
 21
109.9581655870087
  0
LINE
  8
0
  6
CONTINUOUS
 62
     7
 10
388.7
 20
112.9765244786531
 11
388.7
 21
109.9581655870087
  0
LINE
  8
0
  6
CONTINUOUS
 62
     7
 10
440.1
 20
109.9581655870087
 11
440.1
 21
112.9765244786531
  0
LINE
  8
0
  6
CONTINUOUS
 62
     7
 10
414.9
 20
109.9581655870087
 11
414.9
 21
112.9765244786531
  0
LINE
  8
0
  6
CONTINUOUS
 62
     7
 10
413.9
 20
112.9765244786531
 11
413.9
 21
109.9581655870087
  0
LINE
  8
0
  6
CONTINUOUS
 62
     7
 10
489.9
 20
112.9765244786531
 11
489.9
 21
109.9581655870087
  0
LINE
  8
0
  6
CONTINUOUS
 62
     7
 10
490.9
 20
109.9581655870087
 11
490.9
 21
112.9765244786531
  0
LINE
  8
0
  6
CONTINUOUS
 62
     7
 10
464.5
 20
112.9765244786531
 11
464.5
 21
109.9581655870087
  0
LINE
  8
0
  6
CONTINUOUS
 62
     7
 10
541.3
 20
109.9581655870087
 11
541.3
 21
112.9765244786531
  0
LINE
  8
0
  6
CONTINUOUS
 62
     7
 10
389.7
 20
109.9581655870087
 11
389.7
 21
112.9765244786531
  0
LINE
  8
0
  6
CONTINUOUS
 62
     7
 10
540.3
 20
112.9765244786531
 11
540.3
 21
109.9581655870087
  0
LINE
  8
0
  6
CONTINUOUS
 62
     7
 10
516.1
 20
109.9581655870087
 11
516.1
 21
112.9765244786531
  0
LINE
  8
0
  6
CONTINUOUS
 62
     7
 10
515.1
 20
112.9765244786531
 11
515.1
 21
109.9581655870087
  0
LINE
  8
0
  6
CONTINUOUS
 62
     7
 10
465.5
 20
109.9581655870087
 11
465.5
 21
112.9765244786531
  0
ARC
  8
0
  6
CONTINUOUS
 62
     7
 10
385.0142440891112
 20
264.382056907659
 40
2.514272688801948
 50
90.32459906137817
 51
180.2732829402258
  0
LINE
  8
0
  6
CONTINUOUS
 62
     7
 10
545.0
 20
266.8962892476746
 11
537.7794120035315
 21
266.8962892476746
  0
LINE
  8
0
  6
CONTINUOUS
 62
     7
 10
518.6187365651635
 20
266.8962892476746
 11
512.5794120035268
 21
266.8962892476746
  0
LINE
  8
0
  6
CONTINUOUS
 62
     7
 10
493.4187365651644
 20
266.8962892476746
 11
487.3794120035271
 21
266.8962892476746
  0
LINE
  8
0
  6
CONTINUOUS
 62
     7
 10
468.2187365651643
 20
266.8962892476746
 11
461.7784309380459
 21
266.8962892476746
  0
LINE
  8
0
  6
CONTINUOUS
 62
     7
 10
442.6209491753207
 20
266.8962892476746
 11
436.5784309380456
 21
266.8962892476746
  0
LINE
  8
0
  6
CONTINUOUS
 62
     7
 10
417.4209491753203
 20
266.8962892476746
 11
411.3784309380454
 21
266.8962892476746
  0
LINE
  8
0
  6
CONTINUOUS
 62
     7
 10
392.2209491753186
 20
266.8962892476746
 11
384.9999999999996
 21
266.8962892476746
  0
LINE
  8
0
  6
CONTINUOUS
 62
     7
 10
388.7
 20
267.0234755213469
 11
389.2
 21
266.979731189584
  0
LINE
  8
0
  6
CONTINUOUS
 62
     7
 10
389.2
 20
266.979731189584
 11
389.7
 21
267.0234755213469
  0
LINE
  8
0
  6
CONTINUOUS
 62
     7
 10
413.9
 20
267.0234755213469
 11
414.4
 21
266.979731189584
  0
LINE
  8
0
  6
CONTINUOUS
 62
     7
 10
414.4
 20
266.979731189584
 11
414.9
 21
267.0234755213469
  0
LINE
  8
0
  6
CONTINUOUS
 62
     7
 10
439.1
 20
267.0234755213469
 11
439.6
 21
266.979731189584
  0
LINE
  8
0
  6
CONTINUOUS
 62
     7
 10
439.6
 20
266.979731189584
 11
440.1
 21
267.0234755213469
  0
LINE
  8
0
  6
CONTINUOUS
 62
     7
 10
464.5
 20
267.0234755213469
 11
465.0
 21
266.979731189584
  0
LINE
  8
0
  6
CONTINUOUS
 62
     7
 10
465.0
 20
266.979731189584
 11
465.5
 21
267.0234755213469
  0
LINE
  8
0
  6
CONTINUOUS
 62
     7
 10
489.9
 20
267.0234755213469
 11
490.4
 21
266.979731189584
  0
LINE
  8
0
  6
CONTINUOUS
 62
     7
 10
490.4
 20
266.979731189584
 11
490.9
 21
267.0234755213469
  0
LINE
  8
0
  6
CONTINUOUS
 62
     7
 10
515.1
 20
267.0234755213469
 11
515.6
 21
266.979731189584
  0
LINE
  8
0
  6
CONTINUOUS
 62
     7
 10
515.6
 20
266.979731189584
 11
516.1000000000001
 21
267.0234755213469
  0
LINE
  8
0
  6
CONTINUOUS
 62
     7
 10
540.3
 20
267.0234755213469
 11
540.8
 21
266.979731189584
  0
LINE
  8
0
  6
CONTINUOUS
 62
     7
 10
540.8000000000001
 20
266.979731189584
 11
541.3000000000001
 21
267.0234755213469
  0
LINE
  8
0
  6
CONTINUOUS
 62
     7
 10
490.9
 20
270.0418344129913
 11
490.9
 21
267.0234755213469
  0
LINE
  8
0
  6
CONTINUOUS
 62
     7
 10
516.1
 20
270.0418344129913
 11
516.1
 21
267.0234755213469
  0
LINE
  8
0
  6
CONTINUOUS
 62
     7
 10
389.7
 20
270.0418344129913
 11
389.7
 21
267.0234755213469
  0
LINE
  8
0
  6
CONTINUOUS
 62
     7
 10
464.5
 20
267.0234755213469
 11
464.5
 21
270.0418344129913
  0
LINE
  8
0
  6
CONTINUOUS
 62
     7
 10
414.9
 20
270.0418344129913
 11
414.9
 21
267.0234755213469
  0
LINE
  8
0
  6
CONTINUOUS
 62
     7
 10
515.1
 20
267.0234755213469
 11
515.1
 21
270.0418344129913
  0
LINE
  8
0
  6
CONTINUOUS
 62
     7
 10
465.5
 20
270.0418344129913
 11
465.5
 21
267.0234755213469
  0
LINE
  8
0
  6
CONTINUOUS
 62
     7
 10
489.9
 20
267.0234755213469
 11
489.9
 21
270.0418344129913
  0
LINE
  8
0
  6
CONTINUOUS
 62
     7
 10
388.7
 20
267.0234755213469
 11
388.7
 21
270.0418344129913
  0
LINE
  8
0
  6
CONTINUOUS
 62
     7
 10
413.9
 20
267.0234755213469
 11
413.9
 21
270.0418344129913
  0
LINE
  8
0
  6
CONTINUOUS
 62
     7
 10
541.3
 20
270.0418344129913
 11
541.3
 21
267.0234755213469
  0
LINE
  8
0
  6
CONTINUOUS
 62
     7
 10
540.3
 20
267.0234755213469
 11
540.3
 21
270.0418344129913
  0
LINE
  8
0
  6
CONTINUOUS
 62
     7
 10
440.1
 20
270.0418344129913
 11
440.1
 21
267.0234755213469
  0
LINE
  8
0
  6
CONTINUOUS
 62
     7
 10
439.1
 20
267.0234755213469
 11
439.1
 21
270.0418344129913
  0
ARC
  8
0
  6
CONTINUOUS
 62
     7
 10
544.9860833185716
 20
264.3823809165419
 40
2.51394685133969
 50
359.7192970122966
 51
89.68282098610955
  0
POLYLINE
  8
0
  6
CONTINUOUS
 62
     7
 66
     1
  0
VERTEX
  8
0
  6
CONTINUOUS
 62
     7
 10
465.0
 20
110.9803370483789
  0
VERTEX
  8
0
  6
CONTINUOUS
 62
     7
 10
465.097545161008
 20
110.9899078492727
  0
VERTEX
  8
0
  6
CONTINUOUS
 62
     7
 10
465.1913417161825
 20
111.0182524514431
  0
VERTEX
  8
0
  6
CONTINUOUS
 62
     7
 10
465.2777851165098
 20
111.0642815877247
  0
VERTEX
  8
0
  6
CONTINUOUS
 62
     7
 10
465.3535533905933
 20
111.1262263842234
  0
VERTEX
  8
0
  6
CONTINUOUS
 62
     7
 10
465.4157348061512
 20
111.2017063371489
  0
VERTEX
  8
0
  6
CONTINUOUS
 62
     7
 10
465.4619397662556
 20
111.2878207942399
  0
VERTEX
  8
0
  6
CONTINUOUS
 62
     7
 10
465.4903926402016
 20
111.381260425204
  0
VERTEX
  8
0
  6
CONTINUOUS
 62
     7
 10
465.5
 20
111.4784343974248
  0
SEQEND
  8
0
  6
CONTINUOUS
 62
     7
  0
POLYLINE
  8
0
  6
CONTINUOUS
 62
     7
 66
     1
  0
VERTEX
  8
0
  6
CONTINUOUS
 62
     7
 10
389.2
 20
110.9803370483789
  0
VERTEX
  8
0
  6
CONTINUOUS
 62
     7
 10
389.2975451610081
 20
110.9899078492727
  0
VERTEX
  8
0
  6
CONTINUOUS
 62
     7
 10
389.3913417161826
 20
111.0182524514431
  0
VERTEX
  8
0
  6
CONTINUOUS
 62
     7
 10
389.4777851165098
 20
111.0642815877247
  0
VERTEX
  8
0
  6
CONTINUOUS
 62
     7
 10
389.5535533905933
 20
111.1262263842234
  0
VERTEX
  8
0
  6
CONTINUOUS
 62
     7
 10
389.6157348061513
 20
111.2017063371489
  0
VERTEX
  8
0
  6
CONTINUOUS
 62
     7
 10
389.6619397662557
 20
111.2878207942399
  0
VERTEX
  8
0
  6
CONTINUOUS
 62
     7
 10
389.6903926402017
 20
111.381260425204
  0
VERTEX
  8
0
  6
CONTINUOUS
 62
     7
 10
389.7
 20
111.4784343974248
  0
SEQEND
  8
0
  6
CONTINUOUS
 62
     7
  0
POLYLINE
  8
0
  6
CONTINUOUS
 62
     7
 66
     1
  0
VERTEX
  8
0
  6
CONTINUOUS
 62
     7
 10
439.6
 20
110.9803370483789
  0
VERTEX
  8
0
  6
CONTINUOUS
 62
     7
 10
439.6975451610081
 20
110.9899078492727
  0
VERTEX
  8
0
  6
CONTINUOUS
 62
     7
 10
439.7913417161826
 20
111.0182524514431
  0
VERTEX
  8
0
  6
CONTINUOUS
 62
     7
 10
439.8777851165098
 20
111.0642815877247
  0
VERTEX
  8
0
  6
CONTINUOUS
 62
     7
 10
439.9535533905933
 20
111.1262263842234
  0
VERTEX
  8
0
  6
CONTINUOUS
 62
     7
 10
440.0157348061513
 20
111.2017063371489
  0
VERTEX
  8
0
  6
CONTINUOUS
 62
     7
 10
440.0619397662556
 20
111.2878207942399
  0
VERTEX
  8
0
  6
CONTINUOUS
 62
     7
 10
440.0903926402016
 20
111.381260425204
  0
VERTEX
  8
0
  6
CONTINUOUS
 62
     7
 10
440.1
 20
111.4784343974248
  0
SEQEND
  8
0
  6
CONTINUOUS
 62
     7
  0
POLYLINE
  8
0
  6
CONTINUOUS
 62
     7
 66
     1
  0
VERTEX
  8
0
  6
CONTINUOUS
 62
     7
 10
414.4
 20
110.9803370483789
  0
VERTEX
  8
0
  6
CONTINUOUS
 62
     7
 10
414.4975451610081
 20
110.9899078492727
  0
VERTEX
  8
0
  6
CONTINUOUS
 62
     7
 10
414.5913417161826
 20
111.0182524514431
  0
VERTEX
  8
0
  6
CONTINUOUS
 62
     7
 10
414.6777851165098
 20
111.0642815877247
  0
VERTEX
  8
0
  6
CONTINUOUS
 62
     7
 10
414.7535533905933
 20
111.1262263842234
  0
VERTEX
  8
0
  6
CONTINUOUS
 62
     7
 10
414.8157348061513
 20
111.2017063371489
  0
VERTEX
  8
0
  6
CONTINUOUS
 62
     7
 10
414.8619397662557
 20
111.2878207942399
  0
VERTEX
  8
0
  6
CONTINUOUS
 62
     7
 10
414.8903926402016
 20
111.381260425204
  0
VERTEX
  8
0
  6
CONTINUOUS
 62
     7
 10
414.9
 20
111.4784343974248
  0
SEQEND
  8
0
  6
CONTINUOUS
 62
     7
  0
POLYLINE
  8
0
  6
CONTINUOUS
 62
     7
 66
     1
  0
VERTEX
  8
0
  6
CONTINUOUS
 62
     7
 10
540.8000000000001
 20
110.9803370483788
  0
VERTEX
  8
0
  6
CONTINUOUS
 62
     7
 10
540.8975451610081
 20
110.9899078492727
  0
VERTEX
  8
0
  6
CONTINUOUS
 62
     7
 10
540.9913417161827
 20
111.0182524514431
  0
VERTEX
  8
0
  6
CONTINUOUS
 62
     7
 10
541.0777851165099
 20
111.0642815877246
  0
VERTEX
  8
0
  6
CONTINUOUS
 62
     7
 10
541.1535533905933
 20
111.1262263842233
  0
VERTEX
  8
0
  6
CONTINUOUS
 62
     7
 10
541.2157348061513
 20
111.2017063371489
  0
VERTEX
  8
0
  6
CONTINUOUS
 62
     7
 10
541.2619397662558
 20
111.2878207942399
  0
VERTEX
  8
0
  6
CONTINUOUS
 62
     7
 10
541.2903926402017
 20
111.381260425204
  0
VERTEX
  8
0
  6
CONTINUOUS
 62
     7
 10
541.3000000000001
 20
111.4784343974247
  0
SEQEND
  8
0
  6
CONTINUOUS
 62
     7
  0
POLYLINE
  8
0
  6
CONTINUOUS
 62
     7
 66
     1
  0
VERTEX
  8
0
  6
CONTINUOUS
 62
     7
 10
515.6
 20
110.9803370483788
  0
VERTEX
  8
0
  6
CONTINUOUS
 62
     7
 10
515.6975451610081
 20
110.9899078492727
  0
VERTEX
  8
0
  6
CONTINUOUS
 62
     7
 10
515.7913417161826
 20
111.0182524514431
  0
VERTEX
  8
0
  6
CONTINUOUS
 62
     7
 10
515.8777851165098
 20
111.0642815877246
  0
VERTEX
  8
0
  6
CONTINUOUS
 62
     7
 10
515.9535533905932
 20
111.1262263842233
  0
VERTEX
  8
0
  6
CONTINUOUS
 62
     7
 10
516.0157348061513
 20
111.2017063371489
  0
VERTEX
  8
0
  6
CONTINUOUS
 62
     7
 10
516.0619397662557
 20
111.2878207942399
  0
VERTEX
  8
0
  6
CONTINUOUS
 62
     7
 10
516.0903926402017
 20
111.381260425204
  0
VERTEX
  8
0
  6
CONTINUOUS
 62
     7
 10
516.1
 20
111.4784343974247
  0
SEQEND
  8
0
  6
CONTINUOUS
 62
     7
  0
POLYLINE
  8
0
  6
CONTINUOUS
 62
     7
 66
     1
  0
VERTEX
  8
0
  6
CONTINUOUS
 62
     7
 10
490.4
 20
110.9803370483788
  0
VERTEX
  8
0
  6
CONTINUOUS
 62
     7
 10
490.497545161008
 20
110.9899078492727
  0
VERTEX
  8
0
  6
CONTINUOUS
 62
     7
 10
490.5913417161825
 20
111.0182524514431
  0
VERTEX
  8
0
  6
CONTINUOUS
 62
     7
 10
490.6777851165098
 20
111.0642815877246
  0
VERTEX
  8
0
  6
CONTINUOUS
 62
     7
 10
490.7535533905933
 20
111.1262263842233
  0
VERTEX
  8
0
  6
CONTINUOUS
 62
     7
 10
490.8157348061512
 20
111.2017063371489
  0
VERTEX
  8
0
  6
CONTINUOUS
 62
     7
 10
490.8619397662556
 20
111.2878207942399
  0
VERTEX
  8
0
  6
CONTINUOUS
 62
     7
 10
490.8903926402016
 20
111.381260425204
  0
VERTEX
  8
0
  6
CONTINUOUS
 62
     7
 10
490.9
 20
111.4784343974247
  0
SEQEND
  8
0
  6
CONTINUOUS
 62
     7
  0
POLYLINE
  8
0
  6
CONTINUOUS
 62
     7
 66
     1
  0
VERTEX
  8
0
  6
CONTINUOUS
 62
     7
 10
440.6643044874666
 20
268.2820432601299
  0
VERTEX
  8
0
  6
CONTINUOUS
 62
     7
 10
440.725764163008
 20
268.3917002235988
  0
VERTEX
  8
0
  6
CONTINUOUS
 62
     7
 10
440.8947608975339
 20
268.4884351855997
  0
SEQEND
  8
0
  6
CONTINUOUS
 62
     7
  0
ARC
  8
0
  6
CONTINUOUS
 62
     7
 10
452.0167577753913
 20
199.444721962682
 40
69.93377689042381
 50
86.04866209638796
 51
99.1509539042583
  0
ARC
  8
0
  6
CONTINUOUS
 62
     7
 10
457.2682912638507
 20
243.0371582814917
 40
26.17867562459132
 50
75.9781834733061
 51
90.94652749402053
  0
POLYLINE
  8
0
  6
CONTINUOUS
 62
     7
 66
     1
  0
VERTEX
  8
0
  6
CONTINUOUS
 62
     7
 10
463.6111576020414
 20
268.4358020262553
  0
VERTEX
  8
0
  6
CONTINUOUS
 62
     7
 10
463.7207639966152
 20
268.3391107058389
  0
VERTEX
  8
0
  6
CONTINUOUS
 62
     7
 10
463.7356956231292
 20
268.2820448082636
  0
SEQEND
  8
0
  6
CONTINUOUS
 62
     7
  0
POLYLINE
  8
0
  6
CONTINUOUS
 62
     7
 66
     1
  0
VERTEX
  8
0
  6
CONTINUOUS
 62
     7
 10
415.4643044874666
 20
268.2820432601299
  0
VERTEX
  8
0
  6
CONTINUOUS
 62
     7
 10
415.5257641630079
 20
268.3917002235984
  0
VERTEX
  8
0
  6
CONTINUOUS
 62
     7
 10
415.6947608975339
 20
268.4884351855993
  0
SEQEND
  8
0
  6
CONTINUOUS
 62
     7
  0
ARC
  8
0
  6
CONTINUOUS
 62
     7
 10
426.8167577753883
 20
199.4447219627799
 40
69.93377689032629
 50
86.04866209638298
 51
99.1509539042687
  0
ARC
  8
0
  6
CONTINUOUS
 62
     7
 10
432.0682912638463
 20
243.0371582814556
 40
26.17867562462763
 50
75.97818347331706
 51
90.94652749401763
  0
POLYLINE
  8
0
  6
CONTINUOUS
 62
     7
 66
     1
  0
VERTEX
  8
0
  6
CONTINUOUS
 62
     7
 10
438.411157602041
 20
268.4358020262556
  0
VERTEX
  8
0
  6
CONTINUOUS
 62
     7
 10
438.520763996615
 20
268.3391107058392
  0
VERTEX
  8
0
  6
CONTINUOUS
 62
     7
 10
438.5356956231291
 20
268.2820448082636
  0
SEQEND
  8
0
  6
CONTINUOUS
 62
     7
  0
POLYLINE
  8
0
  6
CONTINUOUS
 62
     7
 66
     1
  0
VERTEX
  8
0
  6
CONTINUOUS
 62
     7
 10
390.2643044874666
 20
268.2820432601299
  0
VERTEX
  8
0
  6
CONTINUOUS
 62
     7
 10
390.3257641630086
 20
268.3917002235987
  0
VERTEX
  8
0
  6
CONTINUOUS
 62
     7
 10
390.494760897536
 20
268.4884351855998
  0
SEQEND
  8
0
  6
CONTINUOUS
 62
     7
  0
ARC
  8
0
  6
CONTINUOUS
 62
     7
 10
401.6167577753912
 20
199.4447219627174
 40
69.93377689038859
 50
86.04866209638294
 51
99.15095390426121
  0
ARC
  8
0
  6
CONTINUOUS
 62
     7
 10
406.8682912638573
 20
243.037158281554
 40
26.17867562452895
 50
75.9781834732845
 51
90.9465274940294
  0
POLYLINE
  8
0
  6
CONTINUOUS
 62
     7
 66
     1
  0
VERTEX
  8
0
  6
CONTINUOUS
 62
     7
 10
413.2111576020424
 20
268.4358020262547
  0
VERTEX
  8
0
  6
CONTINUOUS
 62
     7
 10
413.3207639966155
 20
268.3391107058383
  0
VERTEX
  8
0
  6
CONTINUOUS
 62
     7
 10
413.3356956231291
 20
268.2820448082637
  0
SEQEND
  8
0
  6
CONTINUOUS
 62
     7
  0
POLYLINE
  8
0
  6
CONTINUOUS
 62
     7
 66
     1
  0
VERTEX
  8
0
  6
CONTINUOUS
 62
     7
 10
489.3356955125334
 20
268.2820432601294
  0
VERTEX
  8
0
  6
CONTINUOUS
 62
     7
 10
489.2742358369891
 20
268.3917002236007
  0
VERTEX
  8
0
  6
CONTINUOUS
 62
     7
 10
489.1052391024613
 20
268.4884351856013
  0
SEQEND
  8
0
  6
CONTINUOUS
 62
     7
  0
ARC
  8
0
  6
CONTINUOUS
 62
     7
 10
477.9832422245993
 20
199.4447219624464
 40
69.9337768906587
 50
80.84904609576883
 51
93.95133790360526
  0
ARC
  8
0
  6
CONTINUOUS
 62
     7
 10
472.7317087361298
 20
243.0371582816625
 40
26.17867562441999
 50
89.0534725059687
 51
104.0218165267522
  0
POLYLINE
  8
0
  6
CONTINUOUS
 62
     7
 66
     1
  0
VERTEX
  8
0
  6
CONTINUOUS
 62
     7
 10
466.3888423979548
 20
268.4358020262534
  0
VERTEX
  8
0
  6
CONTINUOUS
 62
     7
 10
466.2792360033832
 20
268.3391107058367
  0
VERTEX
  8
0
  6
CONTINUOUS
 62
     7
 10
466.2643043768709
 20
268.2820448082641
  0
SEQEND
  8
0
  6
CONTINUOUS
 62
     7
  0
POLYLINE
  8
0
  6
CONTINUOUS
 62
     7
 66
     1
  0
VERTEX
  8
0
  6
CONTINUOUS
 62
     7
 10
514.5356955125334
 20
268.2820432601294
  0
VERTEX
  8
0
  6
CONTINUOUS
 62
     7
 10
514.4742358369891
 20
268.3917002236007
  0
VERTEX
  8
0
  6
CONTINUOUS
 62
     7
 10
514.3052391024614
 20
268.4884351856013
  0
SEQEND
  8
0
  6
CONTINUOUS
 62
     7
  0
ARC
  8
0
  6
CONTINUOUS
 62
     7
 10
503.1832422246001
 20
199.4447219624615
 40
69.93377689064373
 50
80.84904609576748
 51
93.95133790360556
  0
ARC
  8
0
  6
CONTINUOUS
 62
     7
 10
497.9317087361271
 20
243.0371582816854
 40
26.17867562439731
 50
89.0534725059587
 51
104.0218165267567
  0
POLYLINE
  8
0
  6
CONTINUOUS
 62
     7
 66
     1
  0
VERTEX
  8
0
  6
CONTINUOUS
 62
     7
 10
491.5888423979555
 20
268.4358020262537
  0
VERTEX
  8
0
  6
CONTINUOUS
 62
     7
 10
491.4792360033835
 20
268.339110705837
  0
VERTEX
  8
0
  6
CONTINUOUS
 62
     7
 10
491.4643043768709
 20
268.2820448082641
  0
SEQEND
  8
0
  6
CONTINUOUS
 62
     7
  0
POLYLINE
  8
0
  6
CONTINUOUS
 62
     7
 66
     1
  0
VERTEX
  8
0
  6
CONTINUOUS
 62
     7
 10
539.7356955125334
 20
268.2820432601293
  0
VERTEX
  8
0
  6
CONTINUOUS
 62
     7
 10
539.674235836992
 20
268.3917002235979
  0
VERTEX
  8
0
  6
CONTINUOUS
 62
     7
 10
539.5052391024642
 20
268.4884351855997
  0
SEQEND
  8
0
  6
CONTINUOUS
 62
     7
  0
ARC
  8
0
  6
CONTINUOUS
 62
     7
 10
528.3832422246034
 20
199.4447219626427
 40
69.93377689046321
 50
80.84904609574397
 51
93.95133790361766
  0
ARC
  8
0
  6
CONTINUOUS
 62
     7
 10
523.1317087361286
 20
243.0371582816763
 40
26.17867562440641
 50
89.05347250596031
 51
104.0218165267553
  0
POLYLINE
  8
0
  6
CONTINUOUS
 62
     7
 66
     1
  0
VERTEX
  8
0
  6
CONTINUOUS
 62
     7
 10
516.7888423979555
 20
268.4358020262537
  0
VERTEX
  8
0
  6
CONTINUOUS
 62
     7
 10
516.6792360033835
 20
268.339110705837
  0
VERTEX
  8
0
  6
CONTINUOUS
 62
     7
 10
516.664304376871
 20
268.2820448082641
  0
SEQEND
  8
0
  6
CONTINUOUS
 62
     7
  0
POLYLINE
  8
0
  6
CONTINUOUS
 62
     7
 66
     1
  0
VERTEX
  8
0
  6
CONTINUOUS
 62
     7
 10
539.7356951708689
 20
111.7179615201128
  0
VERTEX
  8
0
  6
CONTINUOUS
 62
     7
 10
539.6923600389842
 20
111.624980068767
  0
VERTEX
  8
0
  6
CONTINUOUS
 62
     7
 10
539.5416075659924
 20
111.527983586721
  0
SEQEND
  8
0
  6
CONTINUOUS
 62
     7
  0
ARC
  8
0
  6
CONTINUOUS
 62
     7
 10
528.4652627293601
 20
178.3439435452892
 40
67.72782234890612
 50
265.9999666535932
 51
279.4125478788152
  0
ARC
  8
0
  6
CONTINUOUS
 62
     7
 10
523.3417539367932
 20
138.8169618182658
 40
28.03869561561519
 50
256.546678510354
 51
270.8153970838245
  0
POLYLINE
  8
0
  6
CONTINUOUS
 62
     7
 66
     1
  0
VERTEX
  8
0
  6
CONTINUOUS
 62
     7
 10
516.8184644025777
 20
111.5476540625139
  0
VERTEX
  8
0
  6
CONTINUOUS
 62
     7
 10
516.6905911137763
 20
111.6441272807591
  0
VERTEX
  8
0
  6
CONTINUOUS
 62
     7
 10
516.6643046854768
 20
111.7179595106865
  0
SEQEND
  8
0
  6
CONTINUOUS
 62
     7
  0
POLYLINE
  8
0
  6
CONTINUOUS
 62
     7
 66
     1
  0
VERTEX
  8
0
  6
CONTINUOUS
 62
     7
 10
390.2643048291312
 20
111.7179615201134
  0
VERTEX
  8
0
  6
CONTINUOUS
 62
     7
 10
390.3076399610157
 20
111.624980068767
  0
VERTEX
  8
0
  6
CONTINUOUS
 62
     7
 10
390.4583924340096
 20
111.5279835867199
  0
SEQEND
  8
0
  6
CONTINUOUS
 62
     7
  0
ARC
  8
0
  6
CONTINUOUS
 62
     7
 10
401.534737270653
 20
178.343943545547
 40
67.7278223491633
 50
260.5874521212114
 51
274.0000333464023
  0
ARC
  8
0
  6
CONTINUOUS
 62
     7
 10
406.6582460632389
 20
138.8169618179766
 40
28.03869561532517
 50
269.1846029161541
 51
283.4533214897299
  0
POLYLINE
  8
0
  6
CONTINUOUS
 62
     7
 66
     1
  0
VERTEX
  8
0
  6
CONTINUOUS
 62
     7
 10
413.1815355974269
 20
111.5476540625163
  0
VERTEX
  8
0
  6
CONTINUOUS
 62
     7
 10
413.3094088862259
 20
111.6441272807618
  0
VERTEX
  8
0
  6
CONTINUOUS
 62
     7
 10
413.3356953145232
 20
111.717959510686
  0
SEQEND
  8
0
  6
CONTINUOUS
 62
     7
  0
POLYLINE
  8
0
  6
CONTINUOUS
 62
     7
 66
     1
  0
VERTEX
  8
0
  6
CONTINUOUS
 62
     7
 10
514.535695170869
 20
111.7179615201129
  0
VERTEX
  8
0
  6
CONTINUOUS
 62
     7
 10
514.4923600389864
 20
111.6249800687691
  0
VERTEX
  8
0
  6
CONTINUOUS
 62
     7
 10
514.3416075659969
 20
111.527983586723
  0
SEQEND
  8
0
  6
CONTINUOUS
 62
     7
  0
ARC
  8
0
  6
CONTINUOUS
 62
     7
 10
503.2652627293701
 20
178.3439435450169
 40
67.72782234863452
 50
265.9999666535859
 51
279.4125478788484
  0
ARC
  8
0
  6
CONTINUOUS
 62
     7
 10
498.1417539368172
 20
138.816961818482
 40
28.03869561583204
 50
256.5466785104149
 51
270.8153970838109
  0
POLYLINE
  8
0
  6
CONTINUOUS
 62
     7
 66
     1
  0
VERTEX
  8
0
  6
CONTINUOUS
 62
     7
 10
491.6184644025803
 20
111.5476540625122
  0
VERTEX
  8
0
  6
CONTINUOUS
 62
     7
 10
491.4905911137775
 20
111.6441272807573
  0
VERTEX
  8
0
  6
CONTINUOUS
 62
     7
 10
491.4643046854769
 20
111.7179595106864
  0
SEQEND
  8
0
  6
CONTINUOUS
 62
     7
  0
POLYLINE
  8
0
  6
CONTINUOUS
 62
     7
 66
     1
  0
VERTEX
  8
0
  6
CONTINUOUS
 62
     7
 10
489.3356951708689
 20
111.7179615201128
  0
VERTEX
  8
0
  6
CONTINUOUS
 62
     7
 10
489.2923600389848
 20
111.6249800687669
  0
VERTEX
  8
0
  6
CONTINUOUS
 62
     7
 10
489.1416075659946
 20
111.5279835867212
  0
SEQEND
  8
0
  6
CONTINUOUS
 62
     7
  0
ARC
  8
0
  6
CONTINUOUS
 62
     7
 10
478.0652627293598
 20
178.3439435453228
 40
67.72782234893943
 50
265.9999666535999
 51
279.4125478788126
  0
ARC
  8
0
  6
CONTINUOUS
 62
     7
 10
472.9417539367989
 20
138.8169618183135
 40
28.03869561566304
 50
256.5466785103653
 51
270.8153970838224
  0
POLYLINE
  8
0
  6
CONTINUOUS
 62
     7
 66
     1
  0
VERTEX
  8
0
  6
CONTINUOUS
 62
     7
 10
466.4184644025777
 20
111.5476540625137
  0
VERTEX
  8
0
  6
CONTINUOUS
 62
     7
 10
466.2905911137764
 20
111.6441272807589
  0
VERTEX
  8
0
  6
CONTINUOUS
 62
     7
 10
466.2643046854769
 20
111.7179595106864
  0
SEQEND
  8
0
  6
CONTINUOUS
 62
     7
  0
POLYLINE
  8
0
  6
CONTINUOUS
 62
     7
 66
     1
  0
VERTEX
  8
0
  6
CONTINUOUS
 62
     7
 10
440.6643048291311
 20
111.7179615201133
  0
VERTEX
  8
0
  6
CONTINUOUS
 62
     7
 10
440.7076399610182
 20
111.6249800687643
  0
VERTEX
  8
0
  6
CONTINUOUS
 62
     7
 10
440.8583924340111
 20
111.5279835867189
  0
SEQEND
  8
0
  6
CONTINUOUS
 62
     7
  0
ARC
  8
0
  6
CONTINUOUS
 62
     7
 10
451.9347372706526
 20
178.3439435456304
 40
67.72782234924621
 50
260.5874521212247
 51
274.0000333463921
  0
ARC
  8
0
  6
CONTINUOUS
 62
     7
 10
457.0582460632279
 20
138.8169618180734
 40
28.03869561542212
 50
269.1846029161658
 51
283.4533214897073
  0
POLYLINE
  8
0
  6
CONTINUOUS
 62
     7
 66
     1
  0
VERTEX
  8
0
  6
CONTINUOUS
 62
     7
 10
463.5815355974277
 20
111.5476540625162
  0
VERTEX
  8
0
  6
CONTINUOUS
 62
     7
 10
463.7094088862262
 20
111.6441272807617
  0
VERTEX
  8
0
  6
CONTINUOUS
 62
     7
 10
463.7356953145232
 20
111.7179595106859
  0
SEQEND
  8
0
  6
CONTINUOUS
 62
     7
  0
POLYLINE
  8
0
  6
CONTINUOUS
 62
     7
 66
     1
  0
VERTEX
  8
0
  6
CONTINUOUS
 62
     7
 10
415.4643048291311
 20
111.7179615201133
  0
VERTEX
  8
0
  6
CONTINUOUS
 62
     7
 10
415.5076399610181
 20
111.6249800687648
  0
VERTEX
  8
0
  6
CONTINUOUS
 62
     7
 10
415.6583924340117
 20
111.527983586719
  0
SEQEND
  8
0
  6
CONTINUOUS
 62
     7
  0
ARC
  8
0
  6
CONTINUOUS
 62
     7
 10
426.7347372706532
 20
178.3439435456116
 40
67.72782234922761
 50
260.587452121222
 51
274.0000333463947
  0
ARC
  8
0
  6
CONTINUOUS
 62
     7
 10
431.8582460632335
 20
138.8169618180232
 40
28.03869561537195
 50
269.1846029161579
 51
283.4533214897194
  0
POLYLINE
  8
0
  6
CONTINUOUS
 62
     7
 66
     1
  0
VERTEX
  8
0
  6
CONTINUOUS
 62
     7
 10
438.3815355974273
 20
111.5476540625162
  0
VERTEX
  8
0
  6
CONTINUOUS
 62
     7
 10
438.509408886226
 20
111.6441272807615
  0
VERTEX
  8
0
  6
CONTINUOUS
 62
     7
 10
438.5356953145232
 20
111.717959510686
  0
SEQEND
  8
0
  6
CONTINUOUS
 62
     7
  0
LINE
  8
0
  6
CONTINUOUS
 62
     7
 10
403.3
 20
267.5966895376114
 11
400.3
 21
267.5966895376114
  0
ARC
  8
0
  6
CONTINUOUS
 62
     7
 10
399.7807950012632
 20
250.4106861310675
 40
17.19384444853605
 50
88.26956803332381
 51
100.0012838740519
  0
LINE
  8
0
  6
CONTINUOUS
 62
     7
 10
396.7947358229222
 20
267.3432505412181
 11
396.7292513779623
 21
267.2844795269578
  0
ARC
  8
0
  6
CONTINUOUS
 62
     7
 10
403.819204998707
 20
250.410686130447
 40
17.19384444915538
 50
79.99871612625071
 51
91.73043196651436
  0
LINE
  8
0
  6
CONTINUOUS
 62
     7
 10
406.8052641770661
 20
267.3432505412233
 11
406.8707486220378
 21
267.2844795269578
  0
LINE
  8
0
  6
CONTINUOUS
 62
     7
 10
526.7
 20
267.5966895376114
 11
529.7
 21
267.5966895376114
  0
ARC
  8
0
  6
CONTINUOUS
 62
     7
 10
526.1807950012931
 20
250.4106861304466
 40
17.19384444915568
 50
88.26956803348568
 51
100.001283873749
  0
LINE
  8
0
  6
CONTINUOUS
 62
     7
 10
523.194735822934
 20
267.3432505412233
 11
523.1292513779623
 21
267.2844795269579
  0
ARC
  8
0
  6
CONTINUOUS
 62
     7
 10
530.2192049987361
 20
250.4106861310586
 40
17.19384444854484
 50
79.99871612594853
 51
91.73043196667277
  0
LINE
  8
0
  6
CONTINUOUS
 62
     7
 10
533.2052641770784
 20
267.343250541218
 11
533.2707486220378
 21
267.2844795269579
  0
LINE
  8
0
  6
CONTINUOUS
 62
     7
 10
428.5
 20
267.5966895376114
 11
425.5
 21
267.5966895376114
  0
ARC
  8
0
  6
CONTINUOUS
 62
     7
 10
424.9807950012932
 20
250.4106861304445
 40
17.19384444915779
 50
88.2695680334865
 51
100.0012838737486
  0
LINE
  8
0
  6
CONTINUOUS
 62
     7
 10
421.9947358229339
 20
267.3432505412233
 11
421.9292513779623
 21
267.2844795269578
  0
ARC
  8
0
  6
CONTINUOUS
 62
     7
 10
429.0192049987069
 20
250.4106861304466
 40
17.19384444915575
 50
79.99871612625083
 51
91.73043196651427
  0
LINE
  8
0
  6
CONTINUOUS
 62
     7
 10
432.0052641770661
 20
267.3432505412233
 11
432.0707486220377
 21
267.2844795269578
  0
LINE
  8
0
  6
CONTINUOUS
 62
     7
 10
453.7
 20
267.5966895376114
 11
450.7
 21
267.5966895376114
  0
ARC
  8
0
  6
CONTINUOUS
 62
     7
 10
450.1807950012849
 20
250.4106861306176
 40
17.1938444489851
 50
88.26956803344139
 51
100.0012838738339
  0
LINE
  8
0
  6
CONTINUOUS
 62
     7
 10
447.1947358229304
 20
267.3432505412218
 11
447.1292513779623
 21
267.2844795269578
  0
ARC
  8
0
  6
CONTINUOUS
 62
     7
 10
454.2192049987146
 20
250.4106861306111
 40
17.1938444489916
 50
79.99871612616778
 51
91.73043196655618
  0
LINE
  8
0
  6
CONTINUOUS
 62
     7
 10
457.2052641770698
 20
267.3432505412218
 11
457.2707486220377
 21
267.2844795269579
  0
LINE
  8
0
  6
CONTINUOUS
 62
     7
 10
476.3000000000001
 20
267.5966895376114
 11
479.3000000000001
 21
267.5966895376114
  0
ARC
  8
0
  6
CONTINUOUS
 62
     7
 10
475.7807950012853
 20
250.4106861306131
 40
17.19384444898958
 50
88.26956803344301
 51
100.0012838738326
  0
LINE
  8
0
  6
CONTINUOUS
 62
     7
 10
472.7947358229304
 20
267.3432505412218
 11
472.7292513779623
 21
267.2844795269578
  0
ARC
  8
0
  6
CONTINUOUS
 62
     7
 10
479.8192049987152
 20
250.4106861306202
 40
17.19384444898251
 50
79.99871612616528
 51
91.73043196655914
  0
LINE
  8
0
  6
CONTINUOUS
 62
     7
 10
482.8052641770695
 20
267.3432505412218
 11
482.8707486220378
 21
267.2844795269578
  0
LINE
  8
0
  6
CONTINUOUS
 62
     7
 10
501.5000000000001
 20
267.5966895376114
 11
504.5000000000001
 21
267.5966895376114
  0
ARC
  8
0
  6
CONTINUOUS
 62
     7
 10
500.9807950012928
 20
250.41068613045
 40
17.19384444915229
 50
88.2695680334843
 51
100.0012838737499
  0
LINE
  8
0
  6
CONTINUOUS
 62
     7
 10
497.994735822934
 20
267.3432505412233
 11
497.9292513779623
 21
267.2844795269579
  0
ARC
  8
0
  6
CONTINUOUS
 62
     7
 10
505.0192049987073
 20
250.4106861304516
 40
17.1938444491507
 50
79.99871612624894
 51
91.730431966516
  0
LINE
  8
0
  6
CONTINUOUS
 62
     7
 10
508.0052641770661
 20
267.3432505412233
 11
508.0707486220377
 21
267.2844795269578
  0
LINE
  8
0
  6
CONTINUOUS
 62
     7
 10
526.7
 20
112.4033104623885
 11
529.7
 21
112.4033104623885
  0
ARC
  8
0
  6
CONTINUOUS
 62
     7
 10
530.1321791319698
 20
132.3570868285018
 40
19.95845610439267
 50
268.7592238769006
 51
278.5418583442268
  0
POLYLINE
  8
0
  6
CONTINUOUS
 62
     7
 66
     1
  0
VERTEX
  8
0
  6
CONTINUOUS
 62
     7
 10
533.0966467958989
 20
112.6200176048179
  0
VERTEX
  8
0
  6
CONTINUOUS
 62
     7
 10
533.2140508450619
 20
112.6608576695349
  0
VERTEX
  8
0
  6
CONTINUOUS
 62
     7
 10
533.2707486220377
 20
112.7155204730422
  0
SEQEND
  8
0
  6
CONTINUOUS
 62
     7
  0
ARC
  8
0
  6
CONTINUOUS
 62
     7
 10
526.2678208680275
 20
132.3570868284471
 40
19.95845610433809
 50
261.4581416557567
 51
271.2407761231107
  0
POLYLINE
  8
0
  6
CONTINUOUS
 62
     7
 66
     1
  0
VERTEX
  8
0
  6
CONTINUOUS
 62
     7
 10
523.3033532041009
 20
112.6200176048181
  0
VERTEX
  8
0
  6
CONTINUOUS
 62
     7
 10
523.185949154938
 20
112.660857669535
  0
VERTEX
  8
0
  6
CONTINUOUS
 62
     7
 10
523.1292513779623
 20
112.7155204730422
  0
SEQEND
  8
0
  6
CONTINUOUS
 62
     7
  0
LINE
  8
0
  6
CONTINUOUS
 62
     7
 10
501.5000000000001
 20
112.4033104623885
 11
504.5000000000001
 21
112.4033104623885
  0
ARC
  8
0
  6
CONTINUOUS
 62
     7
 10
504.9321791319726
 20
132.3570868284453
 40
19.95845610433622
 50
268.7592238768891
 51
278.5418583442438
  0
POLYLINE
  8
0
  6
CONTINUOUS
 62
     7
 66
     1
  0
VERTEX
  8
0
  6
CONTINUOUS
 62
     7
 10
507.8966467958991
 20
112.6200176048181
  0
VERTEX
  8
0
  6
CONTINUOUS
 62
     7
 10
508.0140508450619
 20
112.660857669535
  0
VERTEX
  8
0
  6
CONTINUOUS
 62
     7
 10
508.0707486220377
 20
112.7155204730422
  0
SEQEND
  8
0
  6
CONTINUOUS
 62
     7
  0
ARC
  8
0
  6
CONTINUOUS
 62
     7
 10
501.0678208680275
 20
132.3570868284487
 40
19.9584561043397
 50
261.4581416557572
 51
271.2407761231105
  0
POLYLINE
  8
0
  6
CONTINUOUS
 62
     7
 66
     1
  0
VERTEX
  8
0
  6
CONTINUOUS
 62
     7
 10
498.1033532041009
 20
112.6200176048181
  0
VERTEX
  8
0
  6
CONTINUOUS
 62
     7
 10
497.9859491549381
 20
112.660857669535
  0
VERTEX
  8
0
  6
CONTINUOUS
 62
     7
 10
497.9292513779623
 20
112.7155204730422
  0
SEQEND
  8
0
  6
CONTINUOUS
 62
     7
  0
LINE
  8
0
  6
CONTINUOUS
 62
     7
 10
403.3
 20
112.4033104623885
 11
400.3
 21
112.4033104623885
  0
ARC
  8
0
  6
CONTINUOUS
 62
     7
 10
403.7321791319715
 20
132.3570868284631
 40
19.95845610435407
 50
268.7592238768932
 51
278.5418583442392
  0
POLYLINE
  8
0
  6
CONTINUOUS
 62
     7
 66
     1
  0
VERTEX
  8
0
  6
CONTINUOUS
 62
     7
 10
406.6966467958991
 20
112.6200176048181
  0
VERTEX
  8
0
  6
CONTINUOUS
 62
     7
 10
406.8140508450619
 20
112.6608576695349
  0
VERTEX
  8
0
  6
CONTINUOUS
 62
     7
 10
406.8707486220378
 20
112.7155204730422
  0
SEQEND
  8
0
  6
CONTINUOUS
 62
     7
  0
ARC
  8
0
  6
CONTINUOUS
 62
     7
 10
399.8678208680303
 20
132.357086828503
 40
19.95845610439393
 50
261.4581416557735
 51
271.2407761230993
  0
POLYLINE
  8
0
  6
CONTINUOUS
 62
     7
 66
     1
  0
VERTEX
  8
0
  6
CONTINUOUS
 62
     7
 10
396.9033532041011
 20
112.6200176048179
  0
VERTEX
  8
0
  6
CONTINUOUS
 62
     7
 10
396.7859491549381
 20
112.6608576695349
  0
VERTEX
  8
0
  6
CONTINUOUS
 62
     7
 10
396.7292513779623
 20
112.7155204730422
  0
SEQEND
  8
0
  6
CONTINUOUS
 62
     7
  0
LINE
  8
0
  6
CONTINUOUS
 62
     7
 10
476.3000000000001
 20
112.4033104623885
 11
479.3000000000001
 21
112.4033104623885
  0
ARC
  8
0
  6
CONTINUOUS
 62
     7
 10
479.7321791319729
 20
132.35708682844
 40
19.95845610433099
 50
268.7592238768877
 51
278.5418583442465
  0
POLYLINE
  8
0
  6
CONTINUOUS
 62
     7
 66
     1
  0
VERTEX
  8
0
  6
CONTINUOUS
 62
     7
 10
482.6966467958995
 20
112.6200176048182
  0
VERTEX
  8
0
  6
CONTINUOUS
 62
     7
 10
482.8140508450621
 20
112.660857669535
  0
VERTEX
  8
0
  6
CONTINUOUS
 62
     7
 10
482.8707486220377
 20
112.7155204730422
  0
SEQEND
  8
0
  6
CONTINUOUS
 62
     7
  0
ARC
  8
0
  6
CONTINUOUS
 62
     7
 10
475.8678208680286
 20
132.3570868284638
 40
19.95845610435472
 50
261.4581416557578
 51
271.2407761231066
  0
POLYLINE
  8
0
  6
CONTINUOUS
 62
     7
 66
     1
  0
VERTEX
  8
0
  6
CONTINUOUS
 62
     7
 10
472.9033532040999
 20
112.6200176048183
  0
VERTEX
  8
0
  6
CONTINUOUS
 62
     7
 10
472.7859491549377
 20
112.6608576695351
  0
VERTEX
  8
0
  6
CONTINUOUS
 62
     7
 10
472.7292513779623
 20
112.7155204730422
  0
SEQEND
  8
0
  6
CONTINUOUS
 62
     7
  0
LINE
  8
0
  6
CONTINUOUS
 62
     7
 10
453.7
 20
112.4033104623885
 11
450.7
 21
112.4033104623885
  0
ARC
  8
0
  6
CONTINUOUS
 62
     7
 10
454.1321791319717
 20
132.3570868284664
 40
19.95845610435732
 50
268.7592238768929
 51
278.5418583442401
  0
POLYLINE
  8
0
  6
CONTINUOUS
 62
     7
 66
     1
  0
VERTEX
  8
0
  6
CONTINUOUS
 62
     7
 10
457.0966467959001
 20
112.6200176048182
  0
VERTEX
  8
0
  6
CONTINUOUS
 62
     7
 10
457.2140508450623
 20
112.660857669535
  0
VERTEX
  8
0
  6
CONTINUOUS
 62
     7
 10
457.2707486220377
 20
112.7155204730422
  0
SEQEND
  8
0
  6
CONTINUOUS
 62
     7
  0
ARC
  8
0
  6
CONTINUOUS
 62
     7
 10
450.2678208680284
 20
132.3570868284609
 40
19.95845610435184
 50
261.4581416557585
 51
271.2407761231073
  0
POLYLINE
  8
0
  6
CONTINUOUS
 62
     7
 66
     1
  0
VERTEX
  8
0
  6
CONTINUOUS
 62
     7
 10
447.3033532041004
 20
112.6200176048182
  0
VERTEX
  8
0
  6
CONTINUOUS
 62
     7
 10
447.1859491549379
 20
112.660857669535
  0
VERTEX
  8
0
  6
CONTINUOUS
 62
     7
 10
447.1292513779623
 20
112.7155204730422
  0
SEQEND
  8
0
  6
CONTINUOUS
 62
     7
  0
LINE
  8
0
  6
CONTINUOUS
 62
     7
 10
428.5
 20
112.4033104623885
 11
425.5
 21
112.4033104623885
  0
ARC
  8
0
  6
CONTINUOUS
 62
     7
 10
428.9321791319728
 20
132.3570868284435
 40
19.95845610433445
 50
268.7592238768884
 51
278.541858344244
  0
POLYLINE
  8
0
  6
CONTINUOUS
 62
     7
 66
     1
  0
VERTEX
  8
0
  6
CONTINUOUS
 62
     7
 10
431.8966467958991
 20
112.6200176048181
  0
VERTEX
  8
0
  6
CONTINUOUS
 62
     7
 10
432.0140508450619
 20
112.6608576695349
  0
VERTEX
  8
0
  6
CONTINUOUS
 62
     7
 10
432.0707486220377
 20
112.7155204730422
  0
SEQEND
  8
0
  6
CONTINUOUS
 62
     7
  0
ARC
  8
0
  6
CONTINUOUS
 62
     7
 10
425.0678208680277
 20
132.3570868284489
 40
19.95845610433985
 50
261.4581416557567
 51
271.2407761231099
  0
POLYLINE
  8
0
  6
CONTINUOUS
 62
     7
 66
     1
  0
VERTEX
  8
0
  6
CONTINUOUS
 62
     7
 10
422.1033532041009
 20
112.6200176048181
  0
VERTEX
  8
0
  6
CONTINUOUS
 62
     7
 10
421.985949154938
 20
112.660857669535
  0
VERTEX
  8
0
  6
CONTINUOUS
 62
     7
 10
421.9292513779623
 20
112.7155204730422
  0
SEQEND
  8
0
  6
CONTINUOUS
 62
     7
  0
LINE
  8
0
  6
CONTINUOUS
 62
     7
 10
397.7662575430688
 20
114.2041262878014
 11
397.8753763977557
 21
114.2677298119278
  0
ARC
  8
0
  6
CONTINUOUS
 62
     7
 10
400.047915490683
 20
99.63245970923278
 40
14.79564317929897
 50
89.0237614436154
 51
98.44363598443209
  0
ARC
  8
0
  6
CONTINUOUS
 62
     7
 10
403.5306590312485
 20
99.02077728633763
 40
15.4069046814286
 50
81.89723254078922
 51
90.85781557084464
  0
POLYLINE
  8
0
  6
CONTINUOUS
 62
     7
 66
     1
  0
VERTEX
  8
0
  6
CONTINUOUS
 62
     7
 10
405.7022476276902
 20
114.2738725404305
  0
VERTEX
  8
0
  6
CONTINUOUS
 62
     7
 10
405.8094079217665
 20
114.2341624883254
  0
VERTEX
  8
0
  6
CONTINUOUS
 62
     7
 10
405.8337424569311
 20
114.2041262878014
  0
SEQEND
  8
0
  6
CONTINUOUS
 62
     7
  0
LINE
  8
0
  6
CONTINUOUS
 62
     7
 10
422.9662575430688
 20
114.2041262878014
 11
423.0753763977558
 21
114.2677298119278
  0
ARC
  8
0
  6
CONTINUOUS
 62
     7
 10
425.2479154906847
 20
99.63245970920816
 40
14.79564317932354
 50
89.02376144362358
 51
98.4436359844242
  0
ARC
  8
0
  6
CONTINUOUS
 62
     7
 10
428.7306590312486
 20
99.02077728633775
 40
15.40690468142849
 50
81.89723254078932
 51
90.85781557084464
  0
POLYLINE
  8
0
  6
CONTINUOUS
 62
     7
 66
     1
  0
VERTEX
  8
0
  6
CONTINUOUS
 62
     7
 10
430.9022476276903
 20
114.2738725404305
  0
VERTEX
  8
0
  6
CONTINUOUS
 62
     7
 10
431.0094079217666
 20
114.2341624883254
  0
VERTEX
  8
0
  6
CONTINUOUS
 62
     7
 10
431.0337424569312
 20
114.2041262878014
  0
SEQEND
  8
0
  6
CONTINUOUS
 62
     7
  0
LINE
  8
0
  6
CONTINUOUS
 62
     7
 10
498.9662575430688
 20
114.2041262878014
 11
499.0626550515074
 21
114.2639370870181
  0
ARC
  8
0
  6
CONTINUOUS
 62
     7
 10
501.2231425972404
 20
100.1766079984892
 40
14.25203660126447
 50
88.88691286823327
 51
98.7191673370023
  0
ARC
  8
0
  6
CONTINUOUS
 62
     7
 10
504.7520845092998
 20
99.63245970898853
 40
14.7956431795431
 50
81.55636401564186
 51
90.97623855635379
  0
POLYLINE
  8
0
  6
CONTINUOUS
 62
     7
 66
     1
  0
VERTEX
  8
0
  6
CONTINUOUS
 62
     7
 10
506.9246236022441
 20
114.2677298119279
  0
VERTEX
  8
0
  6
CONTINUOUS
 62
     7
 10
507.0212310333391
 20
114.2255566345177
  0
VERTEX
  8
0
  6
CONTINUOUS
 62
     7
 10
507.0337424569312
 20
114.2041262878014
  0
SEQEND
  8
0
  6
CONTINUOUS
 62
     7
  0
LINE
  8
0
  6
CONTINUOUS
 62
     7
 10
524.1662575430688
 20
114.2041262878014
 11
524.2626550515073
 21
114.2639370870181
  0
ARC
  8
0
  6
CONTINUOUS
 62
     7
 10
526.4231425972404
 20
100.1766079984878
 40
14.25203660126588
 50
88.88691286823342
 51
98.71916733700152
  0
ARC
  8
0
  6
CONTINUOUS
 62
     7
 10
529.9520845093014
 20
99.63245970900711
 40
14.79564317952456
 50
81.55636401563618
 51
90.97623855636044
  0
POLYLINE
  8
0
  6
CONTINUOUS
 62
     7
 66
     1
  0
VERTEX
  8
0
  6
CONTINUOUS
 62
     7
 10
532.1246236022442
 20
114.2677298119279
  0
VERTEX
  8
0
  6
CONTINUOUS
 62
     7
 10
532.2212310333391
 20
114.2255566345177
  0
VERTEX
  8
0
  6
CONTINUOUS
 62
     7
 10
532.2337424569312
 20
114.2041262878014
  0
SEQEND
  8
0
  6
CONTINUOUS
 62
     7
  0
LINE
  8
0
  6
CONTINUOUS
 62
     7
 10
448.1662575430688
 20
114.2041262878014
 11
448.2753763977557
 21
114.2677298119278
  0
ARC
  8
0
  6
CONTINUOUS
 62
     7
 10
450.4479154906849
 20
99.6324597092038
 40
14.79564317932791
 50
89.02376144362438
 51
98.44363598442254
  0
ARC
  8
0
  6
CONTINUOUS
 62
     7
 10
453.9306590312484
 20
99.02077728633434
 40
15.4069046814319
 50
81.89723254078945
 51
90.85781557084368
  0
POLYLINE
  8
0
  6
CONTINUOUS
 62
     7
 66
     1
  0
VERTEX
  8
0
  6
CONTINUOUS
 62
     7
 10
456.1022476276905
 20
114.2738725404305
  0
VERTEX
  8
0
  6
CONTINUOUS
 62
     7
 10
456.2094079217666
 20
114.2341624883253
  0
VERTEX
  8
0
  6
CONTINUOUS
 62
     7
 10
456.2337424569312
 20
114.2041262878014
  0
SEQEND
  8
0
  6
CONTINUOUS
 62
     7
  0
LINE
  8
0
  6
CONTINUOUS
 62
     7
 10
473.7662575430689
 20
114.2041262878014
 11
473.8626550515072
 21
114.2639370870181
  0
ARC
  8
0
  6
CONTINUOUS
 62
     7
 10
476.0231425972408
 20
100.1766079984809
 40
14.25203660127273
 50
88.88691286823557
 51
98.71916733699986
  0
ARC
  8
0
  6
CONTINUOUS
 62
     7
 10
479.5520845092997
 20
99.63245970898404
 40
14.7956431795476
 50
81.55636401564344
 51
90.97623855635305
  0
POLYLINE
  8
0
  6
CONTINUOUS
 62
     7
 66
     1
  0
VERTEX
  8
0
  6
CONTINUOUS
 62
     7
 10
481.7246236022442
 20
114.2677298119279
  0
VERTEX
  8
0
  6
CONTINUOUS
 62
     7
 10
481.8212310333391
 20
114.2255566345177
  0
VERTEX
  8
0
  6
CONTINUOUS
 62
     7
 10
481.8337424569312
 20
114.2041262878014
  0
SEQEND
  8
0
  6
CONTINUOUS
 62
     7
  0
LINE
  8
0
  6
CONTINUOUS
 62
     7
 10
507.0337424569312
 20
265.7958737121986
 11
506.9241794762268
 21
265.7321420177749
  0
ARC
  8
0
  6
CONTINUOUS
 62
     7
 10
504.7509846165853
 20
280.390167942248
 40
14.81824888104179
 50
269.0295042936536
 51
278.4332243800881
  0
ARC
  8
0
  6
CONTINUOUS
 62
     7
 10
501.2682586749215
 20
280.9473149938642
 40
15.37501681996071
 50
261.8797502378196
 51
270.8636284968654
  0
POLYLINE
  8
0
  6
CONTINUOUS
 62
     7
 66
     1
  0
VERTEX
  8
0
  6
CONTINUOUS
 62
     7
 10
499.0965202942718
 20
265.7264512003705
  0
VERTEX
  8
0
  6
CONTINUOUS
 62
     7
 10
498.9902622305877
 20
265.7660420969229
  0
VERTEX
  8
0
  6
CONTINUOUS
 62
     7
 10
498.9662575430688
 20
265.7958737121986
  0
SEQEND
  8
0
  6
CONTINUOUS
 62
     7
  0
LINE
  8
0
  6
CONTINUOUS
 62
     7
 10
532.2337424569312
 20
265.7958737121986
 11
532.1241794762274
 21
265.7321420177747
  0
ARC
  8
0
  6
CONTINUOUS
 62
     7
 10
529.9509846165873
 20
280.3901679422424
 40
14.81824888103623
 50
269.0295042936457
 51
278.4332243800858
  0
ARC
  8
0
  6
CONTINUOUS
 62
     7
 10
526.4682586749216
 20
280.9473149938645
 40
15.37501681996098
 50
261.8797502378198
 51
270.8636284968654
  0
POLYLINE
  8
0
  6
CONTINUOUS
 62
     7
 66
     1
  0
VERTEX
  8
0
  6
CONTINUOUS
 62
     7
 10
524.2965202942718
 20
265.7264512003705
  0
VERTEX
  8
0
  6
CONTINUOUS
 62
     7
 10
524.1902622305877
 20
265.7660420969229
  0
VERTEX
  8
0
  6
CONTINUOUS
 62
     7
 10
524.1662575430689
 20
265.7958737121986
  0
SEQEND
  8
0
  6
CONTINUOUS
 62
     7
  0
LINE
  8
0
  6
CONTINUOUS
 62
     7
 10
431.0337424569311
 20
265.7958737121986
 11
430.9384113309844
 21
265.7363927161868
  0
ARC
  8
0
  6
CONTINUOUS
 62
     7
 10
428.7781133926932
 20
279.7901046297328
 40
14.21878003666735
 50
268.8792470377169
 51
278.7389472056159
  0
ARC
  8
0
  6
CONTINUOUS
 62
     7
 10
425.2490153834304
 20
280.3901679424704
 40
14.81824888126414
 50
261.5667756199783
 51
270.9704957063233
  0
POLYLINE
  8
0
  6
CONTINUOUS
 62
     7
 66
     1
  0
VERTEX
  8
0
  6
CONTINUOUS
 62
     7
 10
423.0758205237733
 20
265.7321420177748
  0
VERTEX
  8
0
  6
CONTINUOUS
 62
     7
 10
422.9788207738074
 20
265.7743992523241
  0
VERTEX
  8
0
  6
CONTINUOUS
 62
     7
 10
422.9662575430688
 20
265.7958737121986
  0
SEQEND
  8
0
  6
CONTINUOUS
 62
     7
  0
LINE
  8
0
  6
CONTINUOUS
 62
     7
 10
405.8337424569312
 20
265.7958737121986
 11
405.7384113309845
 21
265.7363927161868
  0
ARC
  8
0
  6
CONTINUOUS
 62
     7
 10
403.5781133926934
 20
279.7901046297299
 40
14.21878003666444
 50
268.8792470377159
 51
278.7389472056168
  0
ARC
  8
0
  6
CONTINUOUS
 62
     7
 10
400.0490153834285
 20
280.3901679424634
 40
14.81824888125724
 50
261.5667756199798
 51
270.9704957063312
  0
POLYLINE
  8
0
  6
CONTINUOUS
 62
     7
 66
     1
  0
VERTEX
  8
0
  6
CONTINUOUS
 62
     7
 10
397.8758205237727
 20
265.7321420177747
  0
VERTEX
  8
0
  6
CONTINUOUS
 62
     7
 10
397.7788207738073
 20
265.774399252324
  0
VERTEX
  8
0
  6
CONTINUOUS
 62
     7
 10
397.7662575430688
 20
265.7958737121986
  0
SEQEND
  8
0
  6
CONTINUOUS
 62
     7
  0
LINE
  8
0
  6
CONTINUOUS
 62
     7
 10
481.8337424569312
 20
265.7958737121986
 11
481.7241794762268
 21
265.7321420177749
  0
ARC
  8
0
  6
CONTINUOUS
 62
     7
 10
479.5509846165857
 20
280.3901679422465
 40
14.81824888104034
 50
269.0295042936522
 51
278.4332243800875
  0
ARC
  8
0
  6
CONTINUOUS
 62
     7
 10
476.0682586749212
 20
280.9473149938638
 40
15.37501681996033
 50
261.8797502378213
 51
270.863628496867
  0
POLYLINE
  8
0
  6
CONTINUOUS
 62
     7
 66
     1
  0
VERTEX
  8
0
  6
CONTINUOUS
 62
     7
 10
473.8965202942719
 20
265.7264512003704
  0
VERTEX
  8
0
  6
CONTINUOUS
 62
     7
 10
473.7902622305877
 20
265.7660420969229
  0
VERTEX
  8
0
  6
CONTINUOUS
 62
     7
 10
473.7662575430689
 20
265.7958737121986
  0
SEQEND
  8
0
  6
CONTINUOUS
 62
     7
  0
LINE
  8
0
  6
CONTINUOUS
 62
     7
 10
456.2337424569312
 20
265.7958737121986
 11
456.1384113309845
 21
265.7363927161867
  0
ARC
  8
0
  6
CONTINUOUS
 62
     7
 10
453.978113392693
 20
279.7901046297393
 40
14.21878003667389
 50
268.879247037718
 51
278.7389472056127
  0
ARC
  8
0
  6
CONTINUOUS
 62
     7
 10
450.44901538343
 20
280.3901679424665
 40
14.81824888126026
 50
261.5667756199775
 51
270.9704957063252
  0
POLYLINE
  8
0
  6
CONTINUOUS
 62
     7
 66
     1
  0
VERTEX
  8
0
  6
CONTINUOUS
 62
     7
 10
448.2758205237733
 20
265.7321420177748
  0
VERTEX
  8
0
  6
CONTINUOUS
 62
     7
 10
448.1788207738074
 20
265.7743992523241
  0
VERTEX
  8
0
  6
CONTINUOUS
 62
     7
 10
448.1662575430688
 20
265.7958737121986
  0
SEQEND
  8
0
  6
CONTINUOUS
 62
     7
  0
LINE
  8
0
  6
CONTINUOUS
 62
     7
 10
457.231306507191
 20
113.2774226190111
 11
457.2306429277496
 21
113.2832931132738
  0
LINE
  8
0
  6
CONTINUOUS
 62
     7
 10
432.031306507191
 20
113.2774226190111
 11
432.0306429277496
 21
113.2832931132738
  0
LINE
  8
0
  6
CONTINUOUS
 62
     7
 10
406.831306507191
 20
113.2774226190111
 11
406.8306429277496
 21
113.2832931132738
  0
LINE
  8
0
  6
CONTINUOUS
 62
     7
 10
472.7693570990041
 20
113.2832932316893
 11
472.768693492809
 21
113.2774226190111
  0
LINE
  8
0
  6
CONTINUOUS
 62
     7
 10
497.9693570990041
 20
113.2832932316893
 11
497.968693492809
 21
113.2774226190111
  0
LINE
  8
0
  6
CONTINUOUS
 62
     7
 10
523.1693570990041
 20
113.2832932316893
 11
523.168693492809
 21
113.2774226190111
  0
LINE
  8
0
  6
CONTINUOUS
 62
     7
 10
523.168693492809
 20
266.7225773809889
 11
523.1693231523694
 21
266.7168589897593
  0
LINE
  8
0
  6
CONTINUOUS
 62
     7
 10
497.968693492809
 20
266.7225773809889
 11
497.9693231523694
 21
266.7168589897591
  0
LINE
  8
0
  6
CONTINUOUS
 62
     7
 10
472.768693492809
 20
266.7225773809889
 11
472.7693231523694
 21
266.7168589897592
  0
LINE
  8
0
  6
CONTINUOUS
 62
     7
 10
432.0306768188343
 20
266.7168588589186
 11
432.031306507191
 21
266.7225773809889
  0
LINE
  8
0
  6
CONTINUOUS
 62
     7
 10
406.8306768188343
 20
266.7168588589185
 11
406.831306507191
 21
266.7225773809889
  0
LINE
  8
0
  6
CONTINUOUS
 62
     7
 10
457.2306768188344
 20
266.7168588589185
 11
457.231306507191
 21
266.7225773809889
  0
ARC
  8
0
  6
CONTINUOUS
 62
     7
 10
545.0
 20
264.1999093082074
 40
0.8967456166469046
 50
0.0
 51
90.0
  0
ARC
  8
0
  6
CONTINUOUS
 62
     7
 10
385.0
 20
115.8000906917926
 40
0.8967456166469184
 50
180.0000000000009
 51
270.0
  0
ARC
  8
0
  6
CONTINUOUS
 62
     7
 10
545.0
 20
115.8000906917926
 40
0.8967456166469184
 50
269.9999999999991
 51
359.9999999999991
  0
ARC
  8
0
  6
CONTINUOUS
 62
     7
 10
385.0
 20
264.1999093082074
 40
0.8967456166469046
 50
90.0
 51
180.0
  0
LINE
  8
0
  6
CONTINUOUS
 62
     7
 10
545.0
 20
114.9033450751457
 11
385.0000000000001
 21
114.9033450751457
  0
LINE
  8
0
  6
CONTINUOUS
 62
     7
 10
385.0
 20
265.0966549248544
 11
544.9999999999999
 21
265.0966549248544
  0
LINE
  8
0
  6
CONTINUOUS
 62
     7
 10
545.8967456166469
 20
115.8000906917926
 11
545.8967456166469
 21
264.1999093082074
  0
LINE
  8
0
  6
CONTINUOUS
 62
     7
 10
384.1032543833531
 20
115.8000906917926
 11
384.1032543833531
 21
264.1999093082074
  0
ARC
  8
0
  6
CONTINUOUS
 62
     7
 10
385.0
 20
264.0249319811555
 40
0.8967456166469046
 50
90.0
 51
180.0
  0
ARC
  8
0
  6
CONTINUOUS
 62
     7
 10
545.0
 20
115.9750680188445
 40
0.8967456166469184
 50
269.9999999999991
 51
359.9999999999991
  0
ARC
  8
0
  6
CONTINUOUS
 62
     7
 10
385.0
 20
115.9750680188445
 40
0.8967456166469184
 50
180.0000000000009
 51
270.0
  0
ARC
  8
0
  6
CONTINUOUS
 62
     7
 10
545.0
 20
264.0249319811555
 40
0.8967456166469046
 50
0.0
 51
90.0
  0
LINE
  8
0
  6
CONTINUOUS
 62
     7
 10
385.0
 20
264.9216775978025
 11
544.9999999999999
 21
264.9216775978025
  0
LINE
  8
0
  6
CONTINUOUS
 62
     7
 10
545.0
 20
115.0783224021975
 11
385.0000000000001
 21
115.0783224021975
  0
ARC
  8
0
  6
CONTINUOUS
 62
     7
 10
385.0
 20
263.8499546541037
 40
0.8967456166468907
 50
90.0
 51
180.0
  0
ARC
  8
0
  6
CONTINUOUS
 62
     7
 10
545.0
 20
116.1500453458963
 40
0.8967456166469046
 50
270.0
 51
0.0
  0
ARC
  8
0
  6
CONTINUOUS
 62
     7
 10
545.0
 20
263.8499546541037
 40
0.8967456166468907
 50
359.9999999999991
 51
90.0
  0
ARC
  8
0
  6
CONTINUOUS
 62
     7
 10
385.0
 20
116.1500453458963
 40
0.8967456166469046
 50
180.0
 51
270.0
  0
LINE
  8
0
  6
CONTINUOUS
 62
     7
 10
385.0
 20
264.7467002707506
 11
544.9999999999999
 21
264.7467002707506
  0
LINE
  8
0
  6
CONTINUOUS
 62
     7
 10
545.0
 20
115.2532997292494
 11
385.0000000000001
 21
115.2532997292494
  0
ARC
  8
0
  6
CONTINUOUS
 62
     7
 10
385.0
 20
263.6749773270519
 40
0.8967456166469046
 50
90.0
 51
180.0
  0
ARC
  8
0
  6
CONTINUOUS
 62
     7
 10
545.0
 20
116.3250226729482
 40
0.8967456166469046
 50
270.0
 51
0.0
  0
ARC
  8
0
  6
CONTINUOUS
 62
     7
 10
545.0
 20
263.6749773270519
 40
0.8967456166469046
 50
359.9999999999991
 51
90.0
  0
ARC
  8
0
  6
CONTINUOUS
 62
     7
 10
385.0
 20
116.3250226729482
 40
0.8967456166469046
 50
180.0
 51
270.0
  0
LINE
  8
0
  6
CONTINUOUS
 62
     7
 10
385.0
 20
264.5717229436988
 11
544.9999999999999
 21
264.5717229436988
  0
LINE
  8
0
  6
CONTINUOUS
 62
     7
 10
545.0
 20
115.4282770563013
 11
385.0000000000001
 21
115.4282770563013
  0
LINE
  8
0
  6
CONTINUOUS
 62
     7
 10
463.7310558885022
 20
268.2159472982918
 11
463.735723066708
 21
268.2824358463206
  0
LINE
  8
0
  6
CONTINUOUS
 62
     7
 10
440.6642769332919
 20
268.2824358463215
 11
440.6689441114978
 21
268.2159472982927
  0
POLYLINE
  8
0
  6
CONTINUOUS
 62
     7
 66
     1
  0
VERTEX
  8
0
  6
CONTINUOUS
 62
     7
 10
440.668907091451
 20
268.2164736907462
  0
VERTEX
  8
0
  6
CONTINUOUS
 62
     7
 10
440.6878977906803
 20
268.0771213390171
  0
VERTEX
  8
0
  6
CONTINUOUS
 62
     7
 10
440.7213171381891
 20
267.9517818993308
  0
VERTEX
  8
0
  6
CONTINUOUS
 62
     7
 10
440.764810408133
 20
267.8410946589152
  0
VERTEX
  8
0
  6
CONTINUOUS
 62
     7
 10
440.8211197312685
 20
267.7336398358109
  0
VERTEX
  8
0
  6
CONTINUOUS
 62
     7
 10
440.8803953990574
 20
267.6439165988116
  0
VERTEX
  8
0
  6
CONTINUOUS
 62
     7
 10
440.9472705834424
 20
267.560592853028
  0
VERTEX
  8
0
  6
CONTINUOUS
 62
     7
 10
441.0463407648996
 20
267.4604046580469
  0
VERTEX
  8
0
  6
CONTINUOUS
 62
     7
 10
441.135778326329
 20
267.3868269048697
  0
VERTEX
  8
0
  6
CONTINUOUS
 62
     7
 10
441.3312886603844
 20
267.2629472518539
  0
SEQEND
  8
0
  6
CONTINUOUS
 62
     7
  0
ARC
  8
0
  6
CONTINUOUS
 62
     7
 10
445.0503638476519
 20
278.0011401831335
 40
11.36399171409115
 50
250.8969389660325
 51
268.7089711591397
  0
LINE
  8
0
  6
CONTINUOUS
 62
     7
 10
444.7943240534605
 20
266.6400332255469
 11
444.9800712704178
 21
266.6248624292758
  0
ARC
  8
0
  6
CONTINUOUS
 62
     7
 10
459.2191623539567
 20
278.9225159642305
 40
12.28870262164248
 50
271.7840300638019
 51
287.9692734805832
  0
POLYLINE
  8
0
  6
CONTINUOUS
 62
     7
 66
     1
  0
VERTEX
  8
0
  6
CONTINUOUS
 62
     7
 10
463.0103121307849
 20
267.2332304645595
  0
VERTEX
  8
0
  6
CONTINUOUS
 62
     7
 10
463.1733904649816
 20
267.3255758511374
  0
VERTEX
  8
0
  6
CONTINUOUS
 62
     7
 10
463.2780961056106
 20
267.4002039525163
  0
VERTEX
  8
0
  6
CONTINUOUS
 62
     7
 10
463.3912797528269
 20
267.4996544266183
  0
VERTEX
  8
0
  6
CONTINUOUS
 62
     7
 10
463.5049210392687
 20
267.6284039334113
  0
VERTEX
  8
0
  6
CONTINUOUS
 62
     7
 10
463.5931510339097
 20
267.7619519748109
  0
VERTEX
  8
0
  6
CONTINUOUS
 62
     7
 10
463.6667324167213
 20
267.9200388196642
  0
VERTEX
  8
0
  6
CONTINUOUS
 62
     7
 10
463.708526777762
 20
268.0613216970772
  0
VERTEX
  8
0
  6
CONTINUOUS
 62
     7
 10
463.7310959215554
 20
268.2165168998215
  0
SEQEND
  8
0
  6
CONTINUOUS
 62
     7
  0
LINE
  8
0
  6
CONTINUOUS
 62
     7
 10
438.5310558885022
 20
268.2159472982918
 11
438.535723066708
 21
268.2824358463205
  0
LINE
  8
0
  6
CONTINUOUS
 62
     7
 10
415.464276933292
 20
268.2824358463215
 11
415.4689441114978
 21
268.2159472982927
  0
POLYLINE
  8
0
  6
CONTINUOUS
 62
     7
 66
     1
  0
VERTEX
  8
0
  6
CONTINUOUS
 62
     7
 10
415.4689070914509
 20
268.2164736907461
  0
VERTEX
  8
0
  6
CONTINUOUS
 62
     7
 10
415.4878977906803
 20
268.077121339017
  0
VERTEX
  8
0
  6
CONTINUOUS
 62
     7
 10
415.521317138189
 20
267.9517818993309
  0
VERTEX
  8
0
  6
CONTINUOUS
 62
     7
 10
415.564810408133
 20
267.8410946589153
  0
VERTEX
  8
0
  6
CONTINUOUS
 62
     7
 10
415.6211197312685
 20
267.733639835811
  0
VERTEX
  8
0
  6
CONTINUOUS
 62
     7
 10
415.6803953990574
 20
267.6439165988116
  0
VERTEX
  8
0
  6
CONTINUOUS
 62
     7
 10
415.7472705834426
 20
267.5605928530279
  0
VERTEX
  8
0
  6
CONTINUOUS
 62
     7
 10
415.8463407649001
 20
267.4604046580464
  0
VERTEX
  8
0
  6
CONTINUOUS
 62
     7
 10
415.93577832633
 20
267.3868269048691
  0
VERTEX
  8
0
  6
CONTINUOUS
 62
     7
 10
416.1312886603854
 20
267.2629472518533
  0
SEQEND
  8
0
  6
CONTINUOUS
 62
     7
  0
ARC
  8
0
  6
CONTINUOUS
 62
     7
 10
419.8503638476512
 20
278.0011401831346
 40
11.3639917140922
 50
250.8969389660433
 51
268.7089711591385
  0
LINE
  8
0
  6
CONTINUOUS
 62
     7
 10
419.5943240534596
 20
266.640033225547
 11
419.7800712704131
 21
266.6248624292762
  0
ARC
  8
0
  6
CONTINUOUS
 62
     7
 10
434.0191623539584
 20
278.922515964219
 40
12.28870262163094
 50
271.7840300637989
 51
287.9692734805968
  0
POLYLINE
  8
0
  6
CONTINUOUS
 62
     7
 66
     1
  0
VERTEX
  8
0
  6
CONTINUOUS
 62
     7
 10
437.8103121307859
 20
267.2332304645599
  0
VERTEX
  8
0
  6
CONTINUOUS
 62
     7
 10
437.973390464983
 20
267.3255758511383
  0
VERTEX
  8
0
  6
CONTINUOUS
 62
     7
 10
438.0780961056118
 20
267.4002039525173
  0
VERTEX
  8
0
  6
CONTINUOUS
 62
     7
 10
438.191279752828
 20
267.4996544266194
  0
VERTEX
  8
0
  6
CONTINUOUS
 62
     7
 10
438.3049210392695
 20
267.6284039334124
  0
VERTEX
  8
0
  6
CONTINUOUS
 62
     7
 10
438.3931510339102
 20
267.7619519748119
  0
VERTEX
  8
0
  6
CONTINUOUS
 62
     7
 10
438.4667324167216
 20
267.9200388196649
  0
VERTEX
  8
0
  6
CONTINUOUS
 62
     7
 10
438.5085267777621
 20
268.0613216970776
  0
VERTEX
  8
0
  6
CONTINUOUS
 62
     7
 10
438.5310959215554
 20
268.2165168998215
  0
SEQEND
  8
0
  6
CONTINUOUS
 62
     7
  0
POLYLINE
  8
0
  6
CONTINUOUS
 62
     7
 66
     1
  0
VERTEX
  8
0
  6
CONTINUOUS
 62
     7
 10
390.268907091451
 20
268.2164736907461
  0
VERTEX
  8
0
  6
CONTINUOUS
 62
     7
 10
390.2878977906804
 20
268.0771213390166
  0
VERTEX
  8
0
  6
CONTINUOUS
 62
     7
 10
390.3213171381894
 20
267.95178189933
  0
VERTEX
  8
0
  6
CONTINUOUS
 62
     7
 10
390.3648104081336
 20
267.841094658914
  0
VERTEX
  8
0
  6
CONTINUOUS
 62
     7
 10
390.4211197312695
 20
267.7336398358094
  0
VERTEX
  8
0
  6
CONTINUOUS
 62
     7
 10
390.4803953990588
 20
267.6439165988099
  0
VERTEX
  8
0
  6
CONTINUOUS
 62
     7
 10
390.5472705834444
 20
267.560592853026
  0
VERTEX
  8
0
  6
CONTINUOUS
 62
     7
 10
390.6463407649026
 20
267.4604046580444
  0
VERTEX
  8
0
  6
CONTINUOUS
 62
     7
 10
390.7357783263326
 20
267.3868269048673
  0
VERTEX
  8
0
  6
CONTINUOUS
 62
     7
 10
390.9312886603881
 20
267.2629472518523
  0
SEQEND
  8
0
  6
CONTINUOUS
 62
     7
  0
ARC
  8
0
  6
CONTINUOUS
 62
     7
 10
394.6503638476445
 20
278.0011401831008
 40
11.36399171405813
 50
250.8969389660336
 51
268.7089711591726
  0
LINE
  8
0
  6
CONTINUOUS
 62
     7
 10
394.3943240534604
 20
266.640033225547
 11
394.5800712704071
 21
266.6248624292768
  0
ARC
  8
0
  6
CONTINUOUS
 62
     7
 10
408.8191623539601
 20
278.9225159642043
 40
12.28870262161616
 50
271.7840300637949
 51
287.9692734806174
  0
POLYLINE
  8
0
  6
CONTINUOUS
 62
     7
 66
     1
  0
VERTEX
  8
0
  6
CONTINUOUS
 62
     7
 10
412.6103121307871
 20
267.2332304645606
  0
VERTEX
  8
0
  6
CONTINUOUS
 62
     7
 10
412.7733904649854
 20
267.3255758511399
  0
VERTEX
  8
0
  6
CONTINUOUS
 62
     7
 10
412.8780961056144
 20
267.4002039525193
  0
VERTEX
  8
0
  6
CONTINUOUS
 62
     7
 10
412.9912797528302
 20
267.4996544266216
  0
VERTEX
  8
0
  6
CONTINUOUS
 62
     7
 10
413.1049210392712
 20
267.6284039334146
  0
VERTEX
  8
0
  6
CONTINUOUS
 62
     7
 10
413.1931510339113
 20
267.7619519748138
  0
VERTEX
  8
0
  6
CONTINUOUS
 62
     7
 10
413.266732416722
 20
267.9200388196662
  0
VERTEX
  8
0
  6
CONTINUOUS
 62
     7
 10
413.3085267777623
 20
268.0613216970784
  0
VERTEX
  8
0
  6
CONTINUOUS
 62
     7
 10
413.3310959215554
 20
268.2165168998215
  0
SEQEND
  8
0
  6
CONTINUOUS
 62
     7
  0
LINE
  8
0
  6
CONTINUOUS
 62
     7
 10
413.3310558885022
 20
268.2159472982918
 11
413.335723066708
 21
268.2824358463207
  0
LINE
  8
0
  6
CONTINUOUS
 62
     7
 10
390.264276933292
 20
268.2824358463216
 11
390.2689441114978
 21
268.2159472982927
  0
LINE
  8
0
  6
CONTINUOUS
 62
     7
 10
489.3310558885022
 20
268.2159472982918
 11
489.335723066708
 21
268.2824358463205
  0
LINE
  8
0
  6
CONTINUOUS
 62
     7
 10
466.264276933292
 20
268.2824358463215
 11
466.2689441114978
 21
268.2159472982928
  0
POLYLINE
  8
0
  6
CONTINUOUS
 62
     7
 66
     1
  0
VERTEX
  8
0
  6
CONTINUOUS
 62
     7
 10
466.2689040784446
 20
268.2165168998217
  0
VERTEX
  8
0
  6
CONTINUOUS
 62
     7
 10
466.2859886055753
 20
268.0866730990428
  0
VERTEX
  8
0
  6
CONTINUOUS
 62
     7
 10
466.315728421908
 20
267.969014725892
  0
VERTEX
  8
0
  6
CONTINUOUS
 62
     7
 10
466.3545667812431
 20
267.864103185859
  0
VERTEX
  8
0
  6
CONTINUOUS
 62
     7
 10
466.4076457558918
 20
267.7568040359718
  0
VERTEX
  8
0
  6
CONTINUOUS
 62
     7
 10
466.4642670304043
 20
267.6665021694137
  0
VERTEX
  8
0
  6
CONTINUOUS
 62
     7
 10
466.5354325630428
 20
267.5742429796481
  0
VERTEX
  8
0
  6
CONTINUOUS
 62
     7
 10
466.6293044079892
 20
267.4761335290442
  0
VERTEX
  8
0
  6
CONTINUOUS
 62
     7
 10
466.839945321696
 20
267.3159068924066
  0
VERTEX
  8
0
  6
CONTINUOUS
 62
     7
 10
467.0159744398436
 20
267.2208389015058
  0
SEQEND
  8
0
  6
CONTINUOUS
 62
     7
  0
ARC
  8
0
  6
CONTINUOUS
 62
     7
 10
470.8970506128555
 20
279.5794883276617
 40
12.95372409384054
 50
252.5657691464297
 51
268.208050594932
  0
ARC
  8
0
  6
CONTINUOUS
 62
     7
 10
485.1654836255898
 20
275.7675351556459
 40
9.147237127015512
 50
268.8689781133861
 51
294.098208079214
  0
POLYLINE
  8
0
  6
CONTINUOUS
 62
     7
 66
     1
  0
VERTEX
  8
0
  6
CONTINUOUS
 62
     7
 10
488.9003180282863
 20
267.4175076681292
  0
VERTEX
  8
0
  6
CONTINUOUS
 62
     7
 10
489.0081657262627
 20
267.5162173532947
  0
VERTEX
  8
0
  6
CONTINUOUS
 62
     7
 10
489.104836505198
 20
267.6279980383246
  0
VERTEX
  8
0
  6
CONTINUOUS
 62
     7
 10
489.1845139657012
 20
267.7467471975534
  0
VERTEX
  8
0
  6
CONTINUOUS
 62
     7
 10
489.253340547605
 20
267.8857449857917
  0
VERTEX
  8
0
  6
CONTINUOUS
 62
     7
 10
489.2955664961077
 20
268.00921198449
  0
VERTEX
  8
0
  6
CONTINUOUS
 62
     7
 10
489.3235697013714
 20
268.1446340146297
  0
VERTEX
  8
0
  6
CONTINUOUS
 62
     7
 10
489.3310929085491
 20
268.2164736907458
  0
SEQEND
  8
0
  6
CONTINUOUS
 62
     7
  0
LINE
  8
0
  6
CONTINUOUS
 62
     7
 10
514.5310558885022
 20
268.2159472982918
 11
514.535723066708
 21
268.2824358463205
  0
LINE
  8
0
  6
CONTINUOUS
 62
     7
 10
491.464276933292
 20
268.2824358463214
 11
491.4689441114978
 21
268.2159472982928
  0
POLYLINE
  8
0
  6
CONTINUOUS
 62
     7
 66
     1
  0
VERTEX
  8
0
  6
CONTINUOUS
 62
     7
 10
491.4689040784446
 20
268.2165168998217
  0
VERTEX
  8
0
  6
CONTINUOUS
 62
     7
 10
491.4859886055753
 20
268.0866730990426
  0
VERTEX
  8
0
  6
CONTINUOUS
 62
     7
 10
491.5157284219082
 20
267.9690147258915
  0
VERTEX
  8
0
  6
CONTINUOUS
 62
     7
 10
491.5545667812434
 20
267.8641031858584
  0
VERTEX
  8
0
  6
CONTINUOUS
 62
     7
 10
491.6076457558923
 20
267.756804035971
  0
VERTEX
  8
0
  6
CONTINUOUS
 62
     7
 10
491.6642670304048
 20
267.666502169413
  0
VERTEX
  8
0
  6
CONTINUOUS
 62
     7
 10
491.7354325630434
 20
267.5742429796474
  0
VERTEX
  8
0
  6
CONTINUOUS
 62
     7
 10
491.8293044079898
 20
267.4761335290436
  0
VERTEX
  8
0
  6
CONTINUOUS
 62
     7
 10
492.0399453216963
 20
267.3159068924062
  0
VERTEX
  8
0
  6
CONTINUOUS
 62
     7
 10
492.2159744398438
 20
267.2208389015056
  0
SEQEND
  8
0
  6
CONTINUOUS
 62
     7
  0
ARC
  8
0
  6
CONTINUOUS
 62
     7
 10
496.097050612855
 20
279.5794883276641
 40
12.95372409384277
 50
252.5657691464363
 51
268.2080505949244
  0
ARC
  8
0
  6
CONTINUOUS
 62
     7
 10
510.3654836255865
 20
275.7675351556567
 40
9.147237127026738
 50
268.868978113378
 51
294.0982080792031
  0
POLYLINE
  8
0
  6
CONTINUOUS
 62
     7
 66
     1
  0
VERTEX
  8
0
  6
CONTINUOUS
 62
     7
 10
514.100318028286
 20
267.417507668129
  0
VERTEX
  8
0
  6
CONTINUOUS
 62
     7
 10
514.2081657262625
 20
267.5162173532943
  0
VERTEX
  8
0
  6
CONTINUOUS
 62
     7
 10
514.3048365051978
 20
267.6279980383243
  0
VERTEX
  8
0
  6
CONTINUOUS
 62
     7
 10
514.3845139657011
 20
267.7467471975531
  0
VERTEX
  8
0
  6
CONTINUOUS
 62
     7
 10
514.453340547605
 20
267.8857449857915
  0
VERTEX
  8
0
  6
CONTINUOUS
 62
     7
 10
514.4955664961076
 20
268.0092119844899
  0
VERTEX
  8
0
  6
CONTINUOUS
 62
     7
 10
514.5235697013715
 20
268.1446340146296
  0
VERTEX
  8
0
  6
CONTINUOUS
 62
     7
 10
514.531092908549
 20
268.2164736907458
  0
SEQEND
  8
0
  6
CONTINUOUS
 62
     7
  0
POLYLINE
  8
0
  6
CONTINUOUS
 62
     7
 66
     1
  0
VERTEX
  8
0
  6
CONTINUOUS
 62
     7
 10
516.6689040784447
 20
268.2165168998218
  0
VERTEX
  8
0
  6
CONTINUOUS
 62
     7
 10
516.6859886055757
 20
268.0866730990401
  0
VERTEX
  8
0
  6
CONTINUOUS
 62
     7
 10
516.7157284219097
 20
267.9690147258871
  0
VERTEX
  8
0
  6
CONTINUOUS
 62
     7
 10
516.7545667812461
 20
267.8641031858523
  0
VERTEX
  8
0
  6
CONTINUOUS
 62
     7
 10
516.8076457558965
 20
267.7568040359636
  0
VERTEX
  8
0
  6
CONTINUOUS
 62
     7
 10
516.8642670304107
 20
267.6665021694049
  0
VERTEX
  8
0
  6
CONTINUOUS
 62
     7
 10
516.9354325630507
 20
267.5742429796392
  0
VERTEX
  8
0
  6
CONTINUOUS
 62
     7
 10
517.029304407998
 20
267.4761335290362
  0
VERTEX
  8
0
  6
CONTINUOUS
 62
     7
 10
517.2399453217034
 20
267.3159068924022
  0
VERTEX
  8
0
  6
CONTINUOUS
 62
     7
 10
517.4159744398503
 20
267.2208389015029
  0
SEQEND
  8
0
  6
CONTINUOUS
 62
     7
  0
ARC
  8
0
  6
CONTINUOUS
 62
     7
 10
521.2970506128621
 20
279.579488327715
 40
12.953724093894
 50
252.5657691465045
 51
268.208050594918
  0
ARC
  8
0
  6
CONTINUOUS
 62
     7
 10
535.565483625612
 20
275.7675351554846
 40
9.147237126855424
 50
268.8689781131763
 51
294.0982080795509
  0
POLYLINE
  8
0
  6
CONTINUOUS
 62
     7
 66
     1
  0
VERTEX
  8
0
  6
CONTINUOUS
 62
     7
 10
539.3003180282924
 20
267.417507668136
  0
VERTEX
  8
0
  6
CONTINUOUS
 62
     7
 10
539.4081657262681
 20
267.5162173533017
  0
VERTEX
  8
0
  6
CONTINUOUS
 62
     7
 10
539.5048365052022
 20
267.6279980383314
  0
VERTEX
  8
0
  6
CONTINUOUS
 62
     7
 10
539.5845139657041
 20
267.7467471975594
  0
VERTEX
  8
0
  6
CONTINUOUS
 62
     7
 10
539.6533405476067
 20
267.8857449857965
  0
VERTEX
  8
0
  6
CONTINUOUS
 62
     7
 10
539.6955664961085
 20
268.0092119844934
  0
VERTEX
  8
0
  6
CONTINUOUS
 62
     7
 10
539.7235697013716
 20
268.1446340146314
  0
VERTEX
  8
0
  6
CONTINUOUS
 62
     7
 10
539.7310929085492
 20
268.2164736907466
  0
SEQEND
  8
0
  6
CONTINUOUS
 62
     7
  0
LINE
  8
0
  6
CONTINUOUS
 62
     7
 10
539.7310558885022
 20
268.2159472982917
 11
539.735723066708
 21
268.2824358463205
  0
LINE
  8
0
  6
CONTINUOUS
 62
     7
 10
516.664276933292
 20
268.2824358463215
 11
516.6689441114978
 21
268.2159472982927
  0
LINE
  8
0
  6
CONTINUOUS
 62
     7
 10
516.6689441000713
 20
111.7840525389257
 11
516.6642769243265
 21
111.7175640259573
  0
LINE
  8
0
  6
CONTINUOUS
 62
     7
 10
539.7357230756735
 20
111.7175640259563
 11
539.7310558999287
 21
111.7840525389248
  0
POLYLINE
  8
0
  6
CONTINUOUS
 62
     7
 66
     1
  0
VERTEX
  8
0
  6
CONTINUOUS
 62
     7
 10
539.731085410114
 20
111.7836325387865
  0
VERTEX
  8
0
  6
CONTINUOUS
 62
     7
 10
539.7124250560645
 20
111.9213863809038
  0
VERTEX
  8
0
  6
CONTINUOUS
 62
     7
 10
539.6797312230888
 20
112.0452463978655
  0
VERTEX
  8
0
  6
CONTINUOUS
 62
     7
 10
539.6300584006013
 20
112.1702375407306
  0
VERTEX
  8
0
  6
CONTINUOUS
 62
     7
 10
539.5652478420795
 20
112.2889127007109
  0
VERTEX
  8
0
  6
CONTINUOUS
 62
     7
 10
539.499939975357
 20
112.3823834474179
  0
VERTEX
  8
0
  6
CONTINUOUS
 62
     7
 10
539.4091636754217
 20
112.4863343439073
  0
VERTEX
  8
0
  6
CONTINUOUS
 62
     7
 10
539.2108243077818
 20
112.6512048888277
  0
SEQEND
  8
0
  6
CONTINUOUS
 62
     7
  0
ARC
  8
0
  6
CONTINUOUS
 62
     7
 10
535.5499680246058
 20
103.6780401551257
 40
9.691210144467128
 50
67.80560751836526
 51
90.32320648061618
  0
ARC
  8
0
  6
CONTINUOUS
 62
     7
 10
520.6680160585639
 20
104.9796916529374
 40
8.386085908252404
 50
88.80264849697856
 51
115.4577151791096
  0
POLYLINE
  8
0
  6
CONTINUOUS
 62
     7
 66
     1
  0
VERTEX
  8
0
  6
CONTINUOUS
 62
     7
 10
517.0633001081218
 20
112.5515117628724
  0
VERTEX
  8
0
  6
CONTINUOUS
 62
     7
 10
516.9503850443001
 20
112.4390312117236
  0
VERTEX
  8
0
  6
CONTINUOUS
 62
     7
 10
516.8494238463569
 20
112.3076476348709
  0
VERTEX
  8
0
  6
CONTINUOUS
 62
     7
 10
516.7677573359305
 20
112.1622634538619
  0
VERTEX
  8
0
  6
CONTINUOUS
 62
     7
 10
516.710351501321
 20
112.0114178263314
  0
VERTEX
  8
0
  6
CONTINUOUS
 62
     7
 10
516.677508329467
 20
111.862887041872
  0
VERTEX
  8
0
  6
CONTINUOUS
 62
     7
 10
516.6689081060324
 20
111.7835407905678
  0
SEQEND
  8
0
  6
CONTINUOUS
 62
     7
  0
LINE
  8
0
  6
CONTINUOUS
 62
     7
 10
390.2689441000713
 20
111.7840525389257
 11
390.2642769243261
 21
111.717564025951
  0
LINE
  8
0
  6
CONTINUOUS
 62
     7
 10
413.335723075674
 20
111.7175640259501
 11
413.3310558999288
 21
111.7840525389248
  0
ARC
  8
0
  6
CONTINUOUS
 62
     7
 10
412.2437034233502
 20
111.7061416579159
 40
1.090139583616332
 50
4.071384937746183
 51
27.58391163763711
  0
POLYLINE
  8
0
  6
CONTINUOUS
 62
     7
 66
     1
  0
VERTEX
  8
0
  6
CONTINUOUS
 62
     7
 10
413.2099308036492
 20
112.2109277129209
  0
VERTEX
  8
0
  6
CONTINUOUS
 62
     7
 10
413.132017726838
 20
112.3389782836681
  0
VERTEX
  8
0
  6
CONTINUOUS
 62
     7
 10
413.0517628191271
 20
112.4406060831827
  0
VERTEX
  8
0
  6
CONTINUOUS
 62
     7
 10
412.9674704027772
 20
112.5268413789555
  0
VERTEX
  8
0
  6
CONTINUOUS
 62
     7
 10
412.8288378831335
 20
112.6384595488245
  0
VERTEX
  8
0
  6
CONTINUOUS
 62
     7
 10
412.6760342482881
 20
112.7322974477214
  0
SEQEND
  8
0
  6
CONTINUOUS
 62
     7
  0
ARC
  8
0
  6
CONTINUOUS
 62
     7
 10
408.9440040884293
 20
102.0624263880161
 40
11.30372494113473
 50
70.72155404470236
 51
88.93990857968559
  0
ARC
  8
0
  6
CONTINUOUS
 62
     7
 10
394.0450316679848
 20
106.4173950761687
 40
6.970462673056989
 50
86.01893136994536
 51
119.9772384574576
  0
POLYLINE
  8
0
  6
CONTINUOUS
 62
     7
 66
     1
  0
VERTEX
  8
0
  6
CONTINUOUS
 62
     7
 10
390.5621987285353
 20
112.4553769072416
  0
VERTEX
  8
0
  6
CONTINUOUS
 62
     7
 10
390.47814627212
 20
112.352177989058
  0
VERTEX
  8
0
  6
CONTINUOUS
 62
     7
 10
390.4141244438694
 20
112.2536322930536
  0
VERTEX
  8
0
  6
CONTINUOUS
 62
     7
 10
390.3560372396958
 20
112.138510393271
  0
VERTEX
  8
0
  6
CONTINUOUS
 62
     7
 10
390.3088697820391
 20
112.0076843236526
  0
VERTEX
  8
0
  6
CONTINUOUS
 62
     7
 10
390.2773381003628
 20
111.8620283967975
  0
VERTEX
  8
0
  6
CONTINUOUS
 62
     7
 10
390.268914589886
 20
111.7836325387864
  0
SEQEND
  8
0
  6
CONTINUOUS
 62
     7
  0
LINE
  8
0
  6
CONTINUOUS
 62
     7
 10
491.4689441000713
 20
111.784052538926
 11
491.4642769243266
 21
111.7175640259576
  0
LINE
  8
0
  6
CONTINUOUS
 62
     7
 10
514.5357230756736
 20
111.7175640259567
 11
514.5310558999288
 21
111.7840525389252
  0
POLYLINE
  8
0
  6
CONTINUOUS
 62
     7
 66
     1
  0
VERTEX
  8
0
  6
CONTINUOUS
 62
     7
 10
514.5310854101141
 20
111.7836325387865
  0
VERTEX
  8
0
  6
CONTINUOUS
 62
     7
 10
514.5124250560647
 20
111.9213863809029
  0
VERTEX
  8
0
  6
CONTINUOUS
 62
     7
 10
514.4797312230893
 20
112.0452463978639
  0
VERTEX
  8
0
  6
CONTINUOUS
 62
     7
 10
514.4300584006024
 20
112.1702375407283
  0
VERTEX
  8
0
  6
CONTINUOUS
 62
     7
 10
514.3652478420812
 20
112.2889127007083
  0
VERTEX
  8
0
  6
CONTINUOUS
 62
     7
 10
514.299939975359
 20
112.3823834474153
  0
VERTEX
  8
0
  6
CONTINUOUS
 62
     7
 10
514.209163675424
 20
112.486334343905
  0
VERTEX
  8
0
  6
CONTINUOUS
 62
     7
 10
514.0108243077848
 20
112.6512048888257
  0
SEQEND
  8
0
  6
CONTINUOUS
 62
     7
  0
ARC
  8
0
  6
CONTINUOUS
 62
     7
 10
510.3499680246047
 20
103.6780401551386
 40
9.691210144454848
 50
67.80560751830906
 51
90.3232064806486
  0
ARC
  8
0
  6
CONTINUOUS
 62
     7
 10
495.4680160585543
 20
104.9796916529624
 40
8.386085908226228
 50
88.80264849699135
 51
115.4577151791156
  0
POLYLINE
  8
0
  6
CONTINUOUS
 62
     7
 66
     1
  0
VERTEX
  8
0
  6
CONTINUOUS
 62
     7
 10
491.8633001081226
 20
112.5515117628735
  0
VERTEX
  8
0
  6
CONTINUOUS
 62
     7
 10
491.7503850443009
 20
112.4390312117248
  0
VERTEX
  8
0
  6
CONTINUOUS
 62
     7
 10
491.6494238463575
 20
112.3076476348721
  0
VERTEX
  8
0
  6
CONTINUOUS
 62
     7
 10
491.5677573359308
 20
112.1622634538629
  0
VERTEX
  8
0
  6
CONTINUOUS
 62
     7
 10
491.5103515013212
 20
112.011417826332
  0
VERTEX
  8
0
  6
CONTINUOUS
 62
     7
 10
491.477508329467
 20
111.8628870418722
  0
VERTEX
  8
0
  6
CONTINUOUS
 62
     7
 10
491.4689081060323
 20
111.7835407905678
  0
SEQEND
  8
0
  6
CONTINUOUS
 62
     7
  0
LINE
  8
0
  6
CONTINUOUS
 62
     7
 10
466.2689441000713
 20
111.784052538926
 11
466.2642769243265
 21
111.7175640259575
  0
LINE
  8
0
  6
CONTINUOUS
 62
     7
 10
489.3357230756735
 20
111.7175640259566
 11
489.3310558999287
 21
111.7840525389251
  0
POLYLINE
  8
0
  6
CONTINUOUS
 62
     7
 66
     1
  0
VERTEX
  8
0
  6
CONTINUOUS
 62
     7
 10
489.331085410114
 20
111.7836325387864
  0
VERTEX
  8
0
  6
CONTINUOUS
 62
     7
 10
489.3124250560645
 20
111.9213863809038
  0
VERTEX
  8
0
  6
CONTINUOUS
 62
     7
 10
489.2797312230887
 20
112.0452463978655
  0
VERTEX
  8
0
  6
CONTINUOUS
 62
     7
 10
489.2300584006014
 20
112.1702375407306
  0
VERTEX
  8
0
  6
CONTINUOUS
 62
     7
 10
489.1652478420797
 20
112.2889127007111
  0
VERTEX
  8
0
  6
CONTINUOUS
 62
     7
 10
489.099939975357
 20
112.3823834474182
  0
VERTEX
  8
0
  6
CONTINUOUS
 62
     7
 10
489.0091636754214
 20
112.4863343439078
  0
VERTEX
  8
0
  6
CONTINUOUS
 62
     7
 10
488.8108243077812
 20
112.6512048888284
  0
SEQEND
  8
0
  6
CONTINUOUS
 62
     7
  0
ARC
  8
0
  6
CONTINUOUS
 62
     7
 10
485.1499680245987
 20
103.6780401550927
 40
9.69121014450082
 50
67.8056075184046
 51
90.32320648061429
  0
ARC
  8
0
  6
CONTINUOUS
 62
     7
 10
470.2680160585587
 20
104.979691652941
 40
8.386085908247782
 50
88.80264849701015
 51
115.4577151790722
  0
POLYLINE
  8
0
  6
CONTINUOUS
 62
     7
 66
     1
  0
VERTEX
  8
0
  6
CONTINUOUS
 62
     7
 10
466.6633001081235
 20
112.5515117628742
  0
VERTEX
  8
0
  6
CONTINUOUS
 62
     7
 10
466.5503850443016
 20
112.4390312117255
  0
VERTEX
  8
0
  6
CONTINUOUS
 62
     7
 10
466.449423846358
 20
112.3076476348728
  0
VERTEX
  8
0
  6
CONTINUOUS
 62
     7
 10
466.3677573359311
 20
112.1622634538634
  0
VERTEX
  8
0
  6
CONTINUOUS
 62
     7
 10
466.3103515013213
 20
112.0114178263323
  0
VERTEX
  8
0
  6
CONTINUOUS
 62
     7
 10
466.277508329467
 20
111.8628870418723
  0
VERTEX
  8
0
  6
CONTINUOUS
 62
     7
 10
466.2689081060323
 20
111.7835407905679
  0
SEQEND
  8
0
  6
CONTINUOUS
 62
     7
  0
ARC
  8
0
  6
CONTINUOUS
 62
     7
 10
462.6437034233484
 20
111.7061416579158
 40
1.090139583618116
 50
4.071384937747437
 51
27.58391163745464
  0
POLYLINE
  8
0
  6
CONTINUOUS
 62
     7
 66
     1
  0
VERTEX
  8
0
  6
CONTINUOUS
 62
     7
 10
463.6099308036506
 20
112.2109277129186
  0
VERTEX
  8
0
  6
CONTINUOUS
 62
     7
 10
463.5320177268404
 20
112.3389782836651
  0
VERTEX
  8
0
  6
CONTINUOUS
 62
     7
 10
463.4517628191305
 20
112.4406060831794
  0
VERTEX
  8
0
  6
CONTINUOUS
 62
     7
 10
463.367470402782
 20
112.5268413789515
  0
VERTEX
  8
0
  6
CONTINUOUS
 62
     7
 10
463.2288378831417
 20
112.6384595488193
  0
VERTEX
  8
0
  6
CONTINUOUS
 62
     7
 10
463.0760342482988
 20
112.7322974477161
  0
SEQEND
  8
0
  6
CONTINUOUS
 62
     7
  0
ARC
  8
0
  6
CONTINUOUS
 62
     7
 10
459.3440040884389
 20
102.0624263880933
 40
11.30372494105726
 50
70.72155404455908
 51
88.93990857972192
  0
ARC
  8
0
  6
CONTINUOUS
 62
     7
 10
444.4450316679853
 20
106.4173950761606
 40
6.970462673064032
 50
86.01893137000073
 51
119.9772384574598
  0
POLYLINE
  8
0
  6
CONTINUOUS
 62
     7
 66
     1
  0
VERTEX
  8
0
  6
CONTINUOUS
 62
     7
 10
440.9621987285321
 20
112.4553769072395
  0
VERTEX
  8
0
  6
CONTINUOUS
 62
     7
 10
440.8781462721178
 20
112.3521779890561
  0
VERTEX
  8
0
  6
CONTINUOUS
 62
     7
 10
440.8141244438678
 20
112.2536322930519
  0
VERTEX
  8
0
  6
CONTINUOUS
 62
     7
 10
440.7560372396949
 20
112.1385103932698
  0
VERTEX
  8
0
  6
CONTINUOUS
 62
     7
 10
440.7088697820387
 20
112.0076843236519
  0
VERTEX
  8
0
  6
CONTINUOUS
 62
     7
 10
440.6773381003629
 20
111.8620283967975
  0
VERTEX
  8
0
  6
CONTINUOUS
 62
     7
 10
440.668914589886
 20
111.7836325387868
  0
SEQEND
  8
0
  6
CONTINUOUS
 62
     7
  0
LINE
  8
0
  6
CONTINUOUS
 62
     7
 10
440.6689441000713
 20
111.784052538926
 11
440.6642769243261
 21
111.7175640259511
  0
LINE
  8
0
  6
CONTINUOUS
 62
     7
 10
463.7357230756739
 20
111.7175640259502
 11
463.7310558999287
 21
111.7840525389251
  0
LINE
  8
0
  6
CONTINUOUS
 62
     7
 10
415.4689441000713
 20
111.7840525389261
 11
415.4642769243261
 21
111.7175640259513
  0
LINE
  8
0
  6
CONTINUOUS
 62
     7
 10
438.535723075674
 20
111.7175640259503
 11
438.5310558999287
 21
111.7840525389252
  0
ARC
  8
0
  6
CONTINUOUS
 62
     7
 10
437.4437034233483
 20
111.7061416579157
 40
1.090139583618173
 50
4.071384937751739
 51
27.5839116374788
  0
POLYLINE
  8
0
  6
CONTINUOUS
 62
     7
 66
     1
  0
VERTEX
  8
0
  6
CONTINUOUS
 62
     7
 10
438.4099308036504
 20
112.210927712919
  0
VERTEX
  8
0
  6
CONTINUOUS
 62
     7
 10
438.3320177268401
 20
112.3389782836655
  0
VERTEX
  8
0
  6
CONTINUOUS
 62
     7
 10
438.2517628191304
 20
112.4406060831795
  0
VERTEX
  8
0
  6
CONTINUOUS
 62
     7
 10
438.1674704027824
 20
112.5268413789513
  0
VERTEX
  8
0
  6
CONTINUOUS
 62
     7
 10
438.0288378831426
 20
112.6384595488188
  0
VERTEX
  8
0
  6
CONTINUOUS
 62
     7
 10
437.8760342483001
 20
112.7322974477155
  0
SEQEND
  8
0
  6
CONTINUOUS
 62
     7
  0
ARC
  8
0
  6
CONTINUOUS
 62
     7
 10
434.1440040884419
 20
102.0624263881111
 40
11.30372494103926
 50
70.7215540445365
 51
88.93990857972759
  0
ARC
  8
0
  6
CONTINUOUS
 62
     7
 10
419.2450316679886
 20
106.4173950761466
 40
6.970462673078324
 50
86.01893137001174
 51
119.9772384574084
  0
POLYLINE
  8
0
  6
CONTINUOUS
 62
     7
 66
     1
  0
VERTEX
  8
0
  6
CONTINUOUS
 62
     7
 10
415.7621987285337
 20
112.455376907241
  0
VERTEX
  8
0
  6
CONTINUOUS
 62
     7
 10
415.6781462721189
 20
112.3521779890574
  0
VERTEX
  8
0
  6
CONTINUOUS
 62
     7
 10
415.6141244438685
 20
112.2536322930531
  0
VERTEX
  8
0
  6
CONTINUOUS
 62
     7
 10
415.5560372396953
 20
112.1385103932707
  0
VERTEX
  8
0
  6
CONTINUOUS
 62
     7
 10
415.5088697820389
 20
112.0076843236525
  0
VERTEX
  8
0
  6
CONTINUOUS
 62
     7
 10
415.4773381003629
 20
111.8620283967978
  0
VERTEX
  8
0
  6
CONTINUOUS
 62
     7
 10
415.468914589886
 20
111.7836325387868
  0
SEQEND
  8
0
  6
CONTINUOUS
 62
     7
  0
POLYLINE
  8
0
  6
CONTINUOUS
 62
     7
 66
     1
  0
VERTEX
  8
0
  6
CONTINUOUS
 62
     7
 10
508.0156983916234
 20
113.3059441899856
  0
VERTEX
  8
0
  6
CONTINUOUS
 62
     7
 10
507.995726602328
 20
113.4341032020253
  0
VERTEX
  8
0
  6
CONTINUOUS
 62
     7
 10
507.9618641764989
 20
113.5518041981293
  0
VERTEX
  8
0
  6
CONTINUOUS
 62
     7
 10
507.9072215252363
 20
113.6779421286508
  0
VERTEX
  8
0
  6
CONTINUOUS
 62
     7
 10
507.8391742396524
 20
113.7911609695221
  0
VERTEX
  8
0
  6
CONTINUOUS
 62
     7
 10
507.7586117019029
 20
113.8931709496917
  0
VERTEX
  8
0
  6
CONTINUOUS
 62
     7
 10
507.6764407568829
 20
113.9752025380031
  0
VERTEX
  8
0
  6
CONTINUOUS
 62
     7
 10
507.5956248453902
 20
114.0407109310592
  0
VERTEX
  8
0
  6
CONTINUOUS
 62
     7
 10
507.4937694450785
 20
114.1071370838836
  0
SEQEND
  8
0
  6
CONTINUOUS
 62
     7
  0
ARC
  8
0
  6
CONTINUOUS
 62
     7
 10
506.250182872152
 20
111.1703400403054
 40
3.189245120640976
 50
67.04977374240315
 51
88.83447661403632
  0
LINE
  8
0
  6
CONTINUOUS
 62
     7
 10
506.315054725649
 20
114.3589253194153
 11
504.4999999999968
 21
114.4204405719876
  0
POLYLINE
  8
0
  6
CONTINUOUS
 62
     7
 66
     1
  0
VERTEX
  8
0
  6
CONTINUOUS
 62
     7
 10
482.8156983916235
 20
113.3059441899857
  0
VERTEX
  8
0
  6
CONTINUOUS
 62
     7
 10
482.795726602328
 20
113.4341032020254
  0
VERTEX
  8
0
  6
CONTINUOUS
 62
     7
 10
482.7618641764989
 20
113.5518041981294
  0
VERTEX
  8
0
  6
CONTINUOUS
 62
     7
 10
482.7072215252363
 20
113.6779421286509
  0
VERTEX
  8
0
  6
CONTINUOUS
 62
     7
 10
482.6391742396523
 20
113.7911609695222
  0
VERTEX
  8
0
  6
CONTINUOUS
 62
     7
 10
482.5586117019028
 20
113.8931709496918
  0
VERTEX
  8
0
  6
CONTINUOUS
 62
     7
 10
482.4764407568829
 20
113.9752025380032
  0
VERTEX
  8
0
  6
CONTINUOUS
 62
     7
 10
482.3956248453902
 20
114.0407109310593
  0
VERTEX
  8
0
  6
CONTINUOUS
 62
     7
 10
482.2937694450785
 20
114.1071370838836
  0
SEQEND
  8
0
  6
CONTINUOUS
 62
     7
  0
ARC
  8
0
  6
CONTINUOUS
 62
     7
 10
481.0501828721533
 20
111.1703400403096
 40
3.189245120636705
 50
67.04977374239381
 51
88.83447661404513
  0
LINE
  8
0
  6
CONTINUOUS
 62
     7
 10
481.1150547256496
 20
114.3589253194152
 11
479.2999999999968
 21
114.4204405719876
  0
POLYLINE
  8
0
  6
CONTINUOUS
 62
     7
 66
     1
  0
VERTEX
  8
0
  6
CONTINUOUS
 62
     7
 10
533.2156983916234
 20
113.3059441899856
  0
VERTEX
  8
0
  6
CONTINUOUS
 62
     7
 10
533.195726602328
 20
113.4341032020254
  0
VERTEX
  8
0
  6
CONTINUOUS
 62
     7
 10
533.1618641764989
 20
113.5518041981294
  0
VERTEX
  8
0
  6
CONTINUOUS
 62
     7
 10
533.1072215252362
 20
113.6779421286509
  0
VERTEX
  8
0
  6
CONTINUOUS
 62
     7
 10
533.0391742396524
 20
113.7911609695222
  0
VERTEX
  8
0
  6
CONTINUOUS
 62
     7
 10
532.9586117019028
 20
113.8931709496918
  0
VERTEX
  8
0
  6
CONTINUOUS
 62
     7
 10
532.8764407568829
 20
113.9752025380032
  0
VERTEX
  8
0
  6
CONTINUOUS
 62
     7
 10
532.7956248453902
 20
114.0407109310593
  0
VERTEX
  8
0
  6
CONTINUOUS
 62
     7
 10
532.6937694450784
 20
114.1071370838836
  0
SEQEND
  8
0
  6
CONTINUOUS
 62
     7
  0
ARC
  8
0
  6
CONTINUOUS
 62
     7
 10
531.4501828721536
 20
111.170340040311
 40
3.189245120635309
 50
67.04977374239036
 51
88.83447661403977
  0
LINE
  8
0
  6
CONTINUOUS
 62
     7
 10
531.5150547256502
 20
114.3589253194152
 11
529.6999999999969
 21
114.4204405719876
  0
LINE
  8
0
  6
CONTINUOUS
 62
     7
 10
425.499999999996
 20
114.4204405719876
 11
423.684945274355
 21
114.3589253194156
  0
ARC
  8
0
  6
CONTINUOUS
 62
     7
 10
423.6469092029451
 20
111.7114335042768
 40
2.6477650299744
 50
89.17689776164706
 51
116.7475199119982
  0
POLYLINE
  8
0
  6
CONTINUOUS
 62
     7
 66
     1
  0
VERTEX
  8
0
  6
CONTINUOUS
 62
     7
 10
422.4552566364806
 20
114.0758835068765
  0
VERTEX
  8
0
  6
CONTINUOUS
 62
     7
 10
422.350158059849
 20
113.9982128321949
  0
VERTEX
  8
0
  6
CONTINUOUS
 62
     7
 10
422.2670591315876
 20
113.9207815629053
  0
VERTEX
  8
0
  6
CONTINUOUS
 62
     7
 10
422.1861485912611
 20
113.8261456308989
  0
VERTEX
  8
0
  6
CONTINUOUS
 62
     7
 10
422.1135845869647
 20
113.7162206827671
  0
VERTEX
  8
0
  6
CONTINUOUS
 62
     7
 10
422.0548738844873
 20
113.5957216035613
  0
VERTEX
  8
0
  6
CONTINUOUS
 62
     7
 10
422.0141727466973
 20
113.474559461222
  0
VERTEX
  8
0
  6
CONTINUOUS
 62
     7
 10
421.9892200644325
 20
113.3497390497447
  0
VERTEX
  8
0
  6
CONTINUOUS
 62
     7
 10
421.9843016083766
 20
113.3059441899856
  0
SEQEND
  8
0
  6
CONTINUOUS
 62
     7
  0
LINE
  8
0
  6
CONTINUOUS
 62
     7
 10
450.699999999996
 20
114.4204405719876
 11
448.8849452743538
 21
114.3589253194155
  0
ARC
  8
0
  6
CONTINUOUS
 62
     7
 10
448.846909202944
 20
111.7114335042801
 40
2.647765029970999
 50
89.1768977616484
 51
116.7475199120077
  0
POLYLINE
  8
0
  6
CONTINUOUS
 62
     7
 66
     1
  0
VERTEX
  8
0
  6
CONTINUOUS
 62
     7
 10
447.6552566364805
 20
114.0758835068766
  0
VERTEX
  8
0
  6
CONTINUOUS
 62
     7
 10
447.550158059849
 20
113.9982128321949
  0
VERTEX
  8
0
  6
CONTINUOUS
 62
     7
 10
447.4670591315876
 20
113.9207815629054
  0
VERTEX
  8
0
  6
CONTINUOUS
 62
     7
 10
447.3861485912611
 20
113.826145630899
  0
VERTEX
  8
0
  6
CONTINUOUS
 62
     7
 10
447.3135845869647
 20
113.7162206827672
  0
VERTEX
  8
0
  6
CONTINUOUS
 62
     7
 10
447.2548738844874
 20
113.5957216035614
  0
VERTEX
  8
0
  6
CONTINUOUS
 62
     7
 10
447.2141727466973
 20
113.474559461222
  0
VERTEX
  8
0
  6
CONTINUOUS
 62
     7
 10
447.1892200644324
 20
113.3497390497448
  0
VERTEX
  8
0
  6
CONTINUOUS
 62
     7
 10
447.1843016083766
 20
113.3059441899856
  0
SEQEND
  8
0
  6
CONTINUOUS
 62
     7
  0
LINE
  8
0
  6
CONTINUOUS
 62
     7
 10
400.299999999996
 20
114.4204405719876
 11
398.4849452743536
 21
114.3589253194155
  0
ARC
  8
0
  6
CONTINUOUS
 62
     7
 10
398.446909202944
 20
111.71143350428
 40
2.647765029971135
 50
89.17689776165085
 51
116.7475199120056
  0
POLYLINE
  8
0
  6
CONTINUOUS
 62
     7
 66
     1
  0
VERTEX
  8
0
  6
CONTINUOUS
 62
     7
 10
397.2552566364806
 20
114.0758835068766
  0
VERTEX
  8
0
  6
CONTINUOUS
 62
     7
 10
397.150158059849
 20
113.998212832195
  0
VERTEX
  8
0
  6
CONTINUOUS
 62
     7
 10
397.0670591315877
 20
113.9207815629055
  0
VERTEX
  8
0
  6
CONTINUOUS
 62
     7
 10
396.9861485912611
 20
113.826145630899
  0
VERTEX
  8
0
  6
CONTINUOUS
 62
     7
 10
396.9135845869648
 20
113.7162206827672
  0
VERTEX
  8
0
  6
CONTINUOUS
 62
     7
 10
396.8548738844874
 20
113.5957216035614
  0
VERTEX
  8
0
  6
CONTINUOUS
 62
     7
 10
396.8141727466973
 20
113.4745594612221
  0
VERTEX
  8
0
  6
CONTINUOUS
 62
     7
 10
396.7892200644325
 20
113.3497390497448
  0
VERTEX
  8
0
  6
CONTINUOUS
 62
     7
 10
396.7843016083766
 20
113.3059441899856
  0
SEQEND
  8
0
  6
CONTINUOUS
 62
     7
  0
POLYLINE
  8
0
  6
CONTINUOUS
 62
     7
 66
     1
  0
VERTEX
  8
0
  6
CONTINUOUS
 62
     7
 10
421.984304140774
 20
266.6940534932208
  0
VERTEX
  8
0
  6
CONTINUOUS
 62
     7
 10
422.0042556445608
 20
266.5659902144011
  0
VERTEX
  8
0
  6
CONTINUOUS
 62
     7
 10
422.0380798046345
 20
266.448366729441
  0
VERTEX
  8
0
  6
CONTINUOUS
 62
     7
 10
422.0926630951195
 20
266.3222958543786
  0
VERTEX
  8
0
  6
CONTINUOUS
 62
     7
 10
422.1606444100545
 20
266.2091175262598
  0
VERTEX
  8
0
  6
CONTINUOUS
 62
     7
 10
422.241142651885
 20
266.107121794625
  0
VERTEX
  8
0
  6
CONTINUOUS
 62
     7
 10
422.3232660367145
 20
266.0250803266675
  0
VERTEX
  8
0
  6
CONTINUOUS
 62
     7
 10
422.4040565134906
 20
265.9595448631828
  0
VERTEX
  8
0
  6
CONTINUOUS
 62
     7
 10
422.5059189521261
 20
265.8930656731043
  0
SEQEND
  8
0
  6
CONTINUOUS
 62
     7
  0
ARC
  8
0
  6
CONTINUOUS
 62
     7
 10
423.750192638815
 20
268.8303276178812
 40
3.189941181216487
 50
247.0416651623188
 51
268.834989116162
  0
LINE
  8
0
  6
CONTINUOUS
 62
     7
 10
423.6853351545198
 20
265.6410458419398
 11
425.5000000000033
 21
265.5795594280124
  0
POLYLINE
  8
0
  6
CONTINUOUS
 62
     7
 66
     1
  0
VERTEX
  8
0
  6
CONTINUOUS
 62
     7
 10
447.184304140774
 20
266.6940534932208
  0
VERTEX
  8
0
  6
CONTINUOUS
 62
     7
 10
447.2042556445608
 20
266.5659902144011
  0
VERTEX
  8
0
  6
CONTINUOUS
 62
     7
 10
447.2380798046345
 20
266.448366729441
  0
VERTEX
  8
0
  6
CONTINUOUS
 62
     7
 10
447.2926630951194
 20
266.3222958543786
  0
VERTEX
  8
0
  6
CONTINUOUS
 62
     7
 10
447.3606444100545
 20
266.2091175262598
  0
VERTEX
  8
0
  6
CONTINUOUS
 62
     7
 10
447.4411426518849
 20
266.107121794625
  0
VERTEX
  8
0
  6
CONTINUOUS
 62
     7
 10
447.5232660367144
 20
266.0250803266676
  0
VERTEX
  8
0
  6
CONTINUOUS
 62
     7
 10
447.6040565134905
 20
265.9595448631828
  0
VERTEX
  8
0
  6
CONTINUOUS
 62
     7
 10
447.705918952126
 20
265.8930656731043
  0
SEQEND
  8
0
  6
CONTINUOUS
 62
     7
  0
ARC
  8
0
  6
CONTINUOUS
 62
     7
 10
448.9501926388143
 20
268.8303276178787
 40
3.18994118121393
 50
247.0416651623116
 51
268.8349891161653
  0
LINE
  8
0
  6
CONTINUOUS
 62
     7
 10
448.8853351545193
 20
265.6410458419398
 11
450.7000000000033
 21
265.5795594280124
  0
LINE
  8
0
  6
CONTINUOUS
 62
     7
 10
504.5000000000039
 20
265.5795594280124
 11
506.3146648454783
 21
265.6410458419396
  0
ARC
  8
0
  6
CONTINUOUS
 62
     7
 10
506.3528068431706
 20
268.2888963216868
 40
2.648125181158464
 50
269.174717617286
 51
296.7582609396616
  0
POLYLINE
  8
0
  6
CONTINUOUS
 62
     7
 66
     1
  0
VERTEX
  8
0
  6
CONTINUOUS
 62
     7
 10
507.5450647932357
 20
265.9243481712801
  0
VERTEX
  8
0
  6
CONTINUOUS
 62
     7
 10
507.6501460741001
 20
266.0020627975251
  0
VERTEX
  8
0
  6
CONTINUOUS
 62
     7
 10
507.7332034725351
 20
266.0795103355263
  0
VERTEX
  8
0
  6
CONTINUOUS
 62
     7
 10
507.8140546853908
 20
266.1741405082223
  0
VERTEX
  8
0
  6
CONTINUOUS
 62
     7
 10
507.8865519944326
 20
266.2840334115353
  0
VERTEX
  8
0
  6
CONTINUOUS
 62
     7
 10
507.9452008079841
 20
266.4044748414777
  0
VERTEX
  8
0
  6
CONTINUOUS
 62
     7
 10
507.9858561384168
 20
266.5255619281045
  0
VERTEX
  8
0
  6
CONTINUOUS
 62
     7
 10
508.0107816935999
 20
266.6502923964512
  0
VERTEX
  8
0
  6
CONTINUOUS
 62
     7
 10
508.015695859226
 20
266.6940534932208
  0
SEQEND
  8
0
  6
CONTINUOUS
 62
     7
  0
LINE
  8
0
  6
CONTINUOUS
 62
     7
 10
479.300000000004
 20
265.5795594280124
 11
481.1146648454793
 21
265.6410458419397
  0
ARC
  8
0
  6
CONTINUOUS
 62
     7
 10
481.1528068431714
 20
268.2888963216844
 40
2.648125181155991
 50
269.1747176172884
 51
296.7582609396709
  0
POLYLINE
  8
0
  6
CONTINUOUS
 62
     7
 66
     1
  0
VERTEX
  8
0
  6
CONTINUOUS
 62
     7
 10
482.3450647932358
 20
265.9243481712801
  0
VERTEX
  8
0
  6
CONTINUOUS
 62
     7
 10
482.4501460741001
 20
266.0020627975251
  0
VERTEX
  8
0
  6
CONTINUOUS
 62
     7
 10
482.5332034725351
 20
266.0795103355264
  0
VERTEX
  8
0
  6
CONTINUOUS
 62
     7
 10
482.6140546853908
 20
266.1741405082222
  0
VERTEX
  8
0
  6
CONTINUOUS
 62
     7
 10
482.6865519944327
 20
266.2840334115353
  0
VERTEX
  8
0
  6
CONTINUOUS
 62
     7
 10
482.7452008079841
 20
266.4044748414777
  0
VERTEX
  8
0
  6
CONTINUOUS
 62
     7
 10
482.7858561384168
 20
266.5255619281045
  0
VERTEX
  8
0
  6
CONTINUOUS
 62
     7
 10
482.8107816935999
 20
266.6502923964512
  0
VERTEX
  8
0
  6
CONTINUOUS
 62
     7
 10
482.815695859226
 20
266.6940534932208
  0
SEQEND
  8
0
  6
CONTINUOUS
 62
     7
  0
POLYLINE
  8
0
  6
CONTINUOUS
 62
     7
 66
     1
  0
VERTEX
  8
0
  6
CONTINUOUS
 62
     7
 10
396.7843041407739
 20
266.6940534932208
  0
VERTEX
  8
0
  6
CONTINUOUS
 62
     7
 10
396.8042556445607
 20
266.5659902144011
  0
VERTEX
  8
0
  6
CONTINUOUS
 62
     7
 10
396.8380798046343
 20
266.448366729441
  0
VERTEX
  8
0
  6
CONTINUOUS
 62
     7
 10
396.8926630951192
 20
266.3222958543787
  0
VERTEX
  8
0
  6
CONTINUOUS
 62
     7
 10
396.9606444100543
 20
266.2091175262598
  0
VERTEX
  8
0
  6
CONTINUOUS
 62
     7
 10
397.0411426518846
 20
266.107121794625
  0
VERTEX
  8
0
  6
CONTINUOUS
 62
     7
 10
397.123266036714
 20
266.0250803266676
  0
VERTEX
  8
0
  6
CONTINUOUS
 62
     7
 10
397.2040565134901
 20
265.9595448631828
  0
VERTEX
  8
0
  6
CONTINUOUS
 62
     7
 10
397.3059189521253
 20
265.8930656731044
  0
SEQEND
  8
0
  6
CONTINUOUS
 62
     7
  0
ARC
  8
0
  6
CONTINUOUS
 62
     7
 10
398.5501926388076
 20
268.8303276178555
 40
3.18994118119026
 50
247.041665162248
 51
268.8349891161659
  0
LINE
  8
0
  6
CONTINUOUS
 62
     7
 10
398.4853351545132
 20
265.6410458419404
 11
400.3000000000033
 21
265.5795594280124
  0
LINE
  8
0
  6
CONTINUOUS
 62
     7
 10
529.7000000000039
 20
265.5795594280124
 11
531.5146648454853
 21
265.6410458419401
  0
ARC
  8
0
  6
CONTINUOUS
 62
     7
 10
531.5528068431776
 20
268.288896321665
 40
2.648125181136055
 50
269.174717617276
 51
296.7582609397504
  0
POLYLINE
  8
0
  6
CONTINUOUS
 62
     7
 66
     1
  0
VERTEX
  8
0
  6
CONTINUOUS
 62
     7
 10
532.7450647932363
 20
265.9243481712801
  0
VERTEX
  8
0
  6
CONTINUOUS
 62
     7
 10
532.8501460741005
 20
266.0020627975251
  0
VERTEX
  8
0
  6
CONTINUOUS
 62
     7
 10
532.9332034725354
 20
266.0795103355263
  0
VERTEX
  8
0
  6
CONTINUOUS
 62
     7
 10
533.014054685391
 20
266.1741405082222
  0
VERTEX
  8
0
  6
CONTINUOUS
 62
     7
 10
533.0865519944329
 20
266.2840334115353
  0
VERTEX
  8
0
  6
CONTINUOUS
 62
     7
 10
533.1452008079843
 20
266.4044748414777
  0
VERTEX
  8
0
  6
CONTINUOUS
 62
     7
 10
533.1858561384169
 20
266.5255619281044
  0
VERTEX
  8
0
  6
CONTINUOUS
 62
     7
 10
533.2107816936
 20
266.6502923964512
  0
VERTEX
  8
0
  6
CONTINUOUS
 62
     7
 10
533.2156958592261
 20
266.6940534932208
  0
SEQEND
  8
0
  6
CONTINUOUS
 62
     7
  0
POLYLINE
  8
0
  6
CONTINUOUS
 62
     7
 66
     1
  0
VERTEX
  8
0
  6
CONTINUOUS
 62
     7
 10
457.2306434519265
 20
113.2832907927048
  0
VERTEX
  8
0
  6
CONTINUOUS
 62
     7
 10
457.2104455639724
 20
113.4217938445482
  0
VERTEX
  8
0
  6
CONTINUOUS
 62
     7
 10
457.174618016744
 20
113.5473859808916
  0
VERTEX
  8
0
  6
CONTINUOUS
 62
     7
 10
457.1214694351803
 20
113.6705733333888
  0
VERTEX
  8
0
  6
CONTINUOUS
 62
     7
 10
457.055998128009
 20
113.7811361800972
  0
VERTEX
  8
0
  6
CONTINUOUS
 62
     7
 10
456.9800630865416
 20
113.8797943855602
  0
SEQEND
  8
0
  6
CONTINUOUS
 62
     7
  0
ARC
  8
0
  6
CONTINUOUS
 62
     7
 10
456.1511048724315
 20
113.1548567611554
 40
1.101229440225027
 50
41.17023103282759
 51
68.94150174769463
  0
ARC
  8
0
  6
CONTINUOUS
 62
     7
 10
455.3822499217132
 20
110.4763177650756
 40
3.884875289011227
 50
72.5565093753912
 51
88.07524442382213
  0
LINE
  8
0
  6
CONTINUOUS
 62
     7
 10
455.5127312437779
 20
114.3590011974149
 11
453.6999999999962
 21
114.4204405719876
  0
POLYLINE
  8
0
  6
CONTINUOUS
 62
     7
 66
     1
  0
VERTEX
  8
0
  6
CONTINUOUS
 62
     7
 10
432.0306434519266
 20
113.2832907927048
  0
VERTEX
  8
0
  6
CONTINUOUS
 62
     7
 10
432.0104455639724
 20
113.4217938445483
  0
VERTEX
  8
0
  6
CONTINUOUS
 62
     7
 10
431.974618016744
 20
113.5473859808918
  0
VERTEX
  8
0
  6
CONTINUOUS
 62
     7
 10
431.9214694351801
 20
113.670573333389
  0
VERTEX
  8
0
  6
CONTINUOUS
 62
     7
 10
431.8559981280089
 20
113.7811361800974
  0
VERTEX
  8
0
  6
CONTINUOUS
 62
     7
 10
431.7800630865413
 20
113.8797943855605
  0
SEQEND
  8
0
  6
CONTINUOUS
 62
     7
  0
ARC
  8
0
  6
CONTINUOUS
 62
     7
 10
430.951104872431
 20
113.1548567611547
 40
1.101229440225839
 50
41.17023103286162
 51
68.94150174770932
  0
ARC
  8
0
  6
CONTINUOUS
 62
     7
 10
430.1822499217124
 20
110.4763177650706
 40
3.884875289016306
 50
72.55650937540817
 51
88.07524442380506
  0
LINE
  8
0
  6
CONTINUOUS
 62
     7
 10
430.3127312437784
 20
114.3590011974149
 11
428.4999999999962
 21
114.4204405719876
  0
POLYLINE
  8
0
  6
CONTINUOUS
 62
     7
 66
     1
  0
VERTEX
  8
0
  6
CONTINUOUS
 62
     7
 10
406.8306434519266
 20
113.2832907927048
  0
VERTEX
  8
0
  6
CONTINUOUS
 62
     7
 10
406.8104455639724
 20
113.4217938445483
  0
VERTEX
  8
0
  6
CONTINUOUS
 62
     7
 10
406.7746180167439
 20
113.5473859808918
  0
VERTEX
  8
0
  6
CONTINUOUS
 62
     7
 10
406.7214694351801
 20
113.6705733333891
  0
VERTEX
  8
0
  6
CONTINUOUS
 62
     7
 10
406.6559981280088
 20
113.7811361800974
  0
VERTEX
  8
0
  6
CONTINUOUS
 62
     7
 10
406.5800630865413
 20
113.8797943855606
  0
SEQEND
  8
0
  6
CONTINUOUS
 62
     7
  0
ARC
  8
0
  6
CONTINUOUS
 62
     7
 10
405.7511048724313
 20
113.1548567611551
 40
1.101229440225324
 50
41.17023103285626
 51
68.9415017477171
  0
ARC
  8
0
  6
CONTINUOUS
 62
     7
 10
404.9822499217128
 20
110.4763177650724
 40
3.884875289014395
 50
72.55650937540639
 51
88.07524442380307
  0
LINE
  8
0
  6
CONTINUOUS
 62
     7
 10
405.1127312437789
 20
114.3590011974149
 11
403.2999999999962
 21
114.4204405719876
  0
LINE
  8
0
  6
CONTINUOUS
 62
     7
 10
476.2999999999966
 20
114.4204405719876
 11
474.5007653104125
 21
114.3602404971616
  0
ARC
  8
0
  6
CONTINUOUS
 62
     7
 10
474.5044316277351
 20
111.3690684972228
 40
2.991174246863624
 50
90.07022812588036
 51
113.6058657776475
  0
POLYLINE
  8
0
  6
CONTINUOUS
 62
     7
 66
     1
  0
VERTEX
  8
0
  6
CONTINUOUS
 62
     7
 10
473.3066373022871
 20
114.1099464822898
  0
VERTEX
  8
0
  6
CONTINUOUS
 62
     7
 10
473.1921101789543
 20
114.0357634738512
  0
VERTEX
  8
0
  6
CONTINUOUS
 62
     7
 10
473.0918796074455
 20
113.9521889688018
  0
VERTEX
  8
0
  6
CONTINUOUS
 62
     7
 10
473.0218153172372
 20
113.8796746913799
  0
VERTEX
  8
0
  6
CONTINUOUS
 62
     7
 10
472.9422506411391
 20
113.7768265758323
  0
VERTEX
  8
0
  6
CONTINUOUS
 62
     7
 10
472.8747181071147
 20
113.6618724320575
  0
VERTEX
  8
0
  6
CONTINUOUS
 62
     7
 10
472.8207102967538
 20
113.5332978786373
  0
VERTEX
  8
0
  6
CONTINUOUS
 62
     7
 10
472.7878606497655
 20
113.4135242784417
  0
VERTEX
  8
0
  6
CONTINUOUS
 62
     7
 10
472.7693565480747
 20
113.2832907927102
  0
SEQEND
  8
0
  6
CONTINUOUS
 62
     7
  0
LINE
  8
0
  6
CONTINUOUS
 62
     7
 10
501.4999999999966
 20
114.4204405719876
 11
499.7007653104129
 21
114.3602404971616
  0
ARC
  8
0
  6
CONTINUOUS
 62
     7
 10
499.7044316277357
 20
111.3690684972211
 40
2.991174246865401
 50
90.07022812588473
 51
113.6058657776471
  0
POLYLINE
  8
0
  6
CONTINUOUS
 62
     7
 66
     1
  0
VERTEX
  8
0
  6
CONTINUOUS
 62
     7
 10
498.5066373022871
 20
114.1099464822897
  0
VERTEX
  8
0
  6
CONTINUOUS
 62
     7
 10
498.3921101789542
 20
114.0357634738511
  0
VERTEX
  8
0
  6
CONTINUOUS
 62
     7
 10
498.2918796074455
 20
113.9521889688017
  0
VERTEX
  8
0
  6
CONTINUOUS
 62
     7
 10
498.2218153172372
 20
113.8796746913798
  0
VERTEX
  8
0
  6
CONTINUOUS
 62
     7
 10
498.142250641139
 20
113.7768265758322
  0
VERTEX
  8
0
  6
CONTINUOUS
 62
     7
 10
498.0747181071147
 20
113.6618724320574
  0
VERTEX
  8
0
  6
CONTINUOUS
 62
     7
 10
498.0207102967538
 20
113.5332978786372
  0
VERTEX
  8
0
  6
CONTINUOUS
 62
     7
 10
497.9878606497656
 20
113.4135242784417
  0
VERTEX
  8
0
  6
CONTINUOUS
 62
     7
 10
497.9693565480747
 20
113.2832907927102
  0
SEQEND
  8
0
  6
CONTINUOUS
 62
     7
  0
LINE
  8
0
  6
CONTINUOUS
 62
     7
 10
526.6999999999966
 20
114.4204405719876
 11
524.9007653104128
 21
114.3602404971616
  0
ARC
  8
0
  6
CONTINUOUS
 62
     7
 10
524.9044316277358
 20
111.3690684972207
 40
2.991174246865832
 50
90.07022812588738
 51
113.6058657776447
  0
POLYLINE
  8
0
  6
CONTINUOUS
 62
     7
 66
     1
  0
VERTEX
  8
0
  6
CONTINUOUS
 62
     7
 10
523.706637302287
 20
114.1099464822897
  0
VERTEX
  8
0
  6
CONTINUOUS
 62
     7
 10
523.5921101789543
 20
114.0357634738511
  0
VERTEX
  8
0
  6
CONTINUOUS
 62
     7
 10
523.4918796074454
 20
113.9521889688017
  0
VERTEX
  8
0
  6
CONTINUOUS
 62
     7
 10
523.4218153172371
 20
113.8796746913798
  0
VERTEX
  8
0
  6
CONTINUOUS
 62
     7
 10
523.342250641139
 20
113.7768265758322
  0
VERTEX
  8
0
  6
CONTINUOUS
 62
     7
 10
523.2747181071147
 20
113.6618724320574
  0
VERTEX
  8
0
  6
CONTINUOUS
 62
     7
 10
523.2207102967537
 20
113.5332978786372
  0
VERTEX
  8
0
  6
CONTINUOUS
 62
     7
 10
523.1878606497655
 20
113.4135242784417
  0
VERTEX
  8
0
  6
CONTINUOUS
 62
     7
 10
523.1693565480747
 20
113.2832907927102
  0
SEQEND
  8
0
  6
CONTINUOUS
 62
     7
  0
POLYLINE
  8
0
  6
CONTINUOUS
 62
     7
 66
     1
  0
VERTEX
  8
0
  6
CONTINUOUS
 62
     7
 10
523.1693226556125
 20
266.716861247325
  0
VERTEX
  8
0
  6
CONTINUOUS
 62
     7
 10
523.1893805057962
 20
266.578855390818
  0
VERTEX
  8
0
  6
CONTINUOUS
 62
     7
 10
523.2249593701298
 20
266.453681064368
  0
VERTEX
  8
0
  6
CONTINUOUS
 62
     7
 10
523.2777493218332
 20
266.3308534975859
  0
VERTEX
  8
0
  6
CONTINUOUS
 62
     7
 10
523.3427986256254
 20
266.2205505965037
  0
VERTEX
  8
0
  6
CONTINUOUS
 62
     7
 10
523.4182743211327
 20
266.1220510006436
  0
SEQEND
  8
0
  6
CONTINUOUS
 62
     7
  0
ARC
  8
0
  6
CONTINUOUS
 62
     7
 10
524.248226232181
 20
266.8444351499706
 40
1.100299520063236
 50
221.0360757501833
 51
248.8287399412895
  0
ARC
  8
0
  6
CONTINUOUS
 62
     7
 10
525.0153033543312
 20
269.5056413765961
 40
3.866743994864923
 50
252.4735002476461
 51
268.0977000715005
  0
LINE
  8
0
  6
CONTINUOUS
 62
     7
 10
524.8869456366106
 20
265.6410284052722
 11
526.7000000000038
 21
265.5795594280124
  0
POLYLINE
  8
0
  6
CONTINUOUS
 62
     7
 66
     1
  0
VERTEX
  8
0
  6
CONTINUOUS
 62
     7
 10
497.9693226556125
 20
266.7168612473251
  0
VERTEX
  8
0
  6
CONTINUOUS
 62
     7
 10
497.9893805057962
 20
266.578855390818
  0
VERTEX
  8
0
  6
CONTINUOUS
 62
     7
 10
498.0249593701297
 20
266.4536810643679
  0
VERTEX
  8
0
  6
CONTINUOUS
 62
     7
 10
498.0777493218332
 20
266.3308534975859
  0
VERTEX
  8
0
  6
CONTINUOUS
 62
     7
 10
498.1427986256253
 20
266.2205505965036
  0
VERTEX
  8
0
  6
CONTINUOUS
 62
     7
 10
498.2182743211328
 20
266.1220510006436
  0
SEQEND
  8
0
  6
CONTINUOUS
 62
     7
  0
ARC
  8
0
  6
CONTINUOUS
 62
     7
 10
499.0482262321811
 20
266.8444351499709
 40
1.100299520063496
 50
221.0360757501878
 51
248.8287399412843
  0
ARC
  8
0
  6
CONTINUOUS
 62
     7
 10
499.8153033543314
 20
269.5056413765964
 40
3.866743994865224
 50
252.4735002476443
 51
268.0977000715081
  0
LINE
  8
0
  6
CONTINUOUS
 62
     7
 10
499.6869456366113
 20
265.6410284052722
 11
501.5000000000038
 21
265.5795594280124
  0
POLYLINE
  8
0
  6
CONTINUOUS
 62
     7
 66
     1
  0
VERTEX
  8
0
  6
CONTINUOUS
 62
     7
 10
472.7693226556125
 20
266.716861247325
  0
VERTEX
  8
0
  6
CONTINUOUS
 62
     7
 10
472.7893805057962
 20
266.5788553908181
  0
VERTEX
  8
0
  6
CONTINUOUS
 62
     7
 10
472.8249593701297
 20
266.453681064368
  0
VERTEX
  8
0
  6
CONTINUOUS
 62
     7
 10
472.8777493218331
 20
266.330853497586
  0
VERTEX
  8
0
  6
CONTINUOUS
 62
     7
 10
472.9427986256252
 20
266.2205505965038
  0
VERTEX
  8
0
  6
CONTINUOUS
 62
     7
 10
473.0182743211327
 20
266.1220510006438
  0
SEQEND
  8
0
  6
CONTINUOUS
 62
     7
  0
ARC
  8
0
  6
CONTINUOUS
 62
     7
 10
473.8482262321808
 20
266.8444351499704
 40
1.100299520062972
 50
221.0360757501637
 51
248.8287399412868
  0
ARC
  8
0
  6
CONTINUOUS
 62
     7
 10
474.61530335433
 20
269.505641376591
 40
3.866743994859744
 50
252.4735002476392
 51
268.0977000715002
  0
LINE
  8
0
  6
CONTINUOUS
 62
     7
 10
474.4869456366095
 20
265.6410284052723
 11
476.3000000000039
 21
265.5795594280124
  0
LINE
  8
0
  6
CONTINUOUS
 62
     7
 10
428.5000000000034
 20
265.5795594280124
 11
430.2997796729314
 21
265.6398021465129
  0
ARC
  8
0
  6
CONTINUOUS
 62
     7
 10
430.2964158462873
 20
268.6283464480618
 40
2.988546194665568
 50
270.0644905910302
 51
293.6033371252537
  0
POLYLINE
  8
0
  6
CONTINUOUS
 62
     7
 66
     1
  0
VERTEX
  8
0
  6
CONTINUOUS
 62
     7
 10
431.4930369281324
 20
265.8898237908369
  0
VERTEX
  8
0
  6
CONTINUOUS
 62
     7
 10
431.6074825541477
 20
265.9638882075315
  0
VERTEX
  8
0
  6
CONTINUOUS
 62
     7
 10
431.7077412210226
 20
266.0474024486698
  0
VERTEX
  8
0
  6
CONTINUOUS
 62
     7
 10
431.7778647443715
 20
266.1199051001914
  0
VERTEX
  8
0
  6
CONTINUOUS
 62
     7
 10
431.8575275704465
 20
266.2227822995691
  0
VERTEX
  8
0
  6
CONTINUOUS
 62
     7
 10
431.9251634003909
 20
266.3378151713181
  0
VERTEX
  8
0
  6
CONTINUOUS
 62
     7
 10
431.9792610239411
 20
266.4665195261211
  0
VERTEX
  8
0
  6
CONTINUOUS
 62
     7
 10
432.0121610436273
 20
266.5864428158962
  0
VERTEX
  8
0
  6
CONTINUOUS
 62
     7
 10
432.0306773443864
 20
266.7168612473199
  0
SEQEND
  8
0
  6
CONTINUOUS
 62
     7
  0
LINE
  8
0
  6
CONTINUOUS
 62
     7
 10
403.3000000000034
 20
265.5795594280124
 11
405.0997796729308
 21
265.6398021465128
  0
ARC
  8
0
  6
CONTINUOUS
 62
     7
 10
405.0964158462872
 20
268.628346448062
 40
2.988546194665818
 50
270.0644905910219
 51
293.6033371252553
  0
POLYLINE
  8
0
  6
CONTINUOUS
 62
     7
 66
     1
  0
VERTEX
  8
0
  6
CONTINUOUS
 62
     7
 10
406.2930369281324
 20
265.8898237908369
  0
VERTEX
  8
0
  6
CONTINUOUS
 62
     7
 10
406.4074825541477
 20
265.9638882075316
  0
VERTEX
  8
0
  6
CONTINUOUS
 62
     7
 10
406.5077412210227
 20
266.0474024486698
  0
VERTEX
  8
0
  6
CONTINUOUS
 62
     7
 10
406.5778647443715
 20
266.1199051001914
  0
VERTEX
  8
0
  6
CONTINUOUS
 62
     7
 10
406.6575275704465
 20
266.2227822995691
  0
VERTEX
  8
0
  6
CONTINUOUS
 62
     7
 10
406.725163400391
 20
266.3378151713181
  0
VERTEX
  8
0
  6
CONTINUOUS
 62
     7
 10
406.7792610239411
 20
266.4665195261212
  0
VERTEX
  8
0
  6
CONTINUOUS
 62
     7
 10
406.8121610436273
 20
266.5864428158962
  0
VERTEX
  8
0
  6
CONTINUOUS
 62
     7
 10
406.8306773443864
 20
266.7168612473199
  0
SEQEND
  8
0
  6
CONTINUOUS
 62
     7
  0
LINE
  8
0
  6
CONTINUOUS
 62
     7
 10
453.7000000000034
 20
265.5795594280124
 11
455.4997796729314
 21
265.6398021465129
  0
ARC
  8
0
  6
CONTINUOUS
 62
     7
 10
455.4964158462881
 20
268.6283464480582
 40
2.988546194662001
 50
270.0644905910139
 51
293.6033371252727
  0
POLYLINE
  8
0
  6
CONTINUOUS
 62
     7
 66
     1
  0
VERTEX
  8
0
  6
CONTINUOUS
 62
     7
 10
456.6930369281326
 20
265.889823790837
  0
VERTEX
  8
0
  6
CONTINUOUS
 62
     7
 10
456.807482554148
 20
265.9638882075317
  0
VERTEX
  8
0
  6
CONTINUOUS
 62
     7
 10
456.9077412210228
 20
266.04740244867
  0
VERTEX
  8
0
  6
CONTINUOUS
 62
     7
 10
456.9778647443717
 20
266.1199051001916
  0
VERTEX
  8
0
  6
CONTINUOUS
 62
     7
 10
457.0575275704467
 20
266.2227822995692
  0
VERTEX
  8
0
  6
CONTINUOUS
 62
     7
 10
457.125163400391
 20
266.3378151713183
  0
VERTEX
  8
0
  6
CONTINUOUS
 62
     7
 10
457.1792610239412
 20
266.4665195261213
  0
VERTEX
  8
0
  6
CONTINUOUS
 62
     7
 10
457.2121610436273
 20
266.5864428158963
  0
VERTEX
  8
0
  6
CONTINUOUS
 62
     7
 10
457.2306773443864
 20
266.71686124732
  0
SEQEND
  8
0
  6
CONTINUOUS
 62
     7
  0
LINE
  8
0
  6
CONTINUOUS
 62
     7
 10
508.0709207714816
 20
112.713988627218
 11
508.0310055059881
 21
113.2826212207597
  0
LINE
  8
0
  6
CONTINUOUS
 62
     7
 10
482.8709207714817
 20
112.713988627218
 11
482.8310055059882
 21
113.2826212207597
  0
LINE
  8
0
  6
CONTINUOUS
 62
     7
 10
533.2709207714817
 20
112.7139886272179
 11
533.2310055059882
 21
113.2826212207597
  0
LINE
  8
0
  6
CONTINUOUS
 62
     7
 10
421.9689944940118
 20
113.2826212207596
 11
421.9290792285183
 21
112.713988627218
  0
LINE
  8
0
  6
CONTINUOUS
 62
     7
 10
447.1689944940119
 20
113.2826212207597
 11
447.1290792285184
 21
112.7139886272179
  0
LINE
  8
0
  6
CONTINUOUS
 62
     7
 10
396.7689944940118
 20
113.2826212207597
 11
396.7290792285183
 21
112.7139886272179
  0
LINE
  8
0
  6
CONTINUOUS
 62
     7
 10
421.9290790486329
 20
267.2860139354288
 11
421.9689945003101
 21
266.7173786895152
  0
LINE
  8
0
  6
CONTINUOUS
 62
     7
 10
447.1290790486329
 20
267.2860139354287
 11
447.1689945003101
 21
266.7173786895152
  0
LINE
  8
0
  6
CONTINUOUS
 62
     7
 10
508.0310054996899
 20
266.7173786895151
 11
508.070920951367
 21
267.2860139354287
  0
LINE
  8
0
  6
CONTINUOUS
 62
     7
 10
482.8310054996899
 20
266.717378689515
 11
482.8709209513671
 21
267.2860139354287
  0
LINE
  8
0
  6
CONTINUOUS
 62
     7
 10
396.729079048633
 20
267.2860139354286
 11
396.7689945003102
 21
266.7173786895151
  0
LINE
  8
0
  6
CONTINUOUS
 62
     7
 10
533.2310054996899
 20
266.717378689515
 11
533.2709209513671
 21
267.2860139354287
  0
LINE
  8
0
  6
CONTINUOUS
 62
     7
 10
457.2709207715624
 20
112.7139886260676
 11
457.231005492449
 21
113.2826214136382
  0
LINE
  8
0
  6
CONTINUOUS
 62
     7
 10
432.0709207715624
 20
112.7139886260677
 11
432.031005492449
 21
113.2826214136382
  0
LINE
  8
0
  6
CONTINUOUS
 62
     7
 10
406.8709207715625
 20
112.7139886260676
 11
406.831005492449
 21
113.2826214136383
  0
LINE
  8
0
  6
CONTINUOUS
 62
     7
 10
472.768994507551
 20
113.2826214136383
 11
472.7290792284376
 21
112.7139886260676
  0
LINE
  8
0
  6
CONTINUOUS
 62
     7
 10
497.968994507551
 20
113.2826214136384
 11
497.9290792284376
 21
112.7139886260676
  0
LINE
  8
0
  6
CONTINUOUS
 62
     7
 10
523.168994507551
 20
113.2826214136383
 11
523.1290792284376
 21
112.7139886260676
  0
LINE
  8
0
  6
CONTINUOUS
 62
     7
 10
523.1290790485382
 20
267.2860139367777
 11
523.1689945161891
 21
266.7173784633046
  0
LINE
  8
0
  6
CONTINUOUS
 62
     7
 10
497.9290790485382
 20
267.2860139367778
 11
497.968994516189
 21
266.7173784633046
  0
LINE
  8
0
  6
CONTINUOUS
 62
     7
 10
472.7290790485382
 20
267.2860139367779
 11
472.768994516189
 21
266.7173784633045
  0
LINE
  8
0
  6
CONTINUOUS
 62
     7
 10
432.0310054838109
 20
266.7173784633033
 11
432.0709209514617
 21
267.2860139367779
  0
LINE
  8
0
  6
CONTINUOUS
 62
     7
 10
406.8310054838109
 20
266.7173784633034
 11
406.8709209514618
 21
267.2860139367779
  0
LINE
  8
0
  6
CONTINUOUS
 62
     7
 10
457.2310054838109
 20
266.7173784633034
 11
457.2709209514617
 21
267.2860139367779
  0
LINE
  8
0
  6
CONTINUOUS
 62
     7
 10
425.5000000000052
 20
265.5702394421904
 11
428.5000000000053
 21
265.5702394421904
  0
LINE
  8
0
  6
CONTINUOUS
 62
     7
 10
526.7000000000057
 20
265.5702394421904
 11
529.7000000000058
 21
265.5702394421904
  0
LINE
  8
0
  6
CONTINUOUS
 62
     7
 10
501.5000000000057
 20
265.5702394421904
 11
504.5000000000058
 21
265.5702394421904
  0
LINE
  8
0
  6
CONTINUOUS
 62
     7
 10
476.3000000000058
 20
265.5702394421904
 11
479.3000000000059
 21
265.5702394421904
  0
LINE
  8
0
  6
CONTINUOUS
 62
     7
 10
400.3000000000052
 20
265.5702394421904
 11
403.3000000000052
 21
265.5702394421904
  0
LINE
  8
0
  6
CONTINUOUS
 62
     7
 10
450.7000000000052
 20
265.5702394421904
 11
453.7000000000053
 21
265.5702394421904
  0
LINE
  8
0
  6
CONTINUOUS
 62
     7
 10
504.4999999999949
 20
114.4297605578096
 11
501.4999999999947
 21
114.4297605578096
  0
LINE
  8
0
  6
CONTINUOUS
 62
     7
 10
428.4999999999944
 20
114.4297605578096
 11
425.4999999999941
 21
114.4297605578096
  0
LINE
  8
0
  6
CONTINUOUS
 62
     7
 10
479.299999999995
 20
114.4297605578096
 11
476.2999999999947
 21
114.4297605578096
  0
LINE
  8
0
  6
CONTINUOUS
 62
     7
 10
529.6999999999949
 20
114.4297605578096
 11
526.6999999999947
 21
114.4297605578096
  0
LINE
  8
0
  6
CONTINUOUS
 62
     7
 10
403.2999999999944
 20
114.4297605578096
 11
400.2999999999942
 21
114.4297605578096
  0
LINE
  8
0
  6
CONTINUOUS
 62
     7
 10
453.6999999999944
 20
114.4297605578096
 11
450.6999999999942
 21
114.4297605578096
  0
ENDBLK
  8
0
  0
BLOCK
  8
0
  2
D_FRAME_VIEW_2285
 70
     0
 10
0.0
 20
0.0
  0
LINE
  8
0
  6
CONTINUOUS
 62
     7
 10
561.5
 20
-5.750000000000014
 11
465.0
 21
-5.750000000000012
  0
LINE
  8
0
  6
CONTINUOUS
 62
     7
 10
561.5
 20
-6.250000000000014
 11
368.5000000000001
 21
-6.250000000000014
  0
LINE
  8
0
  6
CONTINUOUS
 62
     7
 10
465.0
 20
-5.750000000000012
 11
368.5000000000001
 21
-5.750000000000014
  0
LINE
  8
0
  6
CONTINUOUS
 62
     7
 10
567.5
 20
-5.750000000000008
 11
567.5
 21
-6.250000000000008
  0
LINE
  8
0
  6
CONTINUOUS
 62
     7
 10
561.5
 20
-5.750000000000008
 11
567.5
 21
-5.750000000000008
  0
LINE
  8
0
  6
CONTINUOUS
 62
     7
 10
567.5
 20
-6.250000000000008
 11
561.5
 21
-6.250000000000008
  0
LINE
  8
0
  6
CONTINUOUS
 62
     7
 10
362.5000000000001
 20
-6.250000000000008
 11
362.5000000000001
 21
-5.750000000000008
  0
LINE
  8
0
  6
CONTINUOUS
 62
     7
 10
368.5000000000001
 20
-6.250000000000008
 11
362.5000000000001
 21
-6.250000000000008
  0
LINE
  8
0
  6
CONTINUOUS
 62
     7
 10
362.5000000000001
 20
-5.750000000000008
 11
368.5000000000001
 21
-5.750000000000008
  0
LINE
  8
0
  6
CONTINUOUS
 62
     7
 10
440.6
 20
-8.901377029009373
 11
440.6
 21
-6.25000000000001
  0
LINE
  8
0
  6
CONTINUOUS
 62
     7
 10
438.6
 20
-6.25000000000001
 11
438.6
 21
-8.901377029009373
  0
LINE
  8
0
  6
CONTINUOUS
 62
     7
 10
466.0
 20
-8.901377029009373
 11
466.0
 21
-6.25000000000001
  0
LINE
  8
0
  6
CONTINUOUS
 62
     7
 10
491.4
 20
-8.901377029009373
 11
491.4
 21
-6.25000000000001
  0
LINE
  8
0
  6
CONTINUOUS
 62
     7
 10
539.8000000000001
 20
-6.250000000000012
 11
539.8000000000001
 21
-8.901377029009373
  0
LINE
  8
0
  6
CONTINUOUS
 62
     7
 10
390.2
 20
-8.901377029009373
 11
390.2
 21
-6.25000000000001
  0
LINE
  8
0
  6
CONTINUOUS
 62
     7
 10
388.2
 20
-6.25000000000001
 11
388.2
 21
-8.901377029009373
  0
LINE
  8
0
  6
CONTINUOUS
 62
     7
 10
541.8000000000001
 20
-8.901377029009373
 11
541.8000000000001
 21
-6.25000000000001
  0
LINE
  8
0
  6
CONTINUOUS
 62
     7
 10
415.4
 20
-8.901377029009373
 11
415.4
 21
-6.25000000000001
  0
LINE
  8
0
  6
CONTINUOUS
 62
     7
 10
516.6
 20
-8.901377029009373
 11
516.6
 21
-6.25000000000001
  0
LINE
  8
0
  6
CONTINUOUS
 62
     7
 10
464.0
 20
-6.25000000000001
 11
464.0
 21
-8.901377029009373
  0
LINE
  8
0
  6
CONTINUOUS
 62
     7
 10
514.6
 20
-6.250000000000012
 11
514.6
 21
-8.901377029009373
  0
LINE
  8
0
  6
CONTINUOUS
 62
     7
 10
489.4
 20
-6.250000000000012
 11
489.4
 21
-8.901377029009373
  0
LINE
  8
0
  6
CONTINUOUS
 62
     7
 10
413.4
 20
-6.25000000000001
 11
413.4
 21
-8.901377029009373
  0
LINE
  8
0
  6
CONTINUOUS
 62
     7
 10
541.8000000000001
 20
-8.901377029009375
 11
541.8000000000001
 21
-40.25000000000001
  0
LINE
  8
0
  6
CONTINUOUS
 62
     7
 10
438.6
 20
-40.25000000000001
 11
438.6
 21
-8.901377029009373
  0
LINE
  8
0
  6
CONTINUOUS
 62
     7
 10
516.6
 20
-8.901377029009375
 11
516.6
 21
-40.25000000000001
  0
LINE
  8
0
  6
CONTINUOUS
 62
     7
 10
514.6
 20
-40.25000000000001
 11
514.6
 21
-8.901377029009373
  0
LINE
  8
0
  6
CONTINUOUS
 62
     7
 10
415.4
 20
-8.901377029009371
 11
415.4
 21
-40.25000000000001
  0
LINE
  8
0
  6
CONTINUOUS
 62
     7
 10
413.4
 20
-40.25000000000001
 11
413.4
 21
-8.901377029009373
  0
LINE
  8
0
  6
CONTINUOUS
 62
     7
 10
388.2
 20
-40.25000000000001
 11
388.2
 21
-8.901377029009373
  0
LINE
  8
0
  6
CONTINUOUS
 62
     7
 10
466.0
 20
-8.901377029009371
 11
466.0
 21
-40.25000000000001
  0
LINE
  8
0
  6
CONTINUOUS
 62
     7
 10
489.4
 20
-40.25000000000001
 11
489.4
 21
-8.901377029009373
  0
LINE
  8
0
  6
CONTINUOUS
 62
     7
 10
539.8000000000001
 20
-40.25000000000001
 11
539.8000000000001
 21
-8.901377029009373
  0
LINE
  8
0
  6
CONTINUOUS
 62
     7
 10
464.0
 20
-40.25000000000001
 11
464.0
 21
-8.901377029009373
  0
LINE
  8
0
  6
CONTINUOUS
 62
     7
 10
390.2
 20
-8.901377029009371
 11
390.2
 21
-40.25000000000001
  0
LINE
  8
0
  6
CONTINUOUS
 62
     7
 10
440.6
 20
-8.901377029009371
 11
440.6
 21
-40.25000000000001
  0
LINE
  8
0
  6
CONTINUOUS
 62
     7
 10
491.4
 20
-8.901377029009375
 11
491.4
 21
-40.25000000000001
  0
LINE
  8
0
  6
CONTINUOUS
 62
     7
 10
385.0000000000001
 20
-41.92861624046035
 11
544.9999999999999
 21
-41.92861624046034
  0
LINE
  8
0
  6
CONTINUOUS
 62
     7
 10
548.0
 20
-6.250000000000012
 11
548.0
 21
-42.10339106445979
  0
ARC
  8
0
  6
CONTINUOUS
 62
     7
 10
545.3316671698842
 20
-64.30957591498667
 40
22.38341705514046
 50
83.22298946936672
 51
90.84901355523654
  0
LINE
  8
0
  6
CONTINUOUS
 62
     7
 10
547.9730343727634
 20
-42.0825532091921
 11
548.0
 21
-42.10339106445979
  0
LINE
  8
0
  6
CONTINUOUS
 62
     7
 10
382.0
 20
-42.10339106445979
 11
382.1213580560319
 21
-42.05864401598096
  0
ARC
  8
0
  6
CONTINUOUS
 62
     7
 10
384.7076342739927
 20
-67.38569321400007
 40
25.45875577781582
 50
89.34200671327805
 51
95.83055888332456
  0
LINE
  8
0
  6
CONTINUOUS
 62
     7
 10
382.0
 20
-42.10339106445979
 11
382.0
 21
-6.250000000000012
  0
LINE
  8
0
  6
CONTINUOUS
 62
     7
 10
408.459875901213
 20
-16.99571876010696
 11
408.407640171812
 21
-16.95645975283119
  0
ARC
  8
0
  6
CONTINUOUS
 62
     9
 10
401.8000177438091
 20
-25.79656139418571
 40
11.03668978708001
 50
126.7627690132502
 51
52.88412858852359
  0
LINE
  8
0
  6
CONTINUOUS
 62
     7
 10
401.8
 20
-14.75929113344294
 11
401.4476032632448
 21
-14.76497858050923
  0
ARC
  8
0
  6
CONTINUOUS
 62
     7
 10
401.79979014265
 20
-25.79285093364235
 40
11.03349465196874
 50
91.82918020162977
 51
125.7718914377674
  0
LINE
  8
0
  6
CONTINUOUS
 62
     7
 10
395.3500537386396
 20
-16.8408173907088
 11
395.1945240943617
 21
-16.95484351227236
  0
LINE
  8
0
  6
CONTINUOUS
 62
     7
 10
534.8054588386016
 20
-16.95483077013211
 11
534.7409746670658
 21
-16.90704969956962
  0
ARC
  8
0
  6
CONTINUOUS
 62
     7
 10
528.2003875797237
 20
-25.79287338546986
 40
11.03345557946422
 50
53.64433512886161
 51
87.40371953565638
  0
LINE
  8
0
  6
CONTINUOUS
 62
     7
 10
528.7001825590405
 20
-14.77074350950397
 11
528.2
 21
-14.75929113344294
  0
ARC
  8
0
  6
CONTINUOUS
 62
     9
 10
528.2000031805869
 20
-25.79644678717073
 40
11.03658544309572
 50
126.7002990812889
 51
53.23707248824706
  0
LINE
  8
0
  6
CONTINUOUS
 62
     7
 10
528.2
 20
-14.75929113344294
 11
527.9977248378542
 21
-14.76116616597703
  0
ARC
  8
0
  6
CONTINUOUS
 62
     7
 10
528.2010901409506
 20
-25.79657786530123
 40
11.03728539180196
 50
91.05575171297235
 51
125.8848408986581
  0
LINE
  8
0
  6
CONTINUOUS
 62
     7
 10
521.7314968066063
 20
-16.85420508687745
 11
521.6042159924752
 21
-16.94761581286146
  0
LINE
  8
0
  6
CONTINUOUS
 62
     7
 10
484.4054588385948
 20
-16.95483077012979
 11
484.3409746670583
 21
-16.90704969956701
  0
ARC
  8
0
  6
CONTINUOUS
 62
     7
 10
477.8003875797319
 20
-25.79287338543468
 40
11.03345557942877
 50
53.64433512882634
 51
87.40371953601621
  0
LINE
  8
0
  6
CONTINUOUS
 62
     7
 10
478.3001825589778
 20
-14.77074350950105
 11
477.8
 21
-14.75929113344294
  0
ARC
  8
0
  6
CONTINUOUS
 62
     9
 10
477.8000031805849
 20
-25.79644678717127
 40
11.03658544309511
 50
126.7002990814332
 51
53.23707248827571
  0
LINE
  8
0
  6
CONTINUOUS
 62
     7
 10
477.8
 20
-14.75929113344294
 11
477.5977248378468
 21
-14.76116616597716
  0
ARC
  8
0
  6
CONTINUOUS
 62
     7
 10
477.8010901409509
 20
-25.79657786530317
 40
11.03728539180391
 50
91.05575171301281
 51
125.8848408987201
  0
LINE
  8
0
  6
CONTINUOUS
 62
     7
 10
471.3314968065959
 20
-16.85420508688479
 11
471.2042159924514
 21
-16.9476158128791
  0
LINE
  8
0
  6
CONTINUOUS
 62
     7
 10
509.6054588385843
 20
-16.9548307701222
 11
509.5409746670639
 21
-16.90704969957127
  0
ARC
  8
0
  6
CONTINUOUS
 62
     7
 10
503.0003875797311
 20
-25.79287338543646
 40
11.03345557943059
 50
53.64433512879176
 51
87.40371953597108
  0
LINE
  8
0
  6
CONTINUOUS
 62
     7
 10
503.5001825589857
 20
-14.77074350950141
 11
503.0
 21
-14.75929113344294
  0
ARC
  8
0
  6
CONTINUOUS
 62
     9
 10
503.0000031805851
 20
-25.7964467871714
 40
11.03658544309492
 50
126.700299081384
 51
53.2370724883441
  0
LINE
  8
0
  6
CONTINUOUS
 62
     7
 10
503.0
 20
-14.75929113344294
 11
502.7977248378481
 21
-14.76116616597713
  0
ARC
  8
0
  6
CONTINUOUS
 62
     7
 10
503.001090140949
 20
-25.79657786529544
 40
11.03728539179615
 50
91.05575171299711
 51
125.8848408987016
  0
LINE
  8
0
  6
CONTINUOUS
 62
     7
 10
496.5314968066015
 20
-16.85420508688127
 11
496.4042159924593
 21
-16.94761581287372
  0
LINE
  8
0
  6
CONTINUOUS
 62
     7
 10
458.8598759012179
 20
-16.99571876011055
 11
458.8076401718061
 21
-16.95645975282662
  0
LINE
  8
0
  6
CONTINUOUS
 62
     7
 10
452.2
 20
-14.75929113344294
 11
451.8476032632203
 21
-14.76497858051
  0
ARC
  8
0
  6
CONTINUOUS
 62
     7
 10
452.1997901426405
 20
-25.79285093360443
 40
11.03349465193056
 50
91.82918020171485
 51
125.7718914375042
  0
LINE
  8
0
  6
CONTINUOUS
 62
     7
 10
445.7500537386936
 20
-16.84081739067223
 11
445.5945240941032
 21
-16.95484351246764
  0
LINE
  8
0
  6
CONTINUOUS
 62
     7
 10
433.6598759012209
 20
-16.99571876011334
 11
433.6076401719051
 21
-16.95645975290109
  0
LINE
  8
0
  6
CONTINUOUS
 62
     7
 10
427.0000000000001
 20
-14.75929113344294
 11
426.6476032632138
 21
-14.76497858051019
  0
ARC
  8
0
  6
CONTINUOUS
 62
     7
 10
426.9997901426395
 20
-25.79285093360198
 40
11.03349465192809
 50
91.8291802017438
 51
125.7718914374623
  0
LINE
  8
0
  6
CONTINUOUS
 62
     7
 10
420.5500537387007
 20
-16.84081739066708
 11
420.3945240941096
 21
-16.95484351246276
  0
LINE
  8
0
  6
CONTINUOUS
 62
     7
 10
395.1951285043135
 20
-16.95438556811068
 11
395.3500155849866
 21
-16.84076531872429
  0
ARC
  8
0
  6
CONTINUOUS
 62
     7
 10
401.7985408809053
 20
-25.78341225956229
 40
11.02517178100106
 50
91.82426057372362
 51
125.7952999516091
  0
LINE
  8
0
  6
CONTINUOUS
 62
     7
 10
408.4048692852321
 20
-16.95438391695892
 11
408.4804438629855
 21
-17.01134029811225
  0
LINE
  8
0
  6
CONTINUOUS
 62
     7
 10
408.407640171812
 20
-16.95645975283119
 11
408.3272497356263
 21
-16.89697279175514
  0
LINE
  8
0
  6
CONTINUOUS
 62
     7
 10
408.3272497356263
 20
-16.89697279175514
 11
408.2033487742102
 21
-16.80745537052692
  0
ARC
  8
0
  6
CONTINUOUS
 62
     7
 10
401.7978691065823
 20
-25.79961061063998
 40
11.04033630079663
 50
54.53617581999575
 51
88.81837097274816
  0
LINE
  8
0
  6
CONTINUOUS
 62
     7
 10
402.0255413228211
 20
-14.76162207120761
 11
401.8
 21
-14.75929113344294
  0
LINE
  8
0
  6
CONTINUOUS
 62
     7
 10
401.8
 20
-14.75813731614611
 11
402.0255653341487
 21
-14.76046972976692
  0
ARC
  8
0
  6
CONTINUOUS
 62
     7
 10
401.7993246964981
 20
-25.78944235065154
 40
11.03129284800051
 50
54.51168952690546
 51
88.82483923117115
  0
LINE
  8
0
  6
CONTINUOUS
 62
     7
 10
408.2033966668174
 20
-16.80738890517937
 11
408.3244777817484
 21
-16.89489645408542
  0
LINE
  8
0
  6
CONTINUOUS
 62
     7
 10
408.3244777817484
 20
-16.89489645408542
 11
408.4048692852321
 21
-16.95438391695892
  0
LINE
  8
0
  6
CONTINUOUS
 62
     7
 10
521.5951215060818
 20
-16.9543907956143
 11
521.731462405105
 21
-16.85415890592186
  0
ARC
  8
0
  6
CONTINUOUS
 62
     7
 10
528.1995997820568
 20
-25.78634543067671
 40
11.02818014180636
 50
91.04899110992449
 51
125.9097327882368
  0
LINE
  8
0
  6
CONTINUOUS
 62
     7
 10
527.9977032941566
 20
-14.76001353614778
 11
528.2
 21
-14.7581373161461
  0
LINE
  8
0
  6
CONTINUOUS
 62
     7
 10
534.7409928405482
 20
-16.90702575533967
 11
534.8048690423842
 21
-16.95438373555494
  0
LINE
  8
0
  6
CONTINUOUS
 62
     7
 10
471.195121506068
 20
-16.95439079562446
 11
471.3314624050947
 21
-16.85415890592921
  0
ARC
  8
0
  6
CONTINUOUS
 62
     7
 10
477.7995997820576
 20
-25.78634543067957
 40
11.02818014180927
 50
91.04899110996661
 51
125.9097327882975
  0
LINE
  8
0
  6
CONTINUOUS
 62
     7
 10
477.5977032941493
 20
-14.76001353614791
 11
477.8
 21
-14.7581373161461
  0
LINE
  8
0
  6
CONTINUOUS
 62
     7
 10
484.3409928405408
 20
-16.90702575533707
 11
484.4048690423447
 21
-16.95438373552824
  0
LINE
  8
0
  6
CONTINUOUS
 62
     7
 10
496.3951215059902
 20
-16.95439079568301
 11
496.5314624051002
 21
-16.85415890592568
  0
ARC
  8
0
  6
CONTINUOUS
 62
     7
 10
502.999599782056
 20
-25.78634543067288
 40
11.02818014180255
 50
91.04899110995194
 51
125.9097327882772
  0
LINE
  8
0
  6
CONTINUOUS
 62
     7
 10
502.7977032941506
 20
-14.76001353614788
 11
503.0
 21
-14.7581373161461
  0
LINE
  8
0
  6
CONTINUOUS
 62
     7
 10
509.5409928405463
 20
-16.90702575534134
 11
509.604869042304
 21
-16.95438373549803
  0
LINE
  8
0
  6
CONTINUOUS
 62
     7
 10
445.5951285039731
 20
-16.95438556836704
 11
445.7500155850406
 21
-16.84076531868759
  0
ARC
  8
0
  6
CONTINUOUS
 62
     7
 10
452.1985408808974
 20
-25.78341225952962
 40
11.02517178096819
 50
91.82426057381622
 51
125.7952999513364
  0
LINE
  8
0
  6
CONTINUOUS
 62
     7
 10
458.8048692852248
 20
-16.95438391695325
 11
458.8804438629792
 21
-17.01134029810727
  0
LINE
  8
0
  6
CONTINUOUS
 62
     7
 10
458.8076401718061
 20
-16.95645975282662
 11
458.7272497356203
 21
-16.89697279175063
  0
LINE
  8
0
  6
CONTINUOUS
 62
     7
 10
458.7272497356203
 20
-16.89697279175063
 11
458.6033487742104
 21
-16.807455370527
  0
ARC
  8
0
  6
CONTINUOUS
 62
     7
 10
452.1978691065846
 20
-25.79961061063336
 40
11.04033630078998
 50
54.53617581998424
 51
88.81837097275437
  0
LINE
  8
0
  6
CONTINUOUS
 62
     7
 10
452.425541322822
 20
-14.76162207120761
 11
452.2
 21
-14.75929113344294
  0
LINE
  8
0
  6
CONTINUOUS
 62
     7
 10
452.2
 20
-14.7581373161461
 11
452.4255653341496
 21
-14.76046972976692
  0
ARC
  8
0
  6
CONTINUOUS
 62
     7
 10
452.1993246964998
 20
-25.78944235064663
 40
11.03129284799558
 50
54.51168952689671
 51
88.82483923117525
  0
LINE
  8
0
  6
CONTINUOUS
 62
     7
 10
458.6033966668176
 20
-16.80738890517947
 11
458.724477781741
 21
-16.89489645407984
  0
LINE
  8
0
  6
CONTINUOUS
 62
     7
 10
458.724477781741
 20
-16.89489645407984
 11
458.8048692852248
 21
-16.95438391695325
  0
LINE
  8
0
  6
CONTINUOUS
 62
     7
 10
420.3951285040108
 20
-16.95438556833874
 11
420.5500155850476
 21
-16.84076531868243
  0
ARC
  8
0
  6
CONTINUOUS
 62
     7
 10
426.9985408808972
 20
-25.78341225952929
 40
11.02517178096786
 50
91.82426057384833
 51
125.795299951291
  0
LINE
  8
0
  6
CONTINUOUS
 62
     7
 10
433.6048692853224
 20
-16.95438391702669
 11
433.6804438629753
 21
-17.01134029810482
  0
LINE
  8
0
  6
CONTINUOUS
 62
     7
 10
433.6076401719051
 20
-16.95645975290109
 11
433.52724973572
 21
-16.89697279182419
  0
LINE
  8
0
  6
CONTINUOUS
 62
     7
 10
433.52724973572
 20
-16.89697279182419
 11
433.4033487742096
 21
-16.80745537052684
  0
ARC
  8
0
  6
CONTINUOUS
 62
     7
 10
426.9978691065843
 20
-25.79961061063239
 40
11.040336300789
 50
54.53617581998417
 51
88.8183709727387
  0
LINE
  8
0
  6
CONTINUOUS
 62
     7
 10
427.2255413228248
 20
-14.76162207120767
 11
427.0000000000001
 21
-14.75929113344294
  0
LINE
  8
0
  6
CONTINUOUS
 62
     7
 10
427.0000000000001
 20
-14.75813731614611
 11
427.2255653341523
 21
-14.76046972976698
  0
ARC
  8
0
  6
CONTINUOUS
 62
     7
 10
426.9993246964993
 20
-25.78944235064669
 40
11.03129284799564
 50
54.51168952689864
 51
88.8248392311582
  0
LINE
  8
0
  6
CONTINUOUS
 62
     7
 10
433.4033966668168
 20
-16.80738890517926
 11
433.5244777818393
 21
-16.89489645415237
  0
LINE
  8
0
  6
CONTINUOUS
 62
     7
 10
433.5244777818393
 20
-16.89489645415237
 11
433.6048692853224
 21
-16.95438391702669
  0
LINE
  8
0
  6
CONTINUOUS
 62
     7
 10
521.5195561370363
 20
-17.01134029809772
 11
521.5951215060818
 21
-16.9543907956143
  0
LINE
  8
0
  6
CONTINUOUS
 62
     7
 10
496.3195561370512
 20
-17.01134029808667
 11
496.3951215059902
 21
-16.95439079568301
  0
LINE
  8
0
  6
CONTINUOUS
 62
     7
 10
471.1195561370428
 20
-17.01134029809264
 11
471.195121506068
 21
-16.95439079562446
  0
ARC
  8
0
  6
CONTINUOUS
 62
     9
 10
452.200026044246
 20
-25.79082954041105
 40
11.03210830206882
 50
126.7766819895541
 51
52.73206197957506
  0
ARC
  8
0
  6
CONTINUOUS
 62
     9
 10
427.0000260442456
 20
-25.79082954041114
 40
11.03210830206875
 50
126.7766819893072
 51
52.73206197959729
  0
ARC
  8
0
  6
CONTINUOUS
 62
     7
 10
515.6
 20
-40.25000000000001
 40
1.000000000000001
 50
269.9999999999996
 51
0.0
  0
ARC
  8
0
  6
CONTINUOUS
 62
     7
 10
490.4
 20
-40.25000000000001
 40
1.000000000000001
 50
270.0
 51
0.0
  0
ARC
  8
0
  6
CONTINUOUS
 62
     7
 10
540.8000000000001
 20
-40.25000000000001
 40
1.000000000000001
 50
269.9999999999992
 51
0.0
  0
ARC
  8
0
  6
CONTINUOUS
 62
     7
 10
439.6
 20
-40.25000000000001
 40
1.000000000000001
 50
270.0
 51
0.0
  0
ARC
  8
0
  6
CONTINUOUS
 62
     7
 10
389.2
 20
-40.25000000000001
 40
1.000000000000001
 50
180.0
 51
270.0
  0
ARC
  8
0
  6
CONTINUOUS
 62
     7
 10
490.4
 20
-40.25000000000001
 40
1.000000000000001
 50
180.0
 51
270.0
  0
ARC
  8
0
  6
CONTINUOUS
 62
     7
 10
414.4
 20
-40.25000000000001
 40
1.000000000000001
 50
269.9999999999996
 51
0.0
  0
ARC
  8
0
  6
CONTINUOUS
 62
     7
 10
465.0
 20
-40.25000000000001
 40
1.000000000000001
 50
180.0
 51
270.0
  0
ARC
  8
0
  6
CONTINUOUS
 62
     7
 10
465.0
 20
-40.25000000000001
 40
1.000000000000001
 50
270.0
 51
0.0
  0
ARC
  8
0
  6
CONTINUOUS
 62
     7
 10
414.4
 20
-40.25000000000001
 40
1.000000000000001
 50
180.0
 51
270.0
  0
ARC
  8
0
  6
CONTINUOUS
 62
     7
 10
515.6
 20
-40.25000000000001
 40
1.000000000000001
 50
180.0
 51
270.0
  0
ARC
  8
0
  6
CONTINUOUS
 62
     7
 10
389.2
 20
-40.25000000000001
 40
1.000000000000001
 50
269.9999999999992
 51
0.0
  0
ARC
  8
0
  6
CONTINUOUS
 62
     7
 10
540.8000000000001
 20
-40.25000000000001
 40
1.000000000000001
 50
180.0
 51
270.0
  0
ARC
  8
0
  6
CONTINUOUS
 62
     7
 10
439.6
 20
-40.25000000000001
 40
1.000000000000001
 50
180.0
 51
270.0
  0
LINE
  8
0
  6
CONTINUOUS
 62
     7
 10
504.5000000000001
 20
-22.76808151065925
 11
504.5000000000001
 21
-22.76026247904413
  0
LINE
  8
0
  6
CONTINUOUS
 62
     7
 10
425.5
 20
-22.7602638088915
 11
425.5
 21
-22.76808151065925
  0
LINE
  8
0
  6
CONTINUOUS
 62
     7
 10
479.3
 20
-22.76808151065925
 11
479.3
 21
-22.76589374953185
  0
LINE
  8
0
  6
CONTINUOUS
 62
     7
 10
479.3000000000001
 20
-22.76589374953184
 11
479.3000000000001
 21
-22.76026247904414
  0
LINE
  8
0
  6
CONTINUOUS
 62
     7
 10
450.7
 20
-22.76026380889149
 11
450.7
 21
-22.76808151065925
  0
LINE
  8
0
  6
CONTINUOUS
 62
     7
 10
529.7
 20
-22.76808151065925
 11
529.7
 21
-22.76026247904414
  0
LINE
  8
0
  6
CONTINUOUS
 62
     7
 10
400.3
 20
-22.7602638088915
 11
400.3
 21
-22.76808151065925
  0
LINE
  8
0
  6
CONTINUOUS
 62
     7
 10
428.5
 20
-22.76808151065925
 11
428.5
 21
-22.76035976507497
  0
LINE
  8
0
  6
CONTINUOUS
 62
     7
 10
526.7
 20
-22.76036151461724
 11
526.7
 21
-22.76808151065925
  0
LINE
  8
0
  6
CONTINUOUS
 62
     7
 10
501.5000000000001
 20
-22.76036151461724
 11
501.5000000000001
 21
-22.76808151065925
  0
LINE
  8
0
  6
CONTINUOUS
 62
     7
 10
403.3
 20
-22.76808151065925
 11
403.3
 21
-22.76035976507497
  0
LINE
  8
0
  6
CONTINUOUS
 62
     7
 10
476.3000000000001
 20
-22.76036151461724
 11
476.3000000000001
 21
-22.76808151065925
  0
LINE
  8
0
  6
CONTINUOUS
 62
     7
 10
453.7
 20
-22.76808151065925
 11
453.7
 21
-22.76035976507497
  0
LINE
  8
0
  6
CONTINUOUS
 62
     7
 10
529.7
 20
-22.76800535823745
 11
526.7
 21
-22.76800535823745
  0
LINE
  8
0
  6
CONTINUOUS
 62
     7
 10
403.3
 20
-22.76800535823745
 11
400.3
 21
-22.76800535823745
  0
LINE
  8
0
  6
CONTINUOUS
 62
     7
 10
479.3
 20
-22.76800535823745
 11
476.3000000000001
 21
-22.76800535823745
  0
LINE
  8
0
  6
CONTINUOUS
 62
     7
 10
504.5000000000001
 20
-22.76800535823745
 11
501.5000000000001
 21
-22.76800535823745
  0
LINE
  8
0
  6
CONTINUOUS
 62
     7
 10
428.5
 20
-22.76800535823745
 11
425.5
 21
-22.76800535823745
  0
LINE
  8
0
  6
CONTINUOUS
 62
     7
 10
453.7
 20
-22.76800535823745
 11
450.7
 21
-22.76800535823745
  0
ARC
  8
0
  6
CONTINUOUS
 62
     9
 10
504.4815836503863
 20
-25.80104532679069
 40
3.050958924929805
 50
0.1973231395325001
 51
52.77346711647424
  0
ARC
  8
0
  6
CONTINUOUS
 62
     9
 10
425.5185308944667
 20
-25.80110292990972
 40
3.051073668021047
 50
127.2263848733378
 51
179.8016025521793
  0
ARC
  8
0
  6
CONTINUOUS
 62
     9
 10
479.2815836503873
 20
-25.8010453267902
 40
3.050958924928747
 50
0.1973231395232915
 51
52.7734671163505
  0
ARC
  8
0
  6
CONTINUOUS
 62
     9
 10
450.7185308944656
 20
-25.80110292990915
 40
3.051073668019935
 50
127.2263848734651
 51
179.8016025521896
  0
ARC
  8
0
  6
CONTINUOUS
 62
     9
 10
529.6815836503888
 20
-25.80104532678951
 40
3.05095892492724
 50
0.1973231395105586
 51
52.77346711615747
  0
ARC
  8
0
  6
CONTINUOUS
 62
     9
 10
400.3185308944643
 20
-25.80110292990855
 40
3.051073668018656
 50
127.2263848736694
 51
179.801602552201
  0
ARC
  8
0
  6
CONTINUOUS
 62
     9
 10
526.7194748494321
 20
-25.80157328168626
 40
3.052019281746872
 50
127.2351511173022
 51
179.7928340189981
  0
ARC
  8
0
  6
CONTINUOUS
 62
     9
 10
428.4812867456028
 20
-25.8011932656551
 40
3.051256340980804
 50
0.2000818838938585
 51
52.77071315825958
  0
ARC
  8
0
  6
CONTINUOUS
 62
     9
 10
501.5194748494325
 20
-25.8015732816863
 40
3.052019281747149
 50
127.2351511173064
 51
179.7928340189972
  0
ARC
  8
0
  6
CONTINUOUS
 62
     9
 10
403.2812867456033
 20
-25.80119326565493
 40
3.051256340980373
 50
0.2000818838905047
 51
52.77071315826129
  0
ARC
  8
0
  6
CONTINUOUS
 62
     9
 10
453.6812867456076
 20
-25.80119326565296
 40
3.051256340976031
 50
0.200081883853386
 51
52.77071315807495
  0
ARC
  8
0
  6
CONTINUOUS
 62
     9
 10
476.3194748494275
 20
-25.80157328168406
 40
3.0520192817422
 50
127.2351511174882
 51
179.7928340190388
  0
LINE
  8
0
  6
CONTINUOUS
 62
     7
 10
385.0000000000001
 20
-43.50338008308725
 11
383.3961476021665
 21
-43.50338008308725
  0
LINE
  8
0
  6
CONTINUOUS
 62
     7
 10
383.3961476021665
 20
-43.50338008308727
 11
382.0
 21
-42.10723248092074
  0
LINE
  8
0
  6
CONTINUOUS
 62
     7
 10
546.6038523978335
 20
-43.50338008308727
 11
548.0
 21
-42.10723248092074
  0
LINE
  8
0
  6
CONTINUOUS
 62
     7
 10
544.9999999999999
 20
-43.50338008308725
 11
546.6038523978335
 21
-43.50338008308725
  0
ARC
  8
0
  6
CONTINUOUS
 62
     9
 10
403.2999921691351
 20
-25.79040643354957
 40
3.032532315781477
 50
270.0001479540733
 51
359.9975136034691
  0
ARC
  8
0
  6
CONTINUOUS
 62
     9
 10
428.4999921691351
 20
-25.79040643354965
 40
3.032532315781421
 50
270.0001479540733
 51
359.9975136034707
  0
ARC
  8
0
  6
CONTINUOUS
 62
     9
 10
453.6999921691351
 20
-25.79040643354965
 40
3.032532315781421
 50
270.0001479540733
 51
359.9975136034704
  0
ARC
  8
0
  6
CONTINUOUS
 62
     9
 10
526.7000726513222
 20
-25.79034161044669
 40
3.032597139744514
 50
180.0037110659697
 51
269.9986273764961
  0
ARC
  8
0
  6
CONTINUOUS
 62
     9
 10
501.5000726513223
 20
-25.79034161044669
 40
3.032597139744518
 50
180.0037110659698
 51
269.9986273764939
  0
ARC
  8
0
  6
CONTINUOUS
 62
     9
 10
476.3000726513224
 20
-25.79034161044657
 40
3.032597139744632
 50
180.003711065972
 51
269.9986273764919
  0
ARC
  8
0
  6
CONTINUOUS
 62
     9
 10
504.4999785049383
 20
-25.79039276879516
 40
3.03254598060196
 50
270.0004061195858
 51
359.9972554379587
  0
ARC
  8
0
  6
CONTINUOUS
 62
     9
 10
479.2999785049383
 20
-25.79039276879517
 40
3.03254598060196
 50
270.0004061195858
 51
359.997255437959
  0
ARC
  8
0
  6
CONTINUOUS
 62
     9
 10
529.6999785049384
 20
-25.79039276879513
 40
3.03254598060196
 50
270.0004061195858
 51
359.9972554379582
  0
ARC
  8
0
  6
CONTINUOUS
 62
     9
 10
425.500051528639
 20
-25.79036273399207
 40
3.032576015766666
 50
180.0033119954757
 51
269.9990264469878
  0
ARC
  8
0
  6
CONTINUOUS
 62
     9
 10
450.7000515286392
 20
-25.7903627339919
 40
3.032576015766836
 50
180.0033119954788
 51
269.9990264469848
  0
ARC
  8
0
  6
CONTINUOUS
 62
     9
 10
400.3001426284969
 20
-25.79027163041604
 40
3.032667122258876
 50
180.0050331038151
 51
269.9973053386478
  0
LINE
  8
0
  6
CONTINUOUS
 62
     7
 10
544.9999999999999
 20
-43.50338008308725
 11
385.0000000000001
 21
-43.50338008308725
  0
LINE
  8
0
  6
CONTINUOUS
 62
     9
 10
428.5
 20
-28.82293874932096
 11
425.5000000000004
 21
-28.82293874932096
  0
LINE
  8
0
  6
CONTINUOUS
 62
     9
 10
453.7
 20
-28.82293874932096
 11
450.7000000000004
 21
-28.82293874932096
  0
LINE
  8
0
  6
CONTINUOUS
 62
     9
 10
403.3
 20
-28.82293874932096
 11
400.3000000000004
 21
-28.82293874932096
  0
LINE
  8
0
  6
CONTINUOUS
 62
     9
 10
479.3000000000001
 20
-28.82293874932096
 11
476.3000000000004
 21
-28.82293874932096
  0
LINE
  8
0
  6
CONTINUOUS
 62
     9
 10
504.5000000000001
 20
-28.82293874932096
 11
501.5000000000005
 21
-28.82293874932096
  0
LINE
  8
0
  6
CONTINUOUS
 62
     9
 10
529.7
 20
-28.82293874932096
 11
526.7000000000005
 21
-28.82293874932096
  0
LINE
  8
0
  6
CONTINUOUS
 62
     7
 10
544.9999999999999
 20
-45.50338008308728
 11
546.6038523978335
 21
-45.50338008308728
  0
LINE
  8
0
  6
CONTINUOUS
 62
     7
 10
547.6009128048473
 20
-44.5004404901012
 11
544.9999999999999
 21
-44.41589141956134
  0
LINE
  8
0
  6
CONTINUOUS
 62
     7
 10
546.6038523978335
 20
-45.50338008308728
 11
547.6038523978335
 21
-44.50338008308732
  0
LINE
  8
0
  6
CONTINUOUS
 62
     7
 10
547.6009128048473
 20
-44.5004404901012
 11
546.6038523978335
 21
-43.50338008308727
  0
LINE
  8
0
  6
CONTINUOUS
 62
     7
 10
385.0000000000001
 20
-44.41589141956138
 11
382.3990871951527
 21
-44.5004404901012
  0
LINE
  8
0
  6
CONTINUOUS
 62
     7
 10
382.3990871951527
 20
-44.5004404901012
 11
383.3961476021665
 21
-43.50338008308727
  0
LINE
  8
0
  6
CONTINUOUS
 62
     7
 10
385.0000000000001
 20
-45.50338008308728
 11
383.3961476021665
 21
-45.50338008308728
  0
LINE
  8
0
  6
CONTINUOUS
 62
     7
 10
383.3961476021665
 20
-45.50338008308728
 11
382.3961476021666
 21
-44.50338008308732
  0
LINE
  8
0
  6
CONTINUOUS
 62
     7
 10
544.9999999999999
 20
-45.50338008308728
 11
385.0000000000001
 21
-45.50338008308728
  0
LINE
  8
0
  6
CONTINUOUS
 62
     7
 10
544.9999999999999
 20
-44.41589141956134
 11
385.0000000000001
 21
-44.41589141956138
  0
LINE
  8
0
  6
CONTINUOUS
 62
     7
 10
545.0
 20
-47.50338008308729
 11
546.6038523978335
 21
-47.50338008308729
  0
LINE
  8
0
  6
CONTINUOUS
 62
     7
 10
547.6009128048473
 20
-46.50044049010117
 11
545.0
 21
-46.41589141956134
  0
LINE
  8
0
  6
CONTINUOUS
 62
     7
 10
546.6038523978335
 20
-47.50338008308729
 11
547.6038523978335
 21
-46.50338008308729
  0
LINE
  8
0
  6
CONTINUOUS
 62
     7
 10
547.6009128048473
 20
-46.50044049010117
 11
546.6038523978335
 21
-45.50338008308728
  0
LINE
  8
0
  6
CONTINUOUS
 62
     7
 10
385.0
 20
-47.50338008308729
 11
383.3961476021665
 21
-47.50338008308729
  0
LINE
  8
0
  6
CONTINUOUS
 62
     7
 10
383.3961476021665
 20
-47.50338008308729
 11
382.3961476021666
 21
-46.50338008308729
  0
LINE
  8
0
  6
CONTINUOUS
 62
     7
 10
385.0000000000001
 20
-46.41589141956138
 11
382.3990871951527
 21
-46.50044049010117
  0
LINE
  8
0
  6
CONTINUOUS
 62
     7
 10
382.3990871951527
 20
-46.50044049010117
 11
383.3961476021665
 21
-45.50338008308728
  0
LINE
  8
0
  6
CONTINUOUS
 62
     7
 10
545.0
 20
-46.41589141956134
 11
385.0
 21
-46.41589141956138
  0
LINE
  8
0
  6
CONTINUOUS
 62
     7
 10
545.0
 20
-47.50338008308729
 11
385.0
 21
-47.50338008308729
  0
LINE
  8
0
  6
CONTINUOUS
 62
     7
 10
545.0
 20
-49.50338008308729
 11
546.6038523978335
 21
-49.50338008308729
  0
LINE
  8
0
  6
CONTINUOUS
 62
     7
 10
547.6009128048473
 20
-48.5004404901012
 11
545.0
 21
-48.41589141956136
  0
LINE
  8
0
  6
CONTINUOUS
 62
     7
 10
546.6038523978335
 20
-49.5033800830873
 11
547.6038523978335
 21
-48.50338008308731
  0
LINE
  8
0
  6
CONTINUOUS
 62
     7
 10
547.6009128048473
 20
-48.5004404901012
 11
546.6038523978335
 21
-47.50338008308729
  0
LINE
  8
0
  6
CONTINUOUS
 62
     7
 10
385.0
 20
-48.41589141956141
 11
382.3990871951527
 21
-48.5004404901012
  0
LINE
  8
0
  6
CONTINUOUS
 62
     7
 10
382.3990871951527
 20
-48.5004404901012
 11
383.3961476021665
 21
-47.50338008308729
  0
LINE
  8
0
  6
CONTINUOUS
 62
     7
 10
385.0000000000001
 20
-49.50338008308729
 11
383.3961476021665
 21
-49.50338008308729
  0
LINE
  8
0
  6
CONTINUOUS
 62
     7
 10
383.3961476021665
 20
-49.5033800830873
 11
382.3961476021666
 21
-48.50338008308731
  0
LINE
  8
0
  6
CONTINUOUS
 62
     7
 10
545.0
 20
-49.50338008308729
 11
385.0000000000001
 21
-49.50338008308729
  0
LINE
  8
0
  6
CONTINUOUS
 62
     7
 10
545.0
 20
-48.41589141956136
 11
385.0
 21
-48.41589141956141
  0
LINE
  8
0
  6
CONTINUOUS
 62
     7
 10
545.0
 20
-51.50338008308729
 11
546.6038523978335
 21
-51.50338008308729
  0
LINE
  8
0
  6
CONTINUOUS
 62
     7
 10
547.6009128048473
 20
-50.50044049010121
 11
545.0
 21
-50.41589141956138
  0
LINE
  8
0
  6
CONTINUOUS
 62
     7
 10
546.6038523978335
 20
-51.50338008308731
 11
547.6038523978335
 21
-50.50338008308731
  0
LINE
  8
0
  6
CONTINUOUS
 62
     7
 10
547.6009128048473
 20
-50.50044049010121
 11
546.6038523978335
 21
-49.5033800830873
  0
LINE
  8
0
  6
CONTINUOUS
 62
     7
 10
385.0
 20
-50.41589141956145
 11
382.3990871951527
 21
-50.50044049010121
  0
LINE
  8
0
  6
CONTINUOUS
 62
     7
 10
382.3990871951527
 20
-50.50044049010121
 11
383.3961476021665
 21
-49.5033800830873
  0
LINE
  8
0
  6
CONTINUOUS
 62
     7
 10
385.0
 20
-51.50338008308729
 11
383.3961476021665
 21
-51.50338008308729
  0
LINE
  8
0
  6
CONTINUOUS
 62
     7
 10
383.3961476021665
 20
-51.50338008308727
 11
382.3961476021666
 21
-50.50338008308731
  0
LINE
  8
0
  6
CONTINUOUS
 62
     7
 10
545.0
 20
-51.50338008308727
 11
385.0
 21
-51.50338008308727
  0
LINE
  8
0
  6
CONTINUOUS
 62
     7
 10
545.0
 20
-50.41589141956138
 11
385.0
 21
-50.41589141956145
  0
LINE
  8
0
  6
CONTINUOUS
 62
     7
 10
385.0
 20
-54.25000000000001
 11
384.3961476021665
 21
-54.25000000000001
  0
ARC
  8
0
  6
CONTINUOUS
 62
     7
 10
384.3961476021665
 20
-53.25000000000001
 40
1.000000000000001
 50
180.0
 51
269.9999999999992
  0
LINE
  8
0
  6
CONTINUOUS
 62
     7
 10
383.3961476021665
 20
-53.25000000000001
 11
383.3961476021665
 21
-51.50338008308727
  0
ARC
  8
0
  6
CONTINUOUS
 62
     7
 10
545.6038523978335
 20
-53.25000000000001
 40
1.000000000000001
 50
270.0
 51
0.0
  0
LINE
  8
0
  6
CONTINUOUS
 62
     7
 10
545.6038523978335
 20
-54.25000000000001
 11
545.0
 21
-54.25000000000001
  0
LINE
  8
0
  6
CONTINUOUS
 62
     7
 10
546.6038523978335
 20
-53.25000000000001
 11
546.6038523978335
 21
-51.50338008308731
  0
LINE
  8
0
  6
CONTINUOUS
 62
     7
 10
545.0
 20
-54.25000000000001
 11
385.0
 21
-54.25000000000001
  0
LINE
  8
0
  6
CONTINUOUS
 62
     7
 10
395.1951507194389
 20
-16.95436893737786
 11
395.192349762827
 21
-16.9564673080234
  0
LINE
  8
0
  6
CONTINUOUS
 62
     7
 10
408.4076502788526
 20
-16.956467339157
 11
408.4048493222233
 21
-16.95436896849829
  0
LINE
  8
0
  6
CONTINUOUS
 62
     7
 10
521.5951507191359
 20
-16.95436893760617
 11
521.5923497625238
 21
-16.95646730825201
  0
LINE
  8
0
  6
CONTINUOUS
 62
     7
 10
534.8076502789329
 20
-16.95646733921404
 11
534.8048493223034
 21
-16.95436896855511
  0
LINE
  8
0
  6
CONTINUOUS
 62
     7
 10
471.1951507191221
 20
-16.9543689376163
 11
471.19234976251
 21
-16.95646730826216
  0
LINE
  8
0
  6
CONTINUOUS
 62
     7
 10
484.4076502788933
 20
-16.95646733918721
 11
484.4048493222637
 21
-16.95436896852828
  0
LINE
  8
0
  6
CONTINUOUS
 62
     7
 10
496.3951507190444
 20
-16.95436893767484
 11
496.3923497624323
 21
-16.95646730832072
  0
LINE
  8
0
  6
CONTINUOUS
 62
     7
 10
509.6076502788539
 20
-16.95646733915793
 11
509.6048493222243
 21
-16.95436896849902
  0
LINE
  8
0
  6
CONTINUOUS
 62
     7
 10
445.5951507190987
 20
-16.95436893763412
 11
445.5923497624868
 21
-16.95646730827978
  0
LINE
  8
0
  6
CONTINUOUS
 62
     7
 10
458.8076502788467
 20
-16.95646733915241
 11
458.8048493222174
 21
-16.9543689684937
  0
LINE
  8
0
  6
CONTINUOUS
 62
     7
 10
420.3951507191363
 20
-16.95436893760582
 11
420.3923497625245
 21
-16.95646730825147
  0
LINE
  8
0
  6
CONTINUOUS
 62
     7
 10
433.6076502789457
 20
-16.95646733922689
 11
433.6048493223164
 21
-16.95436896856815
  0
ARC
  8
0
  6
CONTINUOUS
 62
     7
 10
504.4822860819638
 20
-25.84952760329605
 40
3.089329395415156
 50
52.77076386408669
 51
89.67146970305282
  0
ARC
  8
0
  6
CONTINUOUS
 62
     7
 10
425.5177139180362
 20
-25.84952760329577
 40
3.089329395414883
 50
90.32853029694519
 51
127.2292361359146
  0
ARC
  8
0
  6
CONTINUOUS
 62
     7
 10
479.2822860819641
 20
-25.84952760329475
 40
3.08932939541385
 50
52.7707638639194
 51
89.67146970305994
  0
ARC
  8
0
  6
CONTINUOUS
 62
     7
 10
450.7177139180359
 20
-25.84952760329451
 40
3.089329395413616
 50
90.3285302969391
 51
127.2292361360812
  0
ARC
  8
0
  6
CONTINUOUS
 62
     7
 10
529.6822860819633
 20
-25.84952760329621
 40
3.089329395415322
 50
52.77076386370089
 51
89.6714697030467
  0
ARC
  8
0
  6
CONTINUOUS
 62
     7
 10
400.3177139180368
 20
-25.84952760329669
 40
3.089329395415807
 50
90.32853029695637
 51
127.2292361362972
  0
ARC
  8
0
  6
CONTINUOUS
 62
     7
 10
428.4584914443372
 20
-25.91950794167526
 40
3.159531620888471
 50
53.19308545843081
 51
89.24725125212069
  0
ARC
  8
0
  6
CONTINUOUS
 62
     7
 10
526.7415085556628
 20
-25.91950794167549
 40
3.159531620888676
 50
90.75274874787823
 51
126.8069145415624
  0
ARC
  8
0
  6
CONTINUOUS
 62
     7
 10
501.5415085556628
 20
-25.91950794167521
 40
3.159531620888401
 50
90.75274874787829
 51
126.80691454157
  0
ARC
  8
0
  6
CONTINUOUS
 62
     7
 10
403.2584914443373
 20
-25.91950794167496
 40
3.159531620888174
 50
53.19308545846217
 51
89.24725125212264
  0
ARC
  8
0
  6
CONTINUOUS
 62
     7
 10
476.3415085556624
 20
-25.91950794167207
 40
3.15953162088528
 50
90.75274874787198
 51
126.8069145418172
  0
ARC
  8
0
  6
CONTINUOUS
 62
     7
 10
453.6584914443376
 20
-25.91950794167226
 40
3.159531620885471
 50
53.19308545818387
 51
89.24725125212801
  0
ENDBLK
  8
0
  0
BLOCK
  8
0
  2
D_FRAME_VIEW_2373
 70
     0
 10
0.0
 20
0.0
  0
LINE
  8
0
  6
CONTINUOUS
 62
     7
 10
631.25
 20
94.5
 11
631.25
 21
88.5
  0
LINE
  8
0
  6
CONTINUOUS
 62
     7
 10
631.25
 20
88.5
 11
630.75
 21
88.5
  0
LINE
  8
0
  6
CONTINUOUS
 62
     7
 10
630.75
 20
88.5
 11
630.75
 21
94.5
  0
LINE
  8
0
  6
CONTINUOUS
 62
     7
 10
630.75
 20
217.0
 11
630.75
 21
190.0
  0
LINE
  8
0
  6
CONTINUOUS
 62
     7
 10
631.25
 20
285.4999999999999
 11
631.25
 21
94.5
  0
LINE
  8
0
  6
CONTINUOUS
 62
     7
 10
630.75
 20
163.0
 11
630.75
 21
94.5
  0
LINE
  8
0
  6
CONTINUOUS
 62
     7
 10
630.75
 20
285.4999999999999
 11
630.75
 21
217.0
  0
LINE
  8
0
  6
CONTINUOUS
 62
     7
 10
630.75
 20
190.0
 11
630.75
 21
163.0
  0
LINE
  8
0
  6
CONTINUOUS
 62
     7
 10
630.75
 20
291.5
 11
631.25
 21
291.5
  0
LINE
  8
0
  6
CONTINUOUS
 62
     7
 10
631.25
 20
291.5
 11
631.25
 21
285.4999999999999
  0
LINE
  8
0
  6
CONTINUOUS
 62
     7
 10
630.75
 20
285.4999999999999
 11
630.75
 21
291.5
  0
LINE
  8
0
  6
CONTINUOUS
 62
     7
 10
631.25
 20
270.4999999999999
 11
666.9286162404603
 21
267.3785255486678
  0
LINE
  8
0
  6
CONTINUOUS
 62
     7
 10
667.1033910644599
 20
264.3517752202681
 11
666.9286162404603
 21
267.3785255486678
  0
LINE
  8
0
  6
CONTINUOUS
 62
     7
 10
667.1072324809207
 20
264.1999093082073
 11
667.1033910644599
 21
264.3517752202681
  0
LINE
  8
0
  6
CONTINUOUS
 62
     7
 10
668.5033800830873
 20
265.8037617060409
 11
666.9286162404603
 21
267.3785255486678
  0
LINE
  8
0
  6
CONTINUOUS
 62
     7
 10
668.5033800830873
 20
264.1999093082073
 11
668.5033800830873
 21
265.8037617060409
  0
LINE
  8
0
  6
CONTINUOUS
 62
     7
 10
666.9286162404603
 20
112.6214744513322
 11
667.1033910644599
 21
115.6482247797319
  0
LINE
  8
0
  6
CONTINUOUS
 62
     7
 10
666.9286162404603
 20
112.6214744513322
 11
631.25
 21
109.5
  0
LINE
  8
0
  6
CONTINUOUS
 62
     7
 10
667.1033910644599
 20
115.6482247797319
 11
667.1072324809207
 21
115.8000906917926
  0
LINE
  8
0
  6
CONTINUOUS
 62
     7
 10
668.5033800830872
 20
114.1962382939591
 11
668.5033800830872
 21
115.8000906917926
  0
LINE
  8
0
  6
CONTINUOUS
 62
     7
 10
668.5033800830872
 20
114.1962382939591
 11
666.9286162404603
 21
112.6214744513322
  0
LINE
  8
0
  6
CONTINUOUS
 62
     7
 10
667.1072324809207
 20
115.8000906917926
 11
667.1072324809207
 21
264.1999093082073
  0
LINE
  8
0
  6
CONTINUOUS
 62
     7
 10
668.5033800830873
 20
115.8000906917926
 11
668.5033800830873
 21
264.1999093082073
  0
LINE
  8
0
  6
CONTINUOUS
 62
     7
 10
671.5004404901011
 20
115.9750680188444
 11
671.4158914195614
 21
113.4587042845369
  0
LINE
  8
0
  6
CONTINUOUS
 62
     7
 10
671.4158914195614
 20
113.4587042845369
 11
670.5033800830873
 21
114.371215621011
  0
LINE
  8
0
  6
CONTINUOUS
 62
     7
 10
670.5033800830873
 20
114.371215621011
 11
670.5033800830873
 21
115.9750680188444
  0
LINE
  8
0
  6
CONTINUOUS
 62
     7
 10
672.5033800830873
 20
114.5461929480629
 11
672.5033800830873
 21
116.1500453458963
  0
LINE
  8
0
  6
CONTINUOUS
 62
     7
 10
672.5033800830873
 20
114.5461929480629
 11
671.4158914195614
 21
113.4587042845369
  0
LINE
  8
0
  6
CONTINUOUS
 62
     7
 10
671.5033800830873
 20
116.1500453458963
 11
671.5004404901011
 21
115.9750680188444
  0
LINE
  8
0
  6
CONTINUOUS
 62
     7
 10
670.5033800830873
 20
114.371215621011
 11
669.4158914195614
 21
113.283726957485
  0
LINE
  8
0
  6
CONTINUOUS
 62
     7
 10
669.5004404901011
 20
115.8000906917926
 11
669.4158914195614
 21
113.283726957485
  0
LINE
  8
0
  6
CONTINUOUS
 62
     7
 10
669.5033800830873
 20
115.9750680188444
 11
669.5004404901011
 21
115.8000906917926
  0
LINE
  8
0
  6
CONTINUOUS
 62
     7
 10
669.4158914195614
 20
113.283726957485
 11
668.5033800830872
 21
114.1962382939591
  0
LINE
  8
0
  6
CONTINUOUS
 62
     7
 10
676.5033800830873
 20
114.8961476021665
 11
676.5033800830873
 21
116.5
  0
LINE
  8
0
  6
CONTINUOUS
 62
     7
 10
676.5033800830873
 20
114.8961476021665
 11
675.4158914195614
 21
113.8086589386406
  0
LINE
  8
0
  6
CONTINUOUS
 62
     7
 10
675.5004404901011
 20
116.3250226729482
 11
675.4158914195614
 21
113.8086589386406
  0
LINE
  8
0
  6
CONTINUOUS
 62
     7
 10
675.5033800830873
 20
116.5
 11
675.5004404901011
 21
116.3250226729482
  0
LINE
  8
0
  6
CONTINUOUS
 62
     7
 10
673.5004404901011
 20
116.1500453458963
 11
673.4158914195614
 21
113.6336816115888
  0
LINE
  8
0
  6
CONTINUOUS
 62
     7
 10
673.4158914195614
 20
113.6336816115888
 11
672.5033800830873
 21
114.5461929480629
  0
LINE
  8
0
  6
CONTINUOUS
 62
     7
 10
675.4158914195614
 20
113.8086589386406
 11
674.5033800830873
 21
114.7211702751147
  0
LINE
  8
0
  6
CONTINUOUS
 62
     7
 10
674.5033800830873
 20
114.7211702751147
 11
674.5033800830873
 21
116.3250226729482
  0
LINE
  8
0
  6
CONTINUOUS
 62
     7
 10
674.5033800830873
 20
114.7211702751147
 11
673.4158914195614
 21
113.6336816115888
  0
LINE
  8
0
  6
CONTINUOUS
 62
     7
 10
673.5033800830873
 20
116.3250226729482
 11
673.5004404901011
 21
116.1500453458963
  0
LINE
  8
0
  6
CONTINUOUS
 62
     7
 10
669.4158914195614
 20
266.7162730425149
 11
669.5004404901011
 21
264.1999093082073
  0
LINE
  8
0
  6
CONTINUOUS
 62
     7
 10
669.4158914195614
 20
266.7162730425149
 11
668.5033800830873
 21
265.8037617060409
  0
LINE
  8
0
  6
CONTINUOUS
 62
     7
 10
670.5033800830873
 20
264.0249319811555
 11
670.5033800830873
 21
265.628784378989
  0
LINE
  8
0
  6
CONTINUOUS
 62
     7
 10
669.5004404901011
 20
264.1999093082073
 11
669.5033800830873
 21
264.0249319811555
  0
LINE
  8
0
  6
CONTINUOUS
 62
     7
 10
670.5033800830873
 20
265.628784378989
 11
669.4158914195614
 21
266.7162730425149
  0
LINE
  8
0
  6
CONTINUOUS
 62
     7
 10
674.5033800830873
 20
263.6749773270518
 11
674.5033800830873
 21
265.2788297248853
  0
LINE
  8
0
  6
CONTINUOUS
 62
     7
 10
673.5004404901011
 20
263.8499546541037
 11
673.5033800830873
 21
263.6749773270518
  0
LINE
  8
0
  6
CONTINUOUS
 62
     7
 10
673.4158914195614
 20
266.3663183884112
 11
673.5004404901011
 21
263.8499546541037
  0
LINE
  8
0
  6
CONTINUOUS
 62
     7
 10
674.5033800830873
 20
265.2788297248853
 11
673.4158914195614
 21
266.3663183884112
  0
LINE
  8
0
  6
CONTINUOUS
 62
     7
 10
675.4158914195614
 20
266.1913410613593
 11
675.5004404901011
 21
263.6749773270518
  0
LINE
  8
0
  6
CONTINUOUS
 62
     7
 10
675.4158914195614
 20
266.1913410613593
 11
674.5033800830873
 21
265.2788297248853
  0
LINE
  8
0
  6
CONTINUOUS
 62
     7
 10
672.5033800830873
 20
263.8499546541037
 11
672.5033800830873
 21
265.4538070519371
  0
LINE
  8
0
  6
CONTINUOUS
 62
     7
 10
673.4158914195614
 20
266.3663183884112
 11
672.5033800830873
 21
265.4538070519371
  0
LINE
  8
0
  6
CONTINUOUS
 62
     7
 10
676.5033800830873
 20
263.4999999999999
 11
676.5033800830873
 21
265.1038523978335
  0
LINE
  8
0
  6
CONTINUOUS
 62
     7
 10
675.5004404901011
 20
263.6749773270518
 11
675.5033800830873
 21
263.4999999999999
  0
LINE
  8
0
  6
CONTINUOUS
 62
     7
 10
676.5033800830872
 20
265.1038523978335
 11
675.4158914195614
 21
266.1913410613593
  0
LINE
  8
0
  6
CONTINUOUS
 62
     7
 10
671.5004404901011
 20
264.0249319811555
 11
671.5033800830873
 21
263.8499546541037
  0
LINE
  8
0
  6
CONTINUOUS
 62
     7
 10
671.4158914195614
 20
266.541295715463
 11
671.5004404901011
 21
264.0249319811555
  0
LINE
  8
0
  6
CONTINUOUS
 62
     7
 10
672.5033800830873
 20
265.4538070519371
 11
671.4158914195614
 21
266.541295715463
  0
LINE
  8
0
  6
CONTINUOUS
 62
     7
 10
671.4158914195614
 20
266.541295715463
 11
670.5033800830873
 21
265.628784378989
  0
LINE
  8
0
  6
CONTINUOUS
 62
     7
 10
675.5033800830873
 20
263.4999999999999
 11
675.5033800830873
 21
116.5
  0
LINE
  8
0
  6
CONTINUOUS
 62
     7
 10
674.5033800830873
 20
116.3250226729482
 11
674.5033800830873
 21
263.6749773270518
  0
LINE
  8
0
  6
CONTINUOUS
 62
     7
 10
673.5033800830873
 20
263.6749773270518
 11
673.5033800830873
 21
116.3250226729481
  0
LINE
  8
0
  6
CONTINUOUS
 62
     7
 10
672.5033800830873
 20
116.1500453458963
 11
672.5033800830873
 21
263.8499546541037
  0
LINE
  8
0
  6
CONTINUOUS
 62
     7
 10
669.5033800830873
 20
264.0249319811555
 11
669.5033800830873
 21
115.9750680188444
  0
LINE
  8
0
  6
CONTINUOUS
 62
     7
 10
671.5033800830873
 20
263.8499546541037
 11
671.5033800830873
 21
116.1500453458963
  0
LINE
  8
0
  6
CONTINUOUS
 62
     7
 10
670.5033800830873
 20
115.9750680188444
 11
670.5033800830873
 21
264.0249319811555
  0
LINE
  8
0
  6
CONTINUOUS
 62
     7
 10
676.5033800830873
 20
116.5
 11
676.5033800830872
 21
263.4999999999999
  0
LINE
  8
0
  6
CONTINUOUS
 62
     7
 10
678.25
 20
114.8961476021665
 11
676.5033800830873
 21
114.8961476021665
  0
LINE
  8
0
  6
CONTINUOUS
 62
     7
 10
679.25
 20
116.5
 11
679.25
 21
115.8961476021665
  0
ARC
  8
0
  6
CONTINUOUS
 62
     7
 10
678.25
 20
115.8961476021665
 40
1.000000000000001
 50
270.0
 51
0.0
  0
ARC
  8
0
  6
CONTINUOUS
 62
     7
 10
678.25
 20
264.1038523978335
 40
1.000000000000001
 50
0.0
 51
90.0
  0
LINE
  8
0
  6
CONTINUOUS
 62
     7
 10
679.25
 20
264.1038523978335
 11
679.25
 21
263.5
  0
LINE
  8
0
  6
CONTINUOUS
 62
     7
 10
679.25
 20
263.5
 11
679.25
 21
116.5
  0
LINE
  8
0
  6
CONTINUOUS
 62
     7
 10
678.25
 20
265.1038523978335
 11
676.5033800830872
 21
265.1038523978335
  0
ARC
  8
0
  6
CONTINUOUS
 62
     7
 10
634.25
 20
275.2489935220523
 40
2.999999999999975
 50
180.0000000000002
 51
265.0
  0
ARC
  8
0
  6
CONTINUOUS
 62
     7
 10
634.25
 20
104.7510064779477
 40
3.000000000000003
 50
95.00000000000003
 51
180.0
  0
ARC
  8
0
  6
CONTINUOUS
 62
     7
 10
665.25
 20
111.4784343974248
 40
1.000000000000001
 50
275.0000000000001
 51
0.000000000003979
  0
LINE
  8
0
  6
CONTINUOUS
 62
     7
 10
666.25
 20
112.5621032234074
 11
666.25
 21
111.4784343974248
  0
LINE
  8
0
  6
CONTINUOUS
 62
     7
 10
665.3371557427477
 20
269.517760300667
 11
633.988532771757
 21
272.260409427777
  0
LINE
  8
0
  6
CONTINUOUS
 62
     7
 10
665.3371557427477
 20
110.482239699333
 11
633.988532771757
 21
107.739590572223
  0
ARC
  8
0
  6
CONTINUOUS
 62
     7
 10
665.25
 20
268.5215656025752
 40
1.000000000000001
 50
0.0000000000000035
 51
84.99999999999986
  0
LINE
  8
0
  6
CONTINUOUS
 62
     7
 10
666.25
 20
267.4378967765927
 11
666.25
 21
268.5215656025752
  0
ENDBLK
  8
0
  0
ENDSEC
  0
SECTION
  2
ENTITIES
  0
LINE
  8
0
  6
CENTER
 62
     1
 10
465.0
 20
92.5
 11
465.0
 21
287.5
  0
LINE
  8
0
  6
CENTER
 62
     1
 10
366.5000000000001
 20
190.0
 11
563.5
 21
190.0
  0
INSERT
  8
0
  6
CONTINUOUS
 62
     7
  2
D_FRAME_VIEW_1510
 10
0.0
 20
0.0
 30
0.0
  0
LINE
  8
0
  6
CENTER
 62
     1
 10
464.9999999999999
 20
-54.25000000000001
 11
464.9999999999999
 21
-5.750000000000012
  0
LINE
  8
0
  6
CENTER
 62
     1
 10
679.25
 20
190.0
 11
630.75
 21
190.0
  0
TEXT
  8
0
  6
CONTINUOUS
 62
     7
 10
547.2173971489309
 20
-91.6715799674878
 40
3.0
  1
SB-3YSA-N
  0
INSERT
  8
0
  6
CONTINUOUS
 62
     7
  2
D_FRAME_VIEW_2285
 10
0.0
 20
0.0
 30
0.0
  0
INSERT
  8
0
  6
CONTINUOUS
 62
     7
  2
D_FRAME_VIEW_2373
 10
0.0
 20
0.0
 30
0.0
  0
ENDSEC
  0
EOF
