  0
SECTION
  2
HEADER
  9
$ACADVER
  1
AC1004
  9
$INSBASE
 10
0.0
 20
0.0
  9
$EXTMIN
 10
-799.0
 20
-58.82954545454545
  9
$EXTMAX
 10
-351.0
 20
344.5
  9
$LIMMIN
 10
0.0
 20
0.0
  9
$LIMMAX
 10
12.0
 20
9.0
  9
$ORTHOMODE
 70
     0
  9
$REGENMODE
 70
     1
  9
$FILLMODE
 70
     1
  9
$QTEXTMODE
 70
     0
  9
$DRAGMODE
 70
     2
  9
$LTSCALE
 40
1.0
  9
$OSMODE
 70
    37
  9
$ATTMODE
 70
     1
  9
$TEXTSIZE
 40
0.2
  9
$TRACEWID
 40
0.05
  9
$TEXTSTYLE
  7
STANDARD
  9
$CLAYER
  8
0
  9
$CELTYPE
  6
BYLAYER
  9
$CECOLOR
 62
   256
  9
$DIMSCALE
 40
1.0
  9
$DIMASZ
 40
3.0
  9
$DIMEXO
 40
0.0625
  9
$DIMDLI
 40
0.38
  9
$DIMRND
 40
0.0
  9
$DIMDLE
 40
0.0
  9
$DIMEXE
 40
1.5
  9
$DIMTP
 40
0.0
  9
$DIMTM
 40
0.0
  9
$DIMTXT
 40
3.0
  9
$DIMCEN
 40
0.09
  9
$DIMTSZ
 40
0.0
  9
$DIMTOL
 70
     0
  9
$DIMLIM
 70
     0
  9
$DIMTIH
 70
     1
  9
$DIMTOH
 70
     1
  9
$DIMSE1
 70
     0
  9
$DIMSE2
 70
     0
  9
$DIMTAD
 70
     1
  9
$DIMZIN
 70
     0
  9
$DIMBLK
  1

  9
$DIMASO
 70
     1
  9
$DIMSHO
 70
     1
  9
$DIMPOST
  1

  9
$DIMAPOST
  1

  9
$DIMALT
 70
     0
  9
$DIMALTD
 70
     2
  9
$DIMALTF
 40
25.4
  9
$DIMLFAC
 40
1.0
  9
$DIMTOFL
 70
     0
  9
$DIMTVP
 40
0.0
  9
$DIMTIX
 70
     0
  9
$DIMSOXD
 70
     0
  9
$DIMSAH
 70
     0
  9
$DIMBLK1
  1

  9
$DIMBLK2
  1

  9
$LUNITS
 70
     2
  9
$LUPREC
 70
     4
  9
$SKETCHINC
 40
0.1
  9
$FILLETRAD
 40
0.5
  9
$AUNITS
 70
     0
  9
$AUPREC
 70
     0
  9
$MENU
  1
.
  9
$ELEVATION
 40
0.0
  9
$THICKNESS
 40
0.0
  9
$LIMCHECK
 70
     0
  9
$CHAMFERA
 40
0.0
  9
$CHAMFERB
 40
0.0
  9
$SKPOLY
 70
     0
  9
$TDCREATE
 40
2460613.409885706
  9
$TDUPDATE
 40
2460613.409885903
  9
$TDINDWG
 40
0.0000000116
  9
$TDUSRTIMER
 40
0.0000000116
  9
$USRTIMER
 70
     1
  9
$ANGBASE
 50
0.0
  9
$ANGDIR
 70
     0
  9
$PDMODE
 70
     0
  9
$PDSIZE
 40
0.0
  9
$PLINEWID
 40
0.0
  9
$COORDS
 70
     1
  9
$SPLFRAME
 70
     0
  9
$SPLINETYPE
 70
     6
  9
$SPLINESEGS
 70
     8
  9
$ATTDIA
 70
     0
  9
$ATTREQ
 70
     1
  9
$SURFTAB1
 70
     6
  9
$SURFTAB2
 70
     6
  9
$SURFTYPE
 70
     6
  9
$SURFU
 70
     6
  9
$SURFV
 70
     6
  9
$UCSNAME
  2

  9
$UCSORG
 10
0.0
 20
0.0
 30
0.0
  9
$UCSXDIR
 10
1.0
 20
0.0
 30
0.0
  9
$UCSYDIR
 10
0.0
 20
1.0
 30
0.0
  9
$USERI1
 70
     0
  9
$USERI2
 70
     0
  9
$USERI3
 70
     0
  9
$USERI4
 70
     0
  9
$USERI5
 70
     0
  9
$USERR1
 40
0.0
  9
$USERR2
 40
0.0
  9
$USERR3
 40
0.0
  9
$USERR4
 40
0.0
  9
$USERR5
 40
0.0
  9
$WORLDVIEW
 70
     1
  0
ENDSEC
  0
SECTION
  2
TABLES
  0
TABLE
  2
LTYPE
 70
     2
  0
LTYPE
  2
CONTINUOUS
 70
     0
  3
Solid line
 72
    65
 73
     0
 40
0.0
  0
LTYPE
  2
CENTER
 70
     0
  3

 72
    65
 73
     0
 40
0.0
  0
ENDTAB
  0
TABLE
  2
LAYER
 70
     1
  0
LAYER
  2
0
 70
     0
 62
     7
  6
CONTINUOUS
  0
ENDTAB
  0
TABLE
  2
STYLE
 70
     2
  0
STYLE
  2
STANDARD
 70
     0
 40
0.0
 41
1.0
 50
0.0
 71
     0
 42
0.2
  3
txt
  4

  0
STYLE
  2
ＭＳ_ゴシック
 70
     0
 40
0.0
 41
1.0
 50
0.0
 71
     0
 42
0.2
  3
ＭＳ ゴシック.shx
  4

  0
ENDTAB
  0
TABLE
  2
VIEW
 70
     0
  0
ENDTAB
  0
ENDSEC
  0
SECTION
  2
BLOCKS
  0
BLOCK
  8
0
  2
D_FRAME_VIEW_2376
 70
     0
 10
0.0
 20
0.0
  0
LINE
  8
0
  6
CONTINUOUS
 62
     7
 10
-555.5
 20
26.82999999999999
 11
-555.5
 21
26.66999999999999
  0
LINE
  8
0
  6
CONTINUOUS
 62
     7
 10
-560.5
 20
26.82999999999999
 11
-555.5
 21
26.82999999999999
  0
LINE
  8
0
  6
CONTINUOUS
 62
     7
 10
-749.5
 20
26.82999999999999
 11
-560.5
 21
26.82999999999999
  0
LINE
  8
0
  6
CONTINUOUS
 62
     7
 10
-754.5
 20
26.82999999999999
 11
-754.5
 21
26.66999999999999
  0
LINE
  8
0
  6
CONTINUOUS
 62
     7
 10
-754.5
 20
26.82999999999999
 11
-749.5
 21
26.82999999999999
  0
LINE
  8
0
  6
CONTINUOUS
 62
     7
 10
-558.5
 20
26.16999999999999
 11
-751.5
 21
26.16999999999999
  0
LINE
  8
0
  6
CONTINUOUS
 62
     7
 10
-655.0
 20
26.66999999999999
 11
-751.5
 21
26.66999999999999
  0
LINE
  8
0
  6
CONTINUOUS
 62
     7
 10
-558.5
 20
26.66999999999999
 11
-655.0
 21
26.66999999999999
  0
LINE
  8
0
  6
CONTINUOUS
 62
     7
 10
-552.5
 20
26.66999999999999
 11
-552.5
 21
26.16999999999999
  0
LINE
  8
0
  6
CONTINUOUS
 62
     7
 10
-552.5
 20
26.16999999999999
 11
-558.5
 21
26.16999999999999
  0
LINE
  8
0
  6
CONTINUOUS
 62
     7
 10
-558.5
 20
26.66999999999999
 11
-552.5
 21
26.66999999999999
  0
LINE
  8
0
  6
CONTINUOUS
 62
     7
 10
-757.5
 20
26.16999999999999
 11
-757.5
 21
26.66999999999999
  0
LINE
  8
0
  6
CONTINUOUS
 62
     7
 10
-751.5
 20
26.16999999999999
 11
-757.5
 21
26.16999999999999
  0
LINE
  8
0
  6
CONTINUOUS
 62
     7
 10
-757.5
 20
26.66999999999999
 11
-751.5
 21
26.66999999999999
  0
LINE
  8
0
  6
CONTINUOUS
 62
     7
 10
-706.6
 20
26.16999999999999
 11
-706.6
 21
23.51862297099063
  0
LINE
  8
0
  6
CONTINUOUS
 62
     7
 10
-605.4000000000001
 20
26.16999999999999
 11
-605.4000000000001
 21
23.51862297099063
  0
LINE
  8
0
  6
CONTINUOUS
 62
     7
 10
-630.6
 20
26.16999999999999
 11
-630.6
 21
23.51862297099063
  0
LINE
  8
0
  6
CONTINUOUS
 62
     7
 10
-656.0
 20
26.16999999999999
 11
-656.0
 21
23.51862297099063
  0
LINE
  8
0
  6
CONTINUOUS
 62
     7
 10
-679.4
 20
23.51862297099063
 11
-679.4
 21
26.16999999999999
  0
LINE
  8
0
  6
CONTINUOUS
 62
     7
 10
-681.4
 20
26.16999999999999
 11
-681.4
 21
23.51862297099063
  0
LINE
  8
0
  6
CONTINUOUS
 62
     7
 10
-731.8
 20
26.16999999999999
 11
-731.8
 21
23.51862297099063
  0
LINE
  8
0
  6
CONTINUOUS
 62
     7
 10
-704.6
 20
23.51862297099063
 11
-704.6
 21
26.16999999999999
  0
LINE
  8
0
  6
CONTINUOUS
 62
     7
 10
-729.8
 20
23.51862297099063
 11
-729.8
 21
26.16999999999999
  0
LINE
  8
0
  6
CONTINUOUS
 62
     7
 10
-628.6
 20
23.51862297099063
 11
-628.6
 21
26.16999999999999
  0
LINE
  8
0
  6
CONTINUOUS
 62
     7
 10
-578.2
 20
23.51862297099063
 11
-578.2
 21
26.16999999999999
  0
LINE
  8
0
  6
CONTINUOUS
 62
     7
 10
-603.4000000000001
 20
23.51862297099063
 11
-603.4000000000001
 21
26.16999999999999
  0
LINE
  8
0
  6
CONTINUOUS
 62
     7
 10
-654.0
 20
23.51862297099063
 11
-654.0
 21
26.16999999999999
  0
LINE
  8
0
  6
CONTINUOUS
 62
     7
 10
-580.2
 20
26.16999999999999
 11
-580.2
 21
23.51862297099063
  0
LINE
  8
0
  6
CONTINUOUS
 62
     7
 10
-605.4000000000001
 20
-7.830000000000007
 11
-605.4000000000001
 21
23.51862297099063
  0
LINE
  8
0
  6
CONTINUOUS
 62
     7
 10
-731.8
 20
-7.830000000000007
 11
-731.8
 21
23.51862297099063
  0
LINE
  8
0
  6
CONTINUOUS
 62
     7
 10
-630.6
 20
-7.830000000000007
 11
-630.6
 21
23.51862297099063
  0
LINE
  8
0
  6
CONTINUOUS
 62
     7
 10
-628.6
 20
23.51862297099063
 11
-628.6
 21
-7.830000000000007
  0
LINE
  8
0
  6
CONTINUOUS
 62
     7
 10
-654.0
 20
23.51862297099063
 11
-654.0
 21
-7.830000000000011
  0
LINE
  8
0
  6
CONTINUOUS
 62
     7
 10
-603.4000000000001
 20
23.51862297099063
 11
-603.4000000000001
 21
-7.830000000000007
  0
LINE
  8
0
  6
CONTINUOUS
 62
     7
 10
-729.8
 20
23.51862297099063
 11
-729.8
 21
-7.830000000000011
  0
LINE
  8
0
  6
CONTINUOUS
 62
     7
 10
-679.4
 20
23.51862297099063
 11
-679.4
 21
-7.830000000000011
  0
LINE
  8
0
  6
CONTINUOUS
 62
     7
 10
-580.2
 20
-7.830000000000007
 11
-580.2
 21
23.51862297099063
  0
LINE
  8
0
  6
CONTINUOUS
 62
     7
 10
-681.4
 20
-7.830000000000007
 11
-681.4
 21
23.51862297099063
  0
LINE
  8
0
  6
CONTINUOUS
 62
     7
 10
-578.2
 20
23.51862297099063
 11
-578.2
 21
-7.830000000000007
  0
LINE
  8
0
  6
CONTINUOUS
 62
     7
 10
-704.6
 20
23.51862297099063
 11
-704.6
 21
-7.830000000000011
  0
LINE
  8
0
  6
CONTINUOUS
 62
     7
 10
-656.0
 20
-7.830000000000007
 11
-656.0
 21
23.51862297099063
  0
LINE
  8
0
  6
CONTINUOUS
 62
     7
 10
-706.6
 20
-7.830000000000007
 11
-706.6
 21
23.51862297099063
  0
LINE
  8
0
  6
CONTINUOUS
 62
     7
 10
-735.0
 20
-9.508616240460347
 11
-575.0
 21
-9.508616240460325
  0
LINE
  8
0
  6
CONTINUOUS
 62
     7
 10
-572.0
 20
26.16999999999999
 11
-572.0
 21
-9.683391064459776
  0
ARC
  8
0
  6
CONTINUOUS
 62
     7
 10
-574.6767335942155
 20
-32.14433281351136
 40
22.63802478010408
 50
83.28422670919996
 51
90.81819992773052
  0
LINE
  8
0
  6
CONTINUOUS
 62
     7
 10
-572.0293490639153
 20
-9.661639000417413
 11
-572.0
 21
-9.68339106445978
  0
LINE
  8
0
  6
CONTINUOUS
 62
     7
 10
-738.0
 20
-9.68339106445978
 11
-737.8785863061321
 21
-9.638633588169933
  0
ARC
  8
0
  6
CONTINUOUS
 62
     7
 10
-735.2980472809774
 20
-34.8408280775604
 40
25.3339651207901
 50
89.32591502475776
 51
95.84633614439315
  0
LINE
  8
0
  6
CONTINUOUS
 62
     7
 10
-738.0
 20
-9.68339106445978
 11
-738.0
 21
26.16999999999999
  0
LINE
  8
0
  6
CONTINUOUS
 62
     7
 10
-711.6133376613901
 20
15.47917164229936
 11
-711.7302957728597
 21
15.56492643477015
  0
ARC
  8
0
  6
CONTINUOUS
 62
     7
 10
-718.2019292798313
 20
6.620902768496409
 40
11.03981882058864
 50
54.11160265612628
 51
88.81383181610151
  0
LINE
  8
0
  6
CONTINUOUS
 62
     7
 10
-717.9733933116066
 20
17.6583558670446
 11
-718.1999999999999
 21
17.66070886655706
  0
ARC
  8
0
  6
CONTINUOUS
 62
     7
 10
-718.200006010361
 20
6.623435479519882
 40
11.03667807467873
 50
126.7626602788089
 51
53.35908001539866
  0
LINE
  8
0
  6
CONTINUOUS
 62
     7
 10
-718.1999999999999
 20
17.66070886655706
 11
-718.5525217794617
 21
17.65501738522806
  0
ARC
  8
0
  6
CONTINUOUS
 62
     7
 10
-718.2002194237863
 20
6.627200637037856
 40
11.03344276196142
 50
91.82978877193791
 51
125.7136746201465
  0
LINE
  8
0
  6
CONTINUOUS
 62
     7
 10
-724.6408262711632
 20
15.58574084284152
 11
-724.8054758703229
 21
15.46515651409401
  0
LINE
  8
0
  6
CONTINUOUS
 62
     7
 10
-585.1945400317893
 20
15.46516838651067
 11
-585.2360114217535
 21
15.49598045895914
  0
ARC
  8
0
  6
CONTINUOUS
 62
     7
 10
-591.7994557956803
 20
6.627497727282553
 40
11.03307699654437
 50
53.49535645926882
 51
87.39522279957653
  0
LINE
  8
0
  6
CONTINUOUS
 62
     7
 10
-591.2980434890551
 20
17.64917517268264
 11
-591.8
 21
17.66070886655706
  0
LINE
  8
0
  6
CONTINUOUS
 62
     7
 10
-591.8
 20
17.66070886655706
 11
-592.0016340989663
 21
17.65884569470618
  0
ARC
  8
0
  6
CONTINUOUS
 62
     7
 10
-591.7989091625749
 20
6.623419289002777
 40
11.03728831532142
 50
91.05242665654974
 51
125.8883712281427
  0
LINE
  8
0
  6
CONTINUOUS
 62
     7
 10
-598.2690551905351
 20
15.56539578932978
 11
-598.3957840075248
 21
15.47238418713855
  0
LINE
  8
0
  6
CONTINUOUS
 62
     7
 10
-635.594540031796
 20
15.46516838651298
 11
-635.6360114217601
 21
15.4959804589613
  0
ARC
  8
0
  6
CONTINUOUS
 62
     7
 10
-642.1994557956723
 20
6.627497727316854
 40
11.03307699650981
 50
53.49535645923069
 51
87.39522279994644
  0
LINE
  8
0
  6
CONTINUOUS
 62
     7
 10
-641.6980434891199
 20
17.64917517268566
 11
-642.1999999999999
 21
17.66070886655706
  0
ARC
  8
0
  6
CONTINUOUS
 62
     7
 10
-642.1999968737789
 20
6.623453069712103
 40
11.03666570276767
 50
126.699988157658
 51
53.23737609676675
  0
LINE
  8
0
  6
CONTINUOUS
 62
     7
 10
-642.1999999999999
 20
17.66070886655706
 11
-642.4016340989741
 21
17.65884569470605
  0
ARC
  8
0
  6
CONTINUOUS
 62
     7
 10
-642.1989091625748
 20
6.623419289001881
 40
11.03728831532233
 50
91.05242665659115
 51
125.8883712282074
  0
LINE
  8
0
  6
CONTINUOUS
 62
     7
 10
-648.6690551905456
 20
15.56539578932235
 11
-648.7957840075486
 21
15.47238418712091
  0
LINE
  8
0
  6
CONTINUOUS
 62
     7
 10
-610.3945400318065
 20
15.46516838652058
 11
-610.4360114217551
 21
15.49598045895736
  0
ARC
  8
0
  6
CONTINUOUS
 62
     7
 10
-616.9994557956729
 20
6.627497727315429
 40
11.03307699651123
 50
53.49535645919885
 51
87.39522279989711
  0
LINE
  8
0
  6
CONTINUOUS
 62
     7
 10
-616.498043489111
 20
17.64917517268526
 11
-617.0
 21
17.66070886655706
  0
ARC
  8
0
  6
CONTINUOUS
 62
     7
 10
-616.9999968737787
 20
6.623453069711953
 40
11.03666570276752
 50
126.699988157609
 51
53.23737609683514
  0
LINE
  8
0
  6
CONTINUOUS
 62
     7
 10
-617.0
 20
17.66070886655706
 11
-617.2016340989732
 21
17.65884569470606
  0
ARC
  8
0
  6
CONTINUOUS
 62
     7
 10
-616.9989091625766
 20
6.623419289009518
 40
11.03728831531466
 50
91.05242665657747
 51
125.8883712281914
  0
LINE
  8
0
  6
CONTINUOUS
 62
     7
 10
-623.4690551905405
 20
15.56539578932557
 11
-623.5957840075408
 21
15.47238418712629
  0
LINE
  8
0
  6
CONTINUOUS
 62
     7
 10
-661.213337661413
 20
15.47917164231655
 11
-661.3302957713262
 21
15.56492643366119
  0
ARC
  8
0
  6
CONTINUOUS
 62
     7
 10
-667.8019292798298
 20
6.620902768498216
 40
11.0398188205868
 50
54.11160264630536
 51
88.8138318161053
  0
LINE
  8
0
  6
CONTINUOUS
 62
     7
 10
-667.5733933116057
 20
17.65835586704459
 11
-667.8000000000001
 21
17.66070886655706
  0
ARC
  8
0
  6
CONTINUOUS
 62
     7
 10
-667.8000060103593
 20
6.623435479519429
 40
11.03667807467833
 50
126.7626602804962
 51
53.35908001555548
  0
LINE
  8
0
  6
CONTINUOUS
 62
     7
 10
-667.8000000000001
 20
17.66070886655706
 11
-668.1525217794865
 21
17.65501738522727
  0
ARC
  8
0
  6
CONTINUOUS
 62
     7
 10
-667.8002194237961
 20
6.627200637077014
 40
11.03344276192197
 50
91.82978877202233
 51
125.7136746189618
  0
LINE
  8
0
  6
CONTINUOUS
 62
     7
 10
-674.2408262709647
 20
15.58574084298179
 11
-674.4054758705813
 21
15.46515651389872
  0
LINE
  8
0
  6
CONTINUOUS
 62
     7
 10
-686.4133376613338
 20
15.47917164225721
 11
-686.5302957707675
 21
15.56492643325663
  0
ARC
  8
0
  6
CONTINUOUS
 62
     7
 10
-693.0019292798305
 20
6.62090276849794
 40
11.03981882058715
 50
54.11160264272357
 51
88.81383181608403
  0
LINE
  8
0
  6
CONTINUOUS
 62
     7
 10
-692.7733933116024
 20
17.65835586704453
 11
-693.0
 21
17.66070886655706
  0
ARC
  8
0
  6
CONTINUOUS
 62
     7
 10
-693.0000060103598
 20
6.623435479519372
 40
11.03667807467824
 50
126.7626602804526
 51
53.3590800150402
  0
LINE
  8
0
  6
CONTINUOUS
 62
     7
 10
-693.0
 20
17.66070886655706
 11
-693.3525217794921
 21
17.6550173852271
  0
ARC
  8
0
  6
CONTINUOUS
 62
     7
 10
-693.0002194237966
 20
6.627200637078611
 40
11.03344276192037
 50
91.82978877204911
 51
125.7136746192459
  0
LINE
  8
0
  6
CONTINUOUS
 62
     7
 10
-699.4408262710087
 20
15.58574084295019
 11
-699.605475870575
 21
15.4651565139036
  0
LINE
  8
0
  6
CONTINUOUS
 62
     7
 10
-724.8048714866932
 20
15.46561443860718
 11
-724.6438118900899
 21
15.58367775628774
  0
ARC
  8
0
  6
CONTINUOUS
 62
     7
 10
-718.20146904151
 20
6.636636844057424
 40
11.02512233327914
 50
91.82486739198066
 51
125.7558837429919
  0
LINE
  8
0
  6
CONTINUOUS
 62
     7
 10
-711.5951292329585
 20
15.46561497616825
 11
-711.5195561370145
 21
15.40865970188775
  0
LINE
  8
0
  6
CONTINUOUS
 62
     7
 10
-718.1999999999999
 20
17.66186268385389
 11
-717.9733691873732
 21
17.65950819453292
  0
ARC
  8
0
  6
CONTINUOUS
 62
     7
 10
-718.1990959890376
 20
6.635122049022331
 40
11.0266968070368
 50
54.08021584838269
 51
88.82701984549914
  0
LINE
  8
0
  6
CONTINUOUS
 62
     7
 10
-711.7302619449832
 20
15.56497247245039
 11
-711.6755216146819
 21
15.52510310348709
  0
LINE
  8
0
  6
CONTINUOUS
 62
     7
 10
-711.6755216146819
 20
15.52510310348709
 11
-711.5951292329585
 21
15.46561497616825
  0
LINE
  8
0
  6
CONTINUOUS
 62
     7
 10
-598.4048784555351
 20
15.46560923305698
 11
-598.3244840167645
 21
15.52509897553022
  0
LINE
  8
0
  6
CONTINUOUS
 62
     7
 10
-598.3244840167645
 20
15.52509897553022
 11
-598.2690894718386
 21
15.56544180065097
  0
ARC
  8
0
  6
CONTINUOUS
 62
     7
 10
-591.8004977448609
 20
6.633945602298136
 40
11.02788752533843
 50
91.04518058174693
 51
125.9137483161078
  0
LINE
  8
0
  6
CONTINUOUS
 62
     7
 10
-592.0016555746193
 20
17.65999833203974
 11
-591.8
 21
17.6618626838539
  0
ARC
  8
0
  6
CONTINUOUS
 62
     7
 10
-591.8000266024569
 20
6.62929990206376
 40
11.03200495238735
 50
127.2683428028612
 51
53.22297759448389
  0
ARC
  8
0
  6
CONTINUOUS
 62
     7
 10
-591.799558876247
 20
6.632977436707966
 40
11.02875540246572
 50
53.47799025796803
 51
87.39338918698674
  0
LINE
  8
0
  6
CONTINUOUS
 62
     7
 10
-585.2359987067988
 20
15.49599744285989
 11
-585.19513843734
 21
15.46562185159675
  0
LINE
  8
0
  6
CONTINUOUS
 62
     7
 10
-648.8048784555489
 20
15.46560923304684
 11
-648.7244840167784
 21
15.52509897552019
  0
LINE
  8
0
  6
CONTINUOUS
 62
     7
 10
-648.7244840167784
 20
15.52509897552019
 11
-648.669089471849
 21
15.56544180064354
  0
ARC
  8
0
  6
CONTINUOUS
 62
     7
 10
-642.2004977448602
 20
6.633945602295568
 40
11.02788752534101
 50
91.04518058179052
 51
125.9137483161694
  0
LINE
  8
0
  6
CONTINUOUS
 62
     7
 10
-642.4016555746272
 20
17.6599983320396
 11
-642.1999999999999
 21
17.6618626838539
  0
ARC
  8
0
  6
CONTINUOUS
 62
     7
 10
-642.1995588762392
 20
6.632977436741966
 40
11.02875540243148
 50
53.47799025793029
 51
87.3933891873562
  0
LINE
  8
0
  6
CONTINUOUS
 62
     7
 10
-635.6359987068054
 20
15.49599744286204
 11
-635.5951384373795
 21
15.46562185162345
  0
LINE
  8
0
  6
CONTINUOUS
 62
     7
 10
-623.6048784556266
 20
15.46560923298827
 11
-623.5244840168566
 21
15.52509897546232
  0
LINE
  8
0
  6
CONTINUOUS
 62
     7
 10
-623.5244840168566
 20
15.52509897546232
 11
-623.4690894718439
 21
15.56544180064679
  0
ARC
  8
0
  6
CONTINUOUS
 62
     7
 10
-617.0004977448615
 20
6.633945602301622
 40
11.02788752533496
 50
91.04518058177956
 51
125.9137483161508
  0
LINE
  8
0
  6
CONTINUOUS
 62
     7
 10
-617.2016555746262
 20
17.65999833203962
 11
-617.0
 21
17.6618626838539
  0
ARC
  8
0
  6
CONTINUOUS
 62
     7
 10
-616.99955887624
 20
6.632977436740102
 40
11.02875540243338
 50
53.47799025789885
 51
87.39338918730527
  0
LINE
  8
0
  6
CONTINUOUS
 62
     7
 10
-610.4359987068003
 20
15.4959974428581
 11
-610.3951384374203
 21
15.46562185165365
  0
LINE
  8
0
  6
CONTINUOUS
 62
     7
 10
-674.4048714870336
 20
15.46561443835082
 11
-674.2438118899457
 21
15.5836777563892
  0
ARC
  8
0
  6
CONTINUOUS
 62
     7
 10
-667.8014690415182
 20
6.636636844091726
 40
11.02512233324463
 50
91.82486739207303
 51
125.7558837421456
  0
LINE
  8
0
  6
CONTINUOUS
 62
     7
 10
-661.1951292329659
 20
15.46561497617393
 11
-661.1195561370208
 21
15.40865970189273
  0
LINE
  8
0
  6
CONTINUOUS
 62
     7
 10
-667.8000000000001
 20
17.6618626838539
 11
-667.5733691873725
 21
17.65950819453291
  0
ARC
  8
0
  6
CONTINUOUS
 62
     7
 10
-667.7990959890388
 20
6.635122049013365
 40
11.0266968070458
 50
54.08021583857129
 51
88.82701984548969
  0
LINE
  8
0
  6
CONTINUOUS
 62
     7
 10
-661.33026194345
 20
15.564972471341
 11
-661.2755216146894
 21
15.52510310349267
  0
LINE
  8
0
  6
CONTINUOUS
 62
     7
 10
-661.2755216146894
 20
15.52510310349267
 11
-661.1951292329659
 21
15.46561497617393
  0
LINE
  8
0
  6
CONTINUOUS
 62
     7
 10
-699.6048714869958
 20
15.46561443837914
 11
-699.4438118899698
 21
15.58367775637207
  0
ARC
  8
0
  6
CONTINUOUS
 62
     7
 10
-693.0014690415187
 20
6.636636844092245
 40
11.02512233324406
 50
91.82486739210026
 51
125.7558837422984
  0
LINE
  8
0
  6
CONTINUOUS
 62
     7
 10
-686.3951292328682
 20
15.4656149761005
 11
-686.3195561370247
 21
15.40865970189519
  0
LINE
  8
0
  6
CONTINUOUS
 62
     7
 10
-693.0
 20
17.6618626838539
 11
-692.773369187369
 21
17.65950819453284
  0
ARC
  8
0
  6
CONTINUOUS
 62
     7
 10
-692.9990959890397
 20
6.635122049010914
 40
11.02669680704826
 50
54.08021583499181
 51
88.82701984546748
  0
LINE
  8
0
  6
CONTINUOUS
 62
     7
 10
-686.5302619428916
 20
15.5649724709364
 11
-686.475521614591
 21
15.52510310342013
  0
LINE
  8
0
  6
CONTINUOUS
 62
     7
 10
-686.475521614591
 20
15.52510310342013
 11
-686.3951292328682
 21
15.4656149761005
  0
LINE
  8
0
  6
CONTINUOUS
 62
     7
 10
-598.4804438629637
 20
15.40865970190228
 11
-598.4048784555351
 21
15.46560923305698
  0
LINE
  8
0
  6
CONTINUOUS
 62
     7
 10
-623.6804438629489
 20
15.40865970191334
 11
-623.6048784556266
 21
15.46560923298827
  0
LINE
  8
0
  6
CONTINUOUS
 62
     7
 10
-648.8804438629572
 20
15.40865970190736
 11
-648.8048784555489
 21
15.46560923304684
  0
ARC
  8
0
  6
CONTINUOUS
 62
     7
 10
-629.6
 20
-7.830000000000007
 40
1.000000000000001
 50
270.0
 51
0.0
  0
ARC
  8
0
  6
CONTINUOUS
 62
     7
 10
-579.2
 20
-7.830000000000007
 40
1.000000000000001
 50
269.9999999999992
 51
0.0
  0
ARC
  8
0
  6
CONTINUOUS
 62
     7
 10
-604.4000000000001
 20
-7.830000000000007
 40
1.000000000000001
 50
269.9999999999996
 51
0.0
  0
ARC
  8
0
  6
CONTINUOUS
 62
     7
 10
-655.0
 20
-7.830000000000007
 40
1.000000000000001
 50
180.0
 51
270.0
  0
ARC
  8
0
  6
CONTINUOUS
 62
     7
 10
-655.0
 20
-7.830000000000007
 40
1.000000000000001
 50
270.0
 51
0.0
  0
ARC
  8
0
  6
CONTINUOUS
 62
     7
 10
-705.6
 20
-7.830000000000007
 40
1.000000000000001
 50
180.0
 51
270.0
  0
ARC
  8
0
  6
CONTINUOUS
 62
     7
 10
-705.6
 20
-7.830000000000007
 40
1.000000000000001
 50
269.9999999999996
 51
0.0
  0
ARC
  8
0
  6
CONTINUOUS
 62
     7
 10
-730.8
 20
-7.830000000000007
 40
1.000000000000001
 50
180.0
 51
270.0
  0
ARC
  8
0
  6
CONTINUOUS
 62
     7
 10
-680.4
 20
-7.830000000000007
 40
1.000000000000001
 50
270.0
 51
0.0
  0
ARC
  8
0
  6
CONTINUOUS
 62
     7
 10
-730.8
 20
-7.830000000000007
 40
1.000000000000001
 50
269.9999999999992
 51
0.0
  0
ARC
  8
0
  6
CONTINUOUS
 62
     7
 10
-629.6
 20
-7.830000000000007
 40
1.000000000000001
 50
180.0
 51
270.0
  0
ARC
  8
0
  6
CONTINUOUS
 62
     7
 10
-604.4000000000001
 20
-7.830000000000007
 40
1.000000000000001
 50
180.0
 51
270.0
  0
ARC
  8
0
  6
CONTINUOUS
 62
     7
 10
-680.4
 20
-7.830000000000007
 40
1.000000000000001
 50
180.0
 51
270.0
  0
ARC
  8
0
  6
CONTINUOUS
 62
     7
 10
-579.2
 20
-7.830000000000007
 40
1.000000000000001
 50
180.0
 51
270.0
  0
LINE
  8
0
  6
CONTINUOUS
 62
     7
 10
-615.5
 20
9.651918489340751
 11
-615.5
 21
9.65973752095587
  0
LINE
  8
0
  6
CONTINUOUS
 62
     7
 10
-694.5
 20
9.659736191108502
 11
-694.5
 21
9.651918489340751
  0
LINE
  8
0
  6
CONTINUOUS
 62
     7
 10
-640.7
 20
9.651918489340751
 11
-640.7
 21
9.654106250468155
  0
LINE
  8
0
  6
CONTINUOUS
 62
     7
 10
-640.7
 20
9.654106250468159
 11
-640.7
 21
9.659737520955867
  0
LINE
  8
0
  6
CONTINUOUS
 62
     7
 10
-669.3
 20
9.65973619110851
 11
-669.3
 21
9.651918489340751
  0
LINE
  8
0
  6
CONTINUOUS
 62
     7
 10
-590.3000000000001
 20
9.651918489340751
 11
-590.3000000000001
 21
9.659737520955867
  0
LINE
  8
0
  6
CONTINUOUS
 62
     7
 10
-719.7
 20
9.659736191108502
 11
-719.7
 21
9.651918489340751
  0
LINE
  8
0
  6
CONTINUOUS
 62
     7
 10
-691.5
 20
9.651918489340751
 11
-691.5
 21
9.659640234925032
  0
LINE
  8
0
  6
CONTINUOUS
 62
     7
 10
-593.3000000000001
 20
9.659638485382766
 11
-593.3000000000001
 21
9.651918489340751
  0
LINE
  8
0
  6
CONTINUOUS
 62
     7
 10
-618.5
 20
9.659638485382766
 11
-618.5
 21
9.651918489340751
  0
LINE
  8
0
  6
CONTINUOUS
 62
     7
 10
-716.7
 20
9.651918489340751
 11
-716.7
 21
9.659640234925032
  0
LINE
  8
0
  6
CONTINUOUS
 62
     7
 10
-666.3
 20
9.651918489340751
 11
-666.3
 21
9.659640234925032
  0
LINE
  8
0
  6
CONTINUOUS
 62
     7
 10
-643.7
 20
9.659638485382766
 11
-643.7
 21
9.651918489340751
  0
LINE
  8
0
  6
CONTINUOUS
 62
     7
 10
-666.3
 20
9.651994641762556
 11
-669.3
 21
9.651994641762556
  0
LINE
  8
0
  6
CONTINUOUS
 62
     7
 10
-716.7
 20
9.651994641762556
 11
-719.7
 21
9.651994641762556
  0
LINE
  8
0
  6
CONTINUOUS
 62
     7
 10
-590.3000000000001
 20
9.651994641762556
 11
-593.3000000000001
 21
9.651994641762556
  0
LINE
  8
0
  6
CONTINUOUS
 62
     7
 10
-640.7
 20
9.651994641762556
 11
-643.7
 21
9.651994641762556
  0
LINE
  8
0
  6
CONTINUOUS
 62
     7
 10
-615.5
 20
9.651994641762556
 11
-618.5
 21
9.651994641762556
  0
LINE
  8
0
  6
CONTINUOUS
 62
     7
 10
-691.5
 20
9.651994641762556
 11
-694.5
 21
9.651994641762556
  0
ARC
  8
0
  6
CONTINUOUS
 62
     7
 10
-615.5184163486582
 20
6.618954673441358
 40
3.050958923973577
 50
0.1973231352365588
 51
52.77346768544476
  0
ARC
  8
0
  6
CONTINUOUS
 62
     7
 10
-694.4814769675912
 20
6.618900987867093
 40
3.051065792446809
 50
127.2263124981013
 51
179.8016756121971
  0
ARC
  8
0
  6
CONTINUOUS
 62
     7
 10
-640.7184163486567
 20
6.618954673442083
 40
3.050958923972015
 50
0.1973231352230869
 51
52.77346768532561
  0
ARC
  8
0
  6
CONTINUOUS
 62
     7
 10
-669.2814769675921
 20
6.618900987867487
 40
3.051065792445919
 50
127.2263124982291
 51
179.8016756122043
  0
ARC
  8
0
  6
CONTINUOUS
 62
     7
 10
-590.318416348656
 20
6.618954673442475
 40
3.050958923971313
 50
0.1973231352157541
 51
52.77346768512182
  0
ARC
  8
0
  6
CONTINUOUS
 62
     7
 10
-719.6814769675937
 20
6.618900987868255
 40
3.051065792444362
 50
127.2263124984319
 51
179.8016756122187
  0
ARC
  8
0
  6
CONTINUOUS
 62
     7
 10
-593.2802678569301
 20
6.618298507999183
 40
3.052277039929167
 50
127.2375249133434
 51
179.7904447995955
  0
ARC
  8
0
  6
CONTINUOUS
 62
     7
 10
-691.5185701589926
 20
6.618878039743136
 40
3.051112998266091
 50
0.1987522567290511
 51
52.77202851143705
  0
ARC
  8
0
  6
CONTINUOUS
 62
     7
 10
-618.4802678569297
 20
6.618298507998981
 40
3.052277039929612
 50
127.2375249133476
 51
179.7904447995917
  0
ARC
  8
0
  6
CONTINUOUS
 62
     7
 10
-716.7185701589926
 20
6.618878039743214
 40
3.051112998266083
 50
0.1987522567274027
 51
52.7720285114317
  0
ARC
  8
0
  6
CONTINUOUS
 62
     7
 10
-643.680267856935
 20
6.618298508001405
 40
3.052277039924274
 50
127.2375249135256
 51
179.7904447996366
  0
ARC
  8
0
  6
CONTINUOUS
 62
     7
 10
-666.318570158988
 20
6.618878039745281
 40
3.051112998261425
 50
0.1987522566886355
 51
52.77202851125003
  0
LINE
  8
0
  6
CONTINUOUS
 62
     7
 10
-735.0
 20
-11.08338008308725
 11
-736.6038523978334
 21
-11.08338008308725
  0
LINE
  8
0
  6
CONTINUOUS
 62
     7
 10
-736.6038523978335
 20
-11.08338008308726
 11
-738.0
 21
-9.687232480920734
  0
LINE
  8
0
  6
CONTINUOUS
 62
     7
 10
-573.3961476021665
 20
-11.08338008308726
 11
-572.0
 21
-9.687232480920734
  0
LINE
  8
0
  6
CONTINUOUS
 62
     7
 10
-575.0
 20
-11.08338008308725
 11
-573.3961476021666
 21
-11.08338008308725
  0
ARC
  8
0
  6
CONTINUOUS
 62
     7
 10
-716.7000927808217
 20
6.629678519874271
 40
3.032617270614506
 50
270.0017529246288
 51
359.9959086329161
  0
ARC
  8
0
  6
CONTINUOUS
 62
     7
 10
-691.5000927808217
 20
6.629678519874283
 40
3.032617270614506
 50
270.0017529246288
 51
359.995908632916
  0
ARC
  8
0
  6
CONTINUOUS
 62
     7
 10
-666.3000927808217
 20
6.629678519874283
 40
3.032617270614506
 50
270.0017529246288
 51
359.9959086329159
  0
ARC
  8
0
  6
CONTINUOUS
 62
     7
 10
-593.2999397928892
 20
6.629645944833961
 40
3.032584694752573
 50
180.0034759583685
 51
269.9988624840951
  0
ARC
  8
0
  6
CONTINUOUS
 62
     7
 10
-618.4999397928892
 20
6.629645944833949
 40
3.032584694752561
 50
180.0034759583682
 51
269.9988624840951
  0
ARC
  8
0
  6
CONTINUOUS
 62
     7
 10
-643.6999397928892
 20
6.629645944833908
 40
3.03258469475252
 50
180.0034759583674
 51
269.9988624840951
  0
ARC
  8
0
  6
CONTINUOUS
 62
     7
 10
-615.5001015793496
 20
6.629687318761257
 40
3.032626069783463
 50
270.001919151217
 51
359.9957424063264
  0
ARC
  8
0
  6
CONTINUOUS
 62
     7
 10
-640.7001015793495
 20
6.629687318761318
 40
3.032626069783463
 50
270.001919151217
 51
359.9957424063252
  0
ARC
  8
0
  6
CONTINUOUS
 62
     7
 10
-590.3001015793498
 20
6.629687318761465
 40
3.032626069783685
 50
270.0019191512212
 51
359.9957424063224
  0
ARC
  8
0
  6
CONTINUOUS
 62
     7
 10
-694.4998573715031
 20
6.629728369584083
 40
3.032667122258998
 50
180.0050331038176
 51
269.9973053386478
  0
ARC
  8
0
  6
CONTINUOUS
 62
     7
 10
-669.299857371503
 20
6.629728369584227
 40
3.032667122259142
 50
180.0050331038201
 51
269.9973053386457
  0
ARC
  8
0
  6
CONTINUOUS
 62
     7
 10
-719.6998573715031
 20
6.629728369583963
 40
3.032667122258877
 50
180.0050331038152
 51
269.9973053386478
  0
LINE
  8
0
  6
CONTINUOUS
 62
     7
 10
-575.0
 20
-11.08338008308725
 11
-735.0
 21
-11.08338008308725
  0
LINE
  8
0
  6
CONTINUOUS
 62
     7
 10
-640.7
 20
3.597061250679046
 11
-643.6999999999996
 21
3.597061250679046
  0
LINE
  8
0
  6
CONTINUOUS
 62
     7
 10
-615.5
 20
3.597061250679046
 11
-618.4999999999995
 21
3.597061250679046
  0
LINE
  8
0
  6
CONTINUOUS
 62
     7
 10
-590.3000000000001
 20
3.597061250679046
 11
-593.2999999999996
 21
3.597061250679046
  0
LINE
  8
0
  6
CONTINUOUS
 62
     7
 10
-716.7
 20
3.597061250679046
 11
-719.6999999999996
 21
3.597061250679046
  0
LINE
  8
0
  6
CONTINUOUS
 62
     7
 10
-691.5
 20
3.597061250679046
 11
-694.4999999999995
 21
3.597061250679046
  0
LINE
  8
0
  6
CONTINUOUS
 62
     7
 10
-666.3
 20
3.597061250679046
 11
-669.2999999999995
 21
3.597061250679046
  0
LINE
  8
0
  6
CONTINUOUS
 62
     7
 10
-575.0
 20
-13.08338008308728
 11
-573.3961476021666
 21
-13.08338008308728
  0
LINE
  8
0
  6
CONTINUOUS
 62
     7
 10
-572.3990871951528
 20
-12.0804404901012
 11
-575.0
 21
-11.99589141956134
  0
LINE
  8
0
  6
CONTINUOUS
 62
     7
 10
-573.3961476021665
 20
-13.08338008308728
 11
-572.3961476021666
 21
-12.08338008308732
  0
LINE
  8
0
  6
CONTINUOUS
 62
     7
 10
-572.3990871951528
 20
-12.0804404901012
 11
-573.3961476021665
 21
-11.08338008308726
  0
LINE
  8
0
  6
CONTINUOUS
 62
     7
 10
-735.0
 20
-11.99589141956138
 11
-737.6009128048473
 21
-12.0804404901012
  0
LINE
  8
0
  6
CONTINUOUS
 62
     7
 10
-737.6009128048473
 20
-12.0804404901012
 11
-736.6038523978335
 21
-11.08338008308726
  0
LINE
  8
0
  6
CONTINUOUS
 62
     7
 10
-735.0
 20
-13.08338008308728
 11
-736.6038523978334
 21
-13.08338008308728
  0
LINE
  8
0
  6
CONTINUOUS
 62
     7
 10
-736.6038523978335
 20
-13.08338008308728
 11
-737.6038523978334
 21
-12.08338008308732
  0
LINE
  8
0
  6
CONTINUOUS
 62
     7
 10
-575.0
 20
-13.08338008308728
 11
-735.0
 21
-13.08338008308728
  0
LINE
  8
0
  6
CONTINUOUS
 62
     7
 10
-575.0
 20
-11.99589141956134
 11
-735.0
 21
-11.99589141956138
  0
LINE
  8
0
  6
CONTINUOUS
 62
     7
 10
-575.0
 20
-15.08338008308728
 11
-573.3961476021666
 21
-15.08338008308728
  0
LINE
  8
0
  6
CONTINUOUS
 62
     7
 10
-572.3990871951528
 20
-14.08044049010117
 11
-575.0
 21
-13.99589141956134
  0
LINE
  8
0
  6
CONTINUOUS
 62
     7
 10
-573.3961476021666
 20
-15.08338008308728
 11
-572.3961476021666
 21
-14.08338008308729
  0
LINE
  8
0
  6
CONTINUOUS
 62
     7
 10
-572.3990871951528
 20
-14.08044049010117
 11
-573.3961476021665
 21
-13.08338008308728
  0
LINE
  8
0
  6
CONTINUOUS
 62
     7
 10
-735.0
 20
-13.99589141956138
 11
-737.6009128048473
 21
-14.08044049010117
  0
LINE
  8
0
  6
CONTINUOUS
 62
     7
 10
-737.6009128048473
 20
-14.08044049010117
 11
-736.6038523978335
 21
-13.08338008308728
  0
LINE
  8
0
  6
CONTINUOUS
 62
     7
 10
-735.0
 20
-15.08338008308728
 11
-736.6038523978334
 21
-15.08338008308728
  0
LINE
  8
0
  6
CONTINUOUS
 62
     7
 10
-736.6038523978334
 20
-15.08338008308728
 11
-737.6038523978334
 21
-14.08338008308729
  0
LINE
  8
0
  6
CONTINUOUS
 62
     7
 10
-575.0
 20
-13.99589141956134
 11
-735.0
 21
-13.99589141956138
  0
LINE
  8
0
  6
CONTINUOUS
 62
     7
 10
-575.0
 20
-15.08338008308728
 11
-735.0
 21
-15.08338008308728
  0
LINE
  8
0
  6
CONTINUOUS
 62
     7
 10
-572.3990871951528
 20
-16.08044049010119
 11
-575.0
 21
-15.99589141956136
  0
LINE
  8
0
  6
CONTINUOUS
 62
     7
 10
-572.3990871951528
 20
-16.08044049010119
 11
-573.3961476021666
 21
-15.08338008308728
  0
LINE
  8
0
  6
CONTINUOUS
 62
     7
 10
-575.0
 20
-17.08338008308728
 11
-573.3961476021666
 21
-17.08338008308728
  0
LINE
  8
0
  6
CONTINUOUS
 62
     7
 10
-573.3961476021665
 20
-17.08338008308729
 11
-572.3961476021666
 21
-16.08338008308731
  0
LINE
  8
0
  6
CONTINUOUS
 62
     7
 10
-735.0
 20
-15.99589141956141
 11
-737.6009128048473
 21
-16.08044049010119
  0
LINE
  8
0
  6
CONTINUOUS
 62
     7
 10
-737.6009128048473
 20
-16.08044049010119
 11
-736.6038523978334
 21
-15.08338008308728
  0
LINE
  8
0
  6
CONTINUOUS
 62
     7
 10
-735.0
 20
-17.08338008308728
 11
-736.6038523978334
 21
-17.08338008308728
  0
LINE
  8
0
  6
CONTINUOUS
 62
     7
 10
-736.6038523978335
 20
-17.08338008308729
 11
-737.6038523978334
 21
-16.08338008308731
  0
LINE
  8
0
  6
CONTINUOUS
 62
     7
 10
-575.0
 20
-15.99589141956136
 11
-735.0
 21
-15.99589141956141
  0
LINE
  8
0
  6
CONTINUOUS
 62
     7
 10
-575.0
 20
-17.08338008308728
 11
-735.0
 21
-17.08338008308728
  0
LINE
  8
0
  6
CONTINUOUS
 62
     7
 10
-575.0
 20
-19.08338008308729
 11
-573.3961476021666
 21
-19.08338008308729
  0
LINE
  8
0
  6
CONTINUOUS
 62
     7
 10
-572.3990871951528
 20
-18.0804404901012
 11
-575.0
 21
-17.99589141956137
  0
LINE
  8
0
  6
CONTINUOUS
 62
     7
 10
-573.3961476021665
 20
-19.08338008308731
 11
-572.3961476021666
 21
-18.08338008308731
  0
LINE
  8
0
  6
CONTINUOUS
 62
     7
 10
-572.3990871951528
 20
-18.0804404901012
 11
-573.3961476021665
 21
-17.08338008308729
  0
LINE
  8
0
  6
CONTINUOUS
 62
     7
 10
-735.0000000000001
 20
-19.08338008308729
 11
-736.6038523978334
 21
-19.08338008308729
  0
LINE
  8
0
  6
CONTINUOUS
 62
     7
 10
-736.6038523978334
 20
-19.08338008308727
 11
-737.6038523978334
 21
-18.08338008308731
  0
LINE
  8
0
  6
CONTINUOUS
 62
     7
 10
-735.0
 20
-17.99589141956144
 11
-737.6009128048473
 21
-18.0804404901012
  0
LINE
  8
0
  6
CONTINUOUS
 62
     7
 10
-737.6009128048473
 20
-18.0804404901012
 11
-736.6038523978335
 21
-17.08338008308729
  0
LINE
  8
0
  6
CONTINUOUS
 62
     7
 10
-575.0
 20
-19.08338008308727
 11
-735.0000000000001
 21
-19.08338008308727
  0
LINE
  8
0
  6
CONTINUOUS
 62
     7
 10
-575.0
 20
-17.99589141956137
 11
-735.0
 21
-17.99589141956144
  0
LINE
  8
0
  6
CONTINUOUS
 62
     7
 10
-736.6038523978334
 20
-20.83000000000001
 11
-736.6038523978334
 21
-19.08338008308727
  0
LINE
  8
0
  6
CONTINUOUS
 62
     7
 10
-573.3961476021666
 20
-20.83000000000001
 11
-573.3961476021665
 21
-19.08338008308731
  0
ARC
  8
0
  6
CONTINUOUS
 62
     7
 10
-574.3961476021666
 20
-20.83000000000001
 40
1.000000000000001
 50
270.0
 51
0.0
  0
LINE
  8
0
  6
CONTINUOUS
 62
     7
 10
-574.3961476021666
 20
-21.83000000000001
 11
-575.0
 21
-21.83000000000001
  0
LINE
  8
0
  6
CONTINUOUS
 62
     7
 10
-735.0000000000001
 20
-21.83000000000001
 11
-735.6038523978334
 21
-21.83000000000001
  0
ARC
  8
0
  6
CONTINUOUS
 62
     7
 10
-735.6038523978334
 20
-20.83000000000001
 40
1.000000000000001
 50
180.0
 51
269.9999999999992
  0
LINE
  8
0
  6
CONTINUOUS
 62
     7
 10
-575.0
 20
-21.83000000000001
 11
-735.0000000000001
 21
-21.83000000000001
  0
LINE
  8
0
  6
CONTINUOUS
 62
     7
 10
-724.8048492805611
 20
15.46563106262215
 11
-724.807650237173
 21
15.4635326919766
  0
LINE
  8
0
  6
CONTINUOUS
 62
     7
 10
-711.5923497211473
 20
15.46353266084301
 11
-711.5951506777767
 21
15.46563103150172
  0
LINE
  8
0
  6
CONTINUOUS
 62
     7
 10
-598.4048492808641
 20
15.46563106239383
 11
-598.4076502374762
 21
15.46353269174799
  0
LINE
  8
0
  6
CONTINUOUS
 62
     7
 10
-585.192349721067
 20
15.46353266078596
 11
-585.1951506776966
 21
15.4656310314449
  0
LINE
  8
0
  6
CONTINUOUS
 62
     7
 10
-648.8048492808779
 20
15.46563106238371
 11
-648.80765023749
 21
15.46353269173785
  0
LINE
  8
0
  6
CONTINUOUS
 62
     7
 10
-635.5923497211066
 20
15.4635326608128
 11
-635.5951506777363
 21
15.46563103147172
  0
LINE
  8
0
  6
CONTINUOUS
 62
     7
 10
-623.6048492809556
 20
15.46563106232516
 11
-623.6076502375677
 21
15.46353269167929
  0
LINE
  8
0
  6
CONTINUOUS
 62
     7
 10
-610.3923497211462
 20
15.46353266084207
 11
-610.3951506777757
 21
15.46563103150098
  0
LINE
  8
0
  6
CONTINUOUS
 62
     7
 10
-674.4048492809013
 20
15.46563106236588
 11
-674.4076502375133
 21
15.46353269172022
  0
LINE
  8
0
  6
CONTINUOUS
 62
     7
 10
-661.1923497211534
 20
15.46353266084759
 11
-661.1951506777826
 21
15.4656310315063
  0
LINE
  8
0
  6
CONTINUOUS
 62
     7
 10
-699.6048492808637
 20
15.46563106239418
 11
-699.6076502374755
 21
15.46353269174853
  0
LINE
  8
0
  6
CONTINUOUS
 62
     7
 10
-686.3923497210543
 20
15.46353266077311
 11
-686.3951506776837
 21
15.46563103143185
  0
ARC
  8
0
  6
CONTINUOUS
 62
     7
 10
-615.5177139180363
 20
6.570472396703955
 40
3.089329395415156
 50
52.77076386408669
 51
89.67146970305282
  0
ARC
  8
0
  6
CONTINUOUS
 62
     7
 10
-694.4822860819638
 20
6.570472396704234
 40
3.089329395414882
 50
90.32853029694506
 51
127.2292361359146
  0
ARC
  8
0
  6
CONTINUOUS
 62
     7
 10
-640.717713918036
 20
6.570472396705261
 40
3.089329395413849
 50
52.77076386391855
 51
89.6714697030589
  0
ARC
  8
0
  6
CONTINUOUS
 62
     7
 10
-669.2822860819642
 20
6.57047239670582
 40
3.089329395413257
 50
90.32853029693707
 51
127.2292361360824
  0
ARC
  8
0
  6
CONTINUOUS
 62
     7
 10
-590.3177139180369
 20
6.570472396703143
 40
3.089329395415978
 50
52.77076386370499
 51
89.67146970304266
  0
ARC
  8
0
  6
CONTINUOUS
 62
     7
 10
-719.6822860819634
 20
6.570472396703964
 40
3.089329395415152
 50
90.32853029695332
 51
127.2292361363013
  0
ARC
  8
0
  6
CONTINUOUS
 62
     7
 10
-691.5415085556627
 20
6.500492058325087
 40
3.159531620888127
 50
53.19308545842795
 51
89.24725125212159
  0
ARC
  8
0
  6
CONTINUOUS
 62
     7
 10
-593.2584914443374
 20
6.500492058325191
 40
3.159531620888002
 50
90.75274874787635
 51
126.8069145415665
  0
ARC
  8
0
  6
CONTINUOUS
 62
     7
 10
-618.4584914443373
 20
6.500492058325129
 40
3.159531620888099
 50
90.75274874787841
 51
126.8069145415728
  0
ARC
  8
0
  6
CONTINUOUS
 62
     7
 10
-716.7415085556629
 20
6.500492058324694
 40
3.159531620888522
 50
53.19308545846354
 51
89.24725125211972
  0
ARC
  8
0
  6
CONTINUOUS
 62
     7
 10
-666.3415085556626
 20
6.500492058327729
 40
3.159531620885483
 50
53.1930854581832
 51
89.24725125212503
  0
ARC
  8
0
  6
CONTINUOUS
 62
     7
 10
-643.6584914443375
 20
6.500492058327588
 40
3.159531620885626
 50
90.75274874787493
 51
126.806914541815
  0
ENDBLK
  8
0
  0
BLOCK
  8
0
  2
D_FRAME_VIEW_2140
 70
     0
 10
0.0
 20
0.0
  0
LINE
  8
0
  6
CONTINUOUS
 62
     7
 10
-429.33
 20
108.25
 11
-429.33
 21
318.25
  0
LINE
  8
0
  6
CONTINUOUS
 62
     7
 10
-429.17
 20
303.9461524227066
 11
-429.17
 21
318.25
  0
LINE
  8
0
  6
CONTINUOUS
 62
     7
 10
-429.33
 20
323.25
 11
-429.17
 21
323.25
  0
LINE
  8
0
  6
CONTINUOUS
 62
     7
 10
-429.33
 20
318.25
 11
-429.33
 21
323.25
  0
LINE
  8
0
  6
CONTINUOUS
 62
     7
 10
-429.17
 20
318.25
 11
-429.17
 21
323.25
  0
LINE
  8
0
  6
CONTINUOUS
 62
     7
 10
-429.33
 20
103.25
 11
-429.17
 21
103.25
  0
LINE
  8
0
  6
CONTINUOUS
 62
     7
 10
-429.33
 20
103.25
 11
-429.33
 21
108.25
  0
LINE
  8
0
  6
CONTINUOUS
 62
     7
 10
-428.67
 20
298.7499999999999
 11
-428.67
 21
107.75
  0
LINE
  8
0
  6
CONTINUOUS
 62
     7
 10
-429.17
 20
176.25
 11
-429.17
 21
107.75
  0
LINE
  8
0
  6
CONTINUOUS
 62
     7
 10
-429.17
 20
203.25
 11
-429.17
 21
176.25
  0
LINE
  8
0
  6
CONTINUOUS
 62
     7
 10
-429.17
 20
230.25
 11
-429.17
 21
203.25
  0
LINE
  8
0
  6
CONTINUOUS
 62
     7
 10
-429.17
 20
298.7499999999999
 11
-429.17
 21
230.25
  0
LINE
  8
0
  6
CONTINUOUS
 62
     7
 10
-428.67
 20
101.75
 11
-429.17
 21
101.75
  0
LINE
  8
0
  6
CONTINUOUS
 62
     7
 10
-429.17
 20
101.75
 11
-429.17
 21
107.75
  0
LINE
  8
0
  6
CONTINUOUS
 62
     7
 10
-428.67
 20
107.75
 11
-428.67
 21
101.75
  0
LINE
  8
0
  6
CONTINUOUS
 62
     7
 10
-429.17
 20
304.7499999999999
 11
-428.67
 21
304.7499999999999
  0
LINE
  8
0
  6
CONTINUOUS
 62
     7
 10
-429.17
 20
298.7499999999999
 11
-429.17
 21
303.9461524227066
  0
LINE
  8
0
  6
CONTINUOUS
 62
     7
 10
-428.67
 20
304.7499999999999
 11
-428.67
 21
298.7499999999999
  0
LINE
  8
0
  6
CONTINUOUS
 62
     7
 10
-392.8127675190793
 20
277.4499093082073
 11
-392.8166089355403
 21
277.6017752202681
  0
LINE
  8
0
  6
CONTINUOUS
 62
     7
 10
-392.8166089355403
 20
277.6017752202681
 11
-392.9913837595397
 21
280.6285255486678
  0
LINE
  8
0
  6
CONTINUOUS
 62
     7
 10
-391.4166199169128
 20
279.0537617060409
 11
-392.9913837595397
 21
280.6285255486678
  0
LINE
  8
0
  6
CONTINUOUS
 62
     7
 10
-391.4166199169128
 20
277.4499093082073
 11
-391.4166199169128
 21
279.0537617060409
  0
LINE
  8
0
  6
CONTINUOUS
 62
     7
 10
-428.67
 20
283.7499999999999
 11
-392.9913837595397
 21
280.6285255486678
  0
LINE
  8
0
  6
CONTINUOUS
 62
     7
 10
-392.9913837595397
 20
125.8714744513322
 11
-392.8166089355403
 21
128.8982247797319
  0
LINE
  8
0
  6
CONTINUOUS
 62
     7
 10
-392.9913837595397
 20
125.8714744513322
 11
-428.67
 21
122.75
  0
LINE
  8
0
  6
CONTINUOUS
 62
     7
 10
-392.8166089355403
 20
128.8982247797319
 11
-392.8127675190793
 21
129.0500906917926
  0
LINE
  8
0
  6
CONTINUOUS
 62
     7
 10
-391.4166199169128
 20
127.4462382939591
 11
-391.4166199169128
 21
129.0500906917926
  0
LINE
  8
0
  6
CONTINUOUS
 62
     7
 10
-391.4166199169128
 20
127.4462382939591
 11
-392.9913837595397
 21
125.8714744513322
  0
LINE
  8
0
  6
CONTINUOUS
 62
     7
 10
-392.8127675190793
 20
129.0500906917926
 11
-392.8127675190793
 21
277.4499093082073
  0
LINE
  8
0
  6
CONTINUOUS
 62
     7
 10
-391.4166199169128
 20
129.0500906917926
 11
-391.4166199169128
 21
277.4499093082073
  0
LINE
  8
0
  6
CONTINUOUS
 62
     7
 10
-388.4195595098989
 20
129.2250680188444
 11
-388.5041085804387
 21
126.7087042845369
  0
LINE
  8
0
  6
CONTINUOUS
 62
     7
 10
-388.5041085804387
 20
126.7087042845369
 11
-389.4166199169127
 21
127.621215621011
  0
LINE
  8
0
  6
CONTINUOUS
 62
     7
 10
-389.4166199169127
 20
127.621215621011
 11
-389.4166199169127
 21
129.2250680188444
  0
LINE
  8
0
  6
CONTINUOUS
 62
     7
 10
-387.4166199169127
 20
127.7961929480629
 11
-387.4166199169127
 21
129.4000453458963
  0
LINE
  8
0
  6
CONTINUOUS
 62
     7
 10
-387.4166199169127
 20
127.7961929480629
 11
-388.5041085804387
 21
126.7087042845369
  0
LINE
  8
0
  6
CONTINUOUS
 62
     7
 10
-388.4166199169127
 20
129.4000453458963
 11
-388.4195595098989
 21
129.2250680188444
  0
LINE
  8
0
  6
CONTINUOUS
 62
     7
 10
-389.4166199169127
 20
127.621215621011
 11
-390.5041085804387
 21
126.533726957485
  0
LINE
  8
0
  6
CONTINUOUS
 62
     7
 10
-390.4195595098989
 20
129.0500906917926
 11
-390.5041085804387
 21
126.533726957485
  0
LINE
  8
0
  6
CONTINUOUS
 62
     7
 10
-390.4166199169127
 20
129.2250680188444
 11
-390.4195595098989
 21
129.0500906917926
  0
LINE
  8
0
  6
CONTINUOUS
 62
     7
 10
-390.5041085804387
 20
126.533726957485
 11
-391.4166199169128
 21
127.4462382939591
  0
LINE
  8
0
  6
CONTINUOUS
 62
     7
 10
-386.4195595098989
 20
129.4000453458963
 11
-386.5041085804386
 21
126.8836816115887
  0
LINE
  8
0
  6
CONTINUOUS
 62
     7
 10
-386.5041085804386
 20
126.8836816115887
 11
-387.4166199169127
 21
127.7961929480629
  0
LINE
  8
0
  6
CONTINUOUS
 62
     7
 10
-383.4166199169128
 20
128.1461476021665
 11
-383.4166199169127
 21
129.75
  0
LINE
  8
0
  6
CONTINUOUS
 62
     7
 10
-383.4166199169128
 20
128.1461476021665
 11
-384.5041085804386
 21
127.0586589386406
  0
LINE
  8
0
  6
CONTINUOUS
 62
     7
 10
-384.4195595098989
 20
129.5750226729481
 11
-384.5041085804386
 21
127.0586589386406
  0
LINE
  8
0
  6
CONTINUOUS
 62
     7
 10
-384.4166199169127
 20
129.75
 11
-384.4195595098989
 21
129.5750226729481
  0
LINE
  8
0
  6
CONTINUOUS
 62
     7
 10
-384.5041085804386
 20
127.0586589386406
 11
-385.4166199169127
 21
127.9711702751147
  0
LINE
  8
0
  6
CONTINUOUS
 62
     7
 10
-385.4166199169127
 20
127.9711702751147
 11
-385.4166199169127
 21
129.5750226729481
  0
LINE
  8
0
  6
CONTINUOUS
 62
     7
 10
-385.4166199169127
 20
127.9711702751147
 11
-386.5041085804386
 21
126.8836816115887
  0
LINE
  8
0
  6
CONTINUOUS
 62
     7
 10
-386.4166199169127
 20
129.5750226729481
 11
-386.4195595098989
 21
129.4000453458963
  0
LINE
  8
0
  6
CONTINUOUS
 62
     7
 10
-390.5041085804386
 20
279.9662730425148
 11
-390.4195595098989
 21
277.4499093082073
  0
LINE
  8
0
  6
CONTINUOUS
 62
     7
 10
-390.5041085804386
 20
279.9662730425148
 11
-391.4166199169128
 21
279.0537617060409
  0
LINE
  8
0
  6
CONTINUOUS
 62
     7
 10
-389.4166199169128
 20
277.2749319811555
 11
-389.4166199169128
 21
278.878784378989
  0
LINE
  8
0
  6
CONTINUOUS
 62
     7
 10
-390.4195595098989
 20
277.4499093082073
 11
-390.4166199169127
 21
277.2749319811555
  0
LINE
  8
0
  6
CONTINUOUS
 62
     7
 10
-389.4166199169128
 20
278.878784378989
 11
-390.5041085804386
 21
279.9662730425148
  0
LINE
  8
0
  6
CONTINUOUS
 62
     7
 10
-384.5041085804386
 20
279.4413410613593
 11
-384.4195595098989
 21
276.9249773270518
  0
LINE
  8
0
  6
CONTINUOUS
 62
     7
 10
-385.4166199169128
 20
276.9249773270518
 11
-385.4166199169128
 21
278.5288297248853
  0
LINE
  8
0
  6
CONTINUOUS
 62
     7
 10
-384.5041085804386
 20
279.4413410613593
 11
-385.4166199169127
 21
278.5288297248853
  0
LINE
  8
0
  6
CONTINUOUS
 62
     7
 10
-386.5041085804386
 20
279.6163183884112
 11
-386.4195595098989
 21
277.0999546541036
  0
LINE
  8
0
  6
CONTINUOUS
 62
     7
 10
-387.4166199169128
 20
277.0999546541036
 11
-387.4166199169128
 21
278.7038070519371
  0
LINE
  8
0
  6
CONTINUOUS
 62
     7
 10
-386.5041085804386
 20
279.6163183884112
 11
-387.4166199169128
 21
278.7038070519371
  0
LINE
  8
0
  6
CONTINUOUS
 62
     7
 10
-386.4195595098989
 20
277.0999546541036
 11
-386.4166199169127
 21
276.9249773270518
  0
LINE
  8
0
  6
CONTINUOUS
 62
     7
 10
-385.4166199169127
 20
278.5288297248853
 11
-386.5041085804386
 21
279.6163183884112
  0
LINE
  8
0
  6
CONTINUOUS
 62
     7
 10
-383.4166199169128
 20
276.7499999999999
 11
-383.4166199169128
 21
278.3538523978335
  0
LINE
  8
0
  6
CONTINUOUS
 62
     7
 10
-384.4195595098989
 20
276.9249773270518
 11
-384.4166199169127
 21
276.7499999999999
  0
LINE
  8
0
  6
CONTINUOUS
 62
     7
 10
-383.4166199169128
 20
278.3538523978335
 11
-384.5041085804386
 21
279.4413410613593
  0
LINE
  8
0
  6
CONTINUOUS
 62
     7
 10
-388.4195595098989
 20
277.2749319811555
 11
-388.4166199169128
 21
277.0999546541036
  0
LINE
  8
0
  6
CONTINUOUS
 62
     7
 10
-388.5041085804386
 20
279.791295715463
 11
-388.4195595098989
 21
277.2749319811555
  0
LINE
  8
0
  6
CONTINUOUS
 62
     7
 10
-387.4166199169128
 20
278.7038070519371
 11
-388.5041085804386
 21
279.791295715463
  0
LINE
  8
0
  6
CONTINUOUS
 62
     7
 10
-388.5041085804386
 20
279.791295715463
 11
-389.4166199169128
 21
278.878784378989
  0
LINE
  8
0
  6
CONTINUOUS
 62
     7
 10
-384.4166199169127
 20
276.7499999999999
 11
-384.4166199169127
 21
129.75
  0
LINE
  8
0
  6
CONTINUOUS
 62
     7
 10
-385.4166199169127
 20
129.5750226729481
 11
-385.4166199169128
 21
276.9249773270518
  0
LINE
  8
0
  6
CONTINUOUS
 62
     7
 10
-386.4166199169127
 20
276.9249773270518
 11
-386.4166199169127
 21
129.5750226729481
  0
LINE
  8
0
  6
CONTINUOUS
 62
     7
 10
-387.4166199169128
 20
129.4000453458963
 11
-387.4166199169128
 21
277.0999546541036
  0
LINE
  8
0
  6
CONTINUOUS
 62
     7
 10
-390.4166199169127
 20
277.2749319811555
 11
-390.4166199169127
 21
129.2250680188444
  0
LINE
  8
0
  6
CONTINUOUS
 62
     7
 10
-388.4166199169128
 20
277.0999546541036
 11
-388.4166199169127
 21
129.4000453458963
  0
LINE
  8
0
  6
CONTINUOUS
 62
     7
 10
-389.4166199169127
 20
129.2250680188444
 11
-389.4166199169128
 21
277.2749319811555
  0
LINE
  8
0
  6
CONTINUOUS
 62
     7
 10
-383.4166199169127
 20
129.75
 11
-383.4166199169128
 21
276.7499999999999
  0
LINE
  8
0
  6
CONTINUOUS
 62
     7
 10
-381.67
 20
128.1461476021665
 11
-383.4166199169128
 21
128.1461476021665
  0
LINE
  8
0
  6
CONTINUOUS
 62
     7
 10
-380.67
 20
129.75
 11
-380.67
 21
129.1461476021665
  0
ARC
  8
0
  6
CONTINUOUS
 62
     7
 10
-381.67
 20
129.1461476021665
 40
1.000000000000001
 50
270.0
 51
0.0
  0
LINE
  8
0
  6
CONTINUOUS
 62
     7
 10
-380.6700000000001
 20
276.75
 11
-380.67
 21
129.75
  0
ARC
  8
0
  6
CONTINUOUS
 62
     7
 10
-381.6700000000001
 20
277.3538523978335
 40
1.000000000000001
 50
0.0
 51
90.0
  0
LINE
  8
0
  6
CONTINUOUS
 62
     7
 10
-380.6700000000001
 20
277.3538523978335
 11
-380.6700000000001
 21
276.75
  0
LINE
  8
0
  6
CONTINUOUS
 62
     7
 10
-381.6700000000001
 20
278.3538523978335
 11
-383.4166199169128
 21
278.3538523978335
  0
ARC
  8
0
  6
CONTINUOUS
 62
     7
 10
-425.67
 20
118.0010064779477
 40
3.000000000000008
 50
95.00000000000003
 51
180.0
  0
ARC
  8
0
  6
CONTINUOUS
 62
     7
 10
-425.67
 20
288.4989935220523
 40
2.99999999999998
 50
180.0000000000002
 51
265.0
  0
LINE
  8
0
  6
CONTINUOUS
 62
     7
 10
-393.67
 20
280.6878967765926
 11
-393.67
 21
281.7715656025752
  0
LINE
  8
0
  6
CONTINUOUS
 62
     7
 10
-393.67
 20
125.8121032234073
 11
-393.67
 21
124.7284343974248
  0
LINE
  8
0
  6
CONTINUOUS
 62
     7
 10
-394.5828442572524
 20
123.732239699333
 11
-425.931467228243
 21
120.9895905722229
  0
ARC
  8
0
  6
CONTINUOUS
 62
     7
 10
-394.67
 20
281.7715656025752
 40
1.000000000000001
 50
0.0000000000000035
 51
84.99999999999986
  0
ARC
  8
0
  6
CONTINUOUS
 62
     7
 10
-394.67
 20
124.7284343974247
 40
1.000000000000001
 50
275.0000000000001
 51
0.000000000003979
  0
LINE
  8
0
  6
CONTINUOUS
 62
     7
 10
-394.5828442572524
 20
282.767760300667
 11
-425.931467228243
 21
285.510409427777
  0
ENDBLK
  8
0
  0
BLOCK
  8
0
  2
D_FRAME_VIEW_1495
 70
     0
 10
0.0
 20
0.0
  0
LINE
  8
0
  6
CONTINUOUS
 62
     7
 10
-749.5
 20
103.25
 11
-560.5
 21
103.25
  0
ARC
  8
0
  6
CONTINUOUS
 62
     7
 10
-749.5
 20
108.25
 40
5.000000000000004
 50
180.0000000000003
 51
270.0
  0
LINE
  8
0
  6
CONTINUOUS
 62
     7
 10
-754.5
 20
298.25
 11
-754.5
 21
108.25
  0
ARC
  8
0
  6
CONTINUOUS
 62
     7
 10
-749.5
 20
298.25
 40
5.000000000000004
 50
90.0000000000003
 51
180.0
  0
LINE
  8
0
  6
CONTINUOUS
 62
     7
 10
-580.5
 20
303.25
 11
-749.5
 21
303.25
  0
ARC
  8
0
  6
CONTINUOUS
 62
     7
 10
-580.5
 20
308.25
 40
5.000000000000004
 50
270.0
 51
0.0
  0
LINE
  8
0
  6
CONTINUOUS
 62
     7
 10
-575.5
 20
318.25
 11
-575.5
 21
308.25
  0
LINE
  8
0
  6
CONTINUOUS
 62
     7
 10
-555.5
 20
108.25
 11
-555.5
 21
318.25
  0
ARC
  8
0
  6
CONTINUOUS
 62
     7
 10
-560.5
 20
108.25
 40
5.000000000000004
 50
269.9999999999998
 51
0.0
  0
ARC
  8
0
  6
CONTINUOUS
 62
     7
 10
-737.0
 20
119.25
 40
2.000000000000002
 50
180.0
 51
269.9999999999992
  0
LINE
  8
0
  6
CONTINUOUS
 62
     7
 10
-573.0
 20
117.25
 11
-737.0000000000001
 21
117.25
  0
ARC
  8
0
  6
CONTINUOUS
 62
     7
 10
-573.0
 20
119.25
 40
2.000000000000002
 50
270.0
 51
359.9999999999996
  0
LINE
  8
0
  6
CONTINUOUS
 62
     7
 10
-571.0
 20
287.25
 11
-571.0
 21
119.25
  0
ARC
  8
0
  6
CONTINUOUS
 62
     7
 10
-573.0
 20
287.25
 40
2.000000000000002
 50
0.0
 51
89.99999999999962
  0
LINE
  8
0
  6
CONTINUOUS
 62
     7
 10
-737.0
 20
289.25
 11
-572.9999999999999
 21
289.25
  0
ARC
  8
0
  6
CONTINUOUS
 62
     7
 10
-737.0
 20
287.25
 40
2.000000000000002
 50
90.0
 51
179.9999999999992
  0
LINE
  8
0
  6
CONTINUOUS
 62
     7
 10
-739.0
 20
119.25
 11
-739.0
 21
287.25
  0
ARC
  8
0
  6
CONTINUOUS
 62
     7
 10
-560.5
 20
318.2499999999999
 40
5.000000000000004
 50
0.0000000000003181
 51
90.0
  0
LINE
  8
0
  6
CONTINUOUS
 62
     7
 10
-560.5
 20
323.25
 11
-570.5
 21
323.2500000000001
  0
ARC
  8
0
  6
CONTINUOUS
 62
     7
 10
-570.5
 20
318.25
 40
5.000000000000004
 50
90.0
 51
180.0
  0
LINE
  8
0
  6
CONTINUOUS
 62
     7
 10
-756.0
 20
230.25
 11
-754.5
 21
231.1160254037844
  0
LINE
  8
0
  6
CONTINUOUS
 62
     7
 10
-757.5
 20
230.25
 11
-757.5
 21
298.7499999999999
  0
ARC
  8
0
  6
CONTINUOUS
 62
     7
 10
-751.5
 20
298.7499999999999
 40
6.000000000000005
 50
90.0
 51
180.0
  0
LINE
  8
0
  6
CONTINUOUS
 62
     7
 10
-751.5
 20
304.7499999999999
 11
-655.0
 21
304.7499999999999
  0
ARC
  8
0
  6
CONTINUOUS
 62
     7
 10
-650.2120066570066
 20
286.2299433977859
 40
5.298440215665733
 50
154.6435306330486
 51
176.4014449950915
  0
LINE
  8
0
  6
CONTINUOUS
 62
     7
 10
-655.5
 20
283.2918344129912
 11
-655.5
 21
286.5625018489486
  0
LINE
  8
0
  6
CONTINUOUS
 62
     7
 10
-655.5
 20
283.2918344129912
 11
-679.9
 21
283.2918344129912
  0
LINE
  8
0
  6
CONTINUOUS
 62
     7
 10
-679.9000000000001
 20
283.2918344129912
 11
-679.9000000000001
 21
286.5625018489486
  0
ARC
  8
0
  6
CONTINUOUS
 62
     7
 10
-685.0215541276741
 20
286.2729178183918
 40
5.129734456426388
 50
3.236184679017013
 51
25.71883969284301
  0
ARC
  8
0
  6
CONTINUOUS
 62
     7
 10
-675.6120066570068
 20
286.2299433977859
 40
5.298440215665384
 50
154.6435306330475
 51
176.4014449950919
  0
LINE
  8
0
  6
CONTINUOUS
 62
     7
 10
-680.9000000000001
 20
283.2918344129912
 11
-680.9000000000001
 21
286.5625018489486
  0
LINE
  8
0
  6
CONTINUOUS
 62
     7
 10
-680.9000000000001
 20
283.2918344129912
 11
-705.1
 21
283.2918344129912
  0
LINE
  8
0
  6
CONTINUOUS
 62
     7
 10
-705.1
 20
283.2918344129912
 11
-705.1
 21
286.5625018489486
  0
ARC
  8
0
  6
CONTINUOUS
 62
     7
 10
-710.221554127674
 20
286.2729178183918
 40
5.129734456426388
 50
3.236184679017013
 51
25.71883969284301
  0
ARC
  8
0
  6
CONTINUOUS
 62
     7
 10
-700.8120066570063
 20
286.2299433977859
 40
5.298440215665771
 50
154.6435306330484
 51
176.4014449950912
  0
LINE
  8
0
  6
CONTINUOUS
 62
     7
 10
-706.1
 20
283.2918344129912
 11
-706.1
 21
286.5625018489486
  0
LINE
  8
0
  6
CONTINUOUS
 62
     7
 10
-706.1
 20
283.2918344129912
 11
-730.3000000000001
 21
283.2918344129912
  0
LINE
  8
0
  6
CONTINUOUS
 62
     7
 10
-730.3000000000001
 20
283.2918344129912
 11
-730.3000000000001
 21
286.5625018489486
  0
ARC
  8
0
  6
CONTINUOUS
 62
     7
 10
-735.4215541276747
 20
286.2729178183916
 40
5.129734456426974
 50
3.236184679018703
 51
25.71883969284215
  0
ARC
  8
0
  6
CONTINUOUS
 62
     7
 10
-726.0120066570057
 20
286.2299433977857
 40
5.29844021566647
 50
154.6435306330503
 51
176.40144499509
  0
LINE
  8
0
  6
CONTINUOUS
 62
     7
 10
-731.3000000000001
 20
283.2918344129912
 11
-731.3000000000001
 21
286.5625018489486
  0
LINE
  8
0
  6
CONTINUOUS
 62
     7
 10
-731.3000000000001
 20
283.2918344129912
 11
-735.0
 21
283.2918344129912
  0
POLYLINE
  8
0
  6
CONTINUOUS
 62
     7
 66
     1
  0
VERTEX
  8
0
  6
CONTINUOUS
 62
     7
 10
-735.0
 20
283.2918344129913
  0
VERTEX
  8
0
  6
CONTINUOUS
 62
     7
 10
-735.4877258050403
 20
283.2436141212311
  0
VERTEX
  8
0
  6
CONTINUOUS
 62
     7
 10
-735.9567085809127
 20
283.1008063247207
  0
VERTEX
  8
0
  6
CONTINUOUS
 62
     7
 10
-736.3889255825491
 20
282.8688990469923
  0
VERTEX
  8
0
  6
CONTINUOUS
 62
     7
 10
-736.7677669529663
 20
282.5568043546741
  0
VERTEX
  8
0
  6
CONTINUOUS
 62
     7
 10
-737.0786740307564
 20
282.1765158717671
  0
VERTEX
  8
0
  6
CONTINUOUS
 62
     7
 10
-737.3096988312782
 20
281.7426478714011
  0
VERTEX
  8
0
  6
CONTINUOUS
 62
     7
 10
-737.4519632010081
 20
281.2718736575142
  0
VERTEX
  8
0
  6
CONTINUOUS
 62
     7
 10
-737.5
 20
280.7822848191329
  0
SEQEND
  8
0
  6
CONTINUOUS
 62
     7
  0
LINE
  8
0
  6
CONTINUOUS
 62
     7
 10
-737.5
 20
280.7822848191329
 11
-737.5
 21
230.25
  0
LINE
  8
0
  6
CONTINUOUS
 62
     7
 10
-572.5
 20
230.25
 11
-572.5
 21
280.7822848191329
  0
POLYLINE
  8
0
  6
CONTINUOUS
 62
     7
 66
     1
  0
VERTEX
  8
0
  6
CONTINUOUS
 62
     7
 10
-572.5
 20
280.7822848191329
  0
VERTEX
  8
0
  6
CONTINUOUS
 62
     7
 10
-572.5480367989919
 20
281.2718736575142
  0
VERTEX
  8
0
  6
CONTINUOUS
 62
     7
 10
-572.6903011687218
 20
281.7426478714011
  0
VERTEX
  8
0
  6
CONTINUOUS
 62
     7
 10
-572.9213259692436
 20
282.1765158717671
  0
VERTEX
  8
0
  6
CONTINUOUS
 62
     7
 10
-573.2322330470337
 20
282.5568043546741
  0
VERTEX
  8
0
  6
CONTINUOUS
 62
     7
 10
-573.611074417451
 20
282.8688990469923
  0
VERTEX
  8
0
  6
CONTINUOUS
 62
     7
 10
-574.0432914190873
 20
283.1008063247207
  0
VERTEX
  8
0
  6
CONTINUOUS
 62
     7
 10
-574.5122741949597
 20
283.2436141212311
  0
VERTEX
  8
0
  6
CONTINUOUS
 62
     7
 10
-575.0
 20
283.2918344129913
  0
SEQEND
  8
0
  6
CONTINUOUS
 62
     7
  0
LINE
  8
0
  6
CONTINUOUS
 62
     7
 10
-575.0
 20
283.2918344129912
 11
-578.6999999999999
 21
283.2918344129912
  0
LINE
  8
0
  6
CONTINUOUS
 62
     7
 10
-578.6999999999999
 20
283.2918344129912
 11
-578.6999999999999
 21
286.5625018489486
  0
ARC
  8
0
  6
CONTINUOUS
 62
     7
 10
-583.8215541276741
 20
286.2729178183918
 40
5.129734456426425
 50
3.236184679017351
 51
25.71883969284302
  0
ARC
  8
0
  6
CONTINUOUS
 62
     7
 10
-574.4120066570072
 20
286.229943397786
 40
5.298440215664985
 50
154.6435306330463
 51
176.4014449950922
  0
LINE
  8
0
  6
CONTINUOUS
 62
     7
 10
-579.6999999999999
 20
283.2918344129912
 11
-579.6999999999999
 21
286.5625018489486
  0
LINE
  8
0
  6
CONTINUOUS
 62
     7
 10
-579.6999999999999
 20
283.2918344129912
 11
-603.9
 21
283.2918344129912
  0
LINE
  8
0
  6
CONTINUOUS
 62
     7
 10
-603.9
 20
283.2918344129912
 11
-603.9
 21
286.5625018489486
  0
ARC
  8
0
  6
CONTINUOUS
 62
     7
 10
-609.0215541276737
 20
286.2729178183919
 40
5.129734456426009
 50
3.236184679016223
 51
25.71883969284373
  0
ARC
  8
0
  6
CONTINUOUS
 62
     7
 10
-599.6120066570072
 20
286.229943397786
 40
5.298440215664991
 50
154.6435306330463
 51
176.4014449950922
  0
LINE
  8
0
  6
CONTINUOUS
 62
     7
 10
-604.9
 20
283.2918344129912
 11
-604.9
 21
286.5625018489486
  0
LINE
  8
0
  6
CONTINUOUS
 62
     7
 10
-604.9
 20
283.2918344129912
 11
-629.1
 21
283.2918344129912
  0
LINE
  8
0
  6
CONTINUOUS
 62
     7
 10
-629.1
 20
283.2918344129912
 11
-629.1
 21
286.5625018489486
  0
ARC
  8
0
  6
CONTINUOUS
 62
     7
 10
-634.2215541276737
 20
286.2729178183919
 40
5.129734456426013
 50
3.236184679016336
 51
25.71883969284388
  0
ARC
  8
0
  6
CONTINUOUS
 62
     7
 10
-624.8120066570066
 20
286.2299433977859
 40
5.298440215665528
 50
154.6435306330482
 51
176.4014449950918
  0
LINE
  8
0
  6
CONTINUOUS
 62
     7
 10
-630.1
 20
283.2918344129912
 11
-630.1
 21
286.5625018489486
  0
LINE
  8
0
  6
CONTINUOUS
 62
     7
 10
-630.1
 20
283.2918344129912
 11
-654.5
 21
283.2918344129912
  0
LINE
  8
0
  6
CONTINUOUS
 62
     7
 10
-654.5000000000001
 20
283.2918344129912
 11
-654.5000000000001
 21
286.5625018489486
  0
ARC
  8
0
  6
CONTINUOUS
 62
     7
 10
-659.6215541276738
 20
286.2729178183918
 40
5.129734456426162
 50
3.236184679016336
 51
25.7188396928433
  0
LINE
  8
0
  6
CONTINUOUS
 62
     7
 10
-655.0
 20
304.7499999999999
 11
-576.9292857857287
 21
304.7499999999999
  0
ARC
  8
0
  6
CONTINUOUS
 62
     7
 10
-558.5
 20
298.7499999999999
 40
6.000000000000005
 50
0.0
 51
59.99999999999952
  0
LINE
  8
0
  6
CONTINUOUS
 62
     7
 10
-552.5
 20
298.7499999999999
 11
-552.5
 21
230.2499999999999
  0
LINE
  8
0
  6
CONTINUOUS
 62
     7
 10
-554.0
 20
230.2499999999999
 11
-555.5
 21
231.1160254037844
  0
POLYLINE
  8
0
  6
CONTINUOUS
 62
     7
 66
     1
  0
VERTEX
  8
0
  6
CONTINUOUS
 62
     7
 10
-737.5
 20
125.717715180867
  0
VERTEX
  8
0
  6
CONTINUOUS
 62
     7
 10
-737.4519632010081
 20
125.2281263424858
  0
VERTEX
  8
0
  6
CONTINUOUS
 62
     7
 10
-737.3096988312782
 20
124.7573521285989
  0
VERTEX
  8
0
  6
CONTINUOUS
 62
     7
 10
-737.0786740307564
 20
124.3234841282329
  0
VERTEX
  8
0
  6
CONTINUOUS
 62
     7
 10
-736.7677669529663
 20
123.9431956453258
  0
VERTEX
  8
0
  6
CONTINUOUS
 62
     7
 10
-736.388925582549
 20
123.6311009530076
  0
VERTEX
  8
0
  6
CONTINUOUS
 62
     7
 10
-735.9567085809127
 20
123.3991936752793
  0
VERTEX
  8
0
  6
CONTINUOUS
 62
     7
 10
-735.4877258050403
 20
123.2563858787689
  0
VERTEX
  8
0
  6
CONTINUOUS
 62
     7
 10
-735.0
 20
123.2081655870087
  0
SEQEND
  8
0
  6
CONTINUOUS
 62
     7
  0
LINE
  8
0
  6
CONTINUOUS
 62
     7
 10
-735.0
 20
123.2081655870087
 11
-731.3000000000001
 21
123.2081655870087
  0
LINE
  8
0
  6
CONTINUOUS
 62
     7
 10
-731.3000000000001
 20
123.2081655870087
 11
-731.3000000000001
 21
119.9374981510514
  0
ARC
  8
0
  6
CONTINUOUS
 62
     7
 10
-726.1784458723259
 20
120.2270821816082
 40
5.129734456426536
 50
183.2361846790173
 51
205.7188396928427
  0
ARC
  8
0
  6
CONTINUOUS
 62
     7
 10
-735.5879933429941
 20
120.2700566022142
 40
5.298440215666207
 50
334.6435306330492
 51
356.4014449950901
  0
LINE
  8
0
  6
CONTINUOUS
 62
     7
 10
-730.3000000000001
 20
123.2081655870087
 11
-730.3000000000001
 21
119.9374981510514
  0
LINE
  8
0
  6
CONTINUOUS
 62
     7
 10
-730.3000000000001
 20
123.2081655870087
 11
-706.1
 21
123.2081655870087
  0
LINE
  8
0
  6
CONTINUOUS
 62
     7
 10
-706.1
 20
123.2081655870087
 11
-706.1
 21
119.9374981510514
  0
ARC
  8
0
  6
CONTINUOUS
 62
     7
 10
-700.9784458723258
 20
120.2270821816082
 40
5.129734456426536
 50
183.2361846790173
 51
205.7188396928427
  0
ARC
  8
0
  6
CONTINUOUS
 62
     7
 10
-710.3879933429934
 20
120.270056602214
 40
5.298440215665521
 50
334.643530633048
 51
356.4014449950918
  0
LINE
  8
0
  6
CONTINUOUS
 62
     7
 10
-705.1
 20
123.2081655870087
 11
-705.1
 21
119.9374981510514
  0
LINE
  8
0
  6
CONTINUOUS
 62
     7
 10
-705.1
 20
123.2081655870087
 11
-680.9000000000001
 21
123.2081655870087
  0
LINE
  8
0
  6
CONTINUOUS
 62
     7
 10
-680.9000000000001
 20
123.2081655870087
 11
-680.9000000000001
 21
119.9374981510514
  0
ARC
  8
0
  6
CONTINUOUS
 62
     7
 10
-675.7784458723263
 20
120.2270821816081
 40
5.129734456426128
 50
183.2361846790164
 51
205.7188396928436
  0
ARC
  8
0
  6
CONTINUOUS
 62
     7
 10
-685.1879933429934
 20
120.2700566022141
 40
5.29844021566559
 50
334.6435306330479
 51
356.4014449950914
  0
LINE
  8
0
  6
CONTINUOUS
 62
     7
 10
-679.9000000000001
 20
123.2081655870087
 11
-679.9000000000001
 21
119.9374981510514
  0
LINE
  8
0
  6
CONTINUOUS
 62
     7
 10
-679.9000000000001
 20
123.2081655870087
 11
-655.5000000000001
 21
123.2081655870087
  0
LINE
  8
0
  6
CONTINUOUS
 62
     7
 10
-655.5
 20
123.2081655870087
 11
-655.5
 21
119.9374981510514
  0
ARC
  8
0
  6
CONTINUOUS
 62
     7
 10
-650.3784458723261
 20
120.2270821816082
 40
5.129734456426305
 50
183.2361846790165
 51
205.7188396928428
  0
LINE
  8
0
  6
CONTINUOUS
 62
     7
 10
-655.0
 20
101.75
 11
-751.5
 21
101.75
  0
ARC
  8
0
  6
CONTINUOUS
 62
     7
 10
-751.5
 20
107.75
 40
6.000000000000005
 50
180.0
 51
270.0
  0
LINE
  8
0
  6
CONTINUOUS
 62
     7
 10
-754.5
 20
175.3839745962156
 11
-756.0
 21
176.25
  0
LINE
  8
0
  6
CONTINUOUS
 62
     7
 10
-757.5
 20
107.75
 11
-757.5
 21
176.25
  0
LINE
  8
0
  6
CONTINUOUS
 62
     7
 10
-737.5
 20
176.25
 11
-737.5
 21
125.717715180867
  0
ARC
  8
0
  6
CONTINUOUS
 62
     7
 10
-558.5
 20
107.75
 40
6.000000000000005
 50
270.0
 51
0.0
  0
LINE
  8
0
  6
CONTINUOUS
 62
     7
 10
-558.5
 20
101.75
 11
-655.0
 21
101.75
  0
ARC
  8
0
  6
CONTINUOUS
 62
     7
 10
-659.7879933429936
 20
120.2700566022141
 40
5.298440215665738
 50
334.6435306330486
 51
356.4014449950914
  0
LINE
  8
0
  6
CONTINUOUS
 62
     7
 10
-654.5000000000001
 20
123.2081655870087
 11
-654.5000000000001
 21
119.9374981510514
  0
LINE
  8
0
  6
CONTINUOUS
 62
     7
 10
-654.5000000000001
 20
123.2081655870087
 11
-630.1000000000001
 21
123.2081655870087
  0
LINE
  8
0
  6
CONTINUOUS
 62
     7
 10
-630.1
 20
123.2081655870087
 11
-630.1
 21
119.9374981510514
  0
ARC
  8
0
  6
CONTINUOUS
 62
     7
 10
-624.9784458723259
 20
120.2270821816082
 40
5.129734456426536
 50
183.2361846790173
 51
205.7188396928427
  0
ARC
  8
0
  6
CONTINUOUS
 62
     7
 10
-634.3879933429936
 20
120.2700566022141
 40
5.298440215665665
 50
334.6435306330484
 51
356.4014449950916
  0
LINE
  8
0
  6
CONTINUOUS
 62
     7
 10
-629.1
 20
123.2081655870087
 11
-629.1
 21
119.9374981510514
  0
LINE
  8
0
  6
CONTINUOUS
 62
     7
 10
-629.1
 20
123.2081655870087
 11
-604.9
 21
123.2081655870087
  0
LINE
  8
0
  6
CONTINUOUS
 62
     7
 10
-604.9
 20
123.2081655870087
 11
-604.9
 21
119.9374981510514
  0
ARC
  8
0
  6
CONTINUOUS
 62
     7
 10
-599.7784458723255
 20
120.2270821816083
 40
5.129734456426943
 50
183.2361846790181
 51
205.7188396928416
  0
ARC
  8
0
  6
CONTINUOUS
 62
     7
 10
-609.1879933429931
 20
120.270056602214
 40
5.298440215665209
 50
334.6435306330468
 51
356.4014449950919
  0
LINE
  8
0
  6
CONTINUOUS
 62
     7
 10
-603.9
 20
123.2081655870087
 11
-603.9
 21
119.9374981510514
  0
LINE
  8
0
  6
CONTINUOUS
 62
     7
 10
-603.9
 20
123.2081655870087
 11
-579.6999999999999
 21
123.2081655870087
  0
LINE
  8
0
  6
CONTINUOUS
 62
     7
 10
-579.6999999999999
 20
123.2081655870087
 11
-579.6999999999999
 21
119.9374981510514
  0
ARC
  8
0
  6
CONTINUOUS
 62
     7
 10
-574.5784458723259
 20
120.2270821816082
 40
5.129734456426536
 50
183.2361846790173
 51
205.7188396928427
  0
ARC
  8
0
  6
CONTINUOUS
 62
     7
 10
-583.9879933429937
 20
120.2700566022142
 40
5.298440215665945
 50
334.6435306330483
 51
356.4014449950903
  0
LINE
  8
0
  6
CONTINUOUS
 62
     7
 10
-578.6999999999999
 20
123.2081655870087
 11
-578.6999999999999
 21
119.9374981510514
  0
LINE
  8
0
  6
CONTINUOUS
 62
     7
 10
-578.6999999999999
 20
123.2081655870087
 11
-575.0
 21
123.2081655870087
  0
POLYLINE
  8
0
  6
CONTINUOUS
 62
     7
 66
     1
  0
VERTEX
  8
0
  6
CONTINUOUS
 62
     7
 10
-575.0
 20
123.2081655870087
  0
VERTEX
  8
0
  6
CONTINUOUS
 62
     7
 10
-574.5122741949597
 20
123.2563858787689
  0
VERTEX
  8
0
  6
CONTINUOUS
 62
     7
 10
-574.0432914190873
 20
123.3991936752793
  0
VERTEX
  8
0
  6
CONTINUOUS
 62
     7
 10
-573.611074417451
 20
123.6311009530076
  0
VERTEX
  8
0
  6
CONTINUOUS
 62
     7
 10
-573.2322330470337
 20
123.9431956453258
  0
VERTEX
  8
0
  6
CONTINUOUS
 62
     7
 10
-572.9213259692436
 20
124.3234841282329
  0
VERTEX
  8
0
  6
CONTINUOUS
 62
     7
 10
-572.6903011687218
 20
124.7573521285989
  0
VERTEX
  8
0
  6
CONTINUOUS
 62
     7
 10
-572.5480367989919
 20
125.2281263424858
  0
VERTEX
  8
0
  6
CONTINUOUS
 62
     7
 10
-572.5
 20
125.717715180867
  0
SEQEND
  8
0
  6
CONTINUOUS
 62
     7
  0
LINE
  8
0
  6
CONTINUOUS
 62
     7
 10
-555.5
 20
175.3839745962156
 11
-554.0
 21
176.25
  0
LINE
  8
0
  6
CONTINUOUS
 62
     7
 10
-572.5
 20
125.717715180867
 11
-572.5
 21
176.25
  0
LINE
  8
0
  6
CONTINUOUS
 62
     7
 10
-552.5
 20
176.25
 11
-552.5
 21
107.75
  0
LINE
  8
0
  6
CONTINUOUS
 62
     7
 10
-554.0
 20
203.25
 11
-555.5
 21
204.1160254037844
  0
LINE
  8
0
  6
CONTINUOUS
 62
     7
 10
-555.5
 20
229.3839745962156
 11
-554.0
 21
230.25
  0
LINE
  8
0
  6
CONTINUOUS
 62
     7
 10
-572.5
 20
203.25
 11
-572.5
 21
230.25
  0
LINE
  8
0
  6
CONTINUOUS
 62
     7
 10
-552.5
 20
230.25
 11
-552.5
 21
203.25
  0
LINE
  8
0
  6
CONTINUOUS
 62
     7
 10
-555.5
 20
202.3839745962156
 11
-554.0
 21
203.25
  0
LINE
  8
0
  6
CONTINUOUS
 62
     7
 10
-554.0
 20
176.25
 11
-555.5
 21
177.1160254037844
  0
LINE
  8
0
  6
CONTINUOUS
 62
     7
 10
-572.5
 20
176.25
 11
-572.5
 21
203.25
  0
LINE
  8
0
  6
CONTINUOUS
 62
     7
 10
-552.5
 20
203.25
 11
-552.5
 21
176.25
  0
ARC
  8
0
  6
CONTINUOUS
 62
     7
 10
-734.9860833185714
 20
128.8676190834581
 40
2.513946851339745
 50
179.7192970122972
 51
269.6828209861086
  0
LINE
  8
0
  6
CONTINUOUS
 62
     7
 10
-756.0
 20
203.25
 11
-754.5
 21
204.1160254037844
  0
LINE
  8
0
  6
CONTINUOUS
 62
     7
 10
-754.5
 20
229.3839745962155
 11
-756.0
 21
230.25
  0
LINE
  8
0
  6
CONTINUOUS
 62
     7
 10
-757.5
 20
203.25
 11
-757.5
 21
230.25
  0
LINE
  8
0
  6
CONTINUOUS
 62
     7
 10
-737.5
 20
230.25
 11
-737.5
 21
203.25
  0
LINE
  8
0
  6
CONTINUOUS
 62
     7
 10
-756.0
 20
176.25
 11
-754.5
 21
177.1160254037844
  0
LINE
  8
0
  6
CONTINUOUS
 62
     7
 10
-754.5
 20
202.3839745962156
 11
-756.0
 21
203.25
  0
LINE
  8
0
  6
CONTINUOUS
 62
     7
 10
-757.5
 20
176.25
 11
-757.5
 21
203.25
  0
LINE
  8
0
  6
CONTINUOUS
 62
     7
 10
-737.5
 20
203.25
 11
-737.5
 21
176.25
  0
ARC
  8
0
  6
CONTINUOUS
 62
     7
 10
-575.0142440891112
 20
128.867943092341
 40
2.514272688801934
 50
270.3245990613783
 51
0.2732829402257835
  0
LINE
  8
0
  6
CONTINUOUS
 62
     7
 10
-735.0
 20
126.3537107523253
 11
-727.77841390823
 21
126.3537107523253
  0
LINE
  8
0
  6
CONTINUOUS
 62
     7
 10
-708.620587103326
 20
126.3537107523253
 11
-702.5784139082266
 21
126.3537107523253
  0
LINE
  8
0
  6
CONTINUOUS
 62
     7
 10
-683.4205871033274
 20
126.3537107523253
 11
-677.3784139082261
 21
126.3537107523253
  0
LINE
  8
0
  6
CONTINUOUS
 62
     7
 10
-658.2205871033274
 20
126.3537107523253
 11
-651.7767951032758
 21
126.3537107523253
  0
LINE
  8
0
  6
CONTINUOUS
 62
     7
 10
-632.6215280910062
 20
126.3537107523253
 11
-626.5767951032756
 21
126.3537107523253
  0
LINE
  8
0
  6
CONTINUOUS
 62
     7
 10
-607.4215280910053
 20
126.3537107523253
 11
-601.3767951032762
 21
126.3537107523253
  0
LINE
  8
0
  6
CONTINUOUS
 62
     7
 10
-582.221528091005
 20
126.3537107523253
 11
-574.9999999999997
 21
126.3537107523253
  0
LINE
  8
0
  6
CONTINUOUS
 62
     7
 10
-578.6999999999999
 20
126.2265244786531
 11
-579.1999999999999
 21
126.270268810416
  0
LINE
  8
0
  6
CONTINUOUS
 62
     7
 10
-579.2
 20
126.270268810416
 11
-579.7
 21
126.2265244786531
  0
LINE
  8
0
  6
CONTINUOUS
 62
     7
 10
-603.9
 20
126.2265244786531
 11
-604.4000000000001
 21
126.270268810416
  0
LINE
  8
0
  6
CONTINUOUS
 62
     7
 10
-604.4000000000001
 20
126.270268810416
 11
-604.9000000000001
 21
126.2265244786531
  0
LINE
  8
0
  6
CONTINUOUS
 62
     7
 10
-629.1
 20
126.2265244786531
 11
-629.5999999999999
 21
126.270268810416
  0
LINE
  8
0
  6
CONTINUOUS
 62
     7
 10
-629.6
 20
126.270268810416
 11
-630.1000000000001
 21
126.2265244786531
  0
LINE
  8
0
  6
CONTINUOUS
 62
     7
 10
-654.5
 20
126.2265244786531
 11
-654.9999999999999
 21
126.270268810416
  0
LINE
  8
0
  6
CONTINUOUS
 62
     7
 10
-655.0
 20
126.270268810416
 11
-655.5
 21
126.2265244786531
  0
LINE
  8
0
  6
CONTINUOUS
 62
     7
 10
-679.9000000000001
 20
126.2265244786531
 11
-680.4000000000001
 21
126.270268810416
  0
LINE
  8
0
  6
CONTINUOUS
 62
     7
 10
-680.4
 20
126.270268810416
 11
-680.9000000000001
 21
126.2265244786531
  0
LINE
  8
0
  6
CONTINUOUS
 62
     7
 10
-705.1
 20
126.2265244786531
 11
-705.6
 21
126.270268810416
  0
LINE
  8
0
  6
CONTINUOUS
 62
     7
 10
-705.6
 20
126.270268810416
 11
-706.1
 21
126.2265244786531
  0
LINE
  8
0
  6
CONTINUOUS
 62
     7
 10
-730.3000000000001
 20
126.2265244786531
 11
-730.8000000000001
 21
126.270268810416
  0
LINE
  8
0
  6
CONTINUOUS
 62
     7
 10
-730.8
 20
126.270268810416
 11
-731.3000000000001
 21
126.2265244786531
  0
LINE
  8
0
  6
CONTINUOUS
 62
     7
 10
-603.9
 20
123.2081655870087
 11
-603.9
 21
126.2265244786531
  0
LINE
  8
0
  6
CONTINUOUS
 62
     7
 10
-579.6999999999999
 20
126.2265244786531
 11
-579.6999999999999
 21
123.2081655870087
  0
LINE
  8
0
  6
CONTINUOUS
 62
     7
 10
-604.9
 20
126.2265244786531
 11
-604.9
 21
123.2081655870087
  0
LINE
  8
0
  6
CONTINUOUS
 62
     7
 10
-629.1
 20
123.2081655870087
 11
-629.1
 21
126.2265244786531
  0
LINE
  8
0
  6
CONTINUOUS
 62
     7
 10
-705.1
 20
123.2081655870087
 11
-705.1
 21
126.2265244786531
  0
LINE
  8
0
  6
CONTINUOUS
 62
     7
 10
-679.9000000000001
 20
123.2081655870087
 11
-679.9000000000001
 21
126.2265244786531
  0
LINE
  8
0
  6
CONTINUOUS
 62
     7
 10
-578.6999999999999
 20
123.2081655870087
 11
-578.6999999999999
 21
126.2265244786531
  0
LINE
  8
0
  6
CONTINUOUS
 62
     7
 10
-680.9000000000001
 20
126.2265244786531
 11
-680.9000000000001
 21
123.2081655870087
  0
LINE
  8
0
  6
CONTINUOUS
 62
     7
 10
-706.1
 20
126.2265244786531
 11
-706.1
 21
123.2081655870087
  0
LINE
  8
0
  6
CONTINUOUS
 62
     7
 10
-654.5000000000001
 20
123.2081655870087
 11
-654.5000000000001
 21
126.2265244786531
  0
LINE
  8
0
  6
CONTINUOUS
 62
     7
 10
-655.5
 20
126.2265244786531
 11
-655.5
 21
123.2081655870087
  0
LINE
  8
0
  6
CONTINUOUS
 62
     7
 10
-730.3000000000001
 20
123.2081655870087
 11
-730.3000000000001
 21
126.2265244786531
  0
LINE
  8
0
  6
CONTINUOUS
 62
     7
 10
-630.1
 20
126.2265244786531
 11
-630.1
 21
123.2081655870087
  0
LINE
  8
0
  6
CONTINUOUS
 62
     7
 10
-731.3000000000001
 20
126.2265244786531
 11
-731.3000000000001
 21
123.2081655870087
  0
ARC
  8
0
  6
CONTINUOUS
 62
     7
 10
-734.9857559108888
 20
277.632056907659
 40
2.514272688801948
 50
90.32459906137817
 51
180.2732829402258
  0
ARC
  8
0
  6
CONTINUOUS
 62
     7
 10
-575.0139166814284
 20
277.6323809165419
 40
2.51394685133969
 50
359.7192970122966
 51
89.68282098610955
  0
LINE
  8
0
  6
CONTINUOUS
 62
     7
 10
-575.0
 20
280.1462892476746
 11
-582.2205879964686
 21
280.1462892476746
  0
LINE
  8
0
  6
CONTINUOUS
 62
     7
 10
-601.3812634348366
 20
280.1462892476746
 11
-607.4205879964733
 21
280.1462892476746
  0
LINE
  8
0
  6
CONTINUOUS
 62
     7
 10
-626.5812634348357
 20
280.1462892476746
 11
-632.620587996473
 21
280.1462892476746
  0
LINE
  8
0
  6
CONTINUOUS
 62
     7
 10
-651.7812634348358
 20
280.1462892476746
 11
-658.2215690619541
 21
280.1462892476746
  0
LINE
  8
0
  6
CONTINUOUS
 62
     7
 10
-677.3790508246793
 20
280.1462892476746
 11
-683.4215690619544
 21
280.1462892476746
  0
LINE
  8
0
  6
CONTINUOUS
 62
     7
 10
-702.5790508246796
 20
280.1462892476746
 11
-708.6215690619546
 21
280.1462892476746
  0
LINE
  8
0
  6
CONTINUOUS
 62
     7
 10
-727.7790508246815
 20
280.1462892476746
 11
-735.0000000000006
 21
280.1462892476746
  0
LINE
  8
0
  6
CONTINUOUS
 62
     7
 10
-731.3000000000001
 20
280.2734755213469
 11
-730.8000000000001
 21
280.229731189584
  0
LINE
  8
0
  6
CONTINUOUS
 62
     7
 10
-730.8
 20
280.229731189584
 11
-730.3
 21
280.2734755213469
  0
LINE
  8
0
  6
CONTINUOUS
 62
     7
 10
-706.1
 20
280.2734755213469
 11
-705.6
 21
280.229731189584
  0
LINE
  8
0
  6
CONTINUOUS
 62
     7
 10
-705.6
 20
280.229731189584
 11
-705.0999999999999
 21
280.2734755213469
  0
LINE
  8
0
  6
CONTINUOUS
 62
     7
 10
-680.9000000000001
 20
280.2734755213469
 11
-680.4000000000001
 21
280.229731189584
  0
LINE
  8
0
  6
CONTINUOUS
 62
     7
 10
-680.4
 20
280.229731189584
 11
-679.9
 21
280.2734755213469
  0
LINE
  8
0
  6
CONTINUOUS
 62
     7
 10
-655.5
 20
280.2734755213469
 11
-655.0
 21
280.229731189584
  0
LINE
  8
0
  6
CONTINUOUS
 62
     7
 10
-655.0
 20
280.229731189584
 11
-654.5000000000001
 21
280.2734755213469
  0
LINE
  8
0
  6
CONTINUOUS
 62
     7
 10
-630.1
 20
280.2734755213469
 11
-629.5999999999999
 21
280.229731189584
  0
LINE
  8
0
  6
CONTINUOUS
 62
     7
 10
-629.6
 20
280.229731189584
 11
-629.1
 21
280.2734755213469
  0
LINE
  8
0
  6
CONTINUOUS
 62
     7
 10
-604.9
 20
280.2734755213469
 11
-604.4000000000001
 21
280.229731189584
  0
LINE
  8
0
  6
CONTINUOUS
 62
     7
 10
-604.4000000000001
 20
280.229731189584
 11
-603.9
 21
280.2734755213469
  0
LINE
  8
0
  6
CONTINUOUS
 62
     7
 10
-579.6999999999999
 20
280.2734755213469
 11
-579.1999999999999
 21
280.229731189584
  0
LINE
  8
0
  6
CONTINUOUS
 62
     7
 10
-579.2
 20
280.229731189584
 11
-578.6999999999999
 21
280.2734755213469
  0
LINE
  8
0
  6
CONTINUOUS
 62
     7
 10
-731.3000000000001
 20
280.2734755213469
 11
-731.3000000000001
 21
283.2918344129912
  0
LINE
  8
0
  6
CONTINUOUS
 62
     7
 10
-654.5000000000001
 20
283.2918344129912
 11
-654.5000000000001
 21
280.2734755213469
  0
LINE
  8
0
  6
CONTINUOUS
 62
     7
 10
-655.5
 20
280.2734755213469
 11
-655.5
 21
283.2918344129912
  0
LINE
  8
0
  6
CONTINUOUS
 62
     7
 10
-578.6999999999999
 20
283.2918344129912
 11
-578.6999999999999
 21
280.2734755213469
  0
LINE
  8
0
  6
CONTINUOUS
 62
     7
 10
-680.9000000000001
 20
280.2734755213469
 11
-680.9000000000001
 21
283.2918344129912
  0
LINE
  8
0
  6
CONTINUOUS
 62
     7
 10
-730.3000000000001
 20
283.2918344129912
 11
-730.3000000000001
 21
280.2734755213469
  0
LINE
  8
0
  6
CONTINUOUS
 62
     7
 10
-629.1
 20
283.2918344129912
 11
-629.1
 21
280.2734755213469
  0
LINE
  8
0
  6
CONTINUOUS
 62
     7
 10
-604.9
 20
280.2734755213469
 11
-604.9
 21
283.2918344129912
  0
LINE
  8
0
  6
CONTINUOUS
 62
     7
 10
-679.9000000000001
 20
283.2918344129912
 11
-679.9000000000001
 21
280.2734755213469
  0
LINE
  8
0
  6
CONTINUOUS
 62
     7
 10
-579.6999999999999
 20
280.2734755213469
 11
-579.6999999999999
 21
283.2918344129912
  0
LINE
  8
0
  6
CONTINUOUS
 62
     7
 10
-705.1
 20
283.2918344129912
 11
-705.1
 21
280.2734755213469
  0
LINE
  8
0
  6
CONTINUOUS
 62
     7
 10
-630.1
 20
280.2734755213469
 11
-630.1
 21
283.2918344129912
  0
LINE
  8
0
  6
CONTINUOUS
 62
     7
 10
-706.1
 20
280.2734755213469
 11
-706.1
 21
283.2918344129912
  0
LINE
  8
0
  6
CONTINUOUS
 62
     7
 10
-603.9
 20
283.2918344129912
 11
-603.9
 21
280.2734755213469
  0
POLYLINE
  8
0
  6
CONTINUOUS
 62
     7
 66
     1
  0
VERTEX
  8
0
  6
CONTINUOUS
 62
     7
 10
-655.0
 20
124.2303370483789
  0
VERTEX
  8
0
  6
CONTINUOUS
 62
     7
 10
-654.902454838992
 20
124.2399078492727
  0
VERTEX
  8
0
  6
CONTINUOUS
 62
     7
 10
-654.8086582838174
 20
124.2682524514431
  0
VERTEX
  8
0
  6
CONTINUOUS
 62
     7
 10
-654.7222148834902
 20
124.3142815877247
  0
VERTEX
  8
0
  6
CONTINUOUS
 62
     7
 10
-654.6464466094068
 20
124.3762263842234
  0
VERTEX
  8
0
  6
CONTINUOUS
 62
     7
 10
-654.5842651938488
 20
124.4517063371489
  0
VERTEX
  8
0
  6
CONTINUOUS
 62
     7
 10
-654.5380602337443
 20
124.5378207942399
  0
VERTEX
  8
0
  6
CONTINUOUS
 62
     7
 10
-654.5096073597983
 20
124.631260425204
  0
VERTEX
  8
0
  6
CONTINUOUS
 62
     7
 10
-654.5
 20
124.7284343974247
  0
SEQEND
  8
0
  6
CONTINUOUS
 62
     7
  0
POLYLINE
  8
0
  6
CONTINUOUS
 62
     7
 66
     1
  0
VERTEX
  8
0
  6
CONTINUOUS
 62
     7
 10
-705.6
 20
124.2303370483789
  0
VERTEX
  8
0
  6
CONTINUOUS
 62
     7
 10
-705.502454838992
 20
124.2399078492727
  0
VERTEX
  8
0
  6
CONTINUOUS
 62
     7
 10
-705.4086582838174
 20
124.2682524514431
  0
VERTEX
  8
0
  6
CONTINUOUS
 62
     7
 10
-705.3222148834902
 20
124.3142815877247
  0
VERTEX
  8
0
  6
CONTINUOUS
 62
     7
 10
-705.2464466094068
 20
124.3762263842234
  0
VERTEX
  8
0
  6
CONTINUOUS
 62
     7
 10
-705.1842651938488
 20
124.4517063371489
  0
VERTEX
  8
0
  6
CONTINUOUS
 62
     7
 10
-705.1380602337443
 20
124.5378207942399
  0
VERTEX
  8
0
  6
CONTINUOUS
 62
     7
 10
-705.1096073597984
 20
124.631260425204
  0
VERTEX
  8
0
  6
CONTINUOUS
 62
     7
 10
-705.1
 20
124.7284343974247
  0
SEQEND
  8
0
  6
CONTINUOUS
 62
     7
  0
POLYLINE
  8
0
  6
CONTINUOUS
 62
     7
 66
     1
  0
VERTEX
  8
0
  6
CONTINUOUS
 62
     7
 10
-730.8
 20
124.2303370483789
  0
VERTEX
  8
0
  6
CONTINUOUS
 62
     7
 10
-730.7024548389919
 20
124.2399078492727
  0
VERTEX
  8
0
  6
CONTINUOUS
 62
     7
 10
-730.6086582838174
 20
124.2682524514431
  0
VERTEX
  8
0
  6
CONTINUOUS
 62
     7
 10
-730.5222148834902
 20
124.3142815877247
  0
VERTEX
  8
0
  6
CONTINUOUS
 62
     7
 10
-730.4464466094067
 20
124.3762263842234
  0
VERTEX
  8
0
  6
CONTINUOUS
 62
     7
 10
-730.3842651938487
 20
124.4517063371489
  0
VERTEX
  8
0
  6
CONTINUOUS
 62
     7
 10
-730.3380602337443
 20
124.5378207942399
  0
VERTEX
  8
0
  6
CONTINUOUS
 62
     7
 10
-730.3096073597983
 20
124.631260425204
  0
VERTEX
  8
0
  6
CONTINUOUS
 62
     7
 10
-730.3
 20
124.7284343974247
  0
SEQEND
  8
0
  6
CONTINUOUS
 62
     7
  0
POLYLINE
  8
0
  6
CONTINUOUS
 62
     7
 66
     1
  0
VERTEX
  8
0
  6
CONTINUOUS
 62
     7
 10
-680.4
 20
124.2303370483789
  0
VERTEX
  8
0
  6
CONTINUOUS
 62
     7
 10
-680.3024548389919
 20
124.2399078492727
  0
VERTEX
  8
0
  6
CONTINUOUS
 62
     7
 10
-680.2086582838174
 20
124.2682524514431
  0
VERTEX
  8
0
  6
CONTINUOUS
 62
     7
 10
-680.1222148834902
 20
124.3142815877247
  0
VERTEX
  8
0
  6
CONTINUOUS
 62
     7
 10
-680.0464466094068
 20
124.3762263842234
  0
VERTEX
  8
0
  6
CONTINUOUS
 62
     7
 10
-679.9842651938487
 20
124.4517063371489
  0
VERTEX
  8
0
  6
CONTINUOUS
 62
     7
 10
-679.9380602337443
 20
124.5378207942399
  0
VERTEX
  8
0
  6
CONTINUOUS
 62
     7
 10
-679.9096073597983
 20
124.631260425204
  0
VERTEX
  8
0
  6
CONTINUOUS
 62
     7
 10
-679.9
 20
124.7284343974247
  0
SEQEND
  8
0
  6
CONTINUOUS
 62
     7
  0
POLYLINE
  8
0
  6
CONTINUOUS
 62
     7
 66
     1
  0
VERTEX
  8
0
  6
CONTINUOUS
 62
     7
 10
-604.4000000000001
 20
124.2303370483788
  0
VERTEX
  8
0
  6
CONTINUOUS
 62
     7
 10
-604.302454838992
 20
124.2399078492726
  0
VERTEX
  8
0
  6
CONTINUOUS
 62
     7
 10
-604.2086582838175
 20
124.2682524514431
  0
VERTEX
  8
0
  6
CONTINUOUS
 62
     7
 10
-604.1222148834903
 20
124.3142815877246
  0
VERTEX
  8
0
  6
CONTINUOUS
 62
     7
 10
-604.0464466094069
 20
124.3762263842233
  0
VERTEX
  8
0
  6
CONTINUOUS
 62
     7
 10
-603.9842651938488
 20
124.4517063371488
  0
VERTEX
  8
0
  6
CONTINUOUS
 62
     7
 10
-603.9380602337444
 20
124.5378207942399
  0
VERTEX
  8
0
  6
CONTINUOUS
 62
     7
 10
-603.9096073597984
 20
124.631260425204
  0
VERTEX
  8
0
  6
CONTINUOUS
 62
     7
 10
-603.9000000000001
 20
124.7284343974247
  0
SEQEND
  8
0
  6
CONTINUOUS
 62
     7
  0
POLYLINE
  8
0
  6
CONTINUOUS
 62
     7
 66
     1
  0
VERTEX
  8
0
  6
CONTINUOUS
 62
     7
 10
-579.2
 20
124.2303370483788
  0
VERTEX
  8
0
  6
CONTINUOUS
 62
     7
 10
-579.102454838992
 20
124.2399078492726
  0
VERTEX
  8
0
  6
CONTINUOUS
 62
     7
 10
-579.0086582838175
 20
124.2682524514431
  0
VERTEX
  8
0
  6
CONTINUOUS
 62
     7
 10
-578.9222148834903
 20
124.3142815877246
  0
VERTEX
  8
0
  6
CONTINUOUS
 62
     7
 10
-578.8464466094068
 20
124.3762263842233
  0
VERTEX
  8
0
  6
CONTINUOUS
 62
     7
 10
-578.7842651938488
 20
124.4517063371488
  0
VERTEX
  8
0
  6
CONTINUOUS
 62
     7
 10
-578.7380602337444
 20
124.5378207942399
  0
VERTEX
  8
0
  6
CONTINUOUS
 62
     7
 10
-578.7096073597984
 20
124.631260425204
  0
VERTEX
  8
0
  6
CONTINUOUS
 62
     7
 10
-578.7
 20
124.7284343974247
  0
SEQEND
  8
0
  6
CONTINUOUS
 62
     7
  0
POLYLINE
  8
0
  6
CONTINUOUS
 62
     7
 66
     1
  0
VERTEX
  8
0
  6
CONTINUOUS
 62
     7
 10
-629.6
 20
124.2303370483788
  0
VERTEX
  8
0
  6
CONTINUOUS
 62
     7
 10
-629.502454838992
 20
124.2399078492726
  0
VERTEX
  8
0
  6
CONTINUOUS
 62
     7
 10
-629.4086582838174
 20
124.2682524514431
  0
VERTEX
  8
0
  6
CONTINUOUS
 62
     7
 10
-629.3222148834902
 20
124.3142815877246
  0
VERTEX
  8
0
  6
CONTINUOUS
 62
     7
 10
-629.2464466094068
 20
124.3762263842233
  0
VERTEX
  8
0
  6
CONTINUOUS
 62
     7
 10
-629.1842651938488
 20
124.4517063371488
  0
VERTEX
  8
0
  6
CONTINUOUS
 62
     7
 10
-629.1380602337443
 20
124.5378207942399
  0
VERTEX
  8
0
  6
CONTINUOUS
 62
     7
 10
-629.1096073597984
 20
124.631260425204
  0
VERTEX
  8
0
  6
CONTINUOUS
 62
     7
 10
-629.1
 20
124.7284343974247
  0
SEQEND
  8
0
  6
CONTINUOUS
 62
     7
  0
POLYLINE
  8
0
  6
CONTINUOUS
 62
     7
 66
     1
  0
VERTEX
  8
0
  6
CONTINUOUS
 62
     7
 10
-679.3356955125334
 20
281.5320432601298
  0
VERTEX
  8
0
  6
CONTINUOUS
 62
     7
 10
-679.2742358369919
 20
281.6417002235987
  0
VERTEX
  8
0
  6
CONTINUOUS
 62
     7
 10
-679.1052391024662
 20
281.7384351855997
  0
SEQEND
  8
0
  6
CONTINUOUS
 62
     7
  0
ARC
  8
0
  6
CONTINUOUS
 62
     7
 10
-667.9832422246087
 20
212.694721962682
 40
69.93377689042381
 50
86.04866209638796
 51
99.1509539042583
  0
ARC
  8
0
  6
CONTINUOUS
 62
     7
 10
-662.7317087361492
 20
256.2871582814917
 40
26.17867562459132
 50
75.9781834733061
 51
90.94652749402053
  0
POLYLINE
  8
0
  6
CONTINUOUS
 62
     7
 66
     1
  0
VERTEX
  8
0
  6
CONTINUOUS
 62
     7
 10
-656.3888423979586
 20
281.6858020262553
  0
VERTEX
  8
0
  6
CONTINUOUS
 62
     7
 10
-656.2792360033849
 20
281.5891107058389
  0
VERTEX
  8
0
  6
CONTINUOUS
 62
     7
 10
-656.2643043768709
 20
281.5320448082636
  0
SEQEND
  8
0
  6
CONTINUOUS
 62
     7
  0
POLYLINE
  8
0
  6
CONTINUOUS
 62
     7
 66
     1
  0
VERTEX
  8
0
  6
CONTINUOUS
 62
     7
 10
-704.5356955125335
 20
281.5320432601299
  0
VERTEX
  8
0
  6
CONTINUOUS
 62
     7
 10
-704.4742358369921
 20
281.6417002235984
  0
VERTEX
  8
0
  6
CONTINUOUS
 62
     7
 10
-704.3052391024661
 20
281.7384351855993
  0
SEQEND
  8
0
  6
CONTINUOUS
 62
     7
  0
ARC
  8
0
  6
CONTINUOUS
 62
     7
 10
-693.1832422246117
 20
212.6947219627798
 40
69.93377689032629
 50
86.04866209638298
 51
99.1509539042687
  0
ARC
  8
0
  6
CONTINUOUS
 62
     7
 10
-687.9317087361537
 20
256.2871582814556
 40
26.17867562462763
 50
75.97818347331706
 51
90.94652749401763
  0
POLYLINE
  8
0
  6
CONTINUOUS
 62
     7
 66
     1
  0
VERTEX
  8
0
  6
CONTINUOUS
 62
     7
 10
-681.5888423979591
 20
281.6858020262556
  0
VERTEX
  8
0
  6
CONTINUOUS
 62
     7
 10
-681.479236003385
 20
281.5891107058391
  0
VERTEX
  8
0
  6
CONTINUOUS
 62
     7
 10
-681.4643043768709
 20
281.5320448082636
  0
SEQEND
  8
0
  6
CONTINUOUS
 62
     7
  0
POLYLINE
  8
0
  6
CONTINUOUS
 62
     7
 66
     1
  0
VERTEX
  8
0
  6
CONTINUOUS
 62
     7
 10
-729.7356955125334
 20
281.5320432601298
  0
VERTEX
  8
0
  6
CONTINUOUS
 62
     7
 10
-729.6742358369914
 20
281.6417002235987
  0
VERTEX
  8
0
  6
CONTINUOUS
 62
     7
 10
-729.5052391024641
 20
281.7384351855998
  0
SEQEND
  8
0
  6
CONTINUOUS
 62
     7
  0
ARC
  8
0
  6
CONTINUOUS
 62
     7
 10
-718.3832422246088
 20
212.6947219627174
 40
69.93377689038859
 50
86.04866209638294
 51
99.15095390426121
  0
ARC
  8
0
  6
CONTINUOUS
 62
     7
 10
-713.1317087361429
 20
256.287158281554
 40
26.17867562452895
 50
75.9781834732845
 51
90.9465274940294
  0
POLYLINE
  8
0
  6
CONTINUOUS
 62
     7
 66
     1
  0
VERTEX
  8
0
  6
CONTINUOUS
 62
     7
 10
-706.7888423979575
 20
281.6858020262547
  0
VERTEX
  8
0
  6
CONTINUOUS
 62
     7
 10
-706.6792360033844
 20
281.5891107058383
  0
VERTEX
  8
0
  6
CONTINUOUS
 62
     7
 10
-706.6643043768709
 20
281.5320448082637
  0
SEQEND
  8
0
  6
CONTINUOUS
 62
     7
  0
POLYLINE
  8
0
  6
CONTINUOUS
 62
     7
 66
     1
  0
VERTEX
  8
0
  6
CONTINUOUS
 62
     7
 10
-630.6643044874666
 20
281.5320432601293
  0
VERTEX
  8
0
  6
CONTINUOUS
 62
     7
 10
-630.7257641630108
 20
281.6417002236007
  0
VERTEX
  8
0
  6
CONTINUOUS
 62
     7
 10
-630.8947608975387
 20
281.7384351856013
  0
SEQEND
  8
0
  6
CONTINUOUS
 62
     7
  0
ARC
  8
0
  6
CONTINUOUS
 62
     7
 10
-642.0167577754008
 20
212.6947219624464
 40
69.9337768906587
 50
80.84904609576883
 51
93.95133790360526
  0
ARC
  8
0
  6
CONTINUOUS
 62
     7
 10
-647.2682912638702
 20
256.2871582816625
 40
26.17867562441999
 50
89.0534725059687
 51
104.0218165267522
  0
POLYLINE
  8
0
  6
CONTINUOUS
 62
     7
 66
     1
  0
VERTEX
  8
0
  6
CONTINUOUS
 62
     7
 10
-653.6111576020452
 20
281.6858020262534
  0
VERTEX
  8
0
  6
CONTINUOUS
 62
     7
 10
-653.7207639966168
 20
281.5891107058367
  0
VERTEX
  8
0
  6
CONTINUOUS
 62
     7
 10
-653.7356956231291
 20
281.5320448082641
  0
SEQEND
  8
0
  6
CONTINUOUS
 62
     7
  0
POLYLINE
  8
0
  6
CONTINUOUS
 62
     7
 66
     1
  0
VERTEX
  8
0
  6
CONTINUOUS
 62
     7
 10
-605.4643044874665
 20
281.5320432601293
  0
VERTEX
  8
0
  6
CONTINUOUS
 62
     7
 10
-605.5257641630109
 20
281.6417002236007
  0
VERTEX
  8
0
  6
CONTINUOUS
 62
     7
 10
-605.6947608975387
 20
281.7384351856013
  0
SEQEND
  8
0
  6
CONTINUOUS
 62
     7
  0
ARC
  8
0
  6
CONTINUOUS
 62
     7
 10
-616.8167577754
 20
212.6947219624614
 40
69.93377689064373
 50
80.84904609576748
 51
93.95133790360556
  0
ARC
  8
0
  6
CONTINUOUS
 62
     7
 10
-622.0682912638729
 20
256.2871582816853
 40
26.17867562439731
 50
89.0534725059587
 51
104.0218165267567
  0
POLYLINE
  8
0
  6
CONTINUOUS
 62
     7
 66
     1
  0
VERTEX
  8
0
  6
CONTINUOUS
 62
     7
 10
-628.4111576020445
 20
281.6858020262537
  0
VERTEX
  8
0
  6
CONTINUOUS
 62
     7
 10
-628.5207639966166
 20
281.589110705837
  0
VERTEX
  8
0
  6
CONTINUOUS
 62
     7
 10
-628.5356956231292
 20
281.5320448082641
  0
SEQEND
  8
0
  6
CONTINUOUS
 62
     7
  0
POLYLINE
  8
0
  6
CONTINUOUS
 62
     7
 66
     1
  0
VERTEX
  8
0
  6
CONTINUOUS
 62
     7
 10
-580.2643044874666
 20
281.5320432601292
  0
VERTEX
  8
0
  6
CONTINUOUS
 62
     7
 10
-580.325764163008
 20
281.6417002235979
  0
VERTEX
  8
0
  6
CONTINUOUS
 62
     7
 10
-580.4947608975358
 20
281.7384351855997
  0
SEQEND
  8
0
  6
CONTINUOUS
 62
     7
  0
ARC
  8
0
  6
CONTINUOUS
 62
     7
 10
-591.6167577753968
 20
212.6947219626427
 40
69.93377689046321
 50
80.84904609574397
 51
93.95133790361766
  0
ARC
  8
0
  6
CONTINUOUS
 62
     7
 10
-596.8682912638714
 20
256.2871582816763
 40
26.17867562440641
 50
89.05347250596031
 51
104.0218165267553
  0
POLYLINE
  8
0
  6
CONTINUOUS
 62
     7
 66
     1
  0
VERTEX
  8
0
  6
CONTINUOUS
 62
     7
 10
-603.2111576020445
 20
281.6858020262537
  0
VERTEX
  8
0
  6
CONTINUOUS
 62
     7
 10
-603.3207639966165
 20
281.589110705837
  0
VERTEX
  8
0
  6
CONTINUOUS
 62
     7
 10
-603.3356956231291
 20
281.5320448082641
  0
SEQEND
  8
0
  6
CONTINUOUS
 62
     7
  0
POLYLINE
  8
0
  6
CONTINUOUS
 62
     7
 66
     1
  0
VERTEX
  8
0
  6
CONTINUOUS
 62
     7
 10
-580.2643048291311
 20
124.9679615201128
  0
VERTEX
  8
0
  6
CONTINUOUS
 62
     7
 10
-580.3076399610158
 20
124.874980068767
  0
VERTEX
  8
0
  6
CONTINUOUS
 62
     7
 10
-580.4583924340076
 20
124.7779835867209
  0
SEQEND
  8
0
  6
CONTINUOUS
 62
     7
  0
ARC
  8
0
  6
CONTINUOUS
 62
     7
 10
-591.53473727064
 20
191.5939435452892
 40
67.72782234890612
 50
265.9999666535932
 51
279.4125478788152
  0
ARC
  8
0
  6
CONTINUOUS
 62
     7
 10
-596.6582460632068
 20
152.0669618182658
 40
28.03869561561519
 50
256.546678510354
 51
270.8153970838245
  0
POLYLINE
  8
0
  6
CONTINUOUS
 62
     7
 66
     1
  0
VERTEX
  8
0
  6
CONTINUOUS
 62
     7
 10
-603.1815355974222
 20
124.7976540625139
  0
VERTEX
  8
0
  6
CONTINUOUS
 62
     7
 10
-603.3094088862237
 20
124.8941272807591
  0
VERTEX
  8
0
  6
CONTINUOUS
 62
     7
 10
-603.3356953145232
 20
124.9679595106865
  0
SEQEND
  8
0
  6
CONTINUOUS
 62
     7
  0
POLYLINE
  8
0
  6
CONTINUOUS
 62
     7
 66
     1
  0
VERTEX
  8
0
  6
CONTINUOUS
 62
     7
 10
-729.7356951708689
 20
124.9679615201134
  0
VERTEX
  8
0
  6
CONTINUOUS
 62
     7
 10
-729.6923600389842
 20
124.874980068767
  0
VERTEX
  8
0
  6
CONTINUOUS
 62
     7
 10
-729.5416075659905
 20
124.7779835867199
  0
SEQEND
  8
0
  6
CONTINUOUS
 62
     7
  0
ARC
  8
0
  6
CONTINUOUS
 62
     7
 10
-718.465262729347
 20
191.593943545547
 40
67.7278223491633
 50
260.5874521212114
 51
274.0000333464023
  0
ARC
  8
0
  6
CONTINUOUS
 62
     7
 10
-713.3417539367612
 20
152.0669618179766
 40
28.03869561532517
 50
269.1846029161541
 51
283.4533214897299
  0
POLYLINE
  8
0
  6
CONTINUOUS
 62
     7
 66
     1
  0
VERTEX
  8
0
  6
CONTINUOUS
 62
     7
 10
-706.8184644025732
 20
124.7976540625163
  0
VERTEX
  8
0
  6
CONTINUOUS
 62
     7
 10
-706.6905911137742
 20
124.8941272807617
  0
VERTEX
  8
0
  6
CONTINUOUS
 62
     7
 10
-706.6643046854768
 20
124.967959510686
  0
SEQEND
  8
0
  6
CONTINUOUS
 62
     7
  0
POLYLINE
  8
0
  6
CONTINUOUS
 62
     7
 66
     1
  0
VERTEX
  8
0
  6
CONTINUOUS
 62
     7
 10
-605.4643048291312
 20
124.9679615201129
  0
VERTEX
  8
0
  6
CONTINUOUS
 62
     7
 10
-605.5076399610136
 20
124.8749800687691
  0
VERTEX
  8
0
  6
CONTINUOUS
 62
     7
 10
-605.6583924340032
 20
124.777983586723
  0
SEQEND
  8
0
  6
CONTINUOUS
 62
     7
  0
ARC
  8
0
  6
CONTINUOUS
 62
     7
 10
-616.7347372706299
 20
191.5939435450169
 40
67.72782234863452
 50
265.9999666535859
 51
279.4125478788484
  0
ARC
  8
0
  6
CONTINUOUS
 62
     7
 10
-621.8582460631828
 20
152.066961818482
 40
28.03869561583204
 50
256.5466785104149
 51
270.8153970838109
  0
POLYLINE
  8
0
  6
CONTINUOUS
 62
     7
 66
     1
  0
VERTEX
  8
0
  6
CONTINUOUS
 62
     7
 10
-628.3815355974197
 20
124.7976540625122
  0
VERTEX
  8
0
  6
CONTINUOUS
 62
     7
 10
-628.5094088862226
 20
124.8941272807573
  0
VERTEX
  8
0
  6
CONTINUOUS
 62
     7
 10
-628.5356953145231
 20
124.9679595106864
  0
SEQEND
  8
0
  6
CONTINUOUS
 62
     7
  0
POLYLINE
  8
0
  6
CONTINUOUS
 62
     7
 66
     1
  0
VERTEX
  8
0
  6
CONTINUOUS
 62
     7
 10
-630.6643048291312
 20
124.9679615201128
  0
VERTEX
  8
0
  6
CONTINUOUS
 62
     7
 10
-630.7076399610152
 20
124.8749800687669
  0
VERTEX
  8
0
  6
CONTINUOUS
 62
     7
 10
-630.8583924340054
 20
124.7779835867212
  0
SEQEND
  8
0
  6
CONTINUOUS
 62
     7
  0
ARC
  8
0
  6
CONTINUOUS
 62
     7
 10
-641.9347372706403
 20
191.5939435453228
 40
67.72782234893943
 50
265.9999666535999
 51
279.4125478788126
  0
ARC
  8
0
  6
CONTINUOUS
 62
     7
 10
-647.0582460632012
 20
152.0669618183135
 40
28.03869561566304
 50
256.5466785103653
 51
270.8153970838224
  0
POLYLINE
  8
0
  6
CONTINUOUS
 62
     7
 66
     1
  0
VERTEX
  8
0
  6
CONTINUOUS
 62
     7
 10
-653.5815355974223
 20
124.7976540625137
  0
VERTEX
  8
0
  6
CONTINUOUS
 62
     7
 10
-653.7094088862236
 20
124.8941272807589
  0
VERTEX
  8
0
  6
CONTINUOUS
 62
     7
 10
-653.7356953145231
 20
124.9679595106864
  0
SEQEND
  8
0
  6
CONTINUOUS
 62
     7
  0
POLYLINE
  8
0
  6
CONTINUOUS
 62
     7
 66
     1
  0
VERTEX
  8
0
  6
CONTINUOUS
 62
     7
 10
-679.3356951708689
 20
124.9679615201132
  0
VERTEX
  8
0
  6
CONTINUOUS
 62
     7
 10
-679.2923600389819
 20
124.8749800687643
  0
VERTEX
  8
0
  6
CONTINUOUS
 62
     7
 10
-679.1416075659889
 20
124.7779835867189
  0
SEQEND
  8
0
  6
CONTINUOUS
 62
     7
  0
ARC
  8
0
  6
CONTINUOUS
 62
     7
 10
-668.0652627293475
 20
191.5939435456304
 40
67.72782234924621
 50
260.5874521212247
 51
274.0000333463921
  0
ARC
  8
0
  6
CONTINUOUS
 62
     7
 10
-662.9417539367721
 20
152.0669618180734
 40
28.03869561542212
 50
269.1846029161658
 51
283.4533214897073
  0
POLYLINE
  8
0
  6
CONTINUOUS
 62
     7
 66
     1
  0
VERTEX
  8
0
  6
CONTINUOUS
 62
     7
 10
-656.4184644025723
 20
124.7976540625162
  0
VERTEX
  8
0
  6
CONTINUOUS
 62
     7
 10
-656.2905911137739
 20
124.8941272807617
  0
VERTEX
  8
0
  6
CONTINUOUS
 62
     7
 10
-656.2643046854768
 20
124.9679595106859
  0
SEQEND
  8
0
  6
CONTINUOUS
 62
     7
  0
POLYLINE
  8
0
  6
CONTINUOUS
 62
     7
 66
     1
  0
VERTEX
  8
0
  6
CONTINUOUS
 62
     7
 10
-704.5356951708688
 20
124.9679615201133
  0
VERTEX
  8
0
  6
CONTINUOUS
 62
     7
 10
-704.4923600389819
 20
124.8749800687648
  0
VERTEX
  8
0
  6
CONTINUOUS
 62
     7
 10
-704.3416075659884
 20
124.777983586719
  0
SEQEND
  8
0
  6
CONTINUOUS
 62
     7
  0
ARC
  8
0
  6
CONTINUOUS
 62
     7
 10
-693.2652627293468
 20
191.5939435456116
 40
67.72782234922761
 50
260.587452121222
 51
274.0000333463947
  0
ARC
  8
0
  6
CONTINUOUS
 62
     7
 10
-688.1417539367666
 20
152.0669618180232
 40
28.03869561537195
 50
269.1846029161579
 51
283.4533214897194
  0
POLYLINE
  8
0
  6
CONTINUOUS
 62
     7
 66
     1
  0
VERTEX
  8
0
  6
CONTINUOUS
 62
     7
 10
-681.6184644025727
 20
124.7976540625162
  0
VERTEX
  8
0
  6
CONTINUOUS
 62
     7
 10
-681.490591113774
 20
124.8941272807615
  0
VERTEX
  8
0
  6
CONTINUOUS
 62
     7
 10
-681.4643046854769
 20
124.967959510686
  0
SEQEND
  8
0
  6
CONTINUOUS
 62
     7
  0
LINE
  8
0
  6
CONTINUOUS
 62
     7
 10
-716.7
 20
280.8466895376114
 11
-719.7
 21
280.8466895376114
  0
ARC
  8
0
  6
CONTINUOUS
 62
     7
 10
-720.2192049987368
 20
263.6606861310675
 40
17.19384444853605
 50
88.26956803332381
 51
100.0012838740519
  0
LINE
  8
0
  6
CONTINUOUS
 62
     7
 10
-723.2052641770779
 20
280.5932505412181
 11
-723.2707486220378
 21
280.5344795269577
  0
ARC
  8
0
  6
CONTINUOUS
 62
     7
 10
-716.1807950012931
 20
263.6606861304469
 40
17.19384444915538
 50
79.99871612625071
 51
91.73043196651436
  0
LINE
  8
0
  6
CONTINUOUS
 62
     7
 10
-713.194735822934
 20
280.5932505412233
 11
-713.1292513779623
 21
280.5344795269577
  0
LINE
  8
0
  6
CONTINUOUS
 62
     7
 10
-593.3000000000001
 20
280.8466895376114
 11
-590.3000000000001
 21
280.8466895376114
  0
ARC
  8
0
  6
CONTINUOUS
 62
     7
 10
-593.8192049987069
 20
263.6606861304466
 40
17.19384444915568
 50
88.26956803348568
 51
100.001283873749
  0
LINE
  8
0
  6
CONTINUOUS
 62
     7
 10
-596.805264177066
 20
280.5932505412233
 11
-596.8707486220378
 21
280.5344795269578
  0
ARC
  8
0
  6
CONTINUOUS
 62
     7
 10
-589.780795001264
 20
263.6606861310586
 40
17.19384444854484
 50
79.99871612594853
 51
91.73043196667277
  0
LINE
  8
0
  6
CONTINUOUS
 62
     7
 10
-586.7947358229217
 20
280.593250541218
 11
-586.7292513779622
 21
280.5344795269578
  0
LINE
  8
0
  6
CONTINUOUS
 62
     7
 10
-691.5
 20
280.8466895376114
 11
-694.5
 21
280.8466895376114
  0
ARC
  8
0
  6
CONTINUOUS
 62
     7
 10
-695.0192049987069
 20
263.6606861304445
 40
17.19384444915779
 50
88.2695680334865
 51
100.0012838737486
  0
LINE
  8
0
  6
CONTINUOUS
 62
     7
 10
-698.0052641770661
 20
280.5932505412233
 11
-698.0707486220377
 21
280.5344795269577
  0
ARC
  8
0
  6
CONTINUOUS
 62
     7
 10
-690.980795001293
 20
263.6606861304465
 40
17.19384444915575
 50
79.99871612625083
 51
91.73043196651427
  0
LINE
  8
0
  6
CONTINUOUS
 62
     7
 10
-687.9947358229339
 20
280.5932505412233
 11
-687.9292513779623
 21
280.5344795269577
  0
LINE
  8
0
  6
CONTINUOUS
 62
     7
 10
-666.3
 20
280.8466895376114
 11
-669.3
 21
280.8466895376114
  0
ARC
  8
0
  6
CONTINUOUS
 62
     7
 10
-669.8192049987151
 20
263.6606861306175
 40
17.1938444489851
 50
88.26956803344139
 51
100.0012838738339
  0
LINE
  8
0
  6
CONTINUOUS
 62
     7
 10
-672.8052641770696
 20
280.5932505412217
 11
-672.8707486220378
 21
280.5344795269577
  0
ARC
  8
0
  6
CONTINUOUS
 62
     7
 10
-665.7807950012855
 20
263.6606861306111
 40
17.1938444489916
 50
79.99871612616778
 51
91.73043196655618
  0
LINE
  8
0
  6
CONTINUOUS
 62
     7
 10
-662.7947358229303
 20
280.5932505412217
 11
-662.7292513779623
 21
280.5344795269578
  0
LINE
  8
0
  6
CONTINUOUS
 62
     7
 10
-643.7
 20
280.8466895376114
 11
-640.7
 21
280.8466895376114
  0
ARC
  8
0
  6
CONTINUOUS
 62
     7
 10
-644.2192049987148
 20
263.660686130613
 40
17.19384444898958
 50
88.26956803344301
 51
100.0012838738326
  0
LINE
  8
0
  6
CONTINUOUS
 62
     7
 10
-647.2052641770697
 20
280.5932505412217
 11
-647.2707486220377
 21
280.5344795269577
  0
ARC
  8
0
  6
CONTINUOUS
 62
     7
 10
-640.1807950012849
 20
263.6606861306201
 40
17.19384444898251
 50
79.99871612616528
 51
91.73043196655914
  0
LINE
  8
0
  6
CONTINUOUS
 62
     7
 10
-637.1947358229305
 20
280.5932505412217
 11
-637.1292513779623
 21
280.5344795269577
  0
LINE
  8
0
  6
CONTINUOUS
 62
     7
 10
-618.5
 20
280.8466895376114
 11
-615.5
 21
280.8466895376114
  0
ARC
  8
0
  6
CONTINUOUS
 62
     7
 10
-619.0192049987073
 20
263.66068613045
 40
17.19384444915229
 50
88.2695680334843
 51
100.0012838737499
  0
LINE
  8
0
  6
CONTINUOUS
 62
     7
 10
-622.005264177066
 20
280.5932505412233
 11
-622.0707486220377
 21
280.5344795269578
  0
ARC
  8
0
  6
CONTINUOUS
 62
     7
 10
-614.9807950012927
 20
263.6606861304516
 40
17.1938444491507
 50
79.99871612624894
 51
91.730431966516
  0
LINE
  8
0
  6
CONTINUOUS
 62
     7
 10
-611.994735822934
 20
280.5932505412233
 11
-611.9292513779624
 21
280.5344795269577
  0
LINE
  8
0
  6
CONTINUOUS
 62
     7
 10
-593.3000000000001
 20
125.6533104623885
 11
-590.3000000000001
 21
125.6533104623885
  0
ARC
  8
0
  6
CONTINUOUS
 62
     7
 10
-589.8678208680302
 20
145.6070868285018
 40
19.95845610439267
 50
268.7592238769006
 51
278.5418583442268
  0
POLYLINE
  8
0
  6
CONTINUOUS
 62
     7
 66
     1
  0
VERTEX
  8
0
  6
CONTINUOUS
 62
     7
 10
-586.9033532041012
 20
125.8700176048179
  0
VERTEX
  8
0
  6
CONTINUOUS
 62
     7
 10
-586.7859491549382
 20
125.9108576695349
  0
VERTEX
  8
0
  6
CONTINUOUS
 62
     7
 10
-586.7292513779622
 20
125.9655204730422
  0
SEQEND
  8
0
  6
CONTINUOUS
 62
     7
  0
ARC
  8
0
  6
CONTINUOUS
 62
     7
 10
-593.7321791319725
 20
145.6070868284471
 40
19.95845610433809
 50
261.4581416557567
 51
271.2407761231107
  0
POLYLINE
  8
0
  6
CONTINUOUS
 62
     7
 66
     1
  0
VERTEX
  8
0
  6
CONTINUOUS
 62
     7
 10
-596.6966467958991
 20
125.8700176048181
  0
VERTEX
  8
0
  6
CONTINUOUS
 62
     7
 10
-596.814050845062
 20
125.910857669535
  0
VERTEX
  8
0
  6
CONTINUOUS
 62
     7
 10
-596.8707486220377
 20
125.9655204730422
  0
SEQEND
  8
0
  6
CONTINUOUS
 62
     7
  0
LINE
  8
0
  6
CONTINUOUS
 62
     7
 10
-618.5
 20
125.6533104623885
 11
-615.5
 21
125.6533104623885
  0
ARC
  8
0
  6
CONTINUOUS
 62
     7
 10
-615.0678208680274
 20
145.6070868284453
 40
19.95845610433622
 50
268.7592238768891
 51
278.5418583442438
  0
POLYLINE
  8
0
  6
CONTINUOUS
 62
     7
 66
     1
  0
VERTEX
  8
0
  6
CONTINUOUS
 62
     7
 10
-612.1033532041009
 20
125.8700176048181
  0
VERTEX
  8
0
  6
CONTINUOUS
 62
     7
 10
-611.9859491549381
 20
125.910857669535
  0
VERTEX
  8
0
  6
CONTINUOUS
 62
     7
 10
-611.9292513779623
 20
125.9655204730422
  0
SEQEND
  8
0
  6
CONTINUOUS
 62
     7
  0
ARC
  8
0
  6
CONTINUOUS
 62
     7
 10
-618.9321791319725
 20
145.6070868284487
 40
19.9584561043397
 50
261.4581416557572
 51
271.2407761231105
  0
POLYLINE
  8
0
  6
CONTINUOUS
 62
     7
 66
     1
  0
VERTEX
  8
0
  6
CONTINUOUS
 62
     7
 10
-621.8966467958992
 20
125.8700176048181
  0
VERTEX
  8
0
  6
CONTINUOUS
 62
     7
 10
-622.014050845062
 20
125.9108576695349
  0
VERTEX
  8
0
  6
CONTINUOUS
 62
     7
 10
-622.0707486220377
 20
125.9655204730422
  0
SEQEND
  8
0
  6
CONTINUOUS
 62
     7
  0
LINE
  8
0
  6
CONTINUOUS
 62
     7
 10
-716.7
 20
125.6533104623885
 11
-719.7
 21
125.6533104623885
  0
ARC
  8
0
  6
CONTINUOUS
 62
     7
 10
-716.2678208680285
 20
145.6070868284631
 40
19.95845610435407
 50
268.7592238768932
 51
278.5418583442392
  0
POLYLINE
  8
0
  6
CONTINUOUS
 62
     7
 66
     1
  0
VERTEX
  8
0
  6
CONTINUOUS
 62
     7
 10
-713.3033532041009
 20
125.8700176048181
  0
VERTEX
  8
0
  6
CONTINUOUS
 62
     7
 10
-713.1859491549382
 20
125.9108576695349
  0
VERTEX
  8
0
  6
CONTINUOUS
 62
     7
 10
-713.1292513779623
 20
125.9655204730422
  0
SEQEND
  8
0
  6
CONTINUOUS
 62
     7
  0
ARC
  8
0
  6
CONTINUOUS
 62
     7
 10
-720.1321791319698
 20
145.607086828503
 40
19.95845610439393
 50
261.4581416557735
 51
271.2407761230993
  0
POLYLINE
  8
0
  6
CONTINUOUS
 62
     7
 66
     1
  0
VERTEX
  8
0
  6
CONTINUOUS
 62
     7
 10
-723.0966467958989
 20
125.8700176048179
  0
VERTEX
  8
0
  6
CONTINUOUS
 62
     7
 10
-723.2140508450619
 20
125.9108576695349
  0
VERTEX
  8
0
  6
CONTINUOUS
 62
     7
 10
-723.2707486220378
 20
125.9655204730422
  0
SEQEND
  8
0
  6
CONTINUOUS
 62
     7
  0
LINE
  8
0
  6
CONTINUOUS
 62
     7
 10
-643.7
 20
125.6533104623885
 11
-640.7
 21
125.6533104623885
  0
ARC
  8
0
  6
CONTINUOUS
 62
     7
 10
-640.2678208680271
 20
145.60708682844
 40
19.958456104331
 50
268.7592238768877
 51
278.5418583442464
  0
POLYLINE
  8
0
  6
CONTINUOUS
 62
     7
 66
     1
  0
VERTEX
  8
0
  6
CONTINUOUS
 62
     7
 10
-637.3033532041005
 20
125.8700176048182
  0
VERTEX
  8
0
  6
CONTINUOUS
 62
     7
 10
-637.1859491549378
 20
125.910857669535
  0
VERTEX
  8
0
  6
CONTINUOUS
 62
     7
 10
-637.1292513779623
 20
125.9655204730422
  0
SEQEND
  8
0
  6
CONTINUOUS
 62
     7
  0
ARC
  8
0
  6
CONTINUOUS
 62
     7
 10
-644.1321791319714
 20
145.6070868284638
 40
19.95845610435472
 50
261.4581416557577
 51
271.2407761231066
  0
POLYLINE
  8
0
  6
CONTINUOUS
 62
     7
 66
     1
  0
VERTEX
  8
0
  6
CONTINUOUS
 62
     7
 10
-647.0966467959001
 20
125.8700176048182
  0
VERTEX
  8
0
  6
CONTINUOUS
 62
     7
 10
-647.2140508450624
 20
125.9108576695351
  0
VERTEX
  8
0
  6
CONTINUOUS
 62
     7
 10
-647.2707486220377
 20
125.9655204730422
  0
SEQEND
  8
0
  6
CONTINUOUS
 62
     7
  0
LINE
  8
0
  6
CONTINUOUS
 62
     7
 10
-666.3
 20
125.6533104623885
 11
-669.3
 21
125.6533104623885
  0
ARC
  8
0
  6
CONTINUOUS
 62
     7
 10
-665.8678208680283
 20
145.6070868284664
 40
19.95845610435732
 50
268.7592238768929
 51
278.5418583442401
  0
POLYLINE
  8
0
  6
CONTINUOUS
 62
     7
 66
     1
  0
VERTEX
  8
0
  6
CONTINUOUS
 62
     7
 10
-662.9033532041
 20
125.8700176048182
  0
VERTEX
  8
0
  6
CONTINUOUS
 62
     7
 10
-662.7859491549377
 20
125.910857669535
  0
VERTEX
  8
0
  6
CONTINUOUS
 62
     7
 10
-662.7292513779623
 20
125.9655204730422
  0
SEQEND
  8
0
  6
CONTINUOUS
 62
     7
  0
ARC
  8
0
  6
CONTINUOUS
 62
     7
 10
-669.7321791319716
 20
145.6070868284609
 40
19.95845610435184
 50
261.4581416557585
 51
271.2407761231073
  0
POLYLINE
  8
0
  6
CONTINUOUS
 62
     7
 66
     1
  0
VERTEX
  8
0
  6
CONTINUOUS
 62
     7
 10
-672.6966467958997
 20
125.8700176048182
  0
VERTEX
  8
0
  6
CONTINUOUS
 62
     7
 10
-672.8140508450622
 20
125.910857669535
  0
VERTEX
  8
0
  6
CONTINUOUS
 62
     7
 10
-672.8707486220378
 20
125.9655204730422
  0
SEQEND
  8
0
  6
CONTINUOUS
 62
     7
  0
LINE
  8
0
  6
CONTINUOUS
 62
     7
 10
-691.5
 20
125.6533104623885
 11
-694.5
 21
125.6533104623885
  0
ARC
  8
0
  6
CONTINUOUS
 62
     7
 10
-691.0678208680273
 20
145.6070868284435
 40
19.95845610433445
 50
268.7592238768884
 51
278.541858344244
  0
POLYLINE
  8
0
  6
CONTINUOUS
 62
     7
 66
     1
  0
VERTEX
  8
0
  6
CONTINUOUS
 62
     7
 10
-688.1033532041009
 20
125.8700176048181
  0
VERTEX
  8
0
  6
CONTINUOUS
 62
     7
 10
-687.9859491549381
 20
125.9108576695349
  0
VERTEX
  8
0
  6
CONTINUOUS
 62
     7
 10
-687.9292513779624
 20
125.9655204730422
  0
SEQEND
  8
0
  6
CONTINUOUS
 62
     7
  0
ARC
  8
0
  6
CONTINUOUS
 62
     7
 10
-694.9321791319724
 20
145.6070868284489
 40
19.95845610433985
 50
261.4581416557567
 51
271.2407761231099
  0
POLYLINE
  8
0
  6
CONTINUOUS
 62
     7
 66
     1
  0
VERTEX
  8
0
  6
CONTINUOUS
 62
     7
 10
-697.8966467958992
 20
125.8700176048181
  0
VERTEX
  8
0
  6
CONTINUOUS
 62
     7
 10
-698.014050845062
 20
125.9108576695349
  0
VERTEX
  8
0
  6
CONTINUOUS
 62
     7
 10
-698.0707486220377
 20
125.9655204730422
  0
SEQEND
  8
0
  6
CONTINUOUS
 62
     7
  0
LINE
  8
0
  6
CONTINUOUS
 62
     7
 10
-722.2337424569312
 20
127.4541262878014
 11
-722.1246236022442
 21
127.5177298119278
  0
ARC
  8
0
  6
CONTINUOUS
 62
     7
 10
-719.952084509317
 20
112.8824597092328
 40
14.79564317929897
 50
89.0237614436154
 51
98.44363598443209
  0
ARC
  8
0
  6
CONTINUOUS
 62
     7
 10
-716.4693409687515
 20
112.2707772863376
 40
15.4069046814286
 50
81.89723254078922
 51
90.85781557084464
  0
POLYLINE
  8
0
  6
CONTINUOUS
 62
     7
 66
     1
  0
VERTEX
  8
0
  6
CONTINUOUS
 62
     7
 10
-714.2977523723098
 20
127.5238725404305
  0
VERTEX
  8
0
  6
CONTINUOUS
 62
     7
 10
-714.1905920782335
 20
127.4841624883253
  0
VERTEX
  8
0
  6
CONTINUOUS
 62
     7
 10
-714.1662575430688
 20
127.4541262878014
  0
SEQEND
  8
0
  6
CONTINUOUS
 62
     7
  0
LINE
  8
0
  6
CONTINUOUS
 62
     7
 10
-697.0337424569311
 20
127.4541262878014
 11
-696.9246236022442
 21
127.5177298119278
  0
ARC
  8
0
  6
CONTINUOUS
 62
     7
 10
-694.7520845093153
 20
112.8824597092081
 40
14.79564317932354
 50
89.02376144362358
 51
98.4436359844242
  0
ARC
  8
0
  6
CONTINUOUS
 62
     7
 10
-691.2693409687514
 20
112.2707772863377
 40
15.40690468142849
 50
81.89723254078932
 51
90.85781557084464
  0
POLYLINE
  8
0
  6
CONTINUOUS
 62
     7
 66
     1
  0
VERTEX
  8
0
  6
CONTINUOUS
 62
     7
 10
-689.0977523723097
 20
127.5238725404305
  0
VERTEX
  8
0
  6
CONTINUOUS
 62
     7
 10
-688.9905920782335
 20
127.4841624883253
  0
VERTEX
  8
0
  6
CONTINUOUS
 62
     7
 10
-688.9662575430689
 20
127.4541262878014
  0
SEQEND
  8
0
  6
CONTINUOUS
 62
     7
  0
LINE
  8
0
  6
CONTINUOUS
 62
     7
 10
-621.0337424569312
 20
127.4541262878014
 11
-620.9373449484928
 21
127.5139370870181
  0
ARC
  8
0
  6
CONTINUOUS
 62
     7
 10
-618.7768574027597
 20
113.4266079984891
 40
14.25203660126447
 50
88.88691286823327
 51
98.7191673370023
  0
ARC
  8
0
  6
CONTINUOUS
 62
     7
 10
-615.2479154907002
 20
112.8824597089885
 40
14.7956431795431
 50
81.55636401564186
 51
90.97623855635379
  0
POLYLINE
  8
0
  6
CONTINUOUS
 62
     7
 66
     1
  0
VERTEX
  8
0
  6
CONTINUOUS
 62
     7
 10
-613.0753763977559
 20
127.5177298119278
  0
VERTEX
  8
0
  6
CONTINUOUS
 62
     7
 10
-612.978768966661
 20
127.4755566345177
  0
VERTEX
  8
0
  6
CONTINUOUS
 62
     7
 10
-612.9662575430689
 20
127.4541262878014
  0
SEQEND
  8
0
  6
CONTINUOUS
 62
     7
  0
LINE
  8
0
  6
CONTINUOUS
 62
     7
 10
-595.8337424569312
 20
127.4541262878014
 11
-595.7373449484926
 21
127.5139370870181
  0
ARC
  8
0
  6
CONTINUOUS
 62
     7
 10
-593.5768574027596
 20
113.4266079984877
 40
14.25203660126588
 50
88.88691286823342
 51
98.71916733700152
  0
ARC
  8
0
  6
CONTINUOUS
 62
     7
 10
-590.0479154906988
 20
112.8824597090071
 40
14.79564317952456
 50
81.55636401563618
 51
90.97623855636044
  0
POLYLINE
  8
0
  6
CONTINUOUS
 62
     7
 66
     1
  0
VERTEX
  8
0
  6
CONTINUOUS
 62
     7
 10
-587.8753763977558
 20
127.5177298119279
  0
VERTEX
  8
0
  6
CONTINUOUS
 62
     7
 10
-587.778768966661
 20
127.4755566345177
  0
VERTEX
  8
0
  6
CONTINUOUS
 62
     7
 10
-587.7662575430688
 20
127.4541262878014
  0
SEQEND
  8
0
  6
CONTINUOUS
 62
     7
  0
LINE
  8
0
  6
CONTINUOUS
 62
     7
 10
-671.8337424569312
 20
127.4541262878014
 11
-671.7246236022443
 21
127.5177298119278
  0
ARC
  8
0
  6
CONTINUOUS
 62
     7
 10
-669.5520845093153
 20
112.8824597092038
 40
14.79564317932791
 50
89.02376144362438
 51
98.44363598442254
  0
ARC
  8
0
  6
CONTINUOUS
 62
     7
 10
-666.0693409687517
 20
112.2707772863343
 40
15.4069046814319
 50
81.89723254078945
 51
90.85781557084368
  0
POLYLINE
  8
0
  6
CONTINUOUS
 62
     7
 66
     1
  0
VERTEX
  8
0
  6
CONTINUOUS
 62
     7
 10
-663.8977523723095
 20
127.5238725404305
  0
VERTEX
  8
0
  6
CONTINUOUS
 62
     7
 10
-663.7905920782334
 20
127.4841624883253
  0
VERTEX
  8
0
  6
CONTINUOUS
 62
     7
 10
-663.7662575430688
 20
127.4541262878014
  0
SEQEND
  8
0
  6
CONTINUOUS
 62
     7
  0
LINE
  8
0
  6
CONTINUOUS
 62
     7
 10
-646.2337424569312
 20
127.4541262878014
 11
-646.1373449484929
 21
127.5139370870181
  0
ARC
  8
0
  6
CONTINUOUS
 62
     7
 10
-643.9768574027593
 20
113.4266079984809
 40
14.25203660127273
 50
88.88691286823557
 51
98.71916733699986
  0
ARC
  8
0
  6
CONTINUOUS
 62
     7
 10
-640.4479154907002
 20
112.882459708984
 40
14.7956431795476
 50
81.55636401564344
 51
90.97623855635305
  0
POLYLINE
  8
0
  6
CONTINUOUS
 62
     7
 66
     1
  0
VERTEX
  8
0
  6
CONTINUOUS
 62
     7
 10
-638.2753763977557
 20
127.5177298119279
  0
VERTEX
  8
0
  6
CONTINUOUS
 62
     7
 10
-638.1787689666609
 20
127.4755566345177
  0
VERTEX
  8
0
  6
CONTINUOUS
 62
     7
 10
-638.1662575430689
 20
127.4541262878014
  0
SEQEND
  8
0
  6
CONTINUOUS
 62
     7
  0
LINE
  8
0
  6
CONTINUOUS
 62
     7
 10
-612.9662575430689
 20
279.0458737121986
 11
-613.0758205237732
 21
278.9821420177749
  0
ARC
  8
0
  6
CONTINUOUS
 62
     7
 10
-615.2490153834146
 20
293.640167942248
 40
14.81824888104179
 50
269.0295042936536
 51
278.4332243800881
  0
ARC
  8
0
  6
CONTINUOUS
 62
     7
 10
-618.7317413250785
 20
294.1973149938642
 40
15.37501681996071
 50
261.8797502378196
 51
270.8636284968654
  0
POLYLINE
  8
0
  6
CONTINUOUS
 62
     7
 66
     1
  0
VERTEX
  8
0
  6
CONTINUOUS
 62
     7
 10
-620.9034797057283
 20
278.9764512003705
  0
VERTEX
  8
0
  6
CONTINUOUS
 62
     7
 10
-621.0097377694123
 20
279.0160420969229
  0
VERTEX
  8
0
  6
CONTINUOUS
 62
     7
 10
-621.0337424569312
 20
279.0458737121986
  0
SEQEND
  8
0
  6
CONTINUOUS
 62
     7
  0
LINE
  8
0
  6
CONTINUOUS
 62
     7
 10
-587.7662575430688
 20
279.0458737121986
 11
-587.8758205237727
 21
278.9821420177747
  0
ARC
  8
0
  6
CONTINUOUS
 62
     7
 10
-590.0490153834128
 20
293.6401679422423
 40
14.81824888103623
 50
269.0295042936457
 51
278.4332243800858
  0
ARC
  8
0
  6
CONTINUOUS
 62
     7
 10
-593.5317413250784
 20
294.1973149938645
 40
15.37501681996098
 50
261.8797502378198
 51
270.8636284968654
  0
POLYLINE
  8
0
  6
CONTINUOUS
 62
     7
 66
     1
  0
VERTEX
  8
0
  6
CONTINUOUS
 62
     7
 10
-595.7034797057282
 20
278.9764512003705
  0
VERTEX
  8
0
  6
CONTINUOUS
 62
     7
 10
-595.8097377694122
 20
279.0160420969229
  0
VERTEX
  8
0
  6
CONTINUOUS
 62
     7
 10
-595.8337424569312
 20
279.0458737121986
  0
SEQEND
  8
0
  6
CONTINUOUS
 62
     7
  0
LINE
  8
0
  6
CONTINUOUS
 62
     7
 10
-688.9662575430689
 20
279.0458737121986
 11
-689.0615886690156
 21
278.9863927161868
  0
ARC
  8
0
  6
CONTINUOUS
 62
     7
 10
-691.2218866073068
 20
293.0401046297328
 40
14.21878003666735
 50
268.8792470377169
 51
278.7389472056159
  0
ARC
  8
0
  6
CONTINUOUS
 62
     7
 10
-694.7509846165697
 20
293.6401679424704
 40
14.81824888126414
 50
261.5667756199783
 51
270.9704957063233
  0
POLYLINE
  8
0
  6
CONTINUOUS
 62
     7
 66
     1
  0
VERTEX
  8
0
  6
CONTINUOUS
 62
     7
 10
-696.9241794762268
 20
278.9821420177748
  0
VERTEX
  8
0
  6
CONTINUOUS
 62
     7
 10
-697.0211792261927
 20
279.0243992523241
  0
VERTEX
  8
0
  6
CONTINUOUS
 62
     7
 10
-697.0337424569311
 20
279.0458737121986
  0
SEQEND
  8
0
  6
CONTINUOUS
 62
     7
  0
LINE
  8
0
  6
CONTINUOUS
 62
     7
 10
-714.1662575430688
 20
279.0458737121986
 11
-714.2615886690155
 21
278.9863927161868
  0
ARC
  8
0
  6
CONTINUOUS
 62
     7
 10
-716.4218866073066
 20
293.0401046297299
 40
14.21878003666444
 50
268.8792470377159
 51
278.7389472056168
  0
ARC
  8
0
  6
CONTINUOUS
 62
     7
 10
-719.9509846165715
 20
293.6401679424634
 40
14.81824888125724
 50
261.5667756199798
 51
270.9704957063312
  0
POLYLINE
  8
0
  6
CONTINUOUS
 62
     7
 66
     1
  0
VERTEX
  8
0
  6
CONTINUOUS
 62
     7
 10
-722.1241794762273
 20
278.9821420177747
  0
VERTEX
  8
0
  6
CONTINUOUS
 62
     7
 10
-722.2211792261928
 20
279.024399252324
  0
VERTEX
  8
0
  6
CONTINUOUS
 62
     7
 10
-722.2337424569312
 20
279.0458737121986
  0
SEQEND
  8
0
  6
CONTINUOUS
 62
     7
  0
LINE
  8
0
  6
CONTINUOUS
 62
     7
 10
-638.1662575430689
 20
279.0458737121986
 11
-638.2758205237733
 21
278.9821420177749
  0
ARC
  8
0
  6
CONTINUOUS
 62
     7
 10
-640.4490153834143
 20
293.6401679422464
 40
14.81824888104034
 50
269.0295042936522
 51
278.4332243800875
  0
ARC
  8
0
  6
CONTINUOUS
 62
     7
 10
-643.9317413250789
 20
294.1973149938638
 40
15.37501681996033
 50
261.8797502378213
 51
270.863628496867
  0
POLYLINE
  8
0
  6
CONTINUOUS
 62
     7
 66
     1
  0
VERTEX
  8
0
  6
CONTINUOUS
 62
     7
 10
-646.1034797057282
 20
278.9764512003704
  0
VERTEX
  8
0
  6
CONTINUOUS
 62
     7
 10
-646.2097377694124
 20
279.0160420969229
  0
VERTEX
  8
0
  6
CONTINUOUS
 62
     7
 10
-646.2337424569312
 20
279.0458737121986
  0
SEQEND
  8
0
  6
CONTINUOUS
 62
     7
  0
LINE
  8
0
  6
CONTINUOUS
 62
     7
 10
-663.7662575430688
 20
279.0458737121986
 11
-663.8615886690154
 21
278.9863927161867
  0
ARC
  8
0
  6
CONTINUOUS
 62
     7
 10
-666.021886607307
 20
293.0401046297393
 40
14.21878003667389
 50
268.879247037718
 51
278.7389472056127
  0
ARC
  8
0
  6
CONTINUOUS
 62
     7
 10
-669.5509846165701
 20
293.6401679424665
 40
14.81824888126026
 50
261.5667756199775
 51
270.9704957063252
  0
POLYLINE
  8
0
  6
CONTINUOUS
 62
     7
 66
     1
  0
VERTEX
  8
0
  6
CONTINUOUS
 62
     7
 10
-671.7241794762267
 20
278.9821420177748
  0
VERTEX
  8
0
  6
CONTINUOUS
 62
     7
 10
-671.8211792261926
 20
279.0243992523241
  0
VERTEX
  8
0
  6
CONTINUOUS
 62
     7
 10
-671.8337424569312
 20
279.0458737121986
  0
SEQEND
  8
0
  6
CONTINUOUS
 62
     7
  0
LINE
  8
0
  6
CONTINUOUS
 62
     7
 10
-662.7686934928091
 20
126.5274226190111
 11
-662.7693570722505
 21
126.5332931132738
  0
LINE
  8
0
  6
CONTINUOUS
 62
     7
 10
-687.9686934928089
 20
126.5274226190111
 11
-687.9693570722503
 21
126.5332931132738
  0
LINE
  8
0
  6
CONTINUOUS
 62
     7
 10
-713.168693492809
 20
126.5274226190111
 11
-713.1693570722504
 21
126.5332931132738
  0
LINE
  8
0
  6
CONTINUOUS
 62
     7
 10
-647.2306429009959
 20
126.5332932316893
 11
-647.231306507191
 21
126.5274226190111
  0
LINE
  8
0
  6
CONTINUOUS
 62
     7
 10
-622.030642900996
 20
126.5332932316893
 11
-622.031306507191
 21
126.5274226190111
  0
LINE
  8
0
  6
CONTINUOUS
 62
     7
 10
-596.8306429009959
 20
126.5332932316893
 11
-596.8313065071909
 21
126.5274226190111
  0
LINE
  8
0
  6
CONTINUOUS
 62
     7
 10
-596.831306507191
 20
279.9725773809889
 11
-596.8306768476307
 21
279.9668589897593
  0
LINE
  8
0
  6
CONTINUOUS
 62
     7
 10
-622.031306507191
 20
279.9725773809889
 11
-622.0306768476306
 21
279.9668589897591
  0
LINE
  8
0
  6
CONTINUOUS
 62
     7
 10
-647.231306507191
 20
279.9725773809889
 11
-647.2306768476305
 21
279.9668589897592
  0
LINE
  8
0
  6
CONTINUOUS
 62
     7
 10
-687.9693231811657
 20
279.9668588589186
 11
-687.9686934928089
 21
279.9725773809889
  0
LINE
  8
0
  6
CONTINUOUS
 62
     7
 10
-713.1693231811657
 20
279.9668588589185
 11
-713.1686934928091
 21
279.9725773809889
  0
LINE
  8
0
  6
CONTINUOUS
 62
     7
 10
-662.7693231811658
 20
279.9668588589185
 11
-662.7686934928091
 21
279.9725773809889
  0
ARC
  8
0
  6
CONTINUOUS
 62
     7
 10
-575.0
 20
277.4499093082074
 40
0.8967456166469046
 50
0.0
 51
90.0
  0
ARC
  8
0
  6
CONTINUOUS
 62
     7
 10
-735.0
 20
129.0500906917926
 40
0.8967456166469184
 50
180.0000000000009
 51
270.0
  0
ARC
  8
0
  6
CONTINUOUS
 62
     7
 10
-575.0
 20
129.0500906917926
 40
0.8967456166469184
 50
269.9999999999991
 51
359.9999999999991
  0
ARC
  8
0
  6
CONTINUOUS
 62
     7
 10
-735.0
 20
277.4499093082074
 40
0.8967456166469046
 50
90.0
 51
180.0
  0
LINE
  8
0
  6
CONTINUOUS
 62
     7
 10
-575.0
 20
128.1533450751457
 11
-735.0000000000001
 21
128.1533450751457
  0
LINE
  8
0
  6
CONTINUOUS
 62
     7
 10
-735.0
 20
278.3466549248543
 11
-575.0
 21
278.3466549248543
  0
LINE
  8
0
  6
CONTINUOUS
 62
     7
 10
-574.103254383353
 20
129.0500906917926
 11
-574.103254383353
 21
277.4499093082074
  0
LINE
  8
0
  6
CONTINUOUS
 62
     7
 10
-735.896745616647
 20
129.0500906917926
 11
-735.896745616647
 21
277.4499093082074
  0
ARC
  8
0
  6
CONTINUOUS
 62
     7
 10
-735.0
 20
277.2749319811555
 40
0.8967456166469046
 50
90.0
 51
180.0
  0
ARC
  8
0
  6
CONTINUOUS
 62
     7
 10
-575.0
 20
129.2250680188444
 40
0.8967456166469184
 50
269.9999999999991
 51
359.9999999999991
  0
ARC
  8
0
  6
CONTINUOUS
 62
     7
 10
-735.0
 20
129.2250680188444
 40
0.8967456166469184
 50
180.0000000000009
 51
270.0
  0
ARC
  8
0
  6
CONTINUOUS
 62
     7
 10
-575.0
 20
277.2749319811555
 40
0.8967456166469046
 50
0.0
 51
90.0
  0
LINE
  8
0
  6
CONTINUOUS
 62
     7
 10
-735.0
 20
278.1716775978025
 11
-575.0
 21
278.1716775978025
  0
LINE
  8
0
  6
CONTINUOUS
 62
     7
 10
-575.0
 20
128.3283224021975
 11
-735.0000000000001
 21
128.3283224021975
  0
ARC
  8
0
  6
CONTINUOUS
 62
     7
 10
-735.0
 20
277.0999546541037
 40
0.8967456166468907
 50
90.0
 51
180.0
  0
ARC
  8
0
  6
CONTINUOUS
 62
     7
 10
-575.0
 20
129.4000453458963
 40
0.8967456166469046
 50
270.0
 51
0.0
  0
ARC
  8
0
  6
CONTINUOUS
 62
     7
 10
-575.0
 20
277.0999546541037
 40
0.8967456166468907
 50
359.9999999999991
 51
90.0
  0
ARC
  8
0
  6
CONTINUOUS
 62
     7
 10
-735.0
 20
129.4000453458963
 40
0.8967456166469046
 50
180.0
 51
270.0
  0
LINE
  8
0
  6
CONTINUOUS
 62
     7
 10
-735.0
 20
277.9967002707506
 11
-575.0
 21
277.9967002707506
  0
LINE
  8
0
  6
CONTINUOUS
 62
     7
 10
-575.0
 20
128.5032997292494
 11
-735.0000000000001
 21
128.5032997292494
  0
ARC
  8
0
  6
CONTINUOUS
 62
     7
 10
-735.0
 20
276.9249773270519
 40
0.8967456166469046
 50
90.0
 51
180.0
  0
ARC
  8
0
  6
CONTINUOUS
 62
     7
 10
-575.0
 20
129.5750226729481
 40
0.8967456166469046
 50
270.0
 51
0.0
  0
ARC
  8
0
  6
CONTINUOUS
 62
     7
 10
-575.0
 20
276.9249773270519
 40
0.8967456166469046
 50
359.9999999999991
 51
90.0
  0
ARC
  8
0
  6
CONTINUOUS
 62
     7
 10
-735.0
 20
129.5750226729481
 40
0.8967456166469046
 50
180.0
 51
270.0
  0
LINE
  8
0
  6
CONTINUOUS
 62
     7
 10
-735.0
 20
277.8217229436988
 11
-575.0
 21
277.8217229436988
  0
LINE
  8
0
  6
CONTINUOUS
 62
     7
 10
-575.0
 20
128.6782770563013
 11
-735.0000000000001
 21
128.6782770563013
  0
POLYLINE
  8
0
  6
CONTINUOUS
 62
     7
 66
     1
  0
VERTEX
  8
0
  6
CONTINUOUS
 62
     7
 10
-679.3310929085491
 20
281.4664736907462
  0
VERTEX
  8
0
  6
CONTINUOUS
 62
     7
 10
-679.3121022093198
 20
281.327121339017
  0
VERTEX
  8
0
  6
CONTINUOUS
 62
     7
 10
-679.278682861811
 20
281.2017818993307
  0
VERTEX
  8
0
  6
CONTINUOUS
 62
     7
 10
-679.235189591867
 20
281.0910946589152
  0
VERTEX
  8
0
  6
CONTINUOUS
 62
     7
 10
-679.1788802687315
 20
280.9836398358109
  0
VERTEX
  8
0
  6
CONTINUOUS
 62
     7
 10
-679.1196046009427
 20
280.8939165988116
  0
VERTEX
  8
0
  6
CONTINUOUS
 62
     7
 10
-679.0527294165576
 20
280.810592853028
  0
VERTEX
  8
0
  6
CONTINUOUS
 62
     7
 10
-678.9536592351005
 20
280.7104046580469
  0
VERTEX
  8
0
  6
CONTINUOUS
 62
     7
 10
-678.864221673671
 20
280.6368269048697
  0
VERTEX
  8
0
  6
CONTINUOUS
 62
     7
 10
-678.6687113396157
 20
280.5129472518539
  0
SEQEND
  8
0
  6
CONTINUOUS
 62
     7
  0
ARC
  8
0
  6
CONTINUOUS
 62
     7
 10
-674.9496361523483
 20
291.2511401831335
 40
11.36399171409115
 50
250.8969389660325
 51
268.7089711591397
  0
LINE
  8
0
  6
CONTINUOUS
 62
     7
 10
-675.2056759465396
 20
279.8900332255469
 11
-675.0199287295823
 21
279.8748624292758
  0
ARC
  8
0
  6
CONTINUOUS
 62
     7
 10
-660.7808376460433
 20
292.1725159642305
 40
12.28870262164248
 50
271.7840300638019
 51
287.9692734805832
  0
POLYLINE
  8
0
  6
CONTINUOUS
 62
     7
 66
     1
  0
VERTEX
  8
0
  6
CONTINUOUS
 62
     7
 10
-656.9896878692151
 20
280.4832304645595
  0
VERTEX
  8
0
  6
CONTINUOUS
 62
     7
 10
-656.8266095350184
 20
280.5755758511374
  0
VERTEX
  8
0
  6
CONTINUOUS
 62
     7
 10
-656.7219038943895
 20
280.6502039525163
  0
VERTEX
  8
0
  6
CONTINUOUS
 62
     7
 10
-656.6087202471732
 20
280.7496544266183
  0
VERTEX
  8
0
  6
CONTINUOUS
 62
     7
 10
-656.4950789607313
 20
280.8784039334113
  0
VERTEX
  8
0
  6
CONTINUOUS
 62
     7
 10
-656.4068489660904
 20
281.0119519748109
  0
VERTEX
  8
0
  6
CONTINUOUS
 62
     7
 10
-656.3332675832787
 20
281.1700388196642
  0
VERTEX
  8
0
  6
CONTINUOUS
 62
     7
 10
-656.291473222238
 20
281.3113216970772
  0
VERTEX
  8
0
  6
CONTINUOUS
 62
     7
 10
-656.2689040784446
 20
281.4665168998215
  0
SEQEND
  8
0
  6
CONTINUOUS
 62
     7
  0
LINE
  8
0
  6
CONTINUOUS
 62
     7
 10
-656.2689441114978
 20
281.4659472982918
 11
-656.264276933292
 21
281.5324358463206
  0
LINE
  8
0
  6
CONTINUOUS
 62
     7
 10
-679.335723066708
 20
281.5324358463215
 11
-679.3310558885023
 21
281.4659472982926
  0
LINE
  8
0
  6
CONTINUOUS
 62
     7
 10
-681.4689441114978
 20
281.4659472982918
 11
-681.464276933292
 21
281.5324358463205
  0
LINE
  8
0
  6
CONTINUOUS
 62
     7
 10
-704.5357230667081
 20
281.5324358463215
 11
-704.5310558885022
 21
281.4659472982927
  0
POLYLINE
  8
0
  6
CONTINUOUS
 62
     7
 66
     1
  0
VERTEX
  8
0
  6
CONTINUOUS
 62
     7
 10
-704.5310929085491
 20
281.4664736907461
  0
VERTEX
  8
0
  6
CONTINUOUS
 62
     7
 10
-704.5121022093198
 20
281.327121339017
  0
VERTEX
  8
0
  6
CONTINUOUS
 62
     7
 10
-704.478682861811
 20
281.2017818993309
  0
VERTEX
  8
0
  6
CONTINUOUS
 62
     7
 10
-704.4351895918671
 20
281.0910946589152
  0
VERTEX
  8
0
  6
CONTINUOUS
 62
     7
 10
-704.3788802687316
 20
280.983639835811
  0
VERTEX
  8
0
  6
CONTINUOUS
 62
     7
 10
-704.3196046009426
 20
280.8939165988116
  0
VERTEX
  8
0
  6
CONTINUOUS
 62
     7
 10
-704.2527294165575
 20
280.8105928530279
  0
VERTEX
  8
0
  6
CONTINUOUS
 62
     7
 10
-704.1536592351
 20
280.7104046580463
  0
VERTEX
  8
0
  6
CONTINUOUS
 62
     7
 10
-704.06422167367
 20
280.636826904869
  0
VERTEX
  8
0
  6
CONTINUOUS
 62
     7
 10
-703.8687113396146
 20
280.5129472518533
  0
SEQEND
  8
0
  6
CONTINUOUS
 62
     7
  0
ARC
  8
0
  6
CONTINUOUS
 62
     7
 10
-700.1496361523488
 20
291.2511401831346
 40
11.3639917140922
 50
250.8969389660433
 51
268.7089711591385
  0
LINE
  8
0
  6
CONTINUOUS
 62
     7
 10
-700.4056759465404
 20
279.890033225547
 11
-700.219928729587
 21
279.8748624292762
  0
ARC
  8
0
  6
CONTINUOUS
 62
     7
 10
-685.9808376460417
 20
292.1725159642189
 40
12.28870262163094
 50
271.7840300637989
 51
287.9692734805968
  0
POLYLINE
  8
0
  6
CONTINUOUS
 62
     7
 66
     1
  0
VERTEX
  8
0
  6
CONTINUOUS
 62
     7
 10
-682.1896878692141
 20
280.4832304645599
  0
VERTEX
  8
0
  6
CONTINUOUS
 62
     7
 10
-682.026609535017
 20
280.5755758511383
  0
VERTEX
  8
0
  6
CONTINUOUS
 62
     7
 10
-681.9219038943882
 20
280.6502039525172
  0
VERTEX
  8
0
  6
CONTINUOUS
 62
     7
 10
-681.808720247172
 20
280.7496544266194
  0
VERTEX
  8
0
  6
CONTINUOUS
 62
     7
 10
-681.6950789607305
 20
280.8784039334124
  0
VERTEX
  8
0
  6
CONTINUOUS
 62
     7
 10
-681.6068489660898
 20
281.0119519748119
  0
VERTEX
  8
0
  6
CONTINUOUS
 62
     7
 10
-681.5332675832784
 20
281.1700388196649
  0
VERTEX
  8
0
  6
CONTINUOUS
 62
     7
 10
-681.491473222238
 20
281.3113216970776
  0
VERTEX
  8
0
  6
CONTINUOUS
 62
     7
 10
-681.4689040784447
 20
281.4665168998215
  0
SEQEND
  8
0
  6
CONTINUOUS
 62
     7
  0
POLYLINE
  8
0
  6
CONTINUOUS
 62
     7
 66
     1
  0
VERTEX
  8
0
  6
CONTINUOUS
 62
     7
 10
-729.731092908549
 20
281.4664736907461
  0
VERTEX
  8
0
  6
CONTINUOUS
 62
     7
 10
-729.7121022093196
 20
281.3271213390166
  0
VERTEX
  8
0
  6
CONTINUOUS
 62
     7
 10
-729.6786828618107
 20
281.20178189933
  0
VERTEX
  8
0
  6
CONTINUOUS
 62
     7
 10
-729.6351895918665
 20
281.091094658914
  0
VERTEX
  8
0
  6
CONTINUOUS
 62
     7
 10
-729.5788802687305
 20
280.9836398358094
  0
VERTEX
  8
0
  6
CONTINUOUS
 62
     7
 10
-729.5196046009412
 20
280.8939165988098
  0
VERTEX
  8
0
  6
CONTINUOUS
 62
     7
 10
-729.4527294165556
 20
280.810592853026
  0
VERTEX
  8
0
  6
CONTINUOUS
 62
     7
 10
-729.3536592350974
 20
280.7104046580444
  0
VERTEX
  8
0
  6
CONTINUOUS
 62
     7
 10
-729.2642216736673
 20
280.6368269048673
  0
VERTEX
  8
0
  6
CONTINUOUS
 62
     7
 10
-729.0687113396119
 20
280.5129472518523
  0
SEQEND
  8
0
  6
CONTINUOUS
 62
     7
  0
ARC
  8
0
  6
CONTINUOUS
 62
     7
 10
-725.3496361523555
 20
291.2511401831007
 40
11.36399171405813
 50
250.8969389660336
 51
268.7089711591726
  0
LINE
  8
0
  6
CONTINUOUS
 62
     7
 10
-725.6056759465396
 20
279.890033225547
 11
-725.4199287295928
 21
279.8748624292768
  0
ARC
  8
0
  6
CONTINUOUS
 62
     7
 10
-711.18083764604
 20
292.1725159642043
 40
12.28870262161616
 50
271.7840300637949
 51
287.9692734806174
  0
POLYLINE
  8
0
  6
CONTINUOUS
 62
     7
 66
     1
  0
VERTEX
  8
0
  6
CONTINUOUS
 62
     7
 10
-707.3896878692129
 20
280.4832304645605
  0
VERTEX
  8
0
  6
CONTINUOUS
 62
     7
 10
-707.2266095350146
 20
280.5755758511399
  0
VERTEX
  8
0
  6
CONTINUOUS
 62
     7
 10
-707.1219038943857
 20
280.6502039525193
  0
VERTEX
  8
0
  6
CONTINUOUS
 62
     7
 10
-707.0087202471699
 20
280.7496544266216
  0
VERTEX
  8
0
  6
CONTINUOUS
 62
     7
 10
-706.8950789607288
 20
280.8784039334146
  0
VERTEX
  8
0
  6
CONTINUOUS
 62
     7
 10
-706.8068489660888
 20
281.0119519748138
  0
VERTEX
  8
0
  6
CONTINUOUS
 62
     7
 10
-706.7332675832779
 20
281.1700388196662
  0
VERTEX
  8
0
  6
CONTINUOUS
 62
     7
 10
-706.6914732222377
 20
281.3113216970783
  0
VERTEX
  8
0
  6
CONTINUOUS
 62
     7
 10
-706.6689040784446
 20
281.4665168998215
  0
SEQEND
  8
0
  6
CONTINUOUS
 62
     7
  0
LINE
  8
0
  6
CONTINUOUS
 62
     7
 10
-706.6689441114978
 20
281.4659472982918
 11
-706.6642769332921
 21
281.5324358463207
  0
LINE
  8
0
  6
CONTINUOUS
 62
     7
 10
-729.735723066708
 20
281.5324358463215
 11
-729.7310558885023
 21
281.4659472982926
  0
LINE
  8
0
  6
CONTINUOUS
 62
     7
 10
-630.6689441114978
 20
281.4659472982918
 11
-630.6642769332921
 21
281.5324358463205
  0
LINE
  8
0
  6
CONTINUOUS
 62
     7
 10
-653.735723066708
 20
281.5324358463215
 11
-653.7310558885022
 21
281.4659472982927
  0
POLYLINE
  8
0
  6
CONTINUOUS
 62
     7
 66
     1
  0
VERTEX
  8
0
  6
CONTINUOUS
 62
     7
 10
-653.7310959215554
 20
281.4665168998217
  0
VERTEX
  8
0
  6
CONTINUOUS
 62
     7
 10
-653.7140113944248
 20
281.3366730990428
  0
VERTEX
  8
0
  6
CONTINUOUS
 62
     7
 10
-653.684271578092
 20
281.219014725892
  0
VERTEX
  8
0
  6
CONTINUOUS
 62
     7
 10
-653.6454332187569
 20
281.114103185859
  0
VERTEX
  8
0
  6
CONTINUOUS
 62
     7
 10
-653.5923542441082
 20
281.0068040359717
  0
VERTEX
  8
0
  6
CONTINUOUS
 62
     7
 10
-653.5357329695956
 20
280.9165021694137
  0
VERTEX
  8
0
  6
CONTINUOUS
 62
     7
 10
-653.4645674369573
 20
280.8242429796481
  0
VERTEX
  8
0
  6
CONTINUOUS
 62
     7
 10
-653.3706955920107
 20
280.7261335290442
  0
VERTEX
  8
0
  6
CONTINUOUS
 62
     7
 10
-653.160054678304
 20
280.5659068924066
  0
VERTEX
  8
0
  6
CONTINUOUS
 62
     7
 10
-652.9840255601564
 20
280.4708389015058
  0
SEQEND
  8
0
  6
CONTINUOUS
 62
     7
  0
ARC
  8
0
  6
CONTINUOUS
 62
     7
 10
-649.1029493871445
 20
292.8294883276617
 40
12.95372409384054
 50
252.5657691464297
 51
268.208050594932
  0
ARC
  8
0
  6
CONTINUOUS
 62
     7
 10
-634.8345163744102
 20
289.0175351556459
 40
9.147237127015512
 50
268.8689781133861
 51
294.098208079214
  0
POLYLINE
  8
0
  6
CONTINUOUS
 62
     7
 66
     1
  0
VERTEX
  8
0
  6
CONTINUOUS
 62
     7
 10
-631.0996819717137
 20
280.6675076681292
  0
VERTEX
  8
0
  6
CONTINUOUS
 62
     7
 10
-630.9918342737373
 20
280.7662173532947
  0
VERTEX
  8
0
  6
CONTINUOUS
 62
     7
 10
-630.895163494802
 20
280.8779980383245
  0
VERTEX
  8
0
  6
CONTINUOUS
 62
     7
 10
-630.8154860342989
 20
280.9967471975534
  0
VERTEX
  8
0
  6
CONTINUOUS
 62
     7
 10
-630.7466594523951
 20
281.1357449857917
  0
VERTEX
  8
0
  6
CONTINUOUS
 62
     7
 10
-630.7044335038923
 20
281.2592119844899
  0
VERTEX
  8
0
  6
CONTINUOUS
 62
     7
 10
-630.6764302986286
 20
281.3946340146297
  0
VERTEX
  8
0
  6
CONTINUOUS
 62
     7
 10
-630.6689070914509
 20
281.4664736907458
  0
SEQEND
  8
0
  6
CONTINUOUS
 62
     7
  0
POLYLINE
  8
0
  6
CONTINUOUS
 62
     7
 66
     1
  0
VERTEX
  8
0
  6
CONTINUOUS
 62
     7
 10
-628.5310959215554
 20
281.4665168998217
  0
VERTEX
  8
0
  6
CONTINUOUS
 62
     7
 10
-628.5140113944248
 20
281.3366730990425
  0
VERTEX
  8
0
  6
CONTINUOUS
 62
     7
 10
-628.4842715780918
 20
281.2190147258915
  0
VERTEX
  8
0
  6
CONTINUOUS
 62
     7
 10
-628.4454332187566
 20
281.1141031858584
  0
VERTEX
  8
0
  6
CONTINUOUS
 62
     7
 10
-628.3923542441078
 20
281.006804035971
  0
VERTEX
  8
0
  6
CONTINUOUS
 62
     7
 10
-628.3357329695953
 20
280.916502169413
  0
VERTEX
  8
0
  6
CONTINUOUS
 62
     7
 10
-628.2645674369567
 20
280.8242429796474
  0
VERTEX
  8
0
  6
CONTINUOUS
 62
     7
 10
-628.1706955920104
 20
280.7261335290436
  0
VERTEX
  8
0
  6
CONTINUOUS
 62
     7
 10
-627.9600546783038
 20
280.5659068924062
  0
VERTEX
  8
0
  6
CONTINUOUS
 62
     7
 10
-627.7840255601562
 20
280.4708389015056
  0
SEQEND
  8
0
  6
CONTINUOUS
 62
     7
  0
ARC
  8
0
  6
CONTINUOUS
 62
     7
 10
-623.9029493871451
 20
292.8294883276641
 40
12.95372409384277
 50
252.5657691464363
 51
268.2080505949244
  0
ARC
  8
0
  6
CONTINUOUS
 62
     7
 10
-609.6345163744135
 20
289.0175351556567
 40
9.147237127026738
 50
268.868978113378
 51
294.0982080792031
  0
POLYLINE
  8
0
  6
CONTINUOUS
 62
     7
 66
     1
  0
VERTEX
  8
0
  6
CONTINUOUS
 62
     7
 10
-605.8996819717139
 20
280.667507668129
  0
VERTEX
  8
0
  6
CONTINUOUS
 62
     7
 10
-605.7918342737375
 20
280.7662173532943
  0
VERTEX
  8
0
  6
CONTINUOUS
 62
     7
 10
-605.6951634948023
 20
280.8779980383242
  0
VERTEX
  8
0
  6
CONTINUOUS
 62
     7
 10
-605.615486034299
 20
280.9967471975531
  0
VERTEX
  8
0
  6
CONTINUOUS
 62
     7
 10
-605.546659452395
 20
281.1357449857915
  0
VERTEX
  8
0
  6
CONTINUOUS
 62
     7
 10
-605.5044335038924
 20
281.2592119844898
  0
VERTEX
  8
0
  6
CONTINUOUS
 62
     7
 10
-605.4764302986287
 20
281.3946340146296
  0
VERTEX
  8
0
  6
CONTINUOUS
 62
     7
 10
-605.468907091451
 20
281.4664736907458
  0
SEQEND
  8
0
  6
CONTINUOUS
 62
     7
  0
LINE
  8
0
  6
CONTINUOUS
 62
     7
 10
-605.4689441114978
 20
281.4659472982918
 11
-605.4642769332919
 21
281.5324358463205
  0
LINE
  8
0
  6
CONTINUOUS
 62
     7
 10
-628.535723066708
 20
281.5324358463214
 11
-628.5310558885022
 21
281.4659472982927
  0
POLYLINE
  8
0
  6
CONTINUOUS
 62
     7
 66
     1
  0
VERTEX
  8
0
  6
CONTINUOUS
 62
     7
 10
-603.3310959215554
 20
281.4665168998218
  0
VERTEX
  8
0
  6
CONTINUOUS
 62
     7
 10
-603.3140113944243
 20
281.3366730990401
  0
VERTEX
  8
0
  6
CONTINUOUS
 62
     7
 10
-603.2842715780904
 20
281.2190147258871
  0
VERTEX
  8
0
  6
CONTINUOUS
 62
     7
 10
-603.2454332187539
 20
281.1141031858523
  0
VERTEX
  8
0
  6
CONTINUOUS
 62
     7
 10
-603.1923542441034
 20
281.0068040359636
  0
VERTEX
  8
0
  6
CONTINUOUS
 62
     7
 10
-603.1357329695894
 20
280.9165021694049
  0
VERTEX
  8
0
  6
CONTINUOUS
 62
     7
 10
-603.0645674369493
 20
280.8242429796392
  0
VERTEX
  8
0
  6
CONTINUOUS
 62
     7
 10
-602.970695592002
 20
280.7261335290362
  0
VERTEX
  8
0
  6
CONTINUOUS
 62
     7
 10
-602.7600546782965
 20
280.5659068924021
  0
VERTEX
  8
0
  6
CONTINUOUS
 62
     7
 10
-602.5840255601497
 20
280.4708389015029
  0
SEQEND
  8
0
  6
CONTINUOUS
 62
     7
  0
ARC
  8
0
  6
CONTINUOUS
 62
     7
 10
-598.7029493871379
 20
292.829488327715
 40
12.953724093894
 50
252.5657691465045
 51
268.208050594918
  0
ARC
  8
0
  6
CONTINUOUS
 62
     7
 10
-584.434516374388
 20
289.0175351554846
 40
9.147237126855424
 50
268.8689781131763
 51
294.0982080795509
  0
POLYLINE
  8
0
  6
CONTINUOUS
 62
     7
 66
     1
  0
VERTEX
  8
0
  6
CONTINUOUS
 62
     7
 10
-580.6996819717077
 20
280.6675076681359
  0
VERTEX
  8
0
  6
CONTINUOUS
 62
     7
 10
-580.591834273732
 20
280.7662173533017
  0
VERTEX
  8
0
  6
CONTINUOUS
 62
     7
 10
-580.4951634947979
 20
280.8779980383313
  0
VERTEX
  8
0
  6
CONTINUOUS
 62
     7
 10
-580.415486034296
 20
280.9967471975594
  0
VERTEX
  8
0
  6
CONTINUOUS
 62
     7
 10
-580.3466594523934
 20
281.1357449857965
  0
VERTEX
  8
0
  6
CONTINUOUS
 62
     7
 10
-580.3044335038916
 20
281.2592119844934
  0
VERTEX
  8
0
  6
CONTINUOUS
 62
     7
 10
-580.2764302986284
 20
281.3946340146314
  0
VERTEX
  8
0
  6
CONTINUOUS
 62
     7
 10
-580.268907091451
 20
281.4664736907466
  0
SEQEND
  8
0
  6
CONTINUOUS
 62
     7
  0
LINE
  8
0
  6
CONTINUOUS
 62
     7
 10
-580.2689441114978
 20
281.4659472982917
 11
-580.2642769332921
 21
281.5324358463205
  0
LINE
  8
0
  6
CONTINUOUS
 62
     7
 10
-603.335723066708
 20
281.5324358463215
 11
-603.3310558885022
 21
281.4659472982926
  0
LINE
  8
0
  6
CONTINUOUS
 62
     7
 10
-603.3310558999287
 20
125.0340525389257
 11
-603.3357230756735
 21
124.9675640259572
  0
LINE
  8
0
  6
CONTINUOUS
 62
     7
 10
-580.2642769243265
 20
124.9675640259563
 11
-580.2689441000713
 21
125.0340525389248
  0
POLYLINE
  8
0
  6
CONTINUOUS
 62
     7
 66
     1
  0
VERTEX
  8
0
  6
CONTINUOUS
 62
     7
 10
-580.2689145898861
 20
125.0336325387865
  0
VERTEX
  8
0
  6
CONTINUOUS
 62
     7
 10
-580.2875749439355
 20
125.1713863809038
  0
VERTEX
  8
0
  6
CONTINUOUS
 62
     7
 10
-580.3202687769113
 20
125.2952463978655
  0
VERTEX
  8
0
  6
CONTINUOUS
 62
     7
 10
-580.3699415993987
 20
125.4202375407306
  0
VERTEX
  8
0
  6
CONTINUOUS
 62
     7
 10
-580.4347521579203
 20
125.5389127007109
  0
VERTEX
  8
0
  6
CONTINUOUS
 62
     7
 10
-580.5000600246431
 20
125.6323834474179
  0
VERTEX
  8
0
  6
CONTINUOUS
 62
     7
 10
-580.5908363245783
 20
125.7363343439073
  0
VERTEX
  8
0
  6
CONTINUOUS
 62
     7
 10
-580.7891756922184
 20
125.9012048888277
  0
SEQEND
  8
0
  6
CONTINUOUS
 62
     7
  0
ARC
  8
0
  6
CONTINUOUS
 62
     7
 10
-584.4500319753943
 20
116.9280401551257
 40
9.691210144467128
 50
67.80560751836526
 51
90.32320648061618
  0
ARC
  8
0
  6
CONTINUOUS
 62
     7
 10
-599.3319839414362
 20
118.2296916529373
 40
8.386085908252404
 50
88.80264849697856
 51
115.4577151791096
  0
POLYLINE
  8
0
  6
CONTINUOUS
 62
     7
 66
     1
  0
VERTEX
  8
0
  6
CONTINUOUS
 62
     7
 10
-602.9366998918783
 20
125.8015117628724
  0
VERTEX
  8
0
  6
CONTINUOUS
 62
     7
 10
-603.0496149556999
 20
125.6890312117236
  0
VERTEX
  8
0
  6
CONTINUOUS
 62
     7
 10
-603.1505761536431
 20
125.5576476348709
  0
VERTEX
  8
0
  6
CONTINUOUS
 62
     7
 10
-603.2322426640696
 20
125.4122634538619
  0
VERTEX
  8
0
  6
CONTINUOUS
 62
     7
 10
-603.2896484986791
 20
125.2614178263314
  0
VERTEX
  8
0
  6
CONTINUOUS
 62
     7
 10
-603.322491670533
 20
125.112887041872
  0
VERTEX
  8
0
  6
CONTINUOUS
 62
     7
 10
-603.3310918939677
 20
125.0335407905678
  0
SEQEND
  8
0
  6
CONTINUOUS
 62
     7
  0
ARC
  8
0
  6
CONTINUOUS
 62
     7
 10
-707.7562965766499
 20
124.9561416579159
 40
1.090139583616332
 50
4.071384937746183
 51
27.58391163763711
  0
POLYLINE
  8
0
  6
CONTINUOUS
 62
     7
 66
     1
  0
VERTEX
  8
0
  6
CONTINUOUS
 62
     7
 10
-706.7900691963508
 20
125.4609277129209
  0
VERTEX
  8
0
  6
CONTINUOUS
 62
     7
 10
-706.867982273162
 20
125.5889782836681
  0
VERTEX
  8
0
  6
CONTINUOUS
 62
     7
 10
-706.948237180873
 20
125.6906060831827
  0
VERTEX
  8
0
  6
CONTINUOUS
 62
     7
 10
-707.0325295972228
 20
125.7768413789555
  0
VERTEX
  8
0
  6
CONTINUOUS
 62
     7
 10
-707.1711621168665
 20
125.8884595488245
  0
VERTEX
  8
0
  6
CONTINUOUS
 62
     7
 10
-707.323965751712
 20
125.9822974477213
  0
SEQEND
  8
0
  6
CONTINUOUS
 62
     7
  0
ARC
  8
0
  6
CONTINUOUS
 62
     7
 10
-711.0559959115708
 20
115.3124263880161
 40
11.30372494113473
 50
70.72155404470236
 51
88.93990857968559
  0
ARC
  8
0
  6
CONTINUOUS
 62
     7
 10
-725.9549683320153
 20
119.6673950761687
 40
6.970462673056989
 50
86.01893136994536
 51
119.9772384574576
  0
POLYLINE
  8
0
  6
CONTINUOUS
 62
     7
 66
     1
  0
VERTEX
  8
0
  6
CONTINUOUS
 62
     7
 10
-729.4378012714647
 20
125.7053769072416
  0
VERTEX
  8
0
  6
CONTINUOUS
 62
     7
 10
-729.52185372788
 20
125.602177989058
  0
VERTEX
  8
0
  6
CONTINUOUS
 62
     7
 10
-729.5858755561306
 20
125.5036322930536
  0
VERTEX
  8
0
  6
CONTINUOUS
 62
     7
 10
-729.6439627603042
 20
125.388510393271
  0
VERTEX
  8
0
  6
CONTINUOUS
 62
     7
 10
-729.6911302179609
 20
125.2576843236526
  0
VERTEX
  8
0
  6
CONTINUOUS
 62
     7
 10
-729.7226618996372
 20
125.1120283967975
  0
VERTEX
  8
0
  6
CONTINUOUS
 62
     7
 10
-729.7310854101141
 20
125.0336325387864
  0
SEQEND
  8
0
  6
CONTINUOUS
 62
     7
  0
LINE
  8
0
  6
CONTINUOUS
 62
     7
 10
-729.7310558999288
 20
125.0340525389257
 11
-729.7357230756741
 21
124.967564025951
  0
LINE
  8
0
  6
CONTINUOUS
 62
     7
 10
-706.664276924326
 20
124.9675640259501
 11
-706.6689441000713
 21
125.0340525389247
  0
LINE
  8
0
  6
CONTINUOUS
 62
     7
 10
-628.5310558999288
 20
125.034052538926
 11
-628.5357230756734
 21
124.9675640259576
  0
LINE
  8
0
  6
CONTINUOUS
 62
     7
 10
-605.4642769243264
 20
124.9675640259567
 11
-605.4689441000712
 21
125.0340525389252
  0
POLYLINE
  8
0
  6
CONTINUOUS
 62
     7
 66
     1
  0
VERTEX
  8
0
  6
CONTINUOUS
 62
     7
 10
-605.468914589886
 20
125.0336325387865
  0
VERTEX
  8
0
  6
CONTINUOUS
 62
     7
 10
-605.4875749439353
 20
125.1713863809029
  0
VERTEX
  8
0
  6
CONTINUOUS
 62
     7
 10
-605.5202687769108
 20
125.2952463978639
  0
VERTEX
  8
0
  6
CONTINUOUS
 62
     7
 10
-605.5699415993977
 20
125.4202375407283
  0
VERTEX
  8
0
  6
CONTINUOUS
 62
     7
 10
-605.6347521579187
 20
125.5389127007083
  0
VERTEX
  8
0
  6
CONTINUOUS
 62
     7
 10
-605.700060024641
 20
125.6323834474153
  0
VERTEX
  8
0
  6
CONTINUOUS
 62
     7
 10
-605.790836324576
 20
125.736334343905
  0
VERTEX
  8
0
  6
CONTINUOUS
 62
     7
 10
-605.9891756922152
 20
125.9012048888257
  0
SEQEND
  8
0
  6
CONTINUOUS
 62
     7
  0
ARC
  8
0
  6
CONTINUOUS
 62
     7
 10
-609.6500319753953
 20
116.9280401551386
 40
9.691210144454848
 50
67.80560751830906
 51
90.3232064806486
  0
ARC
  8
0
  6
CONTINUOUS
 62
     7
 10
-624.5319839414457
 20
118.2296916529624
 40
8.386085908226228
 50
88.80264849699135
 51
115.4577151791156
  0
POLYLINE
  8
0
  6
CONTINUOUS
 62
     7
 66
     1
  0
VERTEX
  8
0
  6
CONTINUOUS
 62
     7
 10
-628.1366998918775
 20
125.8015117628735
  0
VERTEX
  8
0
  6
CONTINUOUS
 62
     7
 10
-628.249614955699
 20
125.6890312117248
  0
VERTEX
  8
0
  6
CONTINUOUS
 62
     7
 10
-628.3505761536426
 20
125.557647634872
  0
VERTEX
  8
0
  6
CONTINUOUS
 62
     7
 10
-628.4322426640692
 20
125.4122634538629
  0
VERTEX
  8
0
  6
CONTINUOUS
 62
     7
 10
-628.4896484986788
 20
125.2614178263319
  0
VERTEX
  8
0
  6
CONTINUOUS
 62
     7
 10
-628.5224916705331
 20
125.1128870418722
  0
VERTEX
  8
0
  6
CONTINUOUS
 62
     7
 10
-628.5310918939678
 20
125.0335407905678
  0
SEQEND
  8
0
  6
CONTINUOUS
 62
     7
  0
POLYLINE
  8
0
  6
CONTINUOUS
 62
     7
 66
     1
  0
VERTEX
  8
0
  6
CONTINUOUS
 62
     7
 10
-630.6689145898861
 20
125.0336325387864
  0
VERTEX
  8
0
  6
CONTINUOUS
 62
     7
 10
-630.6875749439356
 20
125.1713863809037
  0
VERTEX
  8
0
  6
CONTINUOUS
 62
     7
 10
-630.7202687769112
 20
125.2952463978655
  0
VERTEX
  8
0
  6
CONTINUOUS
 62
     7
 10
-630.7699415993986
 20
125.4202375407306
  0
VERTEX
  8
0
  6
CONTINUOUS
 62
     7
 10
-630.8347521579204
 20
125.5389127007111
  0
VERTEX
  8
0
  6
CONTINUOUS
 62
     7
 10
-630.9000600246432
 20
125.6323834474182
  0
VERTEX
  8
0
  6
CONTINUOUS
 62
     7
 10
-630.9908363245786
 20
125.7363343439078
  0
VERTEX
  8
0
  6
CONTINUOUS
 62
     7
 10
-631.1891756922188
 20
125.9012048888284
  0
SEQEND
  8
0
  6
CONTINUOUS
 62
     7
  0
ARC
  8
0
  6
CONTINUOUS
 62
     7
 10
-634.8500319754013
 20
116.9280401550927
 40
9.69121014450082
 50
67.8056075184046
 51
90.32320648061429
  0
ARC
  8
0
  6
CONTINUOUS
 62
     7
 10
-649.7319839414413
 20
118.229691652941
 40
8.386085908247782
 50
88.80264849701015
 51
115.4577151790722
  0
POLYLINE
  8
0
  6
CONTINUOUS
 62
     7
 66
     1
  0
VERTEX
  8
0
  6
CONTINUOUS
 62
     7
 10
-653.3366998918766
 20
125.8015117628742
  0
VERTEX
  8
0
  6
CONTINUOUS
 62
     7
 10
-653.4496149556984
 20
125.6890312117255
  0
VERTEX
  8
0
  6
CONTINUOUS
 62
     7
 10
-653.550576153642
 20
125.5576476348727
  0
VERTEX
  8
0
  6
CONTINUOUS
 62
     7
 10
-653.6322426640689
 20
125.4122634538634
  0
VERTEX
  8
0
  6
CONTINUOUS
 62
     7
 10
-653.6896484986788
 20
125.2614178263323
  0
VERTEX
  8
0
  6
CONTINUOUS
 62
     7
 10
-653.722491670533
 20
125.1128870418723
  0
VERTEX
  8
0
  6
CONTINUOUS
 62
     7
 10
-653.7310918939677
 20
125.0335407905679
  0
SEQEND
  8
0
  6
CONTINUOUS
 62
     7
  0
LINE
  8
0
  6
CONTINUOUS
 62
     7
 10
-653.7310558999287
 20
125.034052538926
 11
-653.7357230756735
 21
124.9675640259575
  0
LINE
  8
0
  6
CONTINUOUS
 62
     7
 10
-630.6642769243265
 20
124.9675640259566
 11
-630.6689441000713
 21
125.0340525389251
  0
ARC
  8
0
  6
CONTINUOUS
 62
     7
 10
-657.3562965766517
 20
124.9561416579157
 40
1.090139583618116
 50
4.071384937747437
 51
27.58391163745464
  0
POLYLINE
  8
0
  6
CONTINUOUS
 62
     7
 66
     1
  0
VERTEX
  8
0
  6
CONTINUOUS
 62
     7
 10
-656.3900691963495
 20
125.4609277129186
  0
VERTEX
  8
0
  6
CONTINUOUS
 62
     7
 10
-656.4679822731596
 20
125.5889782836651
  0
VERTEX
  8
0
  6
CONTINUOUS
 62
     7
 10
-656.5482371808696
 20
125.6906060831793
  0
VERTEX
  8
0
  6
CONTINUOUS
 62
     7
 10
-656.632529597218
 20
125.7768413789515
  0
VERTEX
  8
0
  6
CONTINUOUS
 62
     7
 10
-656.7711621168582
 20
125.8884595488193
  0
VERTEX
  8
0
  6
CONTINUOUS
 62
     7
 10
-656.9239657517013
 20
125.9822974477161
  0
SEQEND
  8
0
  6
CONTINUOUS
 62
     7
  0
ARC
  8
0
  6
CONTINUOUS
 62
     7
 10
-660.655995911561
 20
115.3124263880933
 40
11.30372494105726
 50
70.72155404455908
 51
88.93990857972192
  0
ARC
  8
0
  6
CONTINUOUS
 62
     7
 10
-675.5549683320147
 20
119.6673950761606
 40
6.970462673064032
 50
86.01893137000073
 51
119.9772384574598
  0
POLYLINE
  8
0
  6
CONTINUOUS
 62
     7
 66
     1
  0
VERTEX
  8
0
  6
CONTINUOUS
 62
     7
 10
-679.0378012714679
 20
125.7053769072395
  0
VERTEX
  8
0
  6
CONTINUOUS
 62
     7
 10
-679.1218537278824
 20
125.602177989056
  0
VERTEX
  8
0
  6
CONTINUOUS
 62
     7
 10
-679.1858755561321
 20
125.5036322930519
  0
VERTEX
  8
0
  6
CONTINUOUS
 62
     7
 10
-679.2439627603052
 20
125.3885103932698
  0
VERTEX
  8
0
  6
CONTINUOUS
 62
     7
 10
-679.2911302179613
 20
125.2576843236519
  0
VERTEX
  8
0
  6
CONTINUOUS
 62
     7
 10
-679.3226618996372
 20
125.1120283967975
  0
VERTEX
  8
0
  6
CONTINUOUS
 62
     7
 10
-679.331085410114
 20
125.0336325387868
  0
SEQEND
  8
0
  6
CONTINUOUS
 62
     7
  0
LINE
  8
0
  6
CONTINUOUS
 62
     7
 10
-679.3310558999289
 20
125.034052538926
 11
-679.335723075674
 21
124.9675640259511
  0
LINE
  8
0
  6
CONTINUOUS
 62
     7
 10
-656.264276924326
 20
124.9675640259502
 11
-656.2689441000713
 21
125.0340525389251
  0
LINE
  8
0
  6
CONTINUOUS
 62
     7
 10
-704.5310558999288
 20
125.0340525389261
 11
-704.535723075674
 21
124.9675640259512
  0
LINE
  8
0
  6
CONTINUOUS
 62
     7
 10
-681.4642769243261
 20
124.9675640259503
 11
-681.4689441000713
 21
125.0340525389252
  0
ARC
  8
0
  6
CONTINUOUS
 62
     7
 10
-682.5562965766517
 20
124.9561416579157
 40
1.090139583618173
 50
4.071384937751739
 51
27.5839116374788
  0
POLYLINE
  8
0
  6
CONTINUOUS
 62
     7
 66
     1
  0
VERTEX
  8
0
  6
CONTINUOUS
 62
     7
 10
-681.5900691963496
 20
125.4609277129189
  0
VERTEX
  8
0
  6
CONTINUOUS
 62
     7
 10
-681.66798227316
 20
125.5889782836654
  0
VERTEX
  8
0
  6
CONTINUOUS
 62
     7
 10
-681.7482371808696
 20
125.6906060831795
  0
VERTEX
  8
0
  6
CONTINUOUS
 62
     7
 10
-681.8325295972177
 20
125.7768413789513
  0
VERTEX
  8
0
  6
CONTINUOUS
 62
     7
 10
-681.9711621168574
 20
125.8884595488188
  0
VERTEX
  8
0
  6
CONTINUOUS
 62
     7
 10
-682.1239657517
 20
125.9822974477155
  0
SEQEND
  8
0
  6
CONTINUOUS
 62
     7
  0
ARC
  8
0
  6
CONTINUOUS
 62
     7
 10
-685.8559959115581
 20
115.3124263881111
 40
11.30372494103926
 50
70.7215540445365
 51
88.93990857972759
  0
ARC
  8
0
  6
CONTINUOUS
 62
     7
 10
-700.7549683320115
 20
119.6673950761466
 40
6.970462673078324
 50
86.01893137001174
 51
119.9772384574084
  0
POLYLINE
  8
0
  6
CONTINUOUS
 62
     7
 66
     1
  0
VERTEX
  8
0
  6
CONTINUOUS
 62
     7
 10
-704.2378012714664
 20
125.705376907241
  0
VERTEX
  8
0
  6
CONTINUOUS
 62
     7
 10
-704.3218537278813
 20
125.6021779890574
  0
VERTEX
  8
0
  6
CONTINUOUS
 62
     7
 10
-704.3858755561314
 20
125.5036322930531
  0
VERTEX
  8
0
  6
CONTINUOUS
 62
     7
 10
-704.4439627603048
 20
125.3885103932707
  0
VERTEX
  8
0
  6
CONTINUOUS
 62
     7
 10
-704.4911302179611
 20
125.2576843236525
  0
VERTEX
  8
0
  6
CONTINUOUS
 62
     7
 10
-704.5226618996372
 20
125.1120283967977
  0
VERTEX
  8
0
  6
CONTINUOUS
 62
     7
 10
-704.531085410114
 20
125.0336325387868
  0
SEQEND
  8
0
  6
CONTINUOUS
 62
     7
  0
POLYLINE
  8
0
  6
CONTINUOUS
 62
     7
 66
     1
  0
VERTEX
  8
0
  6
CONTINUOUS
 62
     7
 10
-611.9843016083765
 20
126.5559441899856
  0
VERTEX
  8
0
  6
CONTINUOUS
 62
     7
 10
-612.004273397672
 20
126.6841032020252
  0
VERTEX
  8
0
  6
CONTINUOUS
 62
     7
 10
-612.0381358235011
 20
126.8018041981292
  0
VERTEX
  8
0
  6
CONTINUOUS
 62
     7
 10
-612.0927784747637
 20
126.9279421286508
  0
VERTEX
  8
0
  6
CONTINUOUS
 62
     7
 10
-612.1608257603477
 20
127.0411609695221
  0
VERTEX
  8
0
  6
CONTINUOUS
 62
     7
 10
-612.2413882980971
 20
127.1431709496917
  0
VERTEX
  8
0
  6
CONTINUOUS
 62
     7
 10
-612.3235592431171
 20
127.2252025380031
  0
VERTEX
  8
0
  6
CONTINUOUS
 62
     7
 10
-612.4043751546097
 20
127.2907109310592
  0
VERTEX
  8
0
  6
CONTINUOUS
 62
     7
 10
-612.5062305549216
 20
127.3571370838836
  0
SEQEND
  8
0
  6
CONTINUOUS
 62
     7
  0
ARC
  8
0
  6
CONTINUOUS
 62
     7
 10
-613.7498171278479
 20
124.4203400403054
 40
3.189245120640976
 50
67.04977374240315
 51
88.83447661403632
  0
LINE
  8
0
  6
CONTINUOUS
 62
     7
 10
-613.684945274351
 20
127.6089253194152
 11
-615.5000000000032
 21
127.6704405719876
  0
POLYLINE
  8
0
  6
CONTINUOUS
 62
     7
 66
     1
  0
VERTEX
  8
0
  6
CONTINUOUS
 62
     7
 10
-637.1843016083766
 20
126.5559441899856
  0
VERTEX
  8
0
  6
CONTINUOUS
 62
     7
 10
-637.204273397672
 20
126.6841032020254
  0
VERTEX
  8
0
  6
CONTINUOUS
 62
     7
 10
-637.2381358235011
 20
126.8018041981294
  0
VERTEX
  8
0
  6
CONTINUOUS
 62
     7
 10
-637.2927784747637
 20
126.9279421286509
  0
VERTEX
  8
0
  6
CONTINUOUS
 62
     7
 10
-637.3608257603477
 20
127.0411609695222
  0
VERTEX
  8
0
  6
CONTINUOUS
 62
     7
 10
-637.4413882980972
 20
127.1431709496918
  0
VERTEX
  8
0
  6
CONTINUOUS
 62
     7
 10
-637.5235592431172
 20
127.2252025380032
  0
VERTEX
  8
0
  6
CONTINUOUS
 62
     7
 10
-637.6043751546098
 20
127.2907109310593
  0
VERTEX
  8
0
  6
CONTINUOUS
 62
     7
 10
-637.7062305549216
 20
127.3571370838836
  0
SEQEND
  8
0
  6
CONTINUOUS
 62
     7
  0
ARC
  8
0
  6
CONTINUOUS
 62
     7
 10
-638.9498171278467
 20
124.4203400403096
 40
3.189245120636705
 50
67.04977374239381
 51
88.83447661404513
  0
LINE
  8
0
  6
CONTINUOUS
 62
     7
 10
-638.8849452743505
 20
127.6089253194152
 11
-640.7000000000032
 21
127.6704405719876
  0
POLYLINE
  8
0
  6
CONTINUOUS
 62
     7
 66
     1
  0
VERTEX
  8
0
  6
CONTINUOUS
 62
     7
 10
-586.7843016083766
 20
126.5559441899856
  0
VERTEX
  8
0
  6
CONTINUOUS
 62
     7
 10
-586.8042733976721
 20
126.6841032020254
  0
VERTEX
  8
0
  6
CONTINUOUS
 62
     7
 10
-586.838135823501
 20
126.8018041981294
  0
VERTEX
  8
0
  6
CONTINUOUS
 62
     7
 10
-586.8927784747638
 20
126.9279421286509
  0
VERTEX
  8
0
  6
CONTINUOUS
 62
     7
 10
-586.9608257603477
 20
127.0411609695222
  0
VERTEX
  8
0
  6
CONTINUOUS
 62
     7
 10
-587.0413882980972
 20
127.1431709496918
  0
VERTEX
  8
0
  6
CONTINUOUS
 62
     7
 10
-587.1235592431171
 20
127.2252025380032
  0
VERTEX
  8
0
  6
CONTINUOUS
 62
     7
 10
-587.2043751546098
 20
127.2907109310593
  0
VERTEX
  8
0
  6
CONTINUOUS
 62
     7
 10
-587.3062305549216
 20
127.3571370838836
  0
SEQEND
  8
0
  6
CONTINUOUS
 62
     7
  0
ARC
  8
0
  6
CONTINUOUS
 62
     7
 10
-588.5498171278465
 20
124.4203400403109
 40
3.189245120635309
 50
67.04977374239036
 51
88.83447661403977
  0
LINE
  8
0
  6
CONTINUOUS
 62
     7
 10
-588.4849452743498
 20
127.6089253194151
 11
-590.3000000000031
 21
127.6704405719876
  0
LINE
  8
0
  6
CONTINUOUS
 62
     7
 10
-694.500000000004
 20
127.6704405719876
 11
-696.315054725645
 21
127.6089253194156
  0
ARC
  8
0
  6
CONTINUOUS
 62
     7
 10
-696.3530907970548
 20
124.9614335042768
 40
2.6477650299744
 50
89.17689776164706
 51
116.7475199119982
  0
POLYLINE
  8
0
  6
CONTINUOUS
 62
     7
 66
     1
  0
VERTEX
  8
0
  6
CONTINUOUS
 62
     7
 10
-697.5447433635195
 20
127.3258835068765
  0
VERTEX
  8
0
  6
CONTINUOUS
 62
     7
 10
-697.6498419401511
 20
127.2482128321948
  0
VERTEX
  8
0
  6
CONTINUOUS
 62
     7
 10
-697.7329408684124
 20
127.1707815629053
  0
VERTEX
  8
0
  6
CONTINUOUS
 62
     7
 10
-697.813851408739
 20
127.0761456308989
  0
VERTEX
  8
0
  6
CONTINUOUS
 62
     7
 10
-697.8864154130353
 20
126.9662206827671
  0
VERTEX
  8
0
  6
CONTINUOUS
 62
     7
 10
-697.9451261155126
 20
126.8457216035612
  0
VERTEX
  8
0
  6
CONTINUOUS
 62
     7
 10
-697.9858272533027
 20
126.724559461222
  0
VERTEX
  8
0
  6
CONTINUOUS
 62
     7
 10
-698.0107799355676
 20
126.5997390497447
  0
VERTEX
  8
0
  6
CONTINUOUS
 62
     7
 10
-698.0156983916235
 20
126.5559441899856
  0
SEQEND
  8
0
  6
CONTINUOUS
 62
     7
  0
LINE
  8
0
  6
CONTINUOUS
 62
     7
 10
-669.3000000000039
 20
127.6704405719876
 11
-671.1150547256462
 21
127.6089253194155
  0
ARC
  8
0
  6
CONTINUOUS
 62
     7
 10
-671.1530907970559
 20
124.9614335042801
 40
2.647765029970999
 50
89.1768977616484
 51
116.7475199120077
  0
POLYLINE
  8
0
  6
CONTINUOUS
 62
     7
 66
     1
  0
VERTEX
  8
0
  6
CONTINUOUS
 62
     7
 10
-672.3447433635195
 20
127.3258835068766
  0
VERTEX
  8
0
  6
CONTINUOUS
 62
     7
 10
-672.4498419401511
 20
127.2482128321949
  0
VERTEX
  8
0
  6
CONTINUOUS
 62
     7
 10
-672.5329408684124
 20
127.1707815629054
  0
VERTEX
  8
0
  6
CONTINUOUS
 62
     7
 10
-672.6138514087389
 20
127.0761456308989
  0
VERTEX
  8
0
  6
CONTINUOUS
 62
     7
 10
-672.6864154130353
 20
126.9662206827672
  0
VERTEX
  8
0
  6
CONTINUOUS
 62
     7
 10
-672.7451261155126
 20
126.8457216035614
  0
VERTEX
  8
0
  6
CONTINUOUS
 62
     7
 10
-672.7858272533027
 20
126.724559461222
  0
VERTEX
  8
0
  6
CONTINUOUS
 62
     7
 10
-672.8107799355676
 20
126.5997390497448
  0
VERTEX
  8
0
  6
CONTINUOUS
 62
     7
 10
-672.8156983916234
 20
126.5559441899856
  0
SEQEND
  8
0
  6
CONTINUOUS
 62
     7
  0
LINE
  8
0
  6
CONTINUOUS
 62
     7
 10
-719.7000000000041
 20
127.6704405719876
 11
-721.5150547256465
 21
127.6089253194155
  0
ARC
  8
0
  6
CONTINUOUS
 62
     7
 10
-721.5530907970559
 20
124.96143350428
 40
2.647765029971135
 50
89.17689776165085
 51
116.7475199120056
  0
POLYLINE
  8
0
  6
CONTINUOUS
 62
     7
 66
     1
  0
VERTEX
  8
0
  6
CONTINUOUS
 62
     7
 10
-722.7447433635194
 20
127.3258835068766
  0
VERTEX
  8
0
  6
CONTINUOUS
 62
     7
 10
-722.849841940151
 20
127.248212832195
  0
VERTEX
  8
0
  6
CONTINUOUS
 62
     7
 10
-722.9329408684124
 20
127.1707815629054
  0
VERTEX
  8
0
  6
CONTINUOUS
 62
     7
 10
-723.0138514087389
 20
127.076145630899
  0
VERTEX
  8
0
  6
CONTINUOUS
 62
     7
 10
-723.0864154130353
 20
126.9662206827672
  0
VERTEX
  8
0
  6
CONTINUOUS
 62
     7
 10
-723.1451261155127
 20
126.8457216035614
  0
VERTEX
  8
0
  6
CONTINUOUS
 62
     7
 10
-723.1858272533027
 20
126.7245594612221
  0
VERTEX
  8
0
  6
CONTINUOUS
 62
     7
 10
-723.2107799355675
 20
126.5997390497448
  0
VERTEX
  8
0
  6
CONTINUOUS
 62
     7
 10
-723.2156983916235
 20
126.5559441899856
  0
SEQEND
  8
0
  6
CONTINUOUS
 62
     7
  0
POLYLINE
  8
0
  6
CONTINUOUS
 62
     7
 66
     1
  0
VERTEX
  8
0
  6
CONTINUOUS
 62
     7
 10
-698.015695859226
 20
279.9440534932207
  0
VERTEX
  8
0
  6
CONTINUOUS
 62
     7
 10
-697.9957443554392
 20
279.815990214401
  0
VERTEX
  8
0
  6
CONTINUOUS
 62
     7
 10
-697.9619201953655
 20
279.698366729441
  0
VERTEX
  8
0
  6
CONTINUOUS
 62
     7
 10
-697.9073369048806
 20
279.5722958543786
  0
VERTEX
  8
0
  6
CONTINUOUS
 62
     7
 10
-697.8393555899455
 20
279.4591175262598
  0
VERTEX
  8
0
  6
CONTINUOUS
 62
     7
 10
-697.758857348115
 20
279.357121794625
  0
VERTEX
  8
0
  6
CONTINUOUS
 62
     7
 10
-697.6767339632855
 20
279.2750803266675
  0
VERTEX
  8
0
  6
CONTINUOUS
 62
     7
 10
-697.5959434865094
 20
279.2095448631828
  0
VERTEX
  8
0
  6
CONTINUOUS
 62
     7
 10
-697.494081047874
 20
279.1430656731043
  0
SEQEND
  8
0
  6
CONTINUOUS
 62
     7
  0
ARC
  8
0
  6
CONTINUOUS
 62
     7
 10
-696.249807361185
 20
282.0803276178812
 40
3.189941181216487
 50
247.0416651623188
 51
268.834989116162
  0
LINE
  8
0
  6
CONTINUOUS
 62
     7
 10
-696.3146648454803
 20
278.8910458419398
 11
-694.4999999999968
 21
278.8295594280124
  0
POLYLINE
  8
0
  6
CONTINUOUS
 62
     7
 66
     1
  0
VERTEX
  8
0
  6
CONTINUOUS
 62
     7
 10
-672.815695859226
 20
279.9440534932208
  0
VERTEX
  8
0
  6
CONTINUOUS
 62
     7
 10
-672.7957443554393
 20
279.815990214401
  0
VERTEX
  8
0
  6
CONTINUOUS
 62
     7
 10
-672.7619201953656
 20
279.698366729441
  0
VERTEX
  8
0
  6
CONTINUOUS
 62
     7
 10
-672.7073369048805
 20
279.5722958543786
  0
VERTEX
  8
0
  6
CONTINUOUS
 62
     7
 10
-672.6393555899455
 20
279.4591175262598
  0
VERTEX
  8
0
  6
CONTINUOUS
 62
     7
 10
-672.5588573481151
 20
279.357121794625
  0
VERTEX
  8
0
  6
CONTINUOUS
 62
     7
 10
-672.4767339632856
 20
279.2750803266676
  0
VERTEX
  8
0
  6
CONTINUOUS
 62
     7
 10
-672.3959434865095
 20
279.2095448631828
  0
VERTEX
  8
0
  6
CONTINUOUS
 62
     7
 10
-672.294081047874
 20
279.1430656731043
  0
SEQEND
  8
0
  6
CONTINUOUS
 62
     7
  0
ARC
  8
0
  6
CONTINUOUS
 62
     7
 10
-671.0498073611857
 20
282.0803276178787
 40
3.18994118121393
 50
247.0416651623116
 51
268.8349891161653
  0
LINE
  8
0
  6
CONTINUOUS
 62
     7
 10
-671.1146648454807
 20
278.8910458419398
 11
-669.2999999999967
 21
278.8295594280124
  0
LINE
  8
0
  6
CONTINUOUS
 62
     7
 10
-615.499999999996
 20
278.8295594280124
 11
-613.6853351545217
 21
278.8910458419396
  0
ARC
  8
0
  6
CONTINUOUS
 62
     7
 10
-613.6471931568294
 20
281.5388963216868
 40
2.648125181158464
 50
269.174717617286
 51
296.7582609396616
  0
POLYLINE
  8
0
  6
CONTINUOUS
 62
     7
 66
     1
  0
VERTEX
  8
0
  6
CONTINUOUS
 62
     7
 10
-612.4549352067643
 20
279.17434817128
  0
VERTEX
  8
0
  6
CONTINUOUS
 62
     7
 10
-612.3498539259
 20
279.2520627975251
  0
VERTEX
  8
0
  6
CONTINUOUS
 62
     7
 10
-612.266796527465
 20
279.3295103355263
  0
VERTEX
  8
0
  6
CONTINUOUS
 62
     7
 10
-612.1859453146092
 20
279.4241405082223
  0
VERTEX
  8
0
  6
CONTINUOUS
 62
     7
 10
-612.1134480055673
 20
279.5340334115353
  0
VERTEX
  8
0
  6
CONTINUOUS
 62
     7
 10
-612.0547991920158
 20
279.6544748414777
  0
VERTEX
  8
0
  6
CONTINUOUS
 62
     7
 10
-612.0141438615832
 20
279.7755619281045
  0
VERTEX
  8
0
  6
CONTINUOUS
 62
     7
 10
-611.9892183064001
 20
279.9002923964512
  0
VERTEX
  8
0
  6
CONTINUOUS
 62
     7
 10
-611.984304140774
 20
279.9440534932207
  0
SEQEND
  8
0
  6
CONTINUOUS
 62
     7
  0
LINE
  8
0
  6
CONTINUOUS
 62
     7
 10
-640.6999999999961
 20
278.8295594280124
 11
-638.8853351545207
 21
278.8910458419396
  0
ARC
  8
0
  6
CONTINUOUS
 62
     7
 10
-638.8471931568286
 20
281.5388963216844
 40
2.648125181155991
 50
269.1747176172884
 51
296.7582609396709
  0
POLYLINE
  8
0
  6
CONTINUOUS
 62
     7
 66
     1
  0
VERTEX
  8
0
  6
CONTINUOUS
 62
     7
 10
-637.6549352067642
 20
279.17434817128
  0
VERTEX
  8
0
  6
CONTINUOUS
 62
     7
 10
-637.5498539258999
 20
279.2520627975251
  0
VERTEX
  8
0
  6
CONTINUOUS
 62
     7
 10
-637.4667965274648
 20
279.3295103355264
  0
VERTEX
  8
0
  6
CONTINUOUS
 62
     7
 10
-637.3859453146092
 20
279.4241405082222
  0
VERTEX
  8
0
  6
CONTINUOUS
 62
     7
 10
-637.3134480055674
 20
279.5340334115352
  0
VERTEX
  8
0
  6
CONTINUOUS
 62
     7
 10
-637.2547991920159
 20
279.6544748414776
  0
VERTEX
  8
0
  6
CONTINUOUS
 62
     7
 10
-637.2141438615832
 20
279.7755619281045
  0
VERTEX
  8
0
  6
CONTINUOUS
 62
     7
 10
-637.1892183064001
 20
279.9002923964512
  0
VERTEX
  8
0
  6
CONTINUOUS
 62
     7
 10
-637.184304140774
 20
279.9440534932207
  0
SEQEND
  8
0
  6
CONTINUOUS
 62
     7
  0
POLYLINE
  8
0
  6
CONTINUOUS
 62
     7
 66
     1
  0
VERTEX
  8
0
  6
CONTINUOUS
 62
     7
 10
-723.2156958592261
 20
279.9440534932208
  0
VERTEX
  8
0
  6
CONTINUOUS
 62
     7
 10
-723.1957443554394
 20
279.815990214401
  0
VERTEX
  8
0
  6
CONTINUOUS
 62
     7
 10
-723.1619201953657
 20
279.698366729441
  0
VERTEX
  8
0
  6
CONTINUOUS
 62
     7
 10
-723.1073369048809
 20
279.5722958543787
  0
VERTEX
  8
0
  6
CONTINUOUS
 62
     7
 10
-723.0393555899457
 20
279.4591175262598
  0
VERTEX
  8
0
  6
CONTINUOUS
 62
     7
 10
-722.9588573481153
 20
279.357121794625
  0
VERTEX
  8
0
  6
CONTINUOUS
 62
     7
 10
-722.876733963286
 20
279.2750803266676
  0
VERTEX
  8
0
  6
CONTINUOUS
 62
     7
 10
-722.7959434865099
 20
279.2095448631828
  0
VERTEX
  8
0
  6
CONTINUOUS
 62
     7
 10
-722.6940810478748
 20
279.1430656731044
  0
SEQEND
  8
0
  6
CONTINUOUS
 62
     7
  0
ARC
  8
0
  6
CONTINUOUS
 62
     7
 10
-721.4498073611924
 20
282.0803276178555
 40
3.18994118119026
 50
247.041665162248
 51
268.8349891161659
  0
LINE
  8
0
  6
CONTINUOUS
 62
     7
 10
-721.5146648454869
 20
278.8910458419404
 11
-719.6999999999967
 21
278.8295594280124
  0
LINE
  8
0
  6
CONTINUOUS
 62
     7
 10
-590.2999999999961
 20
278.8295594280124
 11
-588.4853351545147
 21
278.8910458419401
  0
ARC
  8
0
  6
CONTINUOUS
 62
     7
 10
-588.4471931568223
 20
281.538896321665
 40
2.648125181136055
 50
269.174717617276
 51
296.7582609397504
  0
POLYLINE
  8
0
  6
CONTINUOUS
 62
     7
 66
     1
  0
VERTEX
  8
0
  6
CONTINUOUS
 62
     7
 10
-587.2549352067638
 20
279.17434817128
  0
VERTEX
  8
0
  6
CONTINUOUS
 62
     7
 10
-587.1498539258996
 20
279.2520627975251
  0
VERTEX
  8
0
  6
CONTINUOUS
 62
     7
 10
-587.0667965274646
 20
279.3295103355263
  0
VERTEX
  8
0
  6
CONTINUOUS
 62
     7
 10
-586.985945314609
 20
279.4241405082222
  0
VERTEX
  8
0
  6
CONTINUOUS
 62
     7
 10
-586.9134480055671
 20
279.5340334115352
  0
VERTEX
  8
0
  6
CONTINUOUS
 62
     7
 10
-586.8547991920158
 20
279.6544748414777
  0
VERTEX
  8
0
  6
CONTINUOUS
 62
     7
 10
-586.8141438615831
 20
279.7755619281044
  0
VERTEX
  8
0
  6
CONTINUOUS
 62
     7
 10
-586.7892183063999
 20
279.9002923964512
  0
VERTEX
  8
0
  6
CONTINUOUS
 62
     7
 10
-586.7843041407739
 20
279.9440534932207
  0
SEQEND
  8
0
  6
CONTINUOUS
 62
     7
  0
POLYLINE
  8
0
  6
CONTINUOUS
 62
     7
 66
     1
  0
VERTEX
  8
0
  6
CONTINUOUS
 62
     7
 10
-662.7693565480735
 20
126.5332907927047
  0
VERTEX
  8
0
  6
CONTINUOUS
 62
     7
 10
-662.7895544360276
 20
126.6717938445482
  0
VERTEX
  8
0
  6
CONTINUOUS
 62
     7
 10
-662.825381983256
 20
126.7973859808916
  0
VERTEX
  8
0
  6
CONTINUOUS
 62
     7
 10
-662.8785305648198
 20
126.9205733333888
  0
VERTEX
  8
0
  6
CONTINUOUS
 62
     7
 10
-662.944001871991
 20
127.0311361800971
  0
VERTEX
  8
0
  6
CONTINUOUS
 62
     7
 10
-663.0199369134585
 20
127.1297943855602
  0
SEQEND
  8
0
  6
CONTINUOUS
 62
     7
  0
ARC
  8
0
  6
CONTINUOUS
 62
     7
 10
-663.8488951275687
 20
126.4048567611554
 40
1.101229440225027
 50
41.17023103282759
 51
68.94150174769463
  0
ARC
  8
0
  6
CONTINUOUS
 62
     7
 10
-664.6177500782868
 20
123.7263177650756
 40
3.884875289011227
 50
72.5565093753912
 51
88.07524442382213
  0
LINE
  8
0
  6
CONTINUOUS
 62
     7
 10
-664.4872687562221
 20
127.6090011974149
 11
-666.3000000000038
 21
127.6704405719876
  0
POLYLINE
  8
0
  6
CONTINUOUS
 62
     7
 66
     1
  0
VERTEX
  8
0
  6
CONTINUOUS
 62
     7
 10
-687.9693565480734
 20
126.5332907927048
  0
VERTEX
  8
0
  6
CONTINUOUS
 62
     7
 10
-687.9895544360277
 20
126.6717938445483
  0
VERTEX
  8
0
  6
CONTINUOUS
 62
     7
 10
-688.0253819832561
 20
126.7973859808918
  0
VERTEX
  8
0
  6
CONTINUOUS
 62
     7
 10
-688.07853056482
 20
126.920573333389
  0
VERTEX
  8
0
  6
CONTINUOUS
 62
     7
 10
-688.1440018719912
 20
127.0311361800974
  0
VERTEX
  8
0
  6
CONTINUOUS
 62
     7
 10
-688.2199369134587
 20
127.1297943855605
  0
SEQEND
  8
0
  6
CONTINUOUS
 62
     7
  0
ARC
  8
0
  6
CONTINUOUS
 62
     7
 10
-689.048895127569
 20
126.4048567611546
 40
1.101229440225839
 50
41.17023103286162
 51
68.94150174770932
  0
ARC
  8
0
  6
CONTINUOUS
 62
     7
 10
-689.8177500782876
 20
123.7263177650705
 40
3.884875289016306
 50
72.55650937540817
 51
88.07524442380506
  0
LINE
  8
0
  6
CONTINUOUS
 62
     7
 10
-689.6872687562217
 20
127.6090011974149
 11
-691.5000000000039
 21
127.6704405719876
  0
POLYLINE
  8
0
  6
CONTINUOUS
 62
     7
 66
     1
  0
VERTEX
  8
0
  6
CONTINUOUS
 62
     7
 10
-713.1693565480734
 20
126.5332907927047
  0
VERTEX
  8
0
  6
CONTINUOUS
 62
     7
 10
-713.1895544360277
 20
126.6717938445482
  0
VERTEX
  8
0
  6
CONTINUOUS
 62
     7
 10
-713.2253819832562
 20
126.7973859808918
  0
VERTEX
  8
0
  6
CONTINUOUS
 62
     7
 10
-713.2785305648199
 20
126.920573333389
  0
VERTEX
  8
0
  6
CONTINUOUS
 62
     7
 10
-713.3440018719912
 20
127.0311361800974
  0
VERTEX
  8
0
  6
CONTINUOUS
 62
     7
 10
-713.4199369134587
 20
127.1297943855605
  0
SEQEND
  8
0
  6
CONTINUOUS
 62
     7
  0
ARC
  8
0
  6
CONTINUOUS
 62
     7
 10
-714.2488951275687
 20
126.4048567611551
 40
1.101229440225324
 50
41.17023103285626
 51
68.9415017477171
  0
ARC
  8
0
  6
CONTINUOUS
 62
     7
 10
-715.0177500782872
 20
123.7263177650724
 40
3.884875289014395
 50
72.55650937540639
 51
88.07524442380307
  0
LINE
  8
0
  6
CONTINUOUS
 62
     7
 10
-714.8872687562211
 20
127.6090011974149
 11
-716.7000000000038
 21
127.6704405719876
  0
LINE
  8
0
  6
CONTINUOUS
 62
     7
 10
-643.7000000000035
 20
127.6704405719876
 11
-645.4992346895875
 21
127.6102404971615
  0
ARC
  8
0
  6
CONTINUOUS
 62
     7
 10
-645.495568372265
 20
124.6190684972228
 40
2.991174246863624
 50
90.07022812588036
 51
113.6058657776475
  0
POLYLINE
  8
0
  6
CONTINUOUS
 62
     7
 66
     1
  0
VERTEX
  8
0
  6
CONTINUOUS
 62
     7
 10
-646.6933626977129
 20
127.3599464822898
  0
VERTEX
  8
0
  6
CONTINUOUS
 62
     7
 10
-646.8078898210457
 20
127.2857634738512
  0
VERTEX
  8
0
  6
CONTINUOUS
 62
     7
 10
-646.9081203925545
 20
127.2021889688018
  0
VERTEX
  8
0
  6
CONTINUOUS
 62
     7
 10
-646.9781846827628
 20
127.1296746913799
  0
VERTEX
  8
0
  6
CONTINUOUS
 62
     7
 10
-647.057749358861
 20
127.0268265758323
  0
VERTEX
  8
0
  6
CONTINUOUS
 62
     7
 10
-647.1252818928853
 20
126.9118724320575
  0
VERTEX
  8
0
  6
CONTINUOUS
 62
     7
 10
-647.1792897032462
 20
126.7832978786373
  0
VERTEX
  8
0
  6
CONTINUOUS
 62
     7
 10
-647.2121393502345
 20
126.6635242784417
  0
VERTEX
  8
0
  6
CONTINUOUS
 62
     7
 10
-647.2306434519254
 20
126.5332907927102
  0
SEQEND
  8
0
  6
CONTINUOUS
 62
     7
  0
LINE
  8
0
  6
CONTINUOUS
 62
     7
 10
-618.5000000000034
 20
127.6704405719876
 11
-620.2992346895871
 21
127.6102404971616
  0
ARC
  8
0
  6
CONTINUOUS
 62
     7
 10
-620.2955683722644
 20
124.6190684972211
 40
2.991174246865401
 50
90.07022812588473
 51
113.6058657776471
  0
POLYLINE
  8
0
  6
CONTINUOUS
 62
     7
 66
     1
  0
VERTEX
  8
0
  6
CONTINUOUS
 62
     7
 10
-621.493362697713
 20
127.3599464822897
  0
VERTEX
  8
0
  6
CONTINUOUS
 62
     7
 10
-621.6078898210459
 20
127.2857634738511
  0
VERTEX
  8
0
  6
CONTINUOUS
 62
     7
 10
-621.7081203925546
 20
127.2021889688017
  0
VERTEX
  8
0
  6
CONTINUOUS
 62
     7
 10
-621.7781846827629
 20
127.1296746913797
  0
VERTEX
  8
0
  6
CONTINUOUS
 62
     7
 10
-621.857749358861
 20
127.0268265758321
  0
VERTEX
  8
0
  6
CONTINUOUS
 62
     7
 10
-621.9252818928853
 20
126.9118724320573
  0
VERTEX
  8
0
  6
CONTINUOUS
 62
     7
 10
-621.9792897032462
 20
126.7832978786372
  0
VERTEX
  8
0
  6
CONTINUOUS
 62
     7
 10
-622.0121393502344
 20
126.6635242784416
  0
VERTEX
  8
0
  6
CONTINUOUS
 62
     7
 10
-622.0306434519254
 20
126.5332907927102
  0
SEQEND
  8
0
  6
CONTINUOUS
 62
     7
  0
LINE
  8
0
  6
CONTINUOUS
 62
     7
 10
-593.3000000000035
 20
127.6704405719876
 11
-595.0992346895872
 21
127.6102404971615
  0
ARC
  8
0
  6
CONTINUOUS
 62
     7
 10
-595.0955683722643
 20
124.6190684972206
 40
2.991174246865832
 50
90.07022812588738
 51
113.6058657776447
  0
POLYLINE
  8
0
  6
CONTINUOUS
 62
     7
 66
     1
  0
VERTEX
  8
0
  6
CONTINUOUS
 62
     7
 10
-596.293362697713
 20
127.3599464822897
  0
VERTEX
  8
0
  6
CONTINUOUS
 62
     7
 10
-596.4078898210458
 20
127.2857634738511
  0
VERTEX
  8
0
  6
CONTINUOUS
 62
     7
 10
-596.5081203925546
 20
127.2021889688017
  0
VERTEX
  8
0
  6
CONTINUOUS
 62
     7
 10
-596.5781846827629
 20
127.1296746913797
  0
VERTEX
  8
0
  6
CONTINUOUS
 62
     7
 10
-596.6577493588611
 20
127.0268265758322
  0
VERTEX
  8
0
  6
CONTINUOUS
 62
     7
 10
-596.7252818928853
 20
126.9118724320574
  0
VERTEX
  8
0
  6
CONTINUOUS
 62
     7
 10
-596.7792897032463
 20
126.7832978786372
  0
VERTEX
  8
0
  6
CONTINUOUS
 62
     7
 10
-596.8121393502345
 20
126.6635242784417
  0
VERTEX
  8
0
  6
CONTINUOUS
 62
     7
 10
-596.8306434519253
 20
126.5332907927102
  0
SEQEND
  8
0
  6
CONTINUOUS
 62
     7
  0
POLYLINE
  8
0
  6
CONTINUOUS
 62
     7
 66
     1
  0
VERTEX
  8
0
  6
CONTINUOUS
 62
     7
 10
-596.8306773443875
 20
279.966861247325
  0
VERTEX
  8
0
  6
CONTINUOUS
 62
     7
 10
-596.8106194942038
 20
279.828855390818
  0
VERTEX
  8
0
  6
CONTINUOUS
 62
     7
 10
-596.7750406298703
 20
279.7036810643679
  0
VERTEX
  8
0
  6
CONTINUOUS
 62
     7
 10
-596.7222506781668
 20
279.5808534975858
  0
VERTEX
  8
0
  6
CONTINUOUS
 62
     7
 10
-596.6572013743747
 20
279.4705505965036
  0
VERTEX
  8
0
  6
CONTINUOUS
 62
     7
 10
-596.5817256788672
 20
279.3720510006436
  0
SEQEND
  8
0
  6
CONTINUOUS
 62
     7
  0
ARC
  8
0
  6
CONTINUOUS
 62
     7
 10
-595.751773767819
 20
280.0944351499706
 40
1.100299520063236
 50
221.0360757501833
 51
248.8287399412895
  0
ARC
  8
0
  6
CONTINUOUS
 62
     7
 10
-594.9846966456688
 20
282.7556413765961
 40
3.866743994864923
 50
252.4735002476461
 51
268.0977000715005
  0
LINE
  8
0
  6
CONTINUOUS
 62
     7
 10
-595.1130543633894
 20
278.8910284052722
 11
-593.2999999999962
 21
278.8295594280124
  0
POLYLINE
  8
0
  6
CONTINUOUS
 62
     7
 66
     1
  0
VERTEX
  8
0
  6
CONTINUOUS
 62
     7
 10
-622.0306773443874
 20
279.966861247325
  0
VERTEX
  8
0
  6
CONTINUOUS
 62
     7
 10
-622.0106194942038
 20
279.828855390818
  0
VERTEX
  8
0
  6
CONTINUOUS
 62
     7
 10
-621.9750406298703
 20
279.7036810643679
  0
VERTEX
  8
0
  6
CONTINUOUS
 62
     7
 10
-621.9222506781668
 20
279.5808534975858
  0
VERTEX
  8
0
  6
CONTINUOUS
 62
     7
 10
-621.8572013743748
 20
279.4705505965036
  0
VERTEX
  8
0
  6
CONTINUOUS
 62
     7
 10
-621.7817256788672
 20
279.3720510006436
  0
SEQEND
  8
0
  6
CONTINUOUS
 62
     7
  0
ARC
  8
0
  6
CONTINUOUS
 62
     7
 10
-620.951773767819
 20
280.0944351499708
 40
1.100299520063496
 50
221.0360757501878
 51
248.8287399412843
  0
ARC
  8
0
  6
CONTINUOUS
 62
     7
 10
-620.1846966456686
 20
282.7556413765964
 40
3.866743994865224
 50
252.4735002476443
 51
268.0977000715081
  0
LINE
  8
0
  6
CONTINUOUS
 62
     7
 10
-620.3130543633888
 20
278.8910284052722
 11
-618.4999999999961
 21
278.8295594280124
  0
POLYLINE
  8
0
  6
CONTINUOUS
 62
     7
 66
     1
  0
VERTEX
  8
0
  6
CONTINUOUS
 62
     7
 10
-647.2306773443875
 20
279.966861247325
  0
VERTEX
  8
0
  6
CONTINUOUS
 62
     7
 10
-647.2106194942038
 20
279.8288553908181
  0
VERTEX
  8
0
  6
CONTINUOUS
 62
     7
 10
-647.1750406298703
 20
279.703681064368
  0
VERTEX
  8
0
  6
CONTINUOUS
 62
     7
 10
-647.122250678167
 20
279.580853497586
  0
VERTEX
  8
0
  6
CONTINUOUS
 62
     7
 10
-647.0572013743748
 20
279.4705505965038
  0
VERTEX
  8
0
  6
CONTINUOUS
 62
     7
 10
-646.9817256788673
 20
279.3720510006438
  0
SEQEND
  8
0
  6
CONTINUOUS
 62
     7
  0
ARC
  8
0
  6
CONTINUOUS
 62
     7
 10
-646.1517737678191
 20
280.0944351499704
 40
1.100299520062972
 50
221.0360757501637
 51
248.8287399412868
  0
ARC
  8
0
  6
CONTINUOUS
 62
     7
 10
-645.38469664567
 20
282.755641376591
 40
3.866743994859744
 50
252.4735002476392
 51
268.0977000715002
  0
LINE
  8
0
  6
CONTINUOUS
 62
     7
 10
-645.5130543633904
 20
278.8910284052723
 11
-643.6999999999962
 21
278.8295594280124
  0
LINE
  8
0
  6
CONTINUOUS
 62
     7
 10
-691.4999999999966
 20
278.8295594280124
 11
-689.7002203270686
 21
278.8898021465129
  0
ARC
  8
0
  6
CONTINUOUS
 62
     7
 10
-689.7035841537127
 20
281.8783464480617
 40
2.988546194665568
 50
270.0644905910302
 51
293.6033371252537
  0
POLYLINE
  8
0
  6
CONTINUOUS
 62
     7
 66
     1
  0
VERTEX
  8
0
  6
CONTINUOUS
 62
     7
 10
-688.5069630718676
 20
279.1398237908369
  0
VERTEX
  8
0
  6
CONTINUOUS
 62
     7
 10
-688.3925174458523
 20
279.2138882075315
  0
VERTEX
  8
0
  6
CONTINUOUS
 62
     7
 10
-688.2922587789774
 20
279.2974024486698
  0
VERTEX
  8
0
  6
CONTINUOUS
 62
     7
 10
-688.2221352556285
 20
279.3699051001914
  0
VERTEX
  8
0
  6
CONTINUOUS
 62
     7
 10
-688.1424724295535
 20
279.4727822995691
  0
VERTEX
  8
0
  6
CONTINUOUS
 62
     7
 10
-688.0748365996091
 20
279.5878151713181
  0
VERTEX
  8
0
  6
CONTINUOUS
 62
     7
 10
-688.020738976059
 20
279.7165195261211
  0
VERTEX
  8
0
  6
CONTINUOUS
 62
     7
 10
-687.9878389563727
 20
279.8364428158962
  0
VERTEX
  8
0
  6
CONTINUOUS
 62
     7
 10
-687.9693226556137
 20
279.9668612473199
  0
SEQEND
  8
0
  6
CONTINUOUS
 62
     7
  0
LINE
  8
0
  6
CONTINUOUS
 62
     7
 10
-716.6999999999966
 20
278.8295594280124
 11
-714.9002203270692
 21
278.8898021465128
  0
ARC
  8
0
  6
CONTINUOUS
 62
     7
 10
-714.9035841537129
 20
281.878346448062
 40
2.988546194665818
 50
270.0644905910219
 51
293.6033371252553
  0
POLYLINE
  8
0
  6
CONTINUOUS
 62
     7
 66
     1
  0
VERTEX
  8
0
  6
CONTINUOUS
 62
     7
 10
-713.7069630718677
 20
279.1398237908369
  0
VERTEX
  8
0
  6
CONTINUOUS
 62
     7
 10
-713.5925174458523
 20
279.2138882075316
  0
VERTEX
  8
0
  6
CONTINUOUS
 62
     7
 10
-713.4922587789773
 20
279.2974024486698
  0
VERTEX
  8
0
  6
CONTINUOUS
 62
     7
 10
-713.4221352556284
 20
279.3699051001914
  0
VERTEX
  8
0
  6
CONTINUOUS
 62
     7
 10
-713.3424724295535
 20
279.4727822995691
  0
VERTEX
  8
0
  6
CONTINUOUS
 62
     7
 10
-713.2748365996091
 20
279.5878151713181
  0
VERTEX
  8
0
  6
CONTINUOUS
 62
     7
 10
-713.220738976059
 20
279.7165195261212
  0
VERTEX
  8
0
  6
CONTINUOUS
 62
     7
 10
-713.1878389563727
 20
279.8364428158962
  0
VERTEX
  8
0
  6
CONTINUOUS
 62
     7
 10
-713.1693226556137
 20
279.9668612473199
  0
SEQEND
  8
0
  6
CONTINUOUS
 62
     7
  0
LINE
  8
0
  6
CONTINUOUS
 62
     7
 10
-666.2999999999967
 20
278.8295594280124
 11
-664.5002203270687
 21
278.8898021465129
  0
ARC
  8
0
  6
CONTINUOUS
 62
     7
 10
-664.5035841537119
 20
281.8783464480582
 40
2.988546194662001
 50
270.0644905910139
 51
293.6033371252727
  0
POLYLINE
  8
0
  6
CONTINUOUS
 62
     7
 66
     1
  0
VERTEX
  8
0
  6
CONTINUOUS
 62
     7
 10
-663.3069630718674
 20
279.139823790837
  0
VERTEX
  8
0
  6
CONTINUOUS
 62
     7
 10
-663.192517445852
 20
279.2138882075317
  0
VERTEX
  8
0
  6
CONTINUOUS
 62
     7
 10
-663.0922587789771
 20
279.29740244867
  0
VERTEX
  8
0
  6
CONTINUOUS
 62
     7
 10
-663.0221352556282
 20
279.3699051001916
  0
VERTEX
  8
0
  6
CONTINUOUS
 62
     7
 10
-662.9424724295534
 20
279.4727822995692
  0
VERTEX
  8
0
  6
CONTINUOUS
 62
     7
 10
-662.874836599609
 20
279.5878151713183
  0
VERTEX
  8
0
  6
CONTINUOUS
 62
     7
 10
-662.8207389760588
 20
279.7165195261213
  0
VERTEX
  8
0
  6
CONTINUOUS
 62
     7
 10
-662.7878389563728
 20
279.8364428158963
  0
VERTEX
  8
0
  6
CONTINUOUS
 62
     7
 10
-662.7693226556137
 20
279.96686124732
  0
SEQEND
  8
0
  6
CONTINUOUS
 62
     7
  0
LINE
  8
0
  6
CONTINUOUS
 62
     7
 10
-611.9290792285184
 20
125.963988627218
 11
-611.9689944940119
 21
126.5326212207596
  0
LINE
  8
0
  6
CONTINUOUS
 62
     7
 10
-637.1290792285183
 20
125.9639886272179
 11
-637.1689944940118
 21
126.5326212207596
  0
LINE
  8
0
  6
CONTINUOUS
 62
     7
 10
-586.7290792285183
 20
125.9639886272179
 11
-586.7689944940118
 21
126.5326212207597
  0
LINE
  8
0
  6
CONTINUOUS
 62
     7
 10
-698.0310055059882
 20
126.5326212207596
 11
-698.0709207714817
 21
125.963988627218
  0
LINE
  8
0
  6
CONTINUOUS
 62
     7
 10
-672.8310055059882
 20
126.5326212207596
 11
-672.8709207714817
 21
125.9639886272179
  0
LINE
  8
0
  6
CONTINUOUS
 62
     7
 10
-723.2310055059882
 20
126.5326212207596
 11
-723.2709207714817
 21
125.9639886272179
  0
LINE
  8
0
  6
CONTINUOUS
 62
     7
 10
-698.0709209513672
 20
280.5360139354287
 11
-698.03100549969
 21
279.9673786895152
  0
LINE
  8
0
  6
CONTINUOUS
 62
     7
 10
-672.8709209513671
 20
280.5360139354287
 11
-672.83100549969
 21
279.9673786895152
  0
LINE
  8
0
  6
CONTINUOUS
 62
     7
 10
-611.9689945003101
 20
279.9673786895151
 11
-611.9290790486331
 21
280.5360139354286
  0
LINE
  8
0
  6
CONTINUOUS
 62
     7
 10
-637.1689945003102
 20
279.967378689515
 11
-637.1290790486329
 21
280.5360139354287
  0
LINE
  8
0
  6
CONTINUOUS
 62
     7
 10
-723.2709209513671
 20
280.5360139354286
 11
-723.23100549969
 21
279.9673786895151
  0
LINE
  8
0
  6
CONTINUOUS
 62
     7
 10
-586.7689945003102
 20
279.967378689515
 11
-586.729079048633
 21
280.5360139354286
  0
LINE
  8
0
  6
CONTINUOUS
 62
     7
 10
-662.7290792284376
 20
125.9639886260676
 11
-662.768994507551
 21
126.5326214136382
  0
LINE
  8
0
  6
CONTINUOUS
 62
     7
 10
-687.9290792284376
 20
125.9639886260677
 11
-687.968994507551
 21
126.5326214136382
  0
LINE
  8
0
  6
CONTINUOUS
 62
     7
 10
-713.1290792284376
 20
125.9639886260676
 11
-713.168994507551
 21
126.5326214136382
  0
LINE
  8
0
  6
CONTINUOUS
 62
     7
 10
-647.2310054924491
 20
126.5326214136382
 11
-647.2709207715625
 21
125.9639886260676
  0
LINE
  8
0
  6
CONTINUOUS
 62
     7
 10
-622.031005492449
 20
126.5326214136384
 11
-622.0709207715624
 21
125.9639886260676
  0
LINE
  8
0
  6
CONTINUOUS
 62
     7
 10
-596.8310054924491
 20
126.5326214136383
 11
-596.8709207715624
 21
125.9639886260676
  0
LINE
  8
0
  6
CONTINUOUS
 62
     7
 10
-596.8709209514618
 20
280.5360139367777
 11
-596.8310054838109
 21
279.9673784633046
  0
LINE
  8
0
  6
CONTINUOUS
 62
     7
 10
-622.0709209514617
 20
280.5360139367778
 11
-622.031005483811
 21
279.9673784633046
  0
LINE
  8
0
  6
CONTINUOUS
 62
     7
 10
-647.2709209514618
 20
280.5360139367779
 11
-647.2310054838109
 21
279.9673784633045
  0
LINE
  8
0
  6
CONTINUOUS
 62
     7
 10
-687.9689945161891
 20
279.9673784633032
 11
-687.9290790485381
 21
280.5360139367779
  0
LINE
  8
0
  6
CONTINUOUS
 62
     7
 10
-713.1689945161891
 20
279.9673784633033
 11
-713.1290790485382
 21
280.5360139367779
  0
LINE
  8
0
  6
CONTINUOUS
 62
     7
 10
-662.7689945161891
 20
279.9673784633033
 11
-662.7290790485382
 21
280.5360139367779
  0
LINE
  8
0
  6
CONTINUOUS
 62
     7
 10
-694.4999999999948
 20
278.8202394421904
 11
-691.4999999999947
 21
278.8202394421904
  0
LINE
  8
0
  6
CONTINUOUS
 62
     7
 10
-593.2999999999943
 20
278.8202394421904
 11
-590.2999999999942
 21
278.8202394421904
  0
LINE
  8
0
  6
CONTINUOUS
 62
     7
 10
-618.4999999999943
 20
278.8202394421904
 11
-615.4999999999942
 21
278.8202394421904
  0
LINE
  8
0
  6
CONTINUOUS
 62
     7
 10
-643.6999999999942
 20
278.8202394421904
 11
-640.6999999999941
 21
278.8202394421904
  0
LINE
  8
0
  6
CONTINUOUS
 62
     7
 10
-719.6999999999948
 20
278.8202394421904
 11
-716.6999999999947
 21
278.8202394421904
  0
LINE
  8
0
  6
CONTINUOUS
 62
     7
 10
-669.2999999999947
 20
278.8202394421904
 11
-666.2999999999946
 21
278.8202394421904
  0
LINE
  8
0
  6
CONTINUOUS
 62
     7
 10
-640.7000000000052
 20
127.6797605578095
 11
-643.7000000000054
 21
127.6797605578095
  0
LINE
  8
0
  6
CONTINUOUS
 62
     7
 10
-691.5000000000057
 20
127.6797605578095
 11
-694.5000000000059
 21
127.6797605578095
  0
LINE
  8
0
  6
CONTINUOUS
 62
     7
 10
-590.3000000000052
 20
127.6797605578095
 11
-593.3000000000054
 21
127.6797605578095
  0
LINE
  8
0
  6
CONTINUOUS
 62
     7
 10
-615.500000000005
 20
127.6797605578095
 11
-618.5000000000052
 21
127.6797605578095
  0
LINE
  8
0
  6
CONTINUOUS
 62
     7
 10
-666.3000000000056
 20
127.6797605578095
 11
-669.3000000000059
 21
127.6797605578095
  0
LINE
  8
0
  6
CONTINUOUS
 62
     7
 10
-716.7000000000056
 20
127.6797605578095
 11
-719.7000000000058
 21
127.6797605578095
  0
ENDBLK
  8
0
  0
ENDSEC
  0
SECTION
  2
ENTITIES
  0
INSERT
  8
0
  6
CONTINUOUS
 62
     7
  2
D_FRAME_VIEW_2376
 10
0.0
 20
0.0
 30
0.0
  0
INSERT
  8
0
  6
CONTINUOUS
 62
     7
  2
D_FRAME_VIEW_2140
 10
0.0
 20
0.0
 30
0.0
  0
LINE
  8
0
  6
CENTER
 62
     1
 10
-799.0
 20
203.25
 11
-523.0
 21
203.25
  0
LINE
  8
0
  6
CENTER
 62
     1
 10
-351.0
 20
203.2499999999999
 11
-453.0
 21
203.2499999999999
  0
LINE
  8
0
  6
CENTER
 62
     1
 10
-655.0
 20
-27.5
 11
-655.0
 21
32.5
  0
LINE
  8
0
  6
CENTER
 62
     1
 10
-655.0
 20
80.49999999999999
 11
-655.0
 21
344.5
  0
INSERT
  8
0
  6
CONTINUOUS
 62
     7
  2
D_FRAME_VIEW_1495
 10
0.0
 20
0.0
 30
0.0
  0
TEXT
  8
0
  6
CONTINUOUS
 62
     7
 10
-551.0985119419782
 20
-59.1715799674878
 40
3.0
  1
SB-3YSA
  0
LINE
  8
0
  6
CENTER
 62
     1
 10
-667.8014690415182
 20
-6.388485489152903
 11
-667.8014690415182
 21
19.66175917733635
  0
LINE
  8
0
  6
CENTER
 62
     1
 10
-655.236197477897
 20
6.623419289001881
 11
-629.1616208472524
 21
6.623419289001881
  0
LINE
  8
0
  6
CENTER
 62
     1
 10
-616.9989091625766
 20
-6.413869026305145
 11
-616.9989091625766
 21
19.66070760432418
  0
LINE
  8
0
  6
CENTER
 62
     1
 10
-731.2265913747891
 20
6.636636844057424
 11
-705.1763467082309
 21
6.636636844057424
  0
LINE
  8
0
  6
CENTER
 62
     1
 10
-630.0361974778913
 20
6.623419289009518
 11
-603.9616208472619
 21
6.623419289009518
  0
LINE
  8
0
  6
CENTER
 62
     1
 10
-693.0000060103598
 20
-6.413242595158863
 11
-693.0000060103598
 21
19.66011355419761
  0
LINE
  8
0
  6
CENTER
 62
     1
 10
-642.1989091625748
 20
-6.41386902632045
 11
-642.1989091625748
 21
19.66070760432422
  0
LINE
  8
0
  6
CENTER
 62
     1
 10
-718.20146904151
 20
-6.388485489221712
 11
-718.20146904151
 21
19.66175917733656
  0
LINE
  8
0
  6
CENTER
 62
     1
 10
-680.8265913747629
 20
6.636636844091726
 11
-654.7763467082736
 21
6.636636844091726
  0
LINE
  8
0
  6
CENTER
 62
     1
 10
-604.8361974778963
 20
6.623419289002777
 11
-578.7616208472534
 21
6.623419289002777
  0
LINE
  8
0
  6
CENTER
 62
     1
 10
-591.7989091625749
 20
-6.413869026318648
 11
-591.7989091625749
 21
19.6607076043242
  0
LINE
  8
0
  6
CENTER
 62
     1
 10
-706.036684085038
 20
6.623435479519372
 11
-679.9633279356816
 21
6.623435479519372
  0
ENDSEC
  0
EOF
