  0
SECTION
  2
HEADER
  9
$ACADVER
  1
AC1006
  9
$DWGCODEPAGE
  3
ansi_932
  9
$INSBASE
 10
0.0
 20
0.0
 30
0.0
  9
$EXTMIN
 10
274.5
 20
62.34090909090912
  9
$EXTMAX
 10
612.5
 20
381.5000000000001
  9
$LIMMIN
 10
0.0
 20
0.0
  9
$LIMMAX
 10
12.0
 20
9.0
  9
$ORTHOMODE
 70
     0
  9
$REGENMODE
 70
     1
  9
$FILLMODE
 70
     1
  9
$QTEXTMODE
 70
     0
  9
$MIRRTEXT
 70
     1
  9
$DRAGMODE
 70
     2
  9
$LTSCALE
 40
1.0
  9
$OSMODE
 70
    37
  9
$ATTMODE
 70
     1
  9
$TEXTSIZE
 40
0.2
  9
$TRACEWID
 40
0.05
  9
$TEXTSTYLE
  7
STANDARD
  9
$CLAYER
  8
0
  9
$CELTYPE
  6
BYLAYER
  9
$CECOLOR
 62
   256
  9
$DIMSCALE
 40
1.0
  9
$DIMASZ
 40
3.0
  9
$DIMEXO
 40
0.0625
  9
$DIMDLI
 40
0.38
  9
$DIMRND
 40
0.0
  9
$DIMDLE
 40
0.0
  9
$DIMEXE
 40
1.5
  9
$DIMTP
 40
0.0
  9
$DIMTM
 40
0.0
  9
$DIMTXT
 40
3.0
  9
$DIMCEN
 40
0.09
  9
$DIMTSZ
 40
0.0
  9
$DIMTOL
 70
     0
  9
$DIMLIM
 70
     0
  9
$DIMTIH
 70
     1
  9
$DIMTOH
 70
     1
  9
$DIMSE1
 70
     0
  9
$DIMSE2
 70
     0
  9
$DIMTAD
 70
     1
  9
$DIMZIN
 70
     0
  9
$DIMBLK
  1

  9
$DIMASO
 70
     1
  9
$DIMSHO
 70
     1
  9
$DIMPOST
  1

  9
$DIMAPOST
  1

  9
$DIMALT
 70
     0
  9
$DIMALTD
 70
     2
  9
$DIMALTF
 40
25.4
  9
$DIMLFAC
 40
1.0
  9
$DIMTOFL
 70
     0
  9
$DIMTVP
 40
0.0
  9
$DIMTIX
 70
     0
  9
$DIMSOXD
 70
     0
  9
$DIMSAH
 70
     0
  9
$DIMBLK1
  1

  9
$DIMBLK2
  1

  9
$LUNITS
 70
     2
  9
$LUPREC
 70
     4
  9
$SKETCHINC
 40
0.1
  9
$FILLETRAD
 40
0.5
  9
$AUNITS
 70
     0
  9
$AUPREC
 70
     0
  9
$MENU
  1
.
  9
$ELEVATION
 40
0.0
  9
$THICKNESS
 40
0.0
  9
$LIMCHECK
 70
     0
  9
$CHAMFERA
 40
0.0
  9
$CHAMFERB
 40
0.0
  9
$SKPOLY
 70
     0
  9
$TDCREATE
 40
2459011.623099491
  9
$TDUPDATE
 40
2459011.623099664
  9
$TDINDWG
 40
0.0000000116
  9
$TDUSRTIMER
 40
0.0000000116
  9
$USRTIMER
 70
     1
  9
$ANGBASE
 50
0.0
  9
$ANGDIR
 70
     0
  9
$PDMODE
 70
     0
  9
$PDSIZE
 40
0.0
  9
$PLINEWID
 40
0.0
  9
$COORDS
 70
     1
  9
$SPLFRAME
 70
     0
  9
$SPLINETYPE
 70
     6
  9
$SPLINESEGS
 70
     8
  9
$ATTDIA
 70
     0
  9
$ATTREQ
 70
     1
  9
$HANDLING
 70
     1
  9
$HANDSEED
  5
343
  9
$SURFTAB1
 70
     6
  9
$SURFTAB2
 70
     6
  9
$SURFTYPE
 70
     6
  9
$SURFU
 70
     6
  9
$SURFV
 70
     6
  9
$UCSNAME
  2

  9
$UCSORG
 10
0.0
 20
0.0
 30
0.0
  9
$UCSXDIR
 10
1.0
 20
0.0
 30
0.0
  9
$UCSYDIR
 10
0.0
 20
1.0
 30
0.0
  9
$USERI1
 70
     0
  9
$USERI2
 70
     0
  9
$USERI3
 70
     0
  9
$USERI4
 70
     0
  9
$USERI5
 70
     0
  9
$USERR1
 40
0.0
  9
$USERR2
 40
0.0
  9
$USERR3
 40
0.0
  9
$USERR4
 40
0.0
  9
$USERR5
 40
0.0
  9
$WORLDVIEW
 70
     1
  0
ENDSEC
  0
SECTION
  2
TABLES
  0
TABLE
  2
VPORT
 70
     1
  0
VPORT
  2
*ACTIVE
 70
     0
 10
0.0
 20
0.0
 11
1.0
 21
1.0
 12
443.5
 22
221.9204545454546
 13
0.0
 23
0.0
 14
0.5
 24
0.5
 15
0.5
 25
0.5
 16
0.0
 26
0.0
 36
1.0
 17
0.0
 27
0.0
 37
0.0
 40
319.1590909090909
 41
1.6
 42
50.0
 43
0.0
 44
0.0
 50
0.0
 51
0.0
 71
     0
 72
   100
 73
     1
 74
     3
 75
     0
 76
     0
 77
     0
 78
     0
  0
ENDTAB
  0
TABLE
  2
LTYPE
 70
     1
  0
LTYPE
  2
CONTINUOUS
 70
     0
  3
Solid line
 72
    65
 73
     0
 40
0.0
  0
ENDTAB
  0
TABLE
  2
LAYER
 70
     1
  0
LAYER
  2
0
 70
     0
 62
     7
  6
CONTINUOUS
  0
ENDTAB
  0
TABLE
  2
STYLE
 70
     2
  0
STYLE
  2
STANDARD
 70
     0
 40
0.0
 41
1.0
 50
0.0
 71
     0
 42
0.2
  3
txt
  4

  0
STYLE
  2
ＭＳ_ゴシック
 70
     0
 40
0.0
 41
1.0
 50
0.0
 71
     0
 42
0.2
  3
ＭＳ ゴシック.shx
  4

  0
ENDTAB
  0
TABLE
  2
VIEW
 70
     0
  0
ENDTAB
  0
TABLE
  2
UCS
 70
     0
  0
ENDTAB
  0
ENDSEC
  0
SECTION
  2
BLOCKS
  0
BLOCK
  8
0
  2
D_FRAME_VIEW_1315
 70
     0
 10
0.0
 20
0.0
 30
0.0
  0
LINE
  5
B5
  8
0
  6
CONTINUOUS
 62
     7
 10
274.5
 20
184.5
 30
0.0
 11
274.5
 21
375.5000000000001
 31
0.0
  0
ARC
  5
B6
  8
0
  6
CONTINUOUS
 62
     7
 10
280.5
 20
375.5000000000001
 30
0.0
 40
6.000000000000005
 50
90.0
 51
179.9999999999998
  0
LINE
  5
B7
  8
0
  6
CONTINUOUS
 62
     7
 10
280.5
 20
381.5000000000001
 30
0.0
 11
519.5
 21
381.5000000000001
 31
0.0
  0
ARC
  5
B8
  8
0
  6
CONTINUOUS
 62
     7
 10
519.5000000000001
 20
375.5000000000001
 30
0.0
 40
6.000000000000005
 50
0.0
 51
90.0
  0
LINE
  5
B9
  8
0
  6
CONTINUOUS
 62
     7
 10
525.5000000000001
 20
375.5000000000001
 30
0.0
 11
525.5000000000001
 21
184.5000000000001
 31
0.0
  0
ARC
  5
BA
  8
0
  6
CONTINUOUS
 62
     7
 10
519.5000000000001
 20
184.5
 30
0.0
 40
6.000000000000005
 50
270.0
 51
359.9999999999998
  0
LINE
  5
BB
  8
0
  6
CONTINUOUS
 62
     7
 10
519.5000000000001
 20
178.5
 30
0.0
 11
280.5000000000001
 21
178.5
 31
0.0
  0
ARC
  5
BC
  8
0
  6
CONTINUOUS
 62
     7
 10
280.5
 20
184.5
 30
0.0
 40
6.000000000000005
 50
180.0
 51
270.0
  0
LINE
  5
BD
  8
0
  6
CONTINUOUS
 62
     7
 10
299.6
 20
194.9709698620401
 30
0.0
 11
299.6
 21
200.0201268402772
 31
0.0
  0
LINE
  5
BE
  8
0
  6
CONTINUOUS
 62
     7
 10
299.6000000000001
 20
200.0201268402773
 30
0.0
 11
300.0000000000001
 21
200.0000000000001
 31
0.0
  0
LINE
  5
BF
  8
0
  6
CONTINUOUS
 62
     7
 10
323.6
 20
200.0
 30
0.0
 11
300.0
 21
200.0
 31
0.0
  0
LINE
  5
C0
  8
0
  6
CONTINUOUS
 62
     7
 10
323.6
 20
198.602291902526
 30
0.0
 11
323.6
 21
200.0
 31
0.0
  0
POLYLINE
  5
C1
  8
0
  6
CONTINUOUS
 62
     7
 66
     1
 10
0.0
 20
0.0
 30
0.0
  0
VERTEX
  5
200
  8
0
  6
CONTINUOUS
 62
     7
 10
323.6
 20
198.602291902526
 30
0.0
  0
VERTEX
  5
201
  8
0
  6
CONTINUOUS
 62
     7
 10
323.6115288317581
 20
198.4847905813145
 30
0.0
  0
VERTEX
  5
202
  8
0
  6
CONTINUOUS
 62
     7
 10
323.6456722804933
 20
198.3718047699817
 30
0.0
  0
VERTEX
  5
203
  8
0
  6
CONTINUOUS
 62
     7
 10
323.7011182326185
 20
198.2676764498939
 30
0.0
  0
VERTEX
  5
204
  8
0
  6
CONTINUOUS
 62
     7
 10
323.7757359312881
 20
198.1764072139962
 30
0.0
  0
VERTEX
  5
205
  8
0
  6
CONTINUOUS
 62
     7
 10
323.8666578601883
 20
198.1015044878398
 30
0.0
  0
VERTEX
  5
206
  8
0
  6
CONTINUOUS
 62
     7
 10
323.970389940581
 20
198.045846741185
 30
0.0
  0
VERTEX
  5
207
  8
0
  6
CONTINUOUS
 62
     7
 10
324.0829458067903
 20
198.0115728700225
 30
0.0
  0
VERTEX
  5
208
  8
0
  6
CONTINUOUS
 62
     7
 10
324.2
 20
198.0000000000001
 30
0.0
  0
SEQEND
  5
321
  8
0
  6
CONTINUOUS
 62
     7
  0
POLYLINE
  5
C2
  8
0
  6
CONTINUOUS
 62
     7
 66
     1
 10
0.0
 20
0.0
 30
0.0
  0
VERTEX
  5
209
  8
0
  6
CONTINUOUS
 62
     7
 10
324.2
 20
198.0000000000001
 30
0.0
  0
VERTEX
  5
20A
  8
0
  6
CONTINUOUS
 62
     7
 10
324.3170541932097
 20
198.0115728700225
 30
0.0
  0
VERTEX
  5
20B
  8
0
  6
CONTINUOUS
 62
     7
 10
324.4296100594191
 20
198.045846741185
 30
0.0
  0
VERTEX
  5
20C
  8
0
  6
CONTINUOUS
 62
     7
 10
324.5333421398118
 20
198.1015044878398
 30
0.0
  0
VERTEX
  5
20D
  8
0
  6
CONTINUOUS
 62
     7
 10
324.624264068712
 20
198.1764072139962
 30
0.0
  0
VERTEX
  5
20E
  8
0
  6
CONTINUOUS
 62
     7
 10
324.6988817673816
 20
198.2676764498939
 30
0.0
  0
VERTEX
  5
20F
  8
0
  6
CONTINUOUS
 62
     7
 10
324.7543277195068
 20
198.3718047699817
 30
0.0
  0
VERTEX
  5
210
  8
0
  6
CONTINUOUS
 62
     7
 10
324.788471168242
 20
198.4847905813145
 30
0.0
  0
VERTEX
  5
211
  8
0
  6
CONTINUOUS
 62
     7
 10
324.8000000000001
 20
198.602291902526
 30
0.0
  0
SEQEND
  5
322
  8
0
  6
CONTINUOUS
 62
     7
  0
LINE
  5
C3
  8
0
  6
CONTINUOUS
 62
     7
 10
324.8
 20
198.602291902526
 30
0.0
 11
324.8
 21
200.0
 31
0.0
  0
LINE
  5
C4
  8
0
  6
CONTINUOUS
 62
     7
 10
348.8
 20
200.0
 30
0.0
 11
324.8
 21
200.0
 31
0.0
  0
LINE
  5
C5
  8
0
  6
CONTINUOUS
 62
     7
 10
348.8
 20
198.602291902526
 30
0.0
 11
348.8
 21
200.0
 31
0.0
  0
POLYLINE
  5
C6
  8
0
  6
CONTINUOUS
 62
     7
 66
     1
 10
0.0
 20
0.0
 30
0.0
  0
VERTEX
  5
212
  8
0
  6
CONTINUOUS
 62
     7
 10
348.8
 20
198.602291902526
 30
0.0
  0
VERTEX
  5
213
  8
0
  6
CONTINUOUS
 62
     7
 10
348.8115288317581
 20
198.4847905813145
 30
0.0
  0
VERTEX
  5
214
  8
0
  6
CONTINUOUS
 62
     7
 10
348.8456722804933
 20
198.3718047699817
 30
0.0
  0
VERTEX
  5
215
  8
0
  6
CONTINUOUS
 62
     7
 10
348.9011182326185
 20
198.2676764498939
 30
0.0
  0
VERTEX
  5
216
  8
0
  6
CONTINUOUS
 62
     7
 10
348.9757359312881
 20
198.1764072139962
 30
0.0
  0
VERTEX
  5
217
  8
0
  6
CONTINUOUS
 62
     7
 10
349.0666578601883
 20
198.1015044878398
 30
0.0
  0
VERTEX
  5
218
  8
0
  6
CONTINUOUS
 62
     7
 10
349.170389940581
 20
198.045846741185
 30
0.0
  0
VERTEX
  5
219
  8
0
  6
CONTINUOUS
 62
     7
 10
349.2829458067903
 20
198.0115728700225
 30
0.0
  0
VERTEX
  5
21A
  8
0
  6
CONTINUOUS
 62
     7
 10
349.4
 20
198.0000000000001
 30
0.0
  0
SEQEND
  5
323
  8
0
  6
CONTINUOUS
 62
     7
  0
POLYLINE
  5
C7
  8
0
  6
CONTINUOUS
 62
     7
 66
     1
 10
0.0
 20
0.0
 30
0.0
  0
VERTEX
  5
21B
  8
0
  6
CONTINUOUS
 62
     7
 10
349.4
 20
198.0000000000001
 30
0.0
  0
VERTEX
  5
21C
  8
0
  6
CONTINUOUS
 62
     7
 10
349.5170541932097
 20
198.0115728700225
 30
0.0
  0
VERTEX
  5
21D
  8
0
  6
CONTINUOUS
 62
     7
 10
349.6296100594191
 20
198.045846741185
 30
0.0
  0
VERTEX
  5
21E
  8
0
  6
CONTINUOUS
 62
     7
 10
349.7333421398118
 20
198.1015044878398
 30
0.0
  0
VERTEX
  5
21F
  8
0
  6
CONTINUOUS
 62
     7
 10
349.824264068712
 20
198.1764072139962
 30
0.0
  0
VERTEX
  5
220
  8
0
  6
CONTINUOUS
 62
     7
 10
349.8988817673816
 20
198.2676764498939
 30
0.0
  0
VERTEX
  5
221
  8
0
  6
CONTINUOUS
 62
     7
 10
349.9543277195068
 20
198.3718047699817
 30
0.0
  0
VERTEX
  5
222
  8
0
  6
CONTINUOUS
 62
     7
 10
349.988471168242
 20
198.4847905813145
 30
0.0
  0
VERTEX
  5
223
  8
0
  6
CONTINUOUS
 62
     7
 10
350.0000000000001
 20
198.602291902526
 30
0.0
  0
SEQEND
  5
324
  8
0
  6
CONTINUOUS
 62
     7
  0
LINE
  5
C8
  8
0
  6
CONTINUOUS
 62
     7
 10
350.0
 20
198.602291902526
 30
0.0
 11
350.0
 21
200.0
 31
0.0
  0
LINE
  5
C9
  8
0
  6
CONTINUOUS
 62
     7
 10
374.0
 20
200.0
 30
0.0
 11
349.9999999999999
 21
200.0
 31
0.0
  0
LINE
  5
CA
  8
0
  6
CONTINUOUS
 62
     7
 10
374.0
 20
198.602291902526
 30
0.0
 11
374.0
 21
200.0
 31
0.0
  0
POLYLINE
  5
CB
  8
0
  6
CONTINUOUS
 62
     7
 66
     1
 10
0.0
 20
0.0
 30
0.0
  0
VERTEX
  5
224
  8
0
  6
CONTINUOUS
 62
     7
 10
373.9999999999999
 20
198.602291902526
 30
0.0
  0
VERTEX
  5
225
  8
0
  6
CONTINUOUS
 62
     7
 10
374.011528831758
 20
198.4847905813145
 30
0.0
  0
VERTEX
  5
226
  8
0
  6
CONTINUOUS
 62
     7
 10
374.0456722804932
 20
198.3718047699817
 30
0.0
  0
VERTEX
  5
227
  8
0
  6
CONTINUOUS
 62
     7
 10
374.1011182326184
 20
198.2676764498939
 30
0.0
  0
VERTEX
  5
228
  8
0
  6
CONTINUOUS
 62
     7
 10
374.175735931288
 20
198.1764072139962
 30
0.0
  0
VERTEX
  5
229
  8
0
  6
CONTINUOUS
 62
     7
 10
374.2666578601882
 20
198.1015044878398
 30
0.0
  0
VERTEX
  5
22A
  8
0
  6
CONTINUOUS
 62
     7
 10
374.3703899405809
 20
198.045846741185
 30
0.0
  0
VERTEX
  5
22B
  8
0
  6
CONTINUOUS
 62
     7
 10
374.4829458067903
 20
198.0115728700225
 30
0.0
  0
VERTEX
  5
22C
  8
0
  6
CONTINUOUS
 62
     7
 10
374.6
 20
198.0000000000001
 30
0.0
  0
SEQEND
  5
325
  8
0
  6
CONTINUOUS
 62
     7
  0
POLYLINE
  5
CC
  8
0
  6
CONTINUOUS
 62
     7
 66
     1
 10
0.0
 20
0.0
 30
0.0
  0
VERTEX
  5
22D
  8
0
  6
CONTINUOUS
 62
     7
 10
374.6
 20
198.0000000000001
 30
0.0
  0
VERTEX
  5
22E
  8
0
  6
CONTINUOUS
 62
     7
 10
374.7170541932097
 20
198.0115728700225
 30
0.0
  0
VERTEX
  5
22F
  8
0
  6
CONTINUOUS
 62
     7
 10
374.829610059419
 20
198.045846741185
 30
0.0
  0
VERTEX
  5
230
  8
0
  6
CONTINUOUS
 62
     7
 10
374.9333421398117
 20
198.1015044878398
 30
0.0
  0
VERTEX
  5
231
  8
0
  6
CONTINUOUS
 62
     7
 10
375.0242640687119
 20
198.1764072139962
 30
0.0
  0
VERTEX
  5
232
  8
0
  6
CONTINUOUS
 62
     7
 10
375.0988817673815
 20
198.2676764498939
 30
0.0
  0
VERTEX
  5
233
  8
0
  6
CONTINUOUS
 62
     7
 10
375.1543277195067
 20
198.3718047699817
 30
0.0
  0
VERTEX
  5
234
  8
0
  6
CONTINUOUS
 62
     7
 10
375.1884711682419
 20
198.4847905813145
 30
0.0
  0
VERTEX
  5
235
  8
0
  6
CONTINUOUS
 62
     7
 10
375.2
 20
198.602291902526
 30
0.0
  0
SEQEND
  5
326
  8
0
  6
CONTINUOUS
 62
     7
  0
LINE
  5
CD
  8
0
  6
CONTINUOUS
 62
     7
 10
375.2
 20
198.602291902526
 30
0.0
 11
375.2
 21
200.0
 31
0.0
  0
LINE
  5
CE
  8
0
  6
CONTINUOUS
 62
     7
 10
399.4
 20
200.0
 30
0.0
 11
375.2
 21
200.0
 31
0.0
  0
LINE
  5
CF
  8
0
  6
CONTINUOUS
 62
     7
 10
399.4
 20
198.602291902526
 30
0.0
 11
399.4
 21
200.0
 31
0.0
  0
POLYLINE
  5
D0
  8
0
  6
CONTINUOUS
 62
     7
 66
     1
 10
0.0
 20
0.0
 30
0.0
  0
VERTEX
  5
236
  8
0
  6
CONTINUOUS
 62
     7
 10
399.4
 20
198.602291902526
 30
0.0
  0
VERTEX
  5
237
  8
0
  6
CONTINUOUS
 62
     7
 10
399.4115288317581
 20
198.4847905813145
 30
0.0
  0
VERTEX
  5
238
  8
0
  6
CONTINUOUS
 62
     7
 10
399.4456722804932
 20
198.3718047699817
 30
0.0
  0
VERTEX
  5
239
  8
0
  6
CONTINUOUS
 62
     7
 10
399.5011182326185
 20
198.2676764498939
 30
0.0
  0
VERTEX
  5
23A
  8
0
  6
CONTINUOUS
 62
     7
 10
399.5757359312881
 20
198.1764072139962
 30
0.0
  0
VERTEX
  5
23B
  8
0
  6
CONTINUOUS
 62
     7
 10
399.6666578601883
 20
198.1015044878398
 30
0.0
  0
VERTEX
  5
23C
  8
0
  6
CONTINUOUS
 62
     7
 10
399.770389940581
 20
198.045846741185
 30
0.0
  0
VERTEX
  5
23D
  8
0
  6
CONTINUOUS
 62
     7
 10
399.8829458067903
 20
198.0115728700225
 30
0.0
  0
VERTEX
  5
23E
  8
0
  6
CONTINUOUS
 62
     7
 10
400.0
 20
198.0000000000001
 30
0.0
  0
SEQEND
  5
327
  8
0
  6
CONTINUOUS
 62
     7
  0
POLYLINE
  5
D1
  8
0
  6
CONTINUOUS
 62
     7
 66
     1
 10
0.0
 20
0.0
 30
0.0
  0
VERTEX
  5
23F
  8
0
  6
CONTINUOUS
 62
     7
 10
400.0
 20
198.0000000000001
 30
0.0
  0
VERTEX
  5
240
  8
0
  6
CONTINUOUS
 62
     7
 10
400.1170541932097
 20
198.0115728700225
 30
0.0
  0
VERTEX
  5
241
  8
0
  6
CONTINUOUS
 62
     7
 10
400.229610059419
 20
198.045846741185
 30
0.0
  0
VERTEX
  5
242
  8
0
  6
CONTINUOUS
 62
     7
 10
400.3333421398117
 20
198.1015044878398
 30
0.0
  0
VERTEX
  5
243
  8
0
  6
CONTINUOUS
 62
     7
 10
400.4242640687119
 20
198.1764072139962
 30
0.0
  0
VERTEX
  5
244
  8
0
  6
CONTINUOUS
 62
     7
 10
400.4988817673815
 20
198.2676764498939
 30
0.0
  0
VERTEX
  5
245
  8
0
  6
CONTINUOUS
 62
     7
 10
400.5543277195068
 20
198.3718047699817
 30
0.0
  0
VERTEX
  5
246
  8
0
  6
CONTINUOUS
 62
     7
 10
400.5884711682419
 20
198.4847905813145
 30
0.0
  0
VERTEX
  5
247
  8
0
  6
CONTINUOUS
 62
     7
 10
400.6
 20
198.602291902526
 30
0.0
  0
SEQEND
  5
328
  8
0
  6
CONTINUOUS
 62
     7
  0
LINE
  5
D2
  8
0
  6
CONTINUOUS
 62
     7
 10
400.6
 20
198.602291902526
 30
0.0
 11
400.6
 21
200.0
 31
0.0
  0
LINE
  5
D3
  8
0
  6
CONTINUOUS
 62
     7
 10
424.8
 20
200.0
 30
0.0
 11
400.6
 21
200.0
 31
0.0
  0
LINE
  5
D4
  8
0
  6
CONTINUOUS
 62
     7
 10
424.8
 20
198.602291902526
 30
0.0
 11
424.8
 21
200.0
 31
0.0
  0
POLYLINE
  5
D5
  8
0
  6
CONTINUOUS
 62
     7
 66
     1
 10
0.0
 20
0.0
 30
0.0
  0
VERTEX
  5
248
  8
0
  6
CONTINUOUS
 62
     7
 10
424.8
 20
198.602291902526
 30
0.0
  0
VERTEX
  5
249
  8
0
  6
CONTINUOUS
 62
     7
 10
424.8115288317581
 20
198.4847905813145
 30
0.0
  0
VERTEX
  5
24A
  8
0
  6
CONTINUOUS
 62
     7
 10
424.8456722804933
 20
198.3718047699817
 30
0.0
  0
VERTEX
  5
24B
  8
0
  6
CONTINUOUS
 62
     7
 10
424.9011182326185
 20
198.2676764498939
 30
0.0
  0
VERTEX
  5
24C
  8
0
  6
CONTINUOUS
 62
     7
 10
424.9757359312881
 20
198.1764072139962
 30
0.0
  0
VERTEX
  5
24D
  8
0
  6
CONTINUOUS
 62
     7
 10
425.0666578601883
 20
198.1015044878398
 30
0.0
  0
VERTEX
  5
24E
  8
0
  6
CONTINUOUS
 62
     7
 10
425.170389940581
 20
198.045846741185
 30
0.0
  0
VERTEX
  5
24F
  8
0
  6
CONTINUOUS
 62
     7
 10
425.2829458067903
 20
198.0115728700225
 30
0.0
  0
VERTEX
  5
250
  8
0
  6
CONTINUOUS
 62
     7
 10
425.4
 20
198.0000000000001
 30
0.0
  0
SEQEND
  5
329
  8
0
  6
CONTINUOUS
 62
     7
  0
POLYLINE
  5
D6
  8
0
  6
CONTINUOUS
 62
     7
 66
     1
 10
0.0
 20
0.0
 30
0.0
  0
VERTEX
  5
251
  8
0
  6
CONTINUOUS
 62
     7
 10
425.4
 20
198.0000000000001
 30
0.0
  0
VERTEX
  5
252
  8
0
  6
CONTINUOUS
 62
     7
 10
425.5170541932097
 20
198.0115728700225
 30
0.0
  0
VERTEX
  5
253
  8
0
  6
CONTINUOUS
 62
     7
 10
425.6296100594191
 20
198.045846741185
 30
0.0
  0
VERTEX
  5
254
  8
0
  6
CONTINUOUS
 62
     7
 10
425.7333421398118
 20
198.1015044878398
 30
0.0
  0
VERTEX
  5
255
  8
0
  6
CONTINUOUS
 62
     7
 10
425.824264068712
 20
198.1764072139962
 30
0.0
  0
VERTEX
  5
256
  8
0
  6
CONTINUOUS
 62
     7
 10
425.8988817673816
 20
198.2676764498939
 30
0.0
  0
VERTEX
  5
257
  8
0
  6
CONTINUOUS
 62
     7
 10
425.9543277195068
 20
198.3718047699817
 30
0.0
  0
VERTEX
  5
258
  8
0
  6
CONTINUOUS
 62
     7
 10
425.988471168242
 20
198.4847905813145
 30
0.0
  0
VERTEX
  5
259
  8
0
  6
CONTINUOUS
 62
     7
 10
426.0000000000001
 20
198.602291902526
 30
0.0
  0
SEQEND
  5
32A
  8
0
  6
CONTINUOUS
 62
     7
  0
LINE
  5
D7
  8
0
  6
CONTINUOUS
 62
     7
 10
426.0000000000001
 20
198.602291902526
 30
0.0
 11
426.0000000000001
 21
200.0
 31
0.0
  0
LINE
  5
D8
  8
0
  6
CONTINUOUS
 62
     7
 10
450.0
 20
200.0
 30
0.0
 11
426.0000000000001
 21
200.0
 31
0.0
  0
LINE
  5
D9
  8
0
  6
CONTINUOUS
 62
     7
 10
450.0
 20
198.602291902526
 30
0.0
 11
450.0
 21
200.0
 31
0.0
  0
POLYLINE
  5
DA
  8
0
  6
CONTINUOUS
 62
     7
 66
     1
 10
0.0
 20
0.0
 30
0.0
  0
VERTEX
  5
25A
  8
0
  6
CONTINUOUS
 62
     7
 10
450.0
 20
198.602291902526
 30
0.0
  0
VERTEX
  5
25B
  8
0
  6
CONTINUOUS
 62
     7
 10
450.0115288317581
 20
198.4847905813145
 30
0.0
  0
VERTEX
  5
25C
  8
0
  6
CONTINUOUS
 62
     7
 10
450.0456722804932
 20
198.3718047699817
 30
0.0
  0
VERTEX
  5
25D
  8
0
  6
CONTINUOUS
 62
     7
 10
450.1011182326185
 20
198.2676764498939
 30
0.0
  0
VERTEX
  5
25E
  8
0
  6
CONTINUOUS
 62
     7
 10
450.1757359312881
 20
198.1764072139962
 30
0.0
  0
VERTEX
  5
25F
  8
0
  6
CONTINUOUS
 62
     7
 10
450.2666578601883
 20
198.1015044878398
 30
0.0
  0
VERTEX
  5
260
  8
0
  6
CONTINUOUS
 62
     7
 10
450.370389940581
 20
198.045846741185
 30
0.0
  0
VERTEX
  5
261
  8
0
  6
CONTINUOUS
 62
     7
 10
450.4829458067903
 20
198.0115728700225
 30
0.0
  0
VERTEX
  5
262
  8
0
  6
CONTINUOUS
 62
     7
 10
450.6
 20
198.0000000000001
 30
0.0
  0
SEQEND
  5
32B
  8
0
  6
CONTINUOUS
 62
     7
  0
POLYLINE
  5
DB
  8
0
  6
CONTINUOUS
 62
     7
 66
     1
 10
0.0
 20
0.0
 30
0.0
  0
VERTEX
  5
263
  8
0
  6
CONTINUOUS
 62
     7
 10
450.6
 20
198.0000000000001
 30
0.0
  0
VERTEX
  5
264
  8
0
  6
CONTINUOUS
 62
     7
 10
450.7170541932097
 20
198.0115728700225
 30
0.0
  0
VERTEX
  5
265
  8
0
  6
CONTINUOUS
 62
     7
 10
450.8296100594191
 20
198.045846741185
 30
0.0
  0
VERTEX
  5
266
  8
0
  6
CONTINUOUS
 62
     7
 10
450.9333421398118
 20
198.1015044878398
 30
0.0
  0
VERTEX
  5
267
  8
0
  6
CONTINUOUS
 62
     7
 10
451.0242640687119
 20
198.1764072139962
 30
0.0
  0
VERTEX
  5
268
  8
0
  6
CONTINUOUS
 62
     7
 10
451.0988817673816
 20
198.2676764498939
 30
0.0
  0
VERTEX
  5
269
  8
0
  6
CONTINUOUS
 62
     7
 10
451.1543277195068
 20
198.3718047699817
 30
0.0
  0
VERTEX
  5
26A
  8
0
  6
CONTINUOUS
 62
     7
 10
451.188471168242
 20
198.4847905813145
 30
0.0
  0
VERTEX
  5
26B
  8
0
  6
CONTINUOUS
 62
     7
 10
451.2
 20
198.602291902526
 30
0.0
  0
SEQEND
  5
32C
  8
0
  6
CONTINUOUS
 62
     7
  0
LINE
  5
DC
  8
0
  6
CONTINUOUS
 62
     7
 10
451.2
 20
198.602291902526
 30
0.0
 11
451.2
 21
200.0
 31
0.0
  0
LINE
  5
DD
  8
0
  6
CONTINUOUS
 62
     7
 10
475.2
 20
200.0
 30
0.0
 11
451.2
 21
200.0
 31
0.0
  0
LINE
  5
DE
  8
0
  6
CONTINUOUS
 62
     7
 10
475.2
 20
198.602291902526
 30
0.0
 11
475.2
 21
200.0
 31
0.0
  0
POLYLINE
  5
DF
  8
0
  6
CONTINUOUS
 62
     7
 66
     1
 10
0.0
 20
0.0
 30
0.0
  0
VERTEX
  5
26C
  8
0
  6
CONTINUOUS
 62
     7
 10
475.2
 20
198.602291902526
 30
0.0
  0
VERTEX
  5
26D
  8
0
  6
CONTINUOUS
 62
     7
 10
475.2115288317581
 20
198.4847905813145
 30
0.0
  0
VERTEX
  5
26E
  8
0
  6
CONTINUOUS
 62
     7
 10
475.2456722804933
 20
198.3718047699817
 30
0.0
  0
VERTEX
  5
26F
  8
0
  6
CONTINUOUS
 62
     7
 10
475.3011182326185
 20
198.2676764498939
 30
0.0
  0
VERTEX
  5
270
  8
0
  6
CONTINUOUS
 62
     7
 10
475.3757359312881
 20
198.1764072139962
 30
0.0
  0
VERTEX
  5
271
  8
0
  6
CONTINUOUS
 62
     7
 10
475.4666578601883
 20
198.1015044878398
 30
0.0
  0
VERTEX
  5
272
  8
0
  6
CONTINUOUS
 62
     7
 10
475.570389940581
 20
198.045846741185
 30
0.0
  0
VERTEX
  5
273
  8
0
  6
CONTINUOUS
 62
     7
 10
475.6829458067904
 20
198.0115728700225
 30
0.0
  0
VERTEX
  5
274
  8
0
  6
CONTINUOUS
 62
     7
 10
475.8000000000001
 20
198.0000000000001
 30
0.0
  0
SEQEND
  5
32D
  8
0
  6
CONTINUOUS
 62
     7
  0
POLYLINE
  5
E0
  8
0
  6
CONTINUOUS
 62
     7
 66
     1
 10
0.0
 20
0.0
 30
0.0
  0
VERTEX
  5
275
  8
0
  6
CONTINUOUS
 62
     7
 10
475.8000000000001
 20
198.0000000000001
 30
0.0
  0
VERTEX
  5
276
  8
0
  6
CONTINUOUS
 62
     7
 10
475.9170541932098
 20
198.0115728700225
 30
0.0
  0
VERTEX
  5
277
  8
0
  6
CONTINUOUS
 62
     7
 10
476.0296100594191
 20
198.045846741185
 30
0.0
  0
VERTEX
  5
278
  8
0
  6
CONTINUOUS
 62
     7
 10
476.1333421398118
 20
198.1015044878398
 30
0.0
  0
VERTEX
  5
279
  8
0
  6
CONTINUOUS
 62
     7
 10
476.224264068712
 20
198.1764072139962
 30
0.0
  0
VERTEX
  5
27A
  8
0
  6
CONTINUOUS
 62
     7
 10
476.2988817673816
 20
198.2676764498939
 30
0.0
  0
VERTEX
  5
27B
  8
0
  6
CONTINUOUS
 62
     7
 10
476.3543277195068
 20
198.3718047699817
 30
0.0
  0
VERTEX
  5
27C
  8
0
  6
CONTINUOUS
 62
     7
 10
476.388471168242
 20
198.4847905813145
 30
0.0
  0
VERTEX
  5
27D
  8
0
  6
CONTINUOUS
 62
     7
 10
476.4000000000001
 20
198.602291902526
 30
0.0
  0
SEQEND
  5
32E
  8
0
  6
CONTINUOUS
 62
     7
  0
LINE
  5
E1
  8
0
  6
CONTINUOUS
 62
     7
 10
476.4
 20
198.602291902526
 30
0.0
 11
476.4
 21
200.0
 31
0.0
  0
LINE
  5
E2
  8
0
  6
CONTINUOUS
 62
     7
 10
500.0000000000001
 20
200.0
 30
0.0
 11
476.4
 21
200.0
 31
0.0
  0
LINE
  5
E3
  8
0
  6
CONTINUOUS
 62
     7
 10
500.0000000000001
 20
200.0
 30
0.0
 11
500.4
 21
200.0201268402773
 31
0.0
  0
LINE
  5
E4
  8
0
  6
CONTINUOUS
 62
     7
 10
500.3999999999999
 20
194.9709698620401
 30
0.0
 11
500.3999999999999
 21
200.0201268402772
 31
0.0
  0
ARC
  5
E5
  8
0
  6
CONTINUOUS
 62
     7
 10
509.4803025495372
 20
195.4111695469328
 30
0.0
 40
9.090966403728075
 50
182.7754420569834
 51
201.1200661291784
  0
ARC
  5
E6
  8
0
  6
CONTINUOUS
 62
     7
 10
492.5281505247976
 20
195.4093808452559
 30
0.0
 40
9.082436737513458
 50
338.8712453438452
 51
357.2332464699932
  0
LINE
  5
E7
  8
0
  6
CONTINUOUS
 62
     7
 10
501.6
 20
194.9709698620401
 30
0.0
 11
501.6
 21
200.3352150384609
 31
0.0
  0
POLYLINE
  5
E8
  8
0
  6
CONTINUOUS
 62
     7
 66
     1
 10
0.0
 20
0.0
 30
0.0
  0
VERTEX
  5
27E
  8
0
  6
CONTINUOUS
 62
     7
 10
501.6000000000001
 20
200.3352150384609
 30
0.0
  0
VERTEX
  5
27F
  8
0
  6
CONTINUOUS
 62
     7
 10
502.2741602254076
 20
200.7120873850094
 30
0.0
  0
VERTEX
  5
280
  8
0
  6
CONTINUOUS
 62
     7
 10
502.8636867427435
 20
201.2118892337806
 30
0.0
  0
VERTEX
  5
281
  8
0
  6
CONTINUOUS
 62
     7
 10
503.3466401061364
 20
201.8160202753988
 30
0.0
  0
VERTEX
  5
282
  8
0
  6
CONTINUOUS
 62
     7
 10
503.7050470287822
 20
202.5019975512569
 30
0.0
  0
VERTEX
  5
283
  8
0
  6
CONTINUOUS
 62
     7
 10
503.9255692654143
 20
203.2442921650795
 30
0.0
  0
VERTEX
  5
284
  8
0
  6
CONTINUOUS
 62
     7
 10
504.0000000000001
 20
204.0152793501734
 30
0.0
  0
SEQEND
  5
32F
  8
0
  6
CONTINUOUS
 62
     7
  0
LINE
  5
E9
  8
0
  6
CONTINUOUS
 62
     7
 10
504.0
 20
355.9847206498267
 30
0.0
 11
504.0
 21
204.0152793501734
 31
0.0
  0
POLYLINE
  5
EA
  8
0
  6
CONTINUOUS
 62
     7
 66
     1
 10
0.0
 20
0.0
 30
0.0
  0
VERTEX
  5
285
  8
0
  6
CONTINUOUS
 62
     7
 10
504.0
 20
355.9847206498266
 30
0.0
  0
VERTEX
  5
286
  8
0
  6
CONTINUOUS
 62
     7
 10
503.9255692654141
 20
356.7557078349206
 30
0.0
  0
VERTEX
  5
287
  8
0
  6
CONTINUOUS
 62
     7
 10
503.7050470287821
 20
357.4980024487431
 30
0.0
  0
VERTEX
  5
288
  8
0
  6
CONTINUOUS
 62
     7
 10
503.3466401061363
 20
358.1839797246013
 30
0.0
  0
VERTEX
  5
289
  8
0
  6
CONTINUOUS
 62
     7
 10
502.8636867427434
 20
358.7881107662194
 30
0.0
  0
VERTEX
  5
28A
  8
0
  6
CONTINUOUS
 62
     7
 10
502.2741602254075
 20
359.2879126149906
 30
0.0
  0
VERTEX
  5
28B
  8
0
  6
CONTINUOUS
 62
     7
 10
501.6
 20
359.6647849615392
 30
0.0
  0
SEQEND
  5
330
  8
0
  6
CONTINUOUS
 62
     7
  0
LINE
  5
EB
  8
0
  6
CONTINUOUS
 62
     7
 10
501.6
 20
365.0290301379599
 30
0.0
 11
501.6
 21
359.6647849615391
 31
0.0
  0
ARC
  5
EC
  8
0
  6
CONTINUOUS
 62
     7
 10
492.519697450461
 20
364.5888304530669
 30
0.0
 40
9.090966403729821
 50
2.775442056984957
 51
21.12006612917656
  0
ARC
  5
ED
  8
0
  6
CONTINUOUS
 62
     7
 10
509.4718494752016
 20
364.5906191547442
 30
0.0
 40
9.08243673751273
 50
158.8712453438443
 51
177.2332464699939
  0
LINE
  5
EE
  8
0
  6
CONTINUOUS
 62
     7
 10
500.3999999999999
 20
365.0290301379599
 30
0.0
 11
500.3999999999999
 21
359.9798731597228
 31
0.0
  0
LINE
  5
EF
  8
0
  6
CONTINUOUS
 62
     7
 10
500.4
 20
359.9798731597228
 30
0.0
 11
500.0
 21
360.0
 31
0.0
  0
LINE
  5
F0
  8
0
  6
CONTINUOUS
 62
     7
 10
476.4
 20
360.0
 30
0.0
 11
500.0
 21
360.0
 31
0.0
  0
LINE
  5
F1
  8
0
  6
CONTINUOUS
 62
     7
 10
476.4
 20
361.397708097474
 30
0.0
 11
476.4
 21
360.0
 31
0.0
  0
POLYLINE
  5
F2
  8
0
  6
CONTINUOUS
 62
     7
 66
     1
 10
0.0
 20
0.0
 30
0.0
  0
VERTEX
  5
28C
  8
0
  6
CONTINUOUS
 62
     7
 10
476.4
 20
361.397708097474
 30
0.0
  0
VERTEX
  5
28D
  8
0
  6
CONTINUOUS
 62
     7
 10
476.3884711682419
 20
361.5152094186855
 30
0.0
  0
VERTEX
  5
28E
  8
0
  6
CONTINUOUS
 62
     7
 10
476.3543277195068
 20
361.6281952300183
 30
0.0
  0
VERTEX
  5
28F
  8
0
  6
CONTINUOUS
 62
     7
 10
476.2988817673815
 20
361.7323235501062
 30
0.0
  0
VERTEX
  5
290
  8
0
  6
CONTINUOUS
 62
     7
 10
476.2242640687119
 20
361.8235927860039
 30
0.0
  0
VERTEX
  5
291
  8
0
  6
CONTINUOUS
 62
     7
 10
476.1333421398118
 20
361.8984955121603
 30
0.0
  0
VERTEX
  5
292
  8
0
  6
CONTINUOUS
 62
     7
 10
476.029610059419
 20
361.954153258815
 30
0.0
  0
VERTEX
  5
293
  8
0
  6
CONTINUOUS
 62
     7
 10
475.9170541932097
 20
361.9884271299775
 30
0.0
  0
VERTEX
  5
294
  8
0
  6
CONTINUOUS
 62
     7
 10
475.8
 20
362.0
 30
0.0
  0
SEQEND
  5
331
  8
0
  6
CONTINUOUS
 62
     7
  0
POLYLINE
  5
F3
  8
0
  6
CONTINUOUS
 62
     7
 66
     1
 10
0.0
 20
0.0
 30
0.0
  0
VERTEX
  5
295
  8
0
  6
CONTINUOUS
 62
     7
 10
475.8
 20
362.0
 30
0.0
  0
VERTEX
  5
296
  8
0
  6
CONTINUOUS
 62
     7
 10
475.6829458067903
 20
361.9884271299775
 30
0.0
  0
VERTEX
  5
297
  8
0
  6
CONTINUOUS
 62
     7
 10
475.570389940581
 20
361.954153258815
 30
0.0
  0
VERTEX
  5
298
  8
0
  6
CONTINUOUS
 62
     7
 10
475.4666578601883
 20
361.8984955121603
 30
0.0
  0
VERTEX
  5
299
  8
0
  6
CONTINUOUS
 62
     7
 10
475.3757359312881
 20
361.8235927860039
 30
0.0
  0
VERTEX
  5
29A
  8
0
  6
CONTINUOUS
 62
     7
 10
475.3011182326185
 20
361.7323235501062
 30
0.0
  0
VERTEX
  5
29B
  8
0
  6
CONTINUOUS
 62
     7
 10
475.2456722804932
 20
361.6281952300183
 30
0.0
  0
VERTEX
  5
29C
  8
0
  6
CONTINUOUS
 62
     7
 10
475.2115288317581
 20
361.5152094186855
 30
0.0
  0
VERTEX
  5
29D
  8
0
  6
CONTINUOUS
 62
     7
 10
475.2
 20
361.397708097474
 30
0.0
  0
SEQEND
  5
332
  8
0
  6
CONTINUOUS
 62
     7
  0
LINE
  5
F4
  8
0
  6
CONTINUOUS
 62
     7
 10
475.2
 20
361.397708097474
 30
0.0
 11
475.2
 21
360.0000000000001
 31
0.0
  0
LINE
  5
F5
  8
0
  6
CONTINUOUS
 62
     7
 10
451.2
 20
360.0
 30
0.0
 11
475.2
 21
360.0
 31
0.0
  0
LINE
  5
F6
  8
0
  6
CONTINUOUS
 62
     7
 10
451.2
 20
361.397708097474
 30
0.0
 11
451.2
 21
360.0
 31
0.0
  0
POLYLINE
  5
F7
  8
0
  6
CONTINUOUS
 62
     7
 66
     1
 10
0.0
 20
0.0
 30
0.0
  0
VERTEX
  5
29E
  8
0
  6
CONTINUOUS
 62
     7
 10
451.2
 20
361.397708097474
 30
0.0
  0
VERTEX
  5
29F
  8
0
  6
CONTINUOUS
 62
     7
 10
451.1884711682419
 20
361.5152094186855
 30
0.0
  0
VERTEX
  5
2A0
  8
0
  6
CONTINUOUS
 62
     7
 10
451.1543277195067
 20
361.6281952300183
 30
0.0
  0
VERTEX
  5
2A1
  8
0
  6
CONTINUOUS
 62
     7
 10
451.0988817673815
 20
361.7323235501062
 30
0.0
  0
VERTEX
  5
2A2
  8
0
  6
CONTINUOUS
 62
     7
 10
451.0242640687119
 20
361.8235927860039
 30
0.0
  0
VERTEX
  5
2A3
  8
0
  6
CONTINUOUS
 62
     7
 10
450.9333421398117
 20
361.8984955121603
 30
0.0
  0
VERTEX
  5
2A4
  8
0
  6
CONTINUOUS
 62
     7
 10
450.829610059419
 20
361.954153258815
 30
0.0
  0
VERTEX
  5
2A5
  8
0
  6
CONTINUOUS
 62
     7
 10
450.7170541932097
 20
361.9884271299775
 30
0.0
  0
VERTEX
  5
2A6
  8
0
  6
CONTINUOUS
 62
     7
 10
450.6
 20
362.0
 30
0.0
  0
SEQEND
  5
333
  8
0
  6
CONTINUOUS
 62
     7
  0
POLYLINE
  5
F8
  8
0
  6
CONTINUOUS
 62
     7
 66
     1
 10
0.0
 20
0.0
 30
0.0
  0
VERTEX
  5
2A7
  8
0
  6
CONTINUOUS
 62
     7
 10
450.6
 20
362.0
 30
0.0
  0
VERTEX
  5
2A8
  8
0
  6
CONTINUOUS
 62
     7
 10
450.4829458067903
 20
361.9884271299775
 30
0.0
  0
VERTEX
  5
2A9
  8
0
  6
CONTINUOUS
 62
     7
 10
450.3703899405809
 20
361.954153258815
 30
0.0
  0
VERTEX
  5
2AA
  8
0
  6
CONTINUOUS
 62
     7
 10
450.2666578601882
 20
361.8984955121603
 30
0.0
  0
VERTEX
  5
2AB
  8
0
  6
CONTINUOUS
 62
     7
 10
450.175735931288
 20
361.8235927860039
 30
0.0
  0
VERTEX
  5
2AC
  8
0
  6
CONTINUOUS
 62
     7
 10
450.1011182326184
 20
361.7323235501062
 30
0.0
  0
VERTEX
  5
2AD
  8
0
  6
CONTINUOUS
 62
     7
 10
450.0456722804932
 20
361.6281952300183
 30
0.0
  0
VERTEX
  5
2AE
  8
0
  6
CONTINUOUS
 62
     7
 10
450.011528831758
 20
361.5152094186855
 30
0.0
  0
VERTEX
  5
2AF
  8
0
  6
CONTINUOUS
 62
     7
 10
449.9999999999999
 20
361.397708097474
 30
0.0
  0
SEQEND
  5
334
  8
0
  6
CONTINUOUS
 62
     7
  0
LINE
  5
F9
  8
0
  6
CONTINUOUS
 62
     7
 10
450.0
 20
361.397708097474
 30
0.0
 11
450.0
 21
360.0000000000001
 31
0.0
  0
LINE
  5
FA
  8
0
  6
CONTINUOUS
 62
     7
 10
426.0000000000001
 20
360.0
 30
0.0
 11
450.0000000000001
 21
360.0
 31
0.0
  0
LINE
  5
FB
  8
0
  6
CONTINUOUS
 62
     7
 10
426.0000000000001
 20
361.397708097474
 30
0.0
 11
426.0000000000001
 21
360.0
 31
0.0
  0
POLYLINE
  5
FC
  8
0
  6
CONTINUOUS
 62
     7
 66
     1
 10
0.0
 20
0.0
 30
0.0
  0
VERTEX
  5
2B0
  8
0
  6
CONTINUOUS
 62
     7
 10
426.0000000000001
 20
361.397708097474
 30
0.0
  0
VERTEX
  5
2B1
  8
0
  6
CONTINUOUS
 62
     7
 10
425.988471168242
 20
361.5152094186855
 30
0.0
  0
VERTEX
  5
2B2
  8
0
  6
CONTINUOUS
 62
     7
 10
425.9543277195068
 20
361.6281952300183
 30
0.0
  0
VERTEX
  5
2B3
  8
0
  6
CONTINUOUS
 62
     7
 10
425.8988817673816
 20
361.7323235501062
 30
0.0
  0
VERTEX
  5
2B4
  8
0
  6
CONTINUOUS
 62
     7
 10
425.824264068712
 20
361.8235927860039
 30
0.0
  0
VERTEX
  5
2B5
  8
0
  6
CONTINUOUS
 62
     7
 10
425.7333421398118
 20
361.8984955121603
 30
0.0
  0
VERTEX
  5
2B6
  8
0
  6
CONTINUOUS
 62
     7
 10
425.6296100594191
 20
361.954153258815
 30
0.0
  0
VERTEX
  5
2B7
  8
0
  6
CONTINUOUS
 62
     7
 10
425.5170541932097
 20
361.9884271299775
 30
0.0
  0
VERTEX
  5
2B8
  8
0
  6
CONTINUOUS
 62
     7
 10
425.4
 20
362.0
 30
0.0
  0
SEQEND
  5
335
  8
0
  6
CONTINUOUS
 62
     7
  0
POLYLINE
  5
FD
  8
0
  6
CONTINUOUS
 62
     7
 66
     1
 10
0.0
 20
0.0
 30
0.0
  0
VERTEX
  5
2B9
  8
0
  6
CONTINUOUS
 62
     7
 10
425.4
 20
362.0
 30
0.0
  0
VERTEX
  5
2BA
  8
0
  6
CONTINUOUS
 62
     7
 10
425.2829458067903
 20
361.9884271299775
 30
0.0
  0
VERTEX
  5
2BB
  8
0
  6
CONTINUOUS
 62
     7
 10
425.170389940581
 20
361.954153258815
 30
0.0
  0
VERTEX
  5
2BC
  8
0
  6
CONTINUOUS
 62
     7
 10
425.0666578601883
 20
361.8984955121603
 30
0.0
  0
VERTEX
  5
2BD
  8
0
  6
CONTINUOUS
 62
     7
 10
424.9757359312881
 20
361.8235927860039
 30
0.0
  0
VERTEX
  5
2BE
  8
0
  6
CONTINUOUS
 62
     7
 10
424.9011182326185
 20
361.7323235501062
 30
0.0
  0
VERTEX
  5
2BF
  8
0
  6
CONTINUOUS
 62
     7
 10
424.8456722804933
 20
361.6281952300183
 30
0.0
  0
VERTEX
  5
2C0
  8
0
  6
CONTINUOUS
 62
     7
 10
424.8115288317581
 20
361.5152094186855
 30
0.0
  0
VERTEX
  5
2C1
  8
0
  6
CONTINUOUS
 62
     7
 10
424.8
 20
361.397708097474
 30
0.0
  0
SEQEND
  5
336
  8
0
  6
CONTINUOUS
 62
     7
  0
LINE
  5
FE
  8
0
  6
CONTINUOUS
 62
     7
 10
424.8
 20
361.397708097474
 30
0.0
 11
424.8
 21
360.0000000000001
 31
0.0
  0
LINE
  5
FF
  8
0
  6
CONTINUOUS
 62
     7
 10
400.6
 20
360.0
 30
0.0
 11
424.8
 21
360.0
 31
0.0
  0
LINE
  5
100
  8
0
  6
CONTINUOUS
 62
     7
 10
400.6
 20
361.397708097474
 30
0.0
 11
400.6
 21
360.0
 31
0.0
  0
POLYLINE
  5
101
  8
0
  6
CONTINUOUS
 62
     7
 66
     1
 10
0.0
 20
0.0
 30
0.0
  0
VERTEX
  5
2C2
  8
0
  6
CONTINUOUS
 62
     7
 10
400.6
 20
361.397708097474
 30
0.0
  0
VERTEX
  5
2C3
  8
0
  6
CONTINUOUS
 62
     7
 10
400.5884711682419
 20
361.5152094186855
 30
0.0
  0
VERTEX
  5
2C4
  8
0
  6
CONTINUOUS
 62
     7
 10
400.5543277195068
 20
361.6281952300183
 30
0.0
  0
VERTEX
  5
2C5
  8
0
  6
CONTINUOUS
 62
     7
 10
400.4988817673815
 20
361.7323235501062
 30
0.0
  0
VERTEX
  5
2C6
  8
0
  6
CONTINUOUS
 62
     7
 10
400.4242640687119
 20
361.8235927860039
 30
0.0
  0
VERTEX
  5
2C7
  8
0
  6
CONTINUOUS
 62
     7
 10
400.3333421398117
 20
361.8984955121603
 30
0.0
  0
VERTEX
  5
2C8
  8
0
  6
CONTINUOUS
 62
     7
 10
400.229610059419
 20
361.954153258815
 30
0.0
  0
VERTEX
  5
2C9
  8
0
  6
CONTINUOUS
 62
     7
 10
400.1170541932097
 20
361.9884271299775
 30
0.0
  0
VERTEX
  5
2CA
  8
0
  6
CONTINUOUS
 62
     7
 10
400.0
 20
362.0
 30
0.0
  0
SEQEND
  5
337
  8
0
  6
CONTINUOUS
 62
     7
  0
POLYLINE
  5
102
  8
0
  6
CONTINUOUS
 62
     7
 66
     1
 10
0.0
 20
0.0
 30
0.0
  0
VERTEX
  5
2CB
  8
0
  6
CONTINUOUS
 62
     7
 10
400.0
 20
362.0
 30
0.0
  0
VERTEX
  5
2CC
  8
0
  6
CONTINUOUS
 62
     7
 10
399.8829458067903
 20
361.9884271299775
 30
0.0
  0
VERTEX
  5
2CD
  8
0
  6
CONTINUOUS
 62
     7
 10
399.770389940581
 20
361.954153258815
 30
0.0
  0
VERTEX
  5
2CE
  8
0
  6
CONTINUOUS
 62
     7
 10
399.6666578601883
 20
361.8984955121603
 30
0.0
  0
VERTEX
  5
2CF
  8
0
  6
CONTINUOUS
 62
     7
 10
399.5757359312881
 20
361.8235927860039
 30
0.0
  0
VERTEX
  5
2D0
  8
0
  6
CONTINUOUS
 62
     7
 10
399.5011182326185
 20
361.7323235501062
 30
0.0
  0
VERTEX
  5
2D1
  8
0
  6
CONTINUOUS
 62
     7
 10
399.4456722804932
 20
361.6281952300183
 30
0.0
  0
VERTEX
  5
2D2
  8
0
  6
CONTINUOUS
 62
     7
 10
399.4115288317581
 20
361.5152094186855
 30
0.0
  0
VERTEX
  5
2D3
  8
0
  6
CONTINUOUS
 62
     7
 10
399.4
 20
361.397708097474
 30
0.0
  0
SEQEND
  5
338
  8
0
  6
CONTINUOUS
 62
     7
  0
LINE
  5
103
  8
0
  6
CONTINUOUS
 62
     7
 10
399.4
 20
361.397708097474
 30
0.0
 11
399.4
 21
360.0000000000001
 31
0.0
  0
LINE
  5
104
  8
0
  6
CONTINUOUS
 62
     7
 10
375.2
 20
360.0
 30
0.0
 11
399.4
 21
360.0
 31
0.0
  0
LINE
  5
105
  8
0
  6
CONTINUOUS
 62
     7
 10
375.2
 20
361.397708097474
 30
0.0
 11
375.2
 21
360.0
 31
0.0
  0
POLYLINE
  5
106
  8
0
  6
CONTINUOUS
 62
     7
 66
     1
 10
0.0
 20
0.0
 30
0.0
  0
VERTEX
  5
2D4
  8
0
  6
CONTINUOUS
 62
     7
 10
375.2
 20
361.397708097474
 30
0.0
  0
VERTEX
  5
2D5
  8
0
  6
CONTINUOUS
 62
     7
 10
375.188471168242
 20
361.5152094186855
 30
0.0
  0
VERTEX
  5
2D6
  8
0
  6
CONTINUOUS
 62
     7
 10
375.1543277195068
 20
361.6281952300183
 30
0.0
  0
VERTEX
  5
2D7
  8
0
  6
CONTINUOUS
 62
     7
 10
375.0988817673816
 20
361.7323235501062
 30
0.0
  0
VERTEX
  5
2D8
  8
0
  6
CONTINUOUS
 62
     7
 10
375.0242640687119
 20
361.8235927860039
 30
0.0
  0
VERTEX
  5
2D9
  8
0
  6
CONTINUOUS
 62
     7
 10
374.9333421398118
 20
361.8984955121603
 30
0.0
  0
VERTEX
  5
2DA
  8
0
  6
CONTINUOUS
 62
     7
 10
374.8296100594191
 20
361.954153258815
 30
0.0
  0
VERTEX
  5
2DB
  8
0
  6
CONTINUOUS
 62
     7
 10
374.7170541932097
 20
361.9884271299775
 30
0.0
  0
VERTEX
  5
2DC
  8
0
  6
CONTINUOUS
 62
     7
 10
374.6
 20
362.0
 30
0.0
  0
SEQEND
  5
339
  8
0
  6
CONTINUOUS
 62
     7
  0
POLYLINE
  5
107
  8
0
  6
CONTINUOUS
 62
     7
 66
     1
 10
0.0
 20
0.0
 30
0.0
  0
VERTEX
  5
2DD
  8
0
  6
CONTINUOUS
 62
     7
 10
374.6
 20
362.0
 30
0.0
  0
VERTEX
  5
2DE
  8
0
  6
CONTINUOUS
 62
     7
 10
374.4829458067903
 20
361.9884271299775
 30
0.0
  0
VERTEX
  5
2DF
  8
0
  6
CONTINUOUS
 62
     7
 10
374.370389940581
 20
361.954153258815
 30
0.0
  0
VERTEX
  5
2E0
  8
0
  6
CONTINUOUS
 62
     7
 10
374.2666578601883
 20
361.8984955121603
 30
0.0
  0
VERTEX
  5
2E1
  8
0
  6
CONTINUOUS
 62
     7
 10
374.1757359312881
 20
361.8235927860039
 30
0.0
  0
VERTEX
  5
2E2
  8
0
  6
CONTINUOUS
 62
     7
 10
374.1011182326185
 20
361.7323235501062
 30
0.0
  0
VERTEX
  5
2E3
  8
0
  6
CONTINUOUS
 62
     7
 10
374.0456722804932
 20
361.6281952300183
 30
0.0
  0
VERTEX
  5
2E4
  8
0
  6
CONTINUOUS
 62
     7
 10
374.0115288317581
 20
361.5152094186855
 30
0.0
  0
VERTEX
  5
2E5
  8
0
  6
CONTINUOUS
 62
     7
 10
374.0
 20
361.397708097474
 30
0.0
  0
SEQEND
  5
33A
  8
0
  6
CONTINUOUS
 62
     7
  0
LINE
  5
108
  8
0
  6
CONTINUOUS
 62
     7
 10
374.0
 20
361.397708097474
 30
0.0
 11
374.0
 21
360.0000000000001
 31
0.0
  0
LINE
  5
109
  8
0
  6
CONTINUOUS
 62
     7
 10
350.0
 20
360.0
 30
0.0
 11
374.0
 21
360.0
 31
0.0
  0
LINE
  5
10A
  8
0
  6
CONTINUOUS
 62
     7
 10
350.0
 20
361.397708097474
 30
0.0
 11
350.0
 21
360.0
 31
0.0
  0
POLYLINE
  5
10B
  8
0
  6
CONTINUOUS
 62
     7
 66
     1
 10
0.0
 20
0.0
 30
0.0
  0
VERTEX
  5
2E6
  8
0
  6
CONTINUOUS
 62
     7
 10
350.0000000000001
 20
361.397708097474
 30
0.0
  0
VERTEX
  5
2E7
  8
0
  6
CONTINUOUS
 62
     7
 10
349.988471168242
 20
361.5152094186855
 30
0.0
  0
VERTEX
  5
2E8
  8
0
  6
CONTINUOUS
 62
     7
 10
349.9543277195068
 20
361.6281952300183
 30
0.0
  0
VERTEX
  5
2E9
  8
0
  6
CONTINUOUS
 62
     7
 10
349.8988817673816
 20
361.7323235501062
 30
0.0
  0
VERTEX
  5
2EA
  8
0
  6
CONTINUOUS
 62
     7
 10
349.824264068712
 20
361.8235927860039
 30
0.0
  0
VERTEX
  5
2EB
  8
0
  6
CONTINUOUS
 62
     7
 10
349.7333421398118
 20
361.8984955121603
 30
0.0
  0
VERTEX
  5
2EC
  8
0
  6
CONTINUOUS
 62
     7
 10
349.6296100594191
 20
361.954153258815
 30
0.0
  0
VERTEX
  5
2ED
  8
0
  6
CONTINUOUS
 62
     7
 10
349.5170541932097
 20
361.9884271299775
 30
0.0
  0
VERTEX
  5
2EE
  8
0
  6
CONTINUOUS
 62
     7
 10
349.4
 20
362.0
 30
0.0
  0
SEQEND
  5
33B
  8
0
  6
CONTINUOUS
 62
     7
  0
POLYLINE
  5
10C
  8
0
  6
CONTINUOUS
 62
     7
 66
     1
 10
0.0
 20
0.0
 30
0.0
  0
VERTEX
  5
2EF
  8
0
  6
CONTINUOUS
 62
     7
 10
349.4
 20
362.0
 30
0.0
  0
VERTEX
  5
2F0
  8
0
  6
CONTINUOUS
 62
     7
 10
349.2829458067903
 20
361.9884271299775
 30
0.0
  0
VERTEX
  5
2F1
  8
0
  6
CONTINUOUS
 62
     7
 10
349.170389940581
 20
361.954153258815
 30
0.0
  0
VERTEX
  5
2F2
  8
0
  6
CONTINUOUS
 62
     7
 10
349.0666578601883
 20
361.8984955121603
 30
0.0
  0
VERTEX
  5
2F3
  8
0
  6
CONTINUOUS
 62
     7
 10
348.9757359312881
 20
361.8235927860039
 30
0.0
  0
VERTEX
  5
2F4
  8
0
  6
CONTINUOUS
 62
     7
 10
348.9011182326185
 20
361.7323235501062
 30
0.0
  0
VERTEX
  5
2F5
  8
0
  6
CONTINUOUS
 62
     7
 10
348.8456722804933
 20
361.6281952300183
 30
0.0
  0
VERTEX
  5
2F6
  8
0
  6
CONTINUOUS
 62
     7
 10
348.8115288317581
 20
361.5152094186855
 30
0.0
  0
VERTEX
  5
2F7
  8
0
  6
CONTINUOUS
 62
     7
 10
348.8
 20
361.397708097474
 30
0.0
  0
SEQEND
  5
33C
  8
0
  6
CONTINUOUS
 62
     7
  0
LINE
  5
10D
  8
0
  6
CONTINUOUS
 62
     7
 10
348.8
 20
361.397708097474
 30
0.0
 11
348.8
 21
360.0000000000001
 31
0.0
  0
LINE
  5
10E
  8
0
  6
CONTINUOUS
 62
     7
 10
324.8
 20
360.0
 30
0.0
 11
348.8
 21
360.0
 31
0.0
  0
LINE
  5
10F
  8
0
  6
CONTINUOUS
 62
     7
 10
324.8
 20
361.397708097474
 30
0.0
 11
324.8
 21
360.0
 31
0.0
  0
POLYLINE
  5
110
  8
0
  6
CONTINUOUS
 62
     7
 66
     1
 10
0.0
 20
0.0
 30
0.0
  0
VERTEX
  5
2F8
  8
0
  6
CONTINUOUS
 62
     7
 10
324.8000000000001
 20
361.397708097474
 30
0.0
  0
VERTEX
  5
2F9
  8
0
  6
CONTINUOUS
 62
     7
 10
324.788471168242
 20
361.5152094186855
 30
0.0
  0
VERTEX
  5
2FA
  8
0
  6
CONTINUOUS
 62
     7
 10
324.7543277195068
 20
361.6281952300183
 30
0.0
  0
VERTEX
  5
2FB
  8
0
  6
CONTINUOUS
 62
     7
 10
324.6988817673816
 20
361.7323235501062
 30
0.0
  0
VERTEX
  5
2FC
  8
0
  6
CONTINUOUS
 62
     7
 10
324.624264068712
 20
361.8235927860039
 30
0.0
  0
VERTEX
  5
2FD
  8
0
  6
CONTINUOUS
 62
     7
 10
324.5333421398118
 20
361.8984955121603
 30
0.0
  0
VERTEX
  5
2FE
  8
0
  6
CONTINUOUS
 62
     7
 10
324.4296100594191
 20
361.954153258815
 30
0.0
  0
VERTEX
  5
2FF
  8
0
  6
CONTINUOUS
 62
     7
 10
324.3170541932097
 20
361.9884271299775
 30
0.0
  0
VERTEX
  5
300
  8
0
  6
CONTINUOUS
 62
     7
 10
324.2
 20
362.0
 30
0.0
  0
SEQEND
  5
33D
  8
0
  6
CONTINUOUS
 62
     7
  0
POLYLINE
  5
111
  8
0
  6
CONTINUOUS
 62
     7
 66
     1
 10
0.0
 20
0.0
 30
0.0
  0
VERTEX
  5
301
  8
0
  6
CONTINUOUS
 62
     7
 10
324.2
 20
362.0
 30
0.0
  0
VERTEX
  5
302
  8
0
  6
CONTINUOUS
 62
     7
 10
324.0829458067903
 20
361.9884271299775
 30
0.0
  0
VERTEX
  5
303
  8
0
  6
CONTINUOUS
 62
     7
 10
323.970389940581
 20
361.954153258815
 30
0.0
  0
VERTEX
  5
304
  8
0
  6
CONTINUOUS
 62
     7
 10
323.8666578601883
 20
361.8984955121603
 30
0.0
  0
VERTEX
  5
305
  8
0
  6
CONTINUOUS
 62
     7
 10
323.7757359312881
 20
361.8235927860039
 30
0.0
  0
VERTEX
  5
306
  8
0
  6
CONTINUOUS
 62
     7
 10
323.7011182326185
 20
361.7323235501062
 30
0.0
  0
VERTEX
  5
307
  8
0
  6
CONTINUOUS
 62
     7
 10
323.6456722804933
 20
361.6281952300183
 30
0.0
  0
VERTEX
  5
308
  8
0
  6
CONTINUOUS
 62
     7
 10
323.6115288317581
 20
361.5152094186855
 30
0.0
  0
VERTEX
  5
309
  8
0
  6
CONTINUOUS
 62
     7
 10
323.6
 20
361.397708097474
 30
0.0
  0
SEQEND
  5
33E
  8
0
  6
CONTINUOUS
 62
     7
  0
LINE
  5
112
  8
0
  6
CONTINUOUS
 62
     7
 10
323.6
 20
361.397708097474
 30
0.0
 11
323.6
 21
360.0000000000001
 31
0.0
  0
LINE
  5
113
  8
0
  6
CONTINUOUS
 62
     7
 10
300.0000000000001
 20
360.0
 30
0.0
 11
323.6
 21
360.0
 31
0.0
  0
LINE
  5
114
  8
0
  6
CONTINUOUS
 62
     7
 10
300.0000000000001
 20
360.0
 30
0.0
 11
299.6000000000001
 21
359.9798731597228
 31
0.0
  0
LINE
  5
115
  8
0
  6
CONTINUOUS
 62
     7
 10
299.6
 20
365.0290301379599
 30
0.0
 11
299.6
 21
359.9798731597227
 31
0.0
  0
ARC
  5
116
  8
0
  6
CONTINUOUS
 62
     7
 10
290.5196974504628
 20
364.5888304530673
 30
0.0
 40
9.090966403728075
 50
2.775442056983309
 51
21.12006612917839
  0
ARC
  5
117
  8
0
  6
CONTINUOUS
 62
     7
 10
307.4718494752024
 20
364.5906191547441
 30
0.0
 40
9.082436737513458
 50
158.8712453438452
 51
177.2332464699933
  0
LINE
  5
118
  8
0
  6
CONTINUOUS
 62
     7
 10
298.4
 20
365.0290301379599
 30
0.0
 11
298.4
 21
359.6647849615391
 31
0.0
  0
POLYLINE
  5
119
  8
0
  6
CONTINUOUS
 62
     7
 66
     1
 10
0.0
 20
0.0
 30
0.0
  0
VERTEX
  5
30A
  8
0
  6
CONTINUOUS
 62
     7
 10
298.4
 20
359.6647849615392
 30
0.0
  0
VERTEX
  5
30B
  8
0
  6
CONTINUOUS
 62
     7
 10
297.7258397745926
 20
359.2879126149906
 30
0.0
  0
VERTEX
  5
30C
  8
0
  6
CONTINUOUS
 62
     7
 10
297.1363132572566
 20
358.7881107662194
 30
0.0
  0
VERTEX
  5
30D
  8
0
  6
CONTINUOUS
 62
     7
 10
296.6533598938638
 20
358.1839797246013
 30
0.0
  0
VERTEX
  5
30E
  8
0
  6
CONTINUOUS
 62
     7
 10
296.294952971218
 20
357.4980024487431
 30
0.0
  0
VERTEX
  5
30F
  8
0
  6
CONTINUOUS
 62
     7
 10
296.0744307345859
 20
356.7557078349206
 30
0.0
  0
VERTEX
  5
310
  8
0
  6
CONTINUOUS
 62
     7
 10
296.0000000000001
 20
355.9847206498266
 30
0.0
  0
SEQEND
  5
33F
  8
0
  6
CONTINUOUS
 62
     7
  0
LINE
  5
11A
  8
0
  6
CONTINUOUS
 62
     7
 10
296.0000000000001
 20
204.0152793501734
 30
0.0
 11
296.0000000000001
 21
355.9847206498267
 31
0.0
  0
POLYLINE
  5
11B
  8
0
  6
CONTINUOUS
 62
     7
 66
     1
 10
0.0
 20
0.0
 30
0.0
  0
VERTEX
  5
311
  8
0
  6
CONTINUOUS
 62
     7
 10
296.0000000000001
 20
204.0152793501734
 30
0.0
  0
VERTEX
  5
312
  8
0
  6
CONTINUOUS
 62
     7
 10
296.0744307345859
 20
203.2442921650795
 30
0.0
  0
VERTEX
  5
313
  8
0
  6
CONTINUOUS
 62
     7
 10
296.294952971218
 20
202.5019975512569
 30
0.0
  0
VERTEX
  5
314
  8
0
  6
CONTINUOUS
 62
     7
 10
296.6533598938638
 20
201.8160202753988
 30
0.0
  0
VERTEX
  5
315
  8
0
  6
CONTINUOUS
 62
     7
 10
297.1363132572566
 20
201.2118892337807
 30
0.0
  0
VERTEX
  5
316
  8
0
  6
CONTINUOUS
 62
     7
 10
297.7258397745926
 20
200.7120873850095
 30
0.0
  0
VERTEX
  5
317
  8
0
  6
CONTINUOUS
 62
     7
 10
298.4000000000001
 20
200.3352150384609
 30
0.0
  0
SEQEND
  5
340
  8
0
  6
CONTINUOUS
 62
     7
  0
LINE
  5
11C
  8
0
  6
CONTINUOUS
 62
     7
 10
298.4
 20
194.9709698620401
 30
0.0
 11
298.4
 21
200.3352150384609
 31
0.0
  0
ARC
  5
11D
  8
0
  6
CONTINUOUS
 62
     7
 10
307.4803025495387
 20
195.4111695469331
 30
0.0
 40
9.090966403729473
 50
182.7754420569847
 51
201.120066129177
  0
ARC
  5
11E
  8
0
  6
CONTINUOUS
 62
     7
 10
290.5281505247988
 20
195.4093808452557
 30
0.0
 40
9.082436737512213
 50
338.8712453438437
 51
357.2332464699944
  0
LINE
  5
11F
  8
0
  6
CONTINUOUS
 62
     7
 10
323.6
 20
360.0
 30
0.0
 11
323.6
 21
357.4628287577481
 31
0.0
  0
LINE
  5
120
  8
0
  6
CONTINUOUS
 62
     7
 10
324.2
 20
357.4103355596326
 30
0.0
 11
323.6
 21
357.4628287577482
 31
0.0
  0
LINE
  5
121
  8
0
  6
CONTINUOUS
 62
     7
 10
324.8
 20
357.4628287577482
 30
0.0
 11
324.2
 21
357.4103355596326
 31
0.0
  0
LINE
  5
122
  8
0
  6
CONTINUOUS
 62
     7
 10
324.8
 20
357.4628287577482
 30
0.0
 11
324.8
 21
360.0
 31
0.0
  0
LINE
  5
123
  8
0
  6
CONTINUOUS
 62
     7
 10
348.8
 20
360.0
 30
0.0
 11
348.8
 21
357.4628287577481
 31
0.0
  0
LINE
  5
124
  8
0
  6
CONTINUOUS
 62
     7
 10
349.4
 20
357.4103355596326
 30
0.0
 11
348.8000000000001
 21
357.4628287577482
 31
0.0
  0
LINE
  5
125
  8
0
  6
CONTINUOUS
 62
     7
 10
350.0
 20
357.4628287577482
 30
0.0
 11
349.4
 21
357.4103355596326
 31
0.0
  0
LINE
  5
126
  8
0
  6
CONTINUOUS
 62
     7
 10
374.0
 20
360.0
 30
0.0
 11
374.0
 21
357.4628287577482
 31
0.0
  0
LINE
  5
127
  8
0
  6
CONTINUOUS
 62
     7
 10
374.6
 20
357.4103355596326
 30
0.0
 11
374.0
 21
357.4628287577482
 31
0.0
  0
LINE
  5
128
  8
0
  6
CONTINUOUS
 62
     7
 10
375.2
 20
357.4628287577482
 30
0.0
 11
374.6
 21
357.4103355596326
 31
0.0
  0
LINE
  5
129
  8
0
  6
CONTINUOUS
 62
     7
 10
375.2
 20
357.4628287577482
 30
0.0
 11
375.2
 21
360.0
 31
0.0
  0
LINE
  5
12A
  8
0
  6
CONTINUOUS
 62
     7
 10
399.4
 20
360.0
 30
0.0
 11
399.4
 21
357.4628287577482
 31
0.0
  0
LINE
  5
12B
  8
0
  6
CONTINUOUS
 62
     7
 10
400.0
 20
357.4103355596326
 30
0.0
 11
399.4
 21
357.4628287577482
 31
0.0
  0
LINE
  5
12C
  8
0
  6
CONTINUOUS
 62
     7
 10
400.6
 20
357.4628287577482
 30
0.0
 11
400.0
 21
357.4103355596326
 31
0.0
  0
LINE
  5
12D
  8
0
  6
CONTINUOUS
 62
     7
 10
400.6
 20
357.4628287577482
 30
0.0
 11
400.6
 21
360.0
 31
0.0
  0
LINE
  5
12E
  8
0
  6
CONTINUOUS
 62
     7
 10
424.8
 20
357.4628287577482
 30
0.0
 11
424.8
 21
360.0
 31
0.0
  0
LINE
  5
12F
  8
0
  6
CONTINUOUS
 62
     7
 10
425.4
 20
357.4103355596326
 30
0.0
 11
424.8000000000001
 21
357.4628287577482
 31
0.0
  0
LINE
  5
130
  8
0
  6
CONTINUOUS
 62
     7
 10
426.0000000000001
 20
357.4628287577482
 30
0.0
 11
425.4
 21
357.4103355596326
 31
0.0
  0
LINE
  5
131
  8
0
  6
CONTINUOUS
 62
     7
 10
426.0000000000001
 20
360.0
 30
0.0
 11
426.0000000000001
 21
357.4628287577482
 31
0.0
  0
LINE
  5
132
  8
0
  6
CONTINUOUS
 62
     7
 10
450.6
 20
357.4103355596326
 30
0.0
 11
450.0
 21
357.4628287577482
 31
0.0
  0
LINE
  5
133
  8
0
  6
CONTINUOUS
 62
     7
 10
451.2
 20
357.4628287577482
 30
0.0
 11
450.6
 21
357.4103355596326
 31
0.0
  0
LINE
  5
134
  8
0
  6
CONTINUOUS
 62
     7
 10
451.2
 20
360.0
 30
0.0
 11
451.2
 21
357.4628287577482
 31
0.0
  0
LINE
  5
135
  8
0
  6
CONTINUOUS
 62
     7
 10
475.2
 20
357.4628287577482
 30
0.0
 11
475.2
 21
360.0
 31
0.0
  0
LINE
  5
136
  8
0
  6
CONTINUOUS
 62
     7
 10
475.8
 20
357.4103355596326
 30
0.0
 11
475.2
 21
357.4628287577482
 31
0.0
  0
LINE
  5
137
  8
0
  6
CONTINUOUS
 62
     7
 10
476.4
 20
357.4628287577482
 30
0.0
 11
475.8000000000001
 21
357.4103355596326
 31
0.0
  0
LINE
  5
138
  8
0
  6
CONTINUOUS
 62
     7
 10
476.4
 20
360.0
 30
0.0
 11
476.4
 21
357.4628287577482
 31
0.0
  0
LINE
  5
139
  8
0
  6
CONTINUOUS
 62
     7
 10
450.0
 20
357.4628287577482
 30
0.0
 11
450.0
 21
360.0
 31
0.0
  0
LINE
  5
13A
  8
0
  6
CONTINUOUS
 62
     7
 10
350.0
 20
357.4628287577482
 30
0.0
 11
350.0
 21
360.0
 31
0.0
  0
LINE
  5
13B
  8
0
  6
CONTINUOUS
 62
     7
 10
476.4
 20
200.0
 30
0.0
 11
476.4
 21
202.5371712422518
 31
0.0
  0
LINE
  5
13C
  8
0
  6
CONTINUOUS
 62
     7
 10
475.8
 20
202.5896644403674
 30
0.0
 11
476.4
 21
202.5371712422518
 31
0.0
  0
LINE
  5
13D
  8
0
  6
CONTINUOUS
 62
     7
 10
475.2
 20
202.5371712422518
 30
0.0
 11
475.8
 21
202.5896644403674
 31
0.0
  0
LINE
  5
13E
  8
0
  6
CONTINUOUS
 62
     7
 10
475.2
 20
202.5371712422518
 30
0.0
 11
475.2
 21
200.0
 31
0.0
  0
LINE
  5
13F
  8
0
  6
CONTINUOUS
 62
     7
 10
451.2
 20
200.0
 30
0.0
 11
451.2
 21
202.5371712422518
 31
0.0
  0
LINE
  5
140
  8
0
  6
CONTINUOUS
 62
     7
 10
450.6
 20
202.5896644403674
 30
0.0
 11
451.2
 21
202.5371712422518
 31
0.0
  0
LINE
  5
141
  8
0
  6
CONTINUOUS
 62
     7
 10
450.0
 20
202.5371712422518
 30
0.0
 11
450.6
 21
202.5896644403674
 31
0.0
  0
LINE
  5
142
  8
0
  6
CONTINUOUS
 62
     7
 10
426.0000000000001
 20
200.0
 30
0.0
 11
426.0000000000001
 21
202.5371712422518
 31
0.0
  0
LINE
  5
143
  8
0
  6
CONTINUOUS
 62
     7
 10
425.4
 20
202.5896644403674
 30
0.0
 11
426.0000000000001
 21
202.5371712422518
 31
0.0
  0
LINE
  5
144
  8
0
  6
CONTINUOUS
 62
     7
 10
424.8
 20
202.5371712422518
 30
0.0
 11
425.4
 21
202.5896644403674
 31
0.0
  0
LINE
  5
145
  8
0
  6
CONTINUOUS
 62
     7
 10
424.8
 20
202.5371712422518
 30
0.0
 11
424.8
 21
200.0
 31
0.0
  0
LINE
  5
146
  8
0
  6
CONTINUOUS
 62
     7
 10
400.6
 20
202.5371712422518
 30
0.0
 11
400.6
 21
200.0
 31
0.0
  0
LINE
  5
147
  8
0
  6
CONTINUOUS
 62
     7
 10
400.0
 20
202.5896644403674
 30
0.0
 11
400.6
 21
202.5371712422518
 31
0.0
  0
LINE
  5
148
  8
0
  6
CONTINUOUS
 62
     7
 10
399.4
 20
202.5371712422518
 30
0.0
 11
400.0
 21
202.5896644403674
 31
0.0
  0
LINE
  5
149
  8
0
  6
CONTINUOUS
 62
     7
 10
399.4
 20
200.0
 30
0.0
 11
399.4
 21
202.5371712422518
 31
0.0
  0
LINE
  5
14A
  8
0
  6
CONTINUOUS
 62
     7
 10
375.2
 20
202.5371712422518
 30
0.0
 11
375.2
 21
200.0
 31
0.0
  0
LINE
  5
14B
  8
0
  6
CONTINUOUS
 62
     7
 10
374.6
 20
202.5896644403674
 30
0.0
 11
375.2
 21
202.5371712422518
 31
0.0
  0
LINE
  5
14C
  8
0
  6
CONTINUOUS
 62
     7
 10
374.0
 20
202.5371712422518
 30
0.0
 11
374.6
 21
202.5896644403674
 31
0.0
  0
LINE
  5
14D
  8
0
  6
CONTINUOUS
 62
     7
 10
374.0
 20
200.0
 30
0.0
 11
374.0
 21
202.5371712422518
 31
0.0
  0
LINE
  5
14E
  8
0
  6
CONTINUOUS
 62
     7
 10
349.4
 20
202.5896644403674
 30
0.0
 11
350.0
 21
202.5371712422518
 31
0.0
  0
LINE
  5
14F
  8
0
  6
CONTINUOUS
 62
     7
 10
348.8
 20
202.5371712422518
 30
0.0
 11
349.4
 21
202.5896644403674
 31
0.0
  0
LINE
  5
150
  8
0
  6
CONTINUOUS
 62
     7
 10
348.8
 20
200.0
 30
0.0
 11
348.8
 21
202.5371712422518
 31
0.0
  0
LINE
  5
151
  8
0
  6
CONTINUOUS
 62
     7
 10
324.8
 20
202.5371712422518
 30
0.0
 11
324.8
 21
200.0
 31
0.0
  0
LINE
  5
152
  8
0
  6
CONTINUOUS
 62
     7
 10
324.2
 20
202.5896644403674
 30
0.0
 11
324.8
 21
202.5371712422518
 31
0.0
  0
LINE
  5
153
  8
0
  6
CONTINUOUS
 62
     7
 10
323.6
 20
202.5371712422518
 30
0.0
 11
324.2
 21
202.5896644403674
 31
0.0
  0
LINE
  5
154
  8
0
  6
CONTINUOUS
 62
     7
 10
323.6
 20
200.0
 30
0.0
 11
323.6
 21
202.5371712422518
 31
0.0
  0
LINE
  5
155
  8
0
  6
CONTINUOUS
 62
     7
 10
450.0
 20
202.5371712422518
 30
0.0
 11
450.0
 21
200.0
 31
0.0
  0
LINE
  5
156
  8
0
  6
CONTINUOUS
 62
     7
 10
350.0
 20
202.5371712422518
 30
0.0
 11
350.0
 21
200.0
 31
0.0
  0
LINE
  5
157
  8
0
  6
CONTINUOUS
 62
     7
 10
298.4
 20
359.6647849615391
 30
0.0
 11
298.4
 21
357.1276137192874
 31
0.0
  0
LINE
  5
158
  8
0
  6
CONTINUOUS
 62
     7
 10
299.0000000000001
 20
357.2828337228573
 30
0.0
 11
298.4
 21
357.1276137192874
 31
0.0
  0
LINE
  5
159
  8
0
  6
CONTINUOUS
 62
     7
 10
299.6
 20
357.442701917471
 30
0.0
 11
299.0000000000001
 21
357.2828337228573
 31
0.0
  0
LINE
  5
15A
  8
0
  6
CONTINUOUS
 62
     7
 10
299.6
 20
357.442701917471
 30
0.0
 11
299.6
 21
359.9798731597228
 31
0.0
  0
LINE
  5
15B
  8
0
  6
CONTINUOUS
 62
     7
 10
299.6
 20
200.0201268402772
 30
0.0
 11
299.6
 21
202.557298082529
 31
0.0
  0
LINE
  5
15C
  8
0
  6
CONTINUOUS
 62
     7
 10
299.0000000000001
 20
202.7171662771428
 30
0.0
 11
299.6
 21
202.5572980825291
 31
0.0
  0
LINE
  5
15D
  8
0
  6
CONTINUOUS
 62
     7
 10
298.4
 20
202.8723862807127
 30
0.0
 11
299.0
 21
202.7171662771427
 31
0.0
  0
LINE
  5
15E
  8
0
  6
CONTINUOUS
 62
     7
 10
298.4
 20
202.8723862807127
 30
0.0
 11
298.4
 21
200.3352150384609
 31
0.0
  0
LINE
  5
15F
  8
0
  6
CONTINUOUS
 62
     7
 10
501.0
 20
202.7171662771428
 30
0.0
 11
501.6
 21
202.8723862807127
 31
0.0
  0
LINE
  5
160
  8
0
  6
CONTINUOUS
 62
     7
 10
500.3999999999999
 20
202.557298082529
 30
0.0
 11
501.0
 21
202.7171662771427
 31
0.0
  0
LINE
  5
161
  8
0
  6
CONTINUOUS
 62
     7
 10
500.3999999999999
 20
202.557298082529
 30
0.0
 11
500.3999999999999
 21
200.0201268402772
 31
0.0
  0
LINE
  5
162
  8
0
  6
CONTINUOUS
 62
     7
 10
501.6
 20
200.3352150384609
 30
0.0
 11
501.6
 21
202.8723862807126
 31
0.0
  0
LINE
  5
163
  8
0
  6
CONTINUOUS
 62
     7
 10
500.3999999999999
 20
359.9798731597228
 30
0.0
 11
500.3999999999999
 21
357.442701917471
 31
0.0
  0
LINE
  5
164
  8
0
  6
CONTINUOUS
 62
     7
 10
501.0
 20
357.2828337228573
 30
0.0
 11
500.3999999999999
 21
357.442701917471
 31
0.0
  0
LINE
  5
165
  8
0
  6
CONTINUOUS
 62
     7
 10
501.6
 20
357.1276137192874
 30
0.0
 11
501.0
 21
357.2828337228573
 31
0.0
  0
LINE
  5
166
  8
0
  6
CONTINUOUS
 62
     7
 10
501.6
 20
357.1276137192874
 30
0.0
 11
501.6
 21
359.6647849615392
 31
0.0
  0
ENDBLK
  8
0
  0
BLOCK
  8
0
  2
D_FRAME_VIEW_2611
 70
     0
 10
0.0
 20
0.0
 30
0.0
  0
LINE
  5
16B
  8
0
  6
CONTINUOUS
 62
     7
 10
572.9
 20
375.5000000000001
 30
0.0
 11
572.9
 21
184.5000000000001
 31
0.0
  0
LINE
  5
16C
  8
0
  6
CONTINUOUS
 62
     7
 10
572.5
 20
375.5000000000001
 30
0.0
 11
572.5
 21
184.5000000000001
 31
0.0
  0
LINE
  5
16D
  8
0
  6
CONTINUOUS
 62
     7
 10
572.5
 20
178.5
 30
0.0
 11
572.9
 21
178.5
 31
0.0
  0
LINE
  5
16E
  8
0
  6
CONTINUOUS
 62
     7
 10
572.9
 20
184.5
 30
0.0
 11
572.9
 21
178.5
 31
0.0
  0
LINE
  5
16F
  8
0
  6
CONTINUOUS
 62
     7
 10
572.5
 20
184.5
 30
0.0
 11
572.5
 21
178.5
 31
0.0
  0
LINE
  5
170
  8
0
  6
CONTINUOUS
 62
     7
 10
572.5
 20
381.5000000000001
 30
0.0
 11
572.9
 21
381.5000000000001
 31
0.0
  0
LINE
  5
171
  8
0
  6
CONTINUOUS
 62
     7
 10
572.9
 20
381.5000000000001
 30
0.0
 11
572.9
 21
375.5000000000001
 31
0.0
  0
LINE
  5
172
  8
0
  6
CONTINUOUS
 62
     7
 10
572.5
 20
381.5000000000001
 30
0.0
 11
572.5
 21
375.5000000000001
 31
0.0
  0
ARC
  5
173
  8
0
  6
CONTINUOUS
 62
     7
 10
608.0999999999999
 20
207.0964082413033
 30
0.0
 40
4.400000000000071
 50
275.0000000000001
 51
0.0
  0
LINE
  5
174
  8
0
  6
CONTINUOUS
 62
     7
 10
601.5
 20
202.5848288289686
 30
0.0
 11
572.9
 21
200.0826530521273
 31
0.0
  0
LINE
  5
175
  8
0
  6
CONTINUOUS
 62
     7
 10
608.4834852680897
 20
202.7131515696996
 30
0.0
 11
602.5
 21
202.1896644403674
 31
0.0
  0
ARC
  5
176
  8
0
  6
CONTINUOUS
 62
     7
 10
601.6751162261019
 20
200.9429549831804
 30
0.0
 40
1.651186064054445
 50
65.31875433032519
 51
96.08794213364001
  0
POLYLINE
  5
177
  8
0
  6
CONTINUOUS
 62
     7
 66
     1
 10
0.0
 20
0.0
 30
0.0
  0
VERTEX
  5
318
  8
0
  6
CONTINUOUS
 62
     7
 10
602.3646014528325
 20
202.4432967909855
 30
0.0
  0
VERTEX
  5
319
  8
0
  6
CONTINUOUS
 62
     7
 10
602.4504097048554
 20
202.385937176406
 30
0.0
  0
VERTEX
  5
31A
  8
0
  6
CONTINUOUS
 62
     7
 10
602.5
 20
202.3052472105777
 30
0.0
  0
SEQEND
  5
341
  8
0
  6
CONTINUOUS
 62
     7
  0
LINE
  5
178
  8
0
  6
CONTINUOUS
 62
     7
 10
612.5
 20
352.9035917586968
 30
0.0
 11
612.5
 21
207.0964082413033
 31
0.0
  0
LINE
  5
179
  8
0
  6
CONTINUOUS
 62
     7
 10
572.9
 20
359.9173469478728
 30
0.0
 11
601.5
 21
357.4151711710314
 31
0.0
  0
POLYLINE
  5
17A
  8
0
  6
CONTINUOUS
 62
     7
 66
     1
 10
0.0
 20
0.0
 30
0.0
  0
VERTEX
  5
31B
  8
0
  6
CONTINUOUS
 62
     7
 10
602.5
 20
357.6947527894224
 30
0.0
  0
VERTEX
  5
31C
  8
0
  6
CONTINUOUS
 62
     7
 10
602.4401410483122
 20
357.605512276682
 30
0.0
  0
VERTEX
  5
31D
  8
0
  6
CONTINUOUS
 62
     7
 10
602.3460490234717
 20
357.5470205031625
 30
0.0
  0
VERTEX
  5
31E
  8
0
  6
CONTINUOUS
 62
     7
 10
602.2402228331541
 20
357.5015948897387
 30
0.0
  0
SEQEND
  5
342
  8
0
  6
CONTINUOUS
 62
     7
  0
ARC
  5
17B
  8
0
  6
CONTINUOUS
 62
     7
 10
601.6704988782038
 20
359.1680729268364
 30
0.0
 40
1.761174163157331
 50
264.4445073978761
 51
288.8741764752929
  0
LINE
  5
17C
  8
0
  6
CONTINUOUS
 62
     7
 10
602.5
 20
357.8103355596327
 30
0.0
 11
608.4834852680897
 21
357.2868484303004
 31
0.0
  0
ARC
  5
17D
  8
0
  6
CONTINUOUS
 62
     7
 10
608.0999999999999
 20
352.9035917586968
 30
0.0
 40
4.399999999999986
 50
0.0
 51
84.99999999999994
  0
ARC
  5
17E
  8
0
  6
CONTINUOUS
 62
     7
 10
578.9
 20
367.8979870441046
 30
0.0
 40
6.000000000000006
 50
180.0
 51
265.0
  0
ARC
  5
17F
  8
0
  6
CONTINUOUS
 62
     7
 10
578.9
 20
192.1020129558955
 30
0.0
 40
5.999999999999979
 50
95.0
 51
180.0
  0
LINE
  5
180
  8
0
  6
CONTINUOUS
 62
     7
 10
602.5
 20
202.3052472105777
 30
0.0
 11
602.5
 21
201.1059956143848
 31
0.0
  0
LINE
  5
181
  8
0
  6
CONTINUOUS
 62
     7
 10
601.5871557427477
 20
200.109800916293
 30
0.0
 11
578.377065543514
 21
198.079181144446
 31
0.0
  0
LINE
  5
182
  8
0
  6
CONTINUOUS
 62
     7
 10
602.5
 20
357.6947527894224
 30
0.0
 11
602.5
 21
358.8940043856152
 31
0.0
  0
LINE
  5
183
  8
0
  6
CONTINUOUS
 62
     7
 10
601.5871557427477
 20
359.890199083707
 30
0.0
 11
578.377065543514
 21
361.9208188555541
 31
0.0
  0
ARC
  5
184
  8
0
  6
CONTINUOUS
 62
     7
 10
601.5
 20
358.8940043856152
 30
0.0
 40
1.000000000000001
 50
0.0
 51
85.00000000000006
  0
ARC
  5
185
  8
0
  6
CONTINUOUS
 62
     7
 10
601.5
 20
201.1059956143848
 30
0.0
 40
1.000000000000001
 50
274.9999999999999
 51
0.0
  0
ENDBLK
  8
0
  0
BLOCK
  8
0
  2
D_FRAME_VIEW_2981
 70
     0
 10
0.0
 20
0.0
 30
0.0
  0
LINE
  5
18A
  8
0
  6
CONTINUOUS
 62
     7
 10
519.5000000000001
 20
139.6
 30
0.0
 11
280.5000000000001
 21
139.6
 31
0.0
  0
LINE
  5
18B
  8
0
  6
CONTINUOUS
 62
     7
 10
519.5000000000001
 20
140.0
 30
0.0
 11
280.5000000000001
 21
140.0
 31
0.0
  0
LINE
  5
18C
  8
0
  6
CONTINUOUS
 62
     7
 10
525.5000000000001
 20
140.0
 30
0.0
 11
525.5000000000001
 21
139.6
 31
0.0
  0
LINE
  5
18D
  8
0
  6
CONTINUOUS
 62
     7
 10
525.5000000000001
 20
139.6
 30
0.0
 11
519.5000000000001
 21
139.6
 31
0.0
  0
LINE
  5
18E
  8
0
  6
CONTINUOUS
 62
     7
 10
525.5000000000001
 20
140.0
 30
0.0
 11
519.5000000000001
 21
140.0
 31
0.0
  0
LINE
  5
18F
  8
0
  6
CONTINUOUS
 62
     7
 10
274.5
 20
140.0
 30
0.0
 11
274.5
 21
139.6
 31
0.0
  0
LINE
  5
190
  8
0
  6
CONTINUOUS
 62
     7
 10
280.5
 20
139.6
 30
0.0
 11
274.5
 21
139.6
 31
0.0
  0
LINE
  5
191
  8
0
  6
CONTINUOUS
 62
     7
 10
280.5
 20
140.0
 30
0.0
 11
274.5
 21
140.0
 31
0.0
  0
LINE
  5
192
  8
0
  6
CONTINUOUS
 62
     7
 10
300.0000000000001
 20
134.2100901992336
 30
0.0
 11
300.0000000000001
 21
139.6
 31
0.0
  0
LINE
  5
193
  8
0
  6
CONTINUOUS
 62
     7
 10
502.0
 20
134.2100901992336
 30
0.0
 11
502.0
 21
139.6
 31
0.0
  0
LINE
  5
194
  8
0
  6
CONTINUOUS
 62
     7
 10
298.0000000000001
 20
139.6
 30
0.0
 11
298.0000000000001
 21
134.2100901992336
 31
0.0
  0
LINE
  5
195
  8
0
  6
CONTINUOUS
 62
     7
 10
500.0
 20
139.6
 30
0.0
 11
500.0
 21
134.2100901992336
 31
0.0
  0
LINE
  5
196
  8
0
  6
CONTINUOUS
 62
     7
 10
424.4
 20
111.0
 30
0.0
 11
424.4
 21
139.6
 31
0.0
  0
LINE
  5
197
  8
0
  6
CONTINUOUS
 62
     7
 10
348.4
 20
111.0
 30
0.0
 11
348.4
 21
139.6
 31
0.0
  0
LINE
  5
198
  8
0
  6
CONTINUOUS
 62
     7
 10
323.2
 20
111.0
 30
0.0
 11
323.2
 21
139.6
 31
0.0
  0
LINE
  5
199
  8
0
  6
CONTINUOUS
 62
     7
 10
350.4
 20
139.6
 30
0.0
 11
350.4
 21
111.0
 31
0.0
  0
LINE
  5
19A
  8
0
  6
CONTINUOUS
 62
     7
 10
426.4
 20
139.6
 30
0.0
 11
426.4
 21
111.0
 31
0.0
  0
LINE
  5
19B
  8
0
  6
CONTINUOUS
 62
     7
 10
325.2
 20
139.6
 30
0.0
 11
325.2
 21
111.0
 31
0.0
  0
LINE
  5
19C
  8
0
  6
CONTINUOUS
 62
     7
 10
401.0
 20
139.6
 30
0.0
 11
401.0
 21
111.0
 31
0.0
  0
LINE
  5
19D
  8
0
  6
CONTINUOUS
 62
     7
 10
373.6
 20
111.0
 30
0.0
 11
373.6
 21
139.6
 31
0.0
  0
LINE
  5
19E
  8
0
  6
CONTINUOUS
 62
     7
 10
375.6
 20
139.6
 30
0.0
 11
375.6
 21
111.0
 31
0.0
  0
LINE
  5
19F
  8
0
  6
CONTINUOUS
 62
     7
 10
449.6
 20
111.0
 30
0.0
 11
449.6
 21
139.6
 31
0.0
  0
LINE
  5
1A0
  8
0
  6
CONTINUOUS
 62
     7
 10
399.0
 20
111.0
 30
0.0
 11
399.0
 21
139.6
 31
0.0
  0
LINE
  5
1A1
  8
0
  6
CONTINUOUS
 62
     7
 10
474.8
 20
111.0
 30
0.0
 11
474.8
 21
139.6
 31
0.0
  0
LINE
  5
1A2
  8
0
  6
CONTINUOUS
 62
     7
 10
451.6
 20
139.6
 30
0.0
 11
451.6
 21
111.0
 31
0.0
  0
LINE
  5
1A3
  8
0
  6
CONTINUOUS
 62
     7
 10
476.8
 20
139.6
 30
0.0
 11
476.8
 21
111.0
 31
0.0
  0
LINE
  5
1A4
  8
0
  6
CONTINUOUS
 62
     7
 10
298.0000000000001
 20
111.0
 30
0.0
 11
298.0000000000001
 21
134.2100901992336
 31
0.0
  0
LINE
  5
1A5
  8
0
  6
CONTINUOUS
 62
     7
 10
500.0
 20
111.0
 30
0.0
 11
500.0
 21
134.2100901992336
 31
0.0
  0
LINE
  5
1A6
  8
0
  6
CONTINUOUS
 62
     7
 10
502.0
 20
134.2100901992336
 30
0.0
 11
502.0
 21
111.0
 31
0.0
  0
LINE
  5
1A7
  8
0
  6
CONTINUOUS
 62
     7
 10
300.0000000000001
 20
134.2100901992336
 30
0.0
 11
300.0000000000001
 21
111.0
 31
0.0
  0
LINE
  5
1A8
  8
0
  6
CONTINUOUS
 62
     7
 10
295.6
 20
104.4
 30
0.0
 11
295.6
 21
139.6
 31
0.0
  0
LINE
  5
1A9
  8
0
  6
CONTINUOUS
 62
     7
 10
504.4
 20
139.6
 30
0.0
 11
504.4
 21
104.4
 31
0.0
  0
ARC
  5
1AA
  8
0
  6
CONTINUOUS
 62
     7
 10
349.4
 20
111.0
 30
0.0
 40
1.000000000000001
 50
270.0
 51
0.0
  0
ARC
  5
1AB
  8
0
  6
CONTINUOUS
 62
     7
 10
324.2
 20
111.0
 30
0.0
 40
1.000000000000001
 50
270.0
 51
0.0
  0
ARC
  5
1AC
  8
0
  6
CONTINUOUS
 62
     7
 10
475.8
 20
111.0
 30
0.0
 40
1.000000000000001
 50
270.0
 51
0.0
  0
ARC
  5
1AD
  8
0
  6
CONTINUOUS
 62
     7
 10
400.0
 20
111.0
 30
0.0
 40
1.000000000000001
 50
270.0
 51
0.0
  0
ARC
  5
1AE
  8
0
  6
CONTINUOUS
 62
     7
 10
425.4
 20
111.0
 30
0.0
 40
1.000000000000001
 50
270.0
 51
0.0
  0
ARC
  5
1AF
  8
0
  6
CONTINUOUS
 62
     7
 10
501.0
 20
111.0
 30
0.0
 40
1.000000000000001
 50
270.0
 51
0.0
  0
ARC
  5
1B0
  8
0
  6
CONTINUOUS
 62
     7
 10
450.6
 20
111.0
 30
0.0
 40
1.000000000000001
 50
270.0
 51
0.0
  0
ARC
  5
1B1
  8
0
  6
CONTINUOUS
 62
     7
 10
299.0000000000001
 20
111.0
 30
0.0
 40
1.000000000000001
 50
270.0
 51
0.0
  0
ARC
  5
1B2
  8
0
  6
CONTINUOUS
 62
     7
 10
374.6
 20
111.0
 30
0.0
 40
1.000000000000001
 50
270.0
 51
0.0
  0
ARC
  5
1B3
  8
0
  6
CONTINUOUS
 62
     7
 10
425.4
 20
111.0
 30
0.0
 40
1.000000000000001
 50
180.0
 51
270.0
  0
ARC
  5
1B4
  8
0
  6
CONTINUOUS
 62
     7
 10
299.0000000000001
 20
111.0
 30
0.0
 40
1.000000000000001
 50
180.0
 51
270.0
  0
ARC
  5
1B5
  8
0
  6
CONTINUOUS
 62
     7
 10
450.6
 20
111.0
 30
0.0
 40
1.000000000000001
 50
180.0
 51
270.0
  0
ARC
  5
1B6
  8
0
  6
CONTINUOUS
 62
     7
 10
374.6
 20
111.0
 30
0.0
 40
1.000000000000001
 50
180.0
 51
270.0
  0
ARC
  5
1B7
  8
0
  6
CONTINUOUS
 62
     7
 10
475.8
 20
111.0
 30
0.0
 40
1.000000000000001
 50
180.0
 51
270.0
  0
ARC
  5
1B8
  8
0
  6
CONTINUOUS
 62
     7
 10
349.4
 20
111.0
 30
0.0
 40
1.000000000000001
 50
180.0
 51
270.0
  0
ARC
  5
1B9
  8
0
  6
CONTINUOUS
 62
     7
 10
324.2
 20
111.0
 30
0.0
 40
1.000000000000001
 50
180.0
 51
270.0
  0
ARC
  5
1BA
  8
0
  6
CONTINUOUS
 62
     7
 10
400.0
 20
111.0
 30
0.0
 40
1.000000000000001
 50
180.0
 51
270.0
  0
ARC
  5
1BB
  8
0
  6
CONTINUOUS
 62
     7
 10
501.0
 20
111.0
 30
0.0
 40
1.000000000000001
 50
180.0
 51
270.0
  0
CIRCLE
  5
1BC
  8
0
  6
CONTINUOUS
 62
     7
 10
438.0000000000001
 20
120.0
 30
0.0
 40
11.0
  0
CIRCLE
  5
1BD
  8
0
  6
CONTINUOUS
 62
     7
 10
311.6
 20
120.0
 30
0.0
 40
11.0
  0
CIRCLE
  5
1BE
  8
0
  6
CONTINUOUS
 62
     7
 10
387.2
 20
120.0
 30
0.0
 40
11.0
  0
CIRCLE
  5
1BF
  8
0
  6
CONTINUOUS
 62
     7
 10
463.2
 20
120.0
 30
0.0
 40
11.0
  0
CIRCLE
  5
1C0
  8
0
  6
CONTINUOUS
 62
     7
 10
362.0
 20
120.0
 30
0.0
 40
11.0
  0
CIRCLE
  5
1C1
  8
0
  6
CONTINUOUS
 62
     7
 10
488.4
 20
120.0
 30
0.0
 40
11.0
  0
CIRCLE
  5
1C2
  8
0
  6
CONTINUOUS
 62
     7
 10
336.8
 20
120.0
 30
0.0
 40
11.0
  0
CIRCLE
  5
1C3
  8
0
  6
CONTINUOUS
 62
     7
 10
412.8000000000001
 20
120.0
 30
0.0
 40
11.0
  0
ARC
  5
1C4
  8
0
  6
CONTINUOUS
 62
     7
 10
486.9
 20
120.0
 30
0.0
 40
3.000000000000004
 50
90.0
 51
180.0
  0
LINE
  5
1C5
  8
0
  6
CONTINUOUS
 62
     7
 10
489.9
 20
123.0
 30
0.0
 11
486.9
 21
123.0
 31
0.0
  0
LINE
  5
1C6
  8
0
  6
CONTINUOUS
 62
     7
 10
464.7
 20
123.0
 30
0.0
 11
461.7
 21
123.0
 31
0.0
  0
LINE
  5
1C7
  8
0
  6
CONTINUOUS
 62
     7
 10
439.5
 20
123.0
 30
0.0
 11
436.5
 21
123.0
 31
0.0
  0
ARC
  5
1C8
  8
0
  6
CONTINUOUS
 62
     7
 10
313.1
 20
120.0
 30
0.0
 40
3.000000000000004
 50
0.0
 51
90.0
  0
ARC
  5
1C9
  8
0
  6
CONTINUOUS
 62
     7
 10
411.3
 20
120.0
 30
0.0
 40
2.999999999999996
 50
90.0
 51
180.0
  0
ARC
  5
1CA
  8
0
  6
CONTINUOUS
 62
     7
 10
310.1
 20
120.0
 30
0.0
 40
3.0
 50
90.0
 51
180.0
  0
ARC
  5
1CB
  8
0
  6
CONTINUOUS
 62
     7
 10
461.7
 20
120.0
 30
0.0
 40
3.000000000000004
 50
90.0
 51
180.0
  0
ARC
  5
1CC
  8
0
  6
CONTINUOUS
 62
     7
 10
335.3
 20
120.0
 30
0.0
 40
3.0
 50
90.0
 51
180.0
  0
ARC
  5
1CD
  8
0
  6
CONTINUOUS
 62
     7
 10
436.5
 20
120.0
 30
0.0
 40
3.000000000000004
 50
90.0
 51
180.0
  0
LINE
  5
1CE
  8
0
  6
CONTINUOUS
 62
     7
 10
414.3000000000001
 20
123.0
 30
0.0
 11
411.3
 21
123.0
 31
0.0
  0
ARC
  5
1CF
  8
0
  6
CONTINUOUS
 62
     7
 10
439.5
 20
120.0
 30
0.0
 40
3.0
 50
0.0
 51
90.0
  0
LINE
  5
1D0
  8
0
  6
CONTINUOUS
 62
     7
 10
313.1
 20
123.0
 30
0.0
 11
310.1
 21
123.0
 31
0.0
  0
ARC
  5
1D1
  8
0
  6
CONTINUOUS
 62
     7
 10
338.3
 20
120.0
 30
0.0
 40
3.000000000000004
 50
0.0
 51
90.0
  0
ARC
  5
1D2
  8
0
  6
CONTINUOUS
 62
     7
 10
414.3
 20
120.0
 30
0.0
 40
3.0
 50
0.0
 51
89.99999999999896
  0
LINE
  5
1D3
  8
0
  6
CONTINUOUS
 62
     7
 10
388.7
 20
123.0
 30
0.0
 11
385.7
 21
123.0
 31
0.0
  0
ARC
  5
1D4
  8
0
  6
CONTINUOUS
 62
     7
 10
360.5000000000001
 20
120.0
 30
0.0
 40
3.0
 50
90.0
 51
180.0
  0
ARC
  5
1D5
  8
0
  6
CONTINUOUS
 62
     7
 10
363.5000000000001
 20
120.0
 30
0.0
 40
3.000000000000004
 50
0.0
 51
90.0
  0
ARC
  5
1D6
  8
0
  6
CONTINUOUS
 62
     7
 10
464.7
 20
120.0
 30
0.0
 40
3.0
 50
0.0
 51
90.0
  0
ARC
  5
1D7
  8
0
  6
CONTINUOUS
 62
     7
 10
385.7
 20
120.0
 30
0.0
 40
3.0
 50
90.00000000000107
 51
180.0
  0
ARC
  5
1D8
  8
0
  6
CONTINUOUS
 62
     7
 10
388.7
 20
120.0
 30
0.0
 40
2.999999999999996
 50
0.0
 51
90.0
  0
ARC
  5
1D9
  8
0
  6
CONTINUOUS
 62
     7
 10
489.9
 20
120.0
 30
0.0
 40
3.0
 50
0.0
 51
90.0
  0
LINE
  5
1DA
  8
0
  6
CONTINUOUS
 62
     7
 10
338.3
 20
123.0
 30
0.0
 11
335.3
 21
123.0
 31
0.0
  0
LINE
  5
1DB
  8
0
  6
CONTINUOUS
 62
     7
 10
363.5000000000001
 20
123.0
 30
0.0
 11
360.5000000000001
 21
123.0
 31
0.0
  0
ARC
  5
1DC
  8
0
  6
CONTINUOUS
 62
     7
 10
388.7
 20
120.0
 30
0.0
 40
3.0
 50
270.0
 51
0.0
  0
ARC
  5
1DD
  8
0
  6
CONTINUOUS
 62
     7
 10
385.7
 20
120.0
 30
0.0
 40
3.000000000000004
 50
180.0
 51
270.0
  0
ARC
  5
1DE
  8
0
  6
CONTINUOUS
 62
     7
 10
461.7
 20
120.0
 30
0.0
 40
3.0
 50
180.0
 51
270.0
  0
ARC
  5
1DF
  8
0
  6
CONTINUOUS
 62
     7
 10
338.3
 20
120.0
 30
0.0
 40
3.0
 50
270.0
 51
0.0
  0
ARC
  5
1E0
  8
0
  6
CONTINUOUS
 62
     7
 10
414.3
 20
120.0
 30
0.0
 40
3.000000000000004
 50
270.0
 51
0.0
  0
ARC
  5
1E1
  8
0
  6
CONTINUOUS
 62
     7
 10
310.1
 20
120.0
 30
0.0
 40
3.000000000000004
 50
180.0
 51
270.0
  0
ARC
  5
1E2
  8
0
  6
CONTINUOUS
 62
     7
 10
464.7
 20
120.0
 30
0.0
 40
3.000000000000004
 50
270.0
 51
0.0
  0
ARC
  5
1E3
  8
0
  6
CONTINUOUS
 62
     7
 10
411.3
 20
120.0
 30
0.0
 40
3.0
 50
180.0
 51
270.0
  0
ARC
  5
1E4
  8
0
  6
CONTINUOUS
 62
     7
 10
486.9
 20
120.0
 30
0.0
 40
3.0
 50
180.0
 51
270.0
  0
ARC
  5
1E5
  8
0
  6
CONTINUOUS
 62
     7
 10
363.5000000000001
 20
120.0
 30
0.0
 40
3.0
 50
270.0
 51
0.0
  0
ARC
  5
1E6
  8
0
  6
CONTINUOUS
 62
     7
 10
439.5
 20
120.0
 30
0.0
 40
3.000000000000004
 50
270.0
 51
0.0
  0
ARC
  5
1E7
  8
0
  6
CONTINUOUS
 62
     7
 10
436.5
 20
120.0
 30
0.0
 40
3.0
 50
180.0
 51
270.0
  0
ARC
  5
1E8
  8
0
  6
CONTINUOUS
 62
     7
 10
489.9
 20
120.0
 30
0.0
 40
3.000000000000004
 50
270.0
 51
0.0
  0
ARC
  5
1E9
  8
0
  6
CONTINUOUS
 62
     7
 10
313.1
 20
120.0
 30
0.0
 40
3.0
 50
270.0
 51
0.0
  0
ARC
  5
1EA
  8
0
  6
CONTINUOUS
 62
     7
 10
335.3
 20
120.0
 30
0.0
 40
3.000000000000004
 50
180.0
 51
270.0
  0
ARC
  5
1EB
  8
0
  6
CONTINUOUS
 62
     7
 10
360.5000000000001
 20
120.0
 30
0.0
 40
3.000000000000004
 50
180.0
 51
270.0
  0
LINE
  5
1EC
  8
0
  6
CONTINUOUS
 62
     7
 10
310.1
 20
117.0
 30
0.0
 11
313.1
 21
117.0
 31
0.0
  0
LINE
  5
1ED
  8
0
  6
CONTINUOUS
 62
     7
 10
486.9
 20
117.0
 30
0.0
 11
489.9
 21
117.0
 31
0.0
  0
LINE
  5
1EE
  8
0
  6
CONTINUOUS
 62
     7
 10
385.7
 20
117.0
 30
0.0
 11
388.7
 21
117.0
 31
0.0
  0
LINE
  5
1EF
  8
0
  6
CONTINUOUS
 62
     7
 10
411.3
 20
117.0
 30
0.0
 11
414.3
 21
117.0
 31
0.0
  0
LINE
  5
1F0
  8
0
  6
CONTINUOUS
 62
     7
 10
461.7
 20
117.0
 30
0.0
 11
464.7
 21
117.0
 31
0.0
  0
LINE
  5
1F1
  8
0
  6
CONTINUOUS
 62
     7
 10
436.5
 20
117.0
 30
0.0
 11
439.5
 21
117.0
 31
0.0
  0
LINE
  5
1F2
  8
0
  6
CONTINUOUS
 62
     7
 10
335.3
 20
117.0
 30
0.0
 11
338.3
 21
117.0
 31
0.0
  0
LINE
  5
1F3
  8
0
  6
CONTINUOUS
 62
     7
 10
360.5000000000001
 20
117.0
 30
0.0
 11
363.5000000000001
 21
117.0
 31
0.0
  0
ARC
  5
1F4
  8
0
  6
CONTINUOUS
 62
     7
 10
500.0
 20
104.4
 30
0.0
 40
4.400000000000001
 50
270.0
 51
0.0
  0
ARC
  5
1F5
  8
0
  6
CONTINUOUS
 62
     7
 10
300.0000000000001
 20
104.4
 30
0.0
 40
4.400000000000015
 50
180.0
 51
270.0
  0
LINE
  5
1F6
  8
0
  6
CONTINUOUS
 62
     7
 10
500.0
 20
100.0
 30
0.0
 11
300.0000000000001
 21
100.0
 31
0.0
  0
ENDBLK
  8
0
  0
ENDSEC
  0
SECTION
  2
ENTITIES
  0
LINE
  5
6F
  8
0
  6
CONTINUOUS
 62
     7
 10
450.0
 20
357.4628287577482
 30
0.0
 11
450.0
 21
361.397708097474
 31
0.0
  0
ARC
  5
70
  8
0
  6
CONTINUOUS
 62
     7
 10
335.3
 20
120.0
 30
0.0
 40
3.000000000000004
 50
90.0
 51
270.0
  0
ARC
  5
71
  8
0
  6
CONTINUOUS
 62
     7
 10
313.1
 20
120.0
 30
0.0
 40
3.0
 50
270.0
 51
90.0
  0
LINE
  5
72
  8
0
  6
CONTINUOUS
 62
     7
 10
476.4
 20
361.397708097474
 30
0.0
 11
476.4
 21
357.4628287577482
 31
0.0
  0
LINE
  5
73
  8
0
  6
CONTINUOUS
 62
     7
 10
525.5000000000001
 20
140.0
 30
0.0
 11
274.5
 21
140.0
 31
0.0
  0
LINE
  5
74
  8
0
  6
CONTINUOUS
 62
     7
 10
476.4
 20
198.602291902526
 30
0.0
 11
476.4
 21
202.5371712422518
 31
0.0
  0
LINE
  5
75
  8
0
  6
CONTINUOUS
 62
     7
 10
475.2
 20
357.4628287577482
 30
0.0
 11
475.2
 21
361.397708097474
 31
0.0
  0
LINE
  5
76
  8
0
  6
CONTINUOUS
 62
     7
 10
400.6
 20
202.5371712422518
 30
0.0
 11
400.6
 21
198.602291902526
 31
0.0
  0
LINE
  5
77
  8
0
  6
CONTINUOUS
 62
     7
 10
451.2
 20
361.397708097474
 30
0.0
 11
451.2
 21
357.4628287577482
 31
0.0
  0
LINE
  5
78
  8
0
  6
CONTINUOUS
 62
     7
 10
348.8
 20
361.397708097474
 30
0.0
 11
348.8
 21
357.4628287577481
 31
0.0
  0
LINE
  5
79
  8
0
  6
CONTINUOUS
 62
     7
 10
525.5000000000001
 20
139.6
 30
0.0
 11
274.5
 21
139.6
 31
0.0
  0
LINE
  5
7A
  8
0
  6
CONTINUOUS
 62
     7
 10
399.4
 20
361.397708097474
 30
0.0
 11
399.4
 21
357.4628287577482
 31
0.0
  0
ARC
  5
7B
  8
0
  6
CONTINUOUS
 62
     7
 10
489.9
 20
120.0
 30
0.0
 40
3.000000000000004
 50
270.0
 51
90.0
  0
LINE
  5
7C
  8
0
  6
CONTINUOUS
 62
     7
 10
500.0
 20
111.0
 30
0.0
 11
500.0
 21
139.6
 31
0.0
  0
LINE
  5
7D
  8
0
  6
CONTINUOUS
 62
     7
 10
399.4
 20
198.602291902526
 30
0.0
 11
399.4
 21
202.5371712422518
 31
0.0
  0
LINE
  5
7E
  8
0
  6
CONTINUOUS
 62
     7
 10
374.0
 20
361.397708097474
 30
0.0
 11
374.0
 21
357.4628287577482
 31
0.0
  0
ARC
  5
7F
  8
0
  6
CONTINUOUS
 62
     7
 10
436.5
 20
120.0
 30
0.0
 40
3.0
 50
90.0
 51
270.0
  0
ARC
  5
80
  8
0
  6
CONTINUOUS
 62
     7
 10
439.5
 20
120.0
 30
0.0
 40
3.000000000000004
 50
270.0
 51
90.0
  0
LINE
  5
81
  8
0
  6
CONTINUOUS
 62
     7
 10
300.0000000000001
 20
139.6
 30
0.0
 11
300.0000000000001
 21
111.0
 31
0.0
  0
LINE
  5
82
  8
0
  6
CONTINUOUS
 62
     7
 10
502.0
 20
139.6
 30
0.0
 11
502.0
 21
111.0
 31
0.0
  0
LINE
  5
83
  8
0
  6
CONTINUOUS
 62
     7
 10
572.5
 20
381.5000000000001
 30
0.0
 11
572.5
 21
178.5000000000001
 31
0.0
  0
LINE
  5
84
  8
0
  6
CONTINUOUS
 62
     7
 10
451.2
 20
198.602291902526
 30
0.0
 11
451.2
 21
202.5371712422518
 31
0.0
  0
LINE
  5
85
  8
0
  6
CONTINUOUS
 62
     7
 10
450.0
 20
202.5371712422518
 30
0.0
 11
450.0
 21
198.602291902526
 31
0.0
  0
LINE
  5
86
  8
0
  6
CONTINUOUS
 62
     7
 10
323.6
 20
198.602291902526
 30
0.0
 11
323.6
 21
202.5371712422518
 31
0.0
  0
LINE
  5
87
  8
0
  6
CONTINUOUS
 62
     7
 10
501.6
 20
194.9709698620401
 30
0.0
 11
501.6
 21
202.8723862807126
 31
0.0
  0
LINE
  5
88
  8
0
  6
CONTINUOUS
 62
     7
 10
348.8
 20
198.602291902526
 30
0.0
 11
348.8
 21
202.5371712422518
 31
0.0
  0
LINE
  5
89
  8
0
  6
CONTINUOUS
 62
     7
 10
374.0
 20
198.602291902526
 30
0.0
 11
374.0
 21
202.5371712422518
 31
0.0
  0
LINE
  5
8A
  8
0
  6
CONTINUOUS
 62
     7
 10
375.2
 20
202.5371712422518
 30
0.0
 11
375.2
 21
198.602291902526
 31
0.0
  0
LINE
  5
8B
  8
0
  6
CONTINUOUS
 62
     7
 10
424.8
 20
202.5371712422518
 30
0.0
 11
424.8
 21
198.602291902526
 31
0.0
  0
LINE
  5
8C
  8
0
  6
CONTINUOUS
 62
     7
 10
350.0
 20
202.5371712422518
 30
0.0
 11
350.0
 21
198.602291902526
 31
0.0
  0
LINE
  5
8D
  8
0
  6
CONTINUOUS
 62
     7
 10
500.3999999999999
 20
202.557298082529
 30
0.0
 11
500.3999999999999
 21
194.9709698620401
 31
0.0
  0
LINE
  5
8E
  8
0
  6
CONTINUOUS
 62
     7
 10
324.8
 20
202.5371712422518
 30
0.0
 11
324.8
 21
198.602291902526
 31
0.0
  0
LINE
  5
8F
  8
0
  6
CONTINUOUS
 62
     7
 10
475.2
 20
202.5371712422518
 30
0.0
 11
475.2
 21
198.602291902526
 31
0.0
  0
LINE
  5
90
  8
0
  6
CONTINUOUS
 62
     7
 10
572.9
 20
381.5000000000001
 30
0.0
 11
572.9
 21
178.5000000000001
 31
0.0
  0
LINE
  5
91
  8
0
  6
CONTINUOUS
 62
     7
 10
299.6
 20
357.442701917471
 30
0.0
 11
299.6
 21
365.0290301379599
 31
0.0
  0
LINE
  5
92
  8
0
  6
CONTINUOUS
 62
     7
 10
426.0000000000001
 20
361.397708097474
 30
0.0
 11
426.0000000000001
 21
357.4628287577482
 31
0.0
  0
LINE
  5
93
  8
0
  6
CONTINUOUS
 62
     7
 10
501.6
 20
357.1276137192874
 30
0.0
 11
501.6
 21
365.0290301379599
 31
0.0
  0
LINE
  5
94
  8
0
  6
CONTINUOUS
 62
     7
 10
350.0
 20
357.4628287577482
 30
0.0
 11
350.0
 21
361.397708097474
 31
0.0
  0
LINE
  5
95
  8
0
  6
CONTINUOUS
 62
     7
 10
424.8
 20
357.4628287577482
 30
0.0
 11
424.8
 21
361.397708097474
 31
0.0
  0
LINE
  5
96
  8
0
  6
CONTINUOUS
 62
     7
 10
426.0000000000001
 20
198.602291902526
 30
0.0
 11
426.0000000000001
 21
202.5371712422518
 31
0.0
  0
LINE
  5
97
  8
0
  6
CONTINUOUS
 62
     7
 10
298.4
 20
202.8723862807127
 30
0.0
 11
298.4
 21
194.9709698620401
 31
0.0
  0
LINE
  5
98
  8
0
  6
CONTINUOUS
 62
     7
 10
298.0000000000001
 20
111.0
 30
0.0
 11
298.0000000000001
 21
139.6
 31
0.0
  0
LINE
  5
99
  8
0
  6
CONTINUOUS
 62
     7
 10
299.6
 20
194.9709698620401
 30
0.0
 11
299.6
 21
202.557298082529
 31
0.0
  0
LINE
  5
9A
  8
0
  6
CONTINUOUS
 62
     7
 10
400.6
 20
357.4628287577482
 30
0.0
 11
400.6
 21
361.397708097474
 31
0.0
  0
LINE
  5
9B
  8
0
  6
CONTINUOUS
 62
     7
 10
500.3999999999999
 20
365.0290301379599
 30
0.0
 11
500.3999999999999
 21
357.442701917471
 31
0.0
  0
LINE
  5
9C
  8
0
  6
CONTINUOUS
 62
     7
 10
298.4
 20
365.0290301379599
 30
0.0
 11
298.4
 21
357.1276137192874
 31
0.0
  0
LINE
  5
9D
  8
0
  6
CONTINUOUS
 62
     7
 10
375.2
 20
357.4628287577482
 30
0.0
 11
375.2
 21
361.397708097474
 31
0.0
  0
LINE
  5
9E
  8
0
  6
CONTINUOUS
 62
     7
 10
324.8
 20
357.4628287577482
 30
0.0
 11
324.8
 21
361.397708097474
 31
0.0
  0
LINE
  5
9F
  8
0
  6
CONTINUOUS
 62
     7
 10
323.6
 20
361.397708097474
 30
0.0
 11
323.6
 21
357.4628287577481
 31
0.0
  0
ARC
  5
A0
  8
0
  6
CONTINUOUS
 62
     7
 10
360.5000000000001
 20
120.0
 30
0.0
 40
3.000000000000004
 50
90.0
 51
270.0
  0
ARC
  5
A1
  8
0
  6
CONTINUOUS
 62
     7
 10
324.2
 20
111.0
 30
0.0
 40
1.000000000000001
 50
180.0
 51
0.0
  0
ARC
  5
A2
  8
0
  6
CONTINUOUS
 62
     7
 10
450.6
 20
111.0
 30
0.0
 40
1.000000000000001
 50
180.0
 51
0.0
  0
ARC
  5
A3
  8
0
  6
CONTINUOUS
 62
     7
 10
411.3
 20
120.0
 30
0.0
 40
3.0
 50
90.0
 51
270.0
  0
ARC
  5
A4
  8
0
  6
CONTINUOUS
 62
     7
 10
299.0000000000001
 20
111.0
 30
0.0
 40
1.000000000000001
 50
180.0
 51
0.0
  0
ARC
  5
A5
  8
0
  6
CONTINUOUS
 62
     7
 10
374.6
 20
111.0
 30
0.0
 40
1.000000000000001
 50
180.0
 51
0.0
  0
ARC
  5
A6
  8
0
  6
CONTINUOUS
 62
     7
 10
425.4
 20
111.0
 30
0.0
 40
1.000000000000001
 50
180.0
 51
0.0
  0
ARC
  5
A7
  8
0
  6
CONTINUOUS
 62
     7
 10
338.3
 20
120.0
 30
0.0
 40
3.0
 50
270.0
 51
90.0
  0
ARC
  5
A8
  8
0
  6
CONTINUOUS
 62
     7
 10
388.7
 20
120.0
 30
0.0
 40
3.0
 50
270.0
 51
90.0
  0
ARC
  5
A9
  8
0
  6
CONTINUOUS
 62
     7
 10
400.0
 20
111.0
 30
0.0
 40
1.000000000000001
 50
180.0
 51
0.0
  0
ARC
  5
AA
  8
0
  6
CONTINUOUS
 62
     7
 10
310.1
 20
120.0
 30
0.0
 40
3.000000000000004
 50
90.0
 51
270.0
  0
ARC
  5
AB
  8
0
  6
CONTINUOUS
 62
     7
 10
349.4
 20
111.0
 30
0.0
 40
1.000000000000001
 50
180.0
 51
0.0
  0
ARC
  5
AC
  8
0
  6
CONTINUOUS
 62
     7
 10
486.9
 20
120.0
 30
0.0
 40
3.0
 50
90.0
 51
270.0
  0
ARC
  5
AD
  8
0
  6
CONTINUOUS
 62
     7
 10
501.0
 20
111.0
 30
0.0
 40
1.000000000000001
 50
180.0
 51
0.0
  0
ARC
  5
AE
  8
0
  6
CONTINUOUS
 62
     7
 10
461.7
 20
120.0
 30
0.0
 40
3.0
 50
90.0
 51
270.0
  0
ARC
  5
AF
  8
0
  6
CONTINUOUS
 62
     7
 10
414.3
 20
120.0
 30
0.0
 40
3.000000000000004
 50
270.0
 51
89.99999999999898
  0
ARC
  5
B0
  8
0
  6
CONTINUOUS
 62
     7
 10
363.5000000000001
 20
120.0
 30
0.0
 40
3.0
 50
270.0
 51
90.0
  0
ARC
  5
B1
  8
0
  6
CONTINUOUS
 62
     7
 10
464.7
 20
120.0
 30
0.0
 40
3.000000000000004
 50
270.0
 51
90.0
  0
ARC
  5
B2
  8
0
  6
CONTINUOUS
 62
     7
 10
475.8
 20
111.0
 30
0.0
 40
1.000000000000001
 50
180.0
 51
0.0
  0
ARC
  5
B3
  8
0
  6
CONTINUOUS
 62
     7
 10
385.7
 20
120.0
 30
0.0
 40
3.000000000000004
 50
90.00000000000102
 51
270.0
  0
INSERT
  5
167
  8
0
  6
CONTINUOUS
 62
     7
  2
D_FRAME_VIEW_1315
 10
0.0
 20
0.0
 30
0.0
  0
INSERT
  5
186
  8
0
  6
CONTINUOUS
 62
     7
  2
D_FRAME_VIEW_2611
 10
0.0
 20
0.0
 30
0.0
  0
INSERT
  5
1F7
  8
0
  6
CONTINUOUS
 62
     7
  2
D_FRAME_VIEW_2981
 10
0.0
 20
0.0
 30
0.0
  0
TEXT
  5
1F8
  8
0
  6
CONTINUOUS
 62
     7
 10
371.1802488433162
 20
61.65684006502443
 30
0.0
 40
6.0
  1
SB-4SA-N
  0
ENDSEC
  0
EOF
