  0
SECTION
  2
HEADER
  9
$ACADVER
  1
AC1006
  9
$DWGCODEPAGE
  3
ansi_932
  9
$INSBASE
 10
0.0
 20
0.0
 30
0.0
  9
$EXTMIN
 10
257.0
 20
67.3409090909091
  9
$EXTMAX
 10
622.5500000000001
 20
463.25
  9
$LIMMIN
 10
0.0
 20
0.0
  9
$LIMMAX
 10
12.0
 20
9.0
  9
$ORTHOMODE
 70
     0
  9
$REGENMODE
 70
     1
  9
$FILLMODE
 70
     1
  9
$QTEXTMODE
 70
     0
  9
$MIRRTEXT
 70
     1
  9
$DRAGMODE
 70
     2
  9
$LTSCALE
 40
1.0
  9
$OSMODE
 70
    37
  9
$ATTMODE
 70
     1
  9
$TEXTSIZE
 40
0.2
  9
$TRACEWID
 40
0.05
  9
$TEXTSTYLE
  7
STANDARD
  9
$CLAYER
  8
0
  9
$CELTYPE
  6
BYLAYER
  9
$CECOLOR
 62
   256
  9
$DIMSCALE
 40
1.0
  9
$DIMASZ
 40
3.0
  9
$DIMEXO
 40
0.0625
  9
$DIMDLI
 40
0.38
  9
$DIMRND
 40
0.0
  9
$DIMDLE
 40
0.0
  9
$DIMEXE
 40
1.5
  9
$DIMTP
 40
0.0
  9
$DIMTM
 40
0.0
  9
$DIMTXT
 40
3.0
  9
$DIMCEN
 40
0.09
  9
$DIMTSZ
 40
0.0
  9
$DIMTOL
 70
     0
  9
$DIMLIM
 70
     0
  9
$DIMTIH
 70
     1
  9
$DIMTOH
 70
     1
  9
$DIMSE1
 70
     0
  9
$DIMSE2
 70
     0
  9
$DIMTAD
 70
     1
  9
$DIMZIN
 70
     0
  9
$DIMBLK
  1

  9
$DIMASO
 70
     1
  9
$DIMSHO
 70
     1
  9
$DIMPOST
  1

  9
$DIMAPOST
  1

  9
$DIMALT
 70
     0
  9
$DIMALTD
 70
     2
  9
$DIMALTF
 40
25.4
  9
$DIMLFAC
 40
1.0
  9
$DIMTOFL
 70
     0
  9
$DIMTVP
 40
0.0
  9
$DIMTIX
 70
     0
  9
$DIMSOXD
 70
     0
  9
$DIMSAH
 70
     0
  9
$DIMBLK1
  1

  9
$DIMBLK2
  1

  9
$LUNITS
 70
     2
  9
$LUPREC
 70
     4
  9
$SKETCHINC
 40
0.1
  9
$FILLETRAD
 40
0.5
  9
$AUNITS
 70
     0
  9
$AUPREC
 70
     0
  9
$MENU
  1
.
  9
$ELEVATION
 40
0.0
  9
$THICKNESS
 40
0.0
  9
$LIMCHECK
 70
     0
  9
$CHAMFERA
 40
0.0
  9
$CHAMFERB
 40
0.0
  9
$SKPOLY
 70
     0
  9
$TDCREATE
 40
2459011.629827731
  9
$TDUPDATE
 40
2459011.629827905
  9
$TDINDWG
 40
0.0000000116
  9
$TDUSRTIMER
 40
0.0000000116
  9
$USRTIMER
 70
     1
  9
$ANGBASE
 50
0.0
  9
$ANGDIR
 70
     0
  9
$PDMODE
 70
     0
  9
$PDSIZE
 40
0.0
  9
$PLINEWID
 40
0.0
  9
$COORDS
 70
     1
  9
$SPLFRAME
 70
     0
  9
$SPLINETYPE
 70
     6
  9
$SPLINESEGS
 70
     8
  9
$ATTDIA
 70
     0
  9
$ATTREQ
 70
     1
  9
$HANDLING
 70
     1
  9
$HANDSEED
  5
2D3
  9
$SURFTAB1
 70
     6
  9
$SURFTAB2
 70
     6
  9
$SURFTYPE
 70
     6
  9
$SURFU
 70
     6
  9
$SURFV
 70
     6
  9
$UCSNAME
  2

  9
$UCSORG
 10
0.0
 20
0.0
 30
0.0
  9
$UCSXDIR
 10
1.0
 20
0.0
 30
0.0
  9
$UCSYDIR
 10
0.0
 20
1.0
 30
0.0
  9
$USERI1
 70
     0
  9
$USERI2
 70
     0
  9
$USERI3
 70
     0
  9
$USERI4
 70
     0
  9
$USERI5
 70
     0
  9
$USERR1
 40
0.0
  9
$USERR2
 40
0.0
  9
$USERR3
 40
0.0
  9
$USERR4
 40
0.0
  9
$USERR5
 40
0.0
  9
$WORLDVIEW
 70
     1
  0
ENDSEC
  0
SECTION
  2
TABLES
  0
TABLE
  2
VPORT
 70
     1
  0
VPORT
  2
*ACTIVE
 70
     0
 10
0.0
 20
0.0
 11
1.0
 21
1.0
 12
439.775
 22
265.2954545454546
 13
0.0
 23
0.0
 14
0.5
 24
0.5
 15
0.5
 25
0.5
 16
0.0
 26
0.0
 36
1.0
 17
0.0
 27
0.0
 37
0.0
 40
395.9090909090909
 41
1.6
 42
50.0
 43
0.0
 44
0.0
 50
0.0
 51
0.0
 71
     0
 72
   100
 73
     1
 74
     3
 75
     0
 76
     0
 77
     0
 78
     0
  0
ENDTAB
  0
TABLE
  2
LTYPE
 70
     1
  0
LTYPE
  2
CONTINUOUS
 70
     0
  3
Solid line
 72
    65
 73
     0
 40
0.0
  0
ENDTAB
  0
TABLE
  2
LAYER
 70
     1
  0
LAYER
  2
0
 70
     0
 62
     7
  6
CONTINUOUS
  0
ENDTAB
  0
TABLE
  2
STYLE
 70
     2
  0
STYLE
  2
STANDARD
 70
     0
 40
0.0
 41
1.0
 50
0.0
 71
     0
 42
0.2
  3
txt
  4

  0
STYLE
  2
ＭＳ_ゴシック
 70
     0
 40
0.0
 41
1.0
 50
0.0
 71
     0
 42
0.2
  3
ＭＳ ゴシック.shx
  4

  0
ENDTAB
  0
TABLE
  2
VIEW
 70
     0
  0
ENDTAB
  0
TABLE
  2
UCS
 70
     0
  0
ENDTAB
  0
ENDSEC
  0
SECTION
  2
BLOCKS
  0
BLOCK
  8
0
  2
D_FRAME_VIEW_4764
 70
     0
 10
0.0
 20
0.0
 30
0.0
  0
LINE
  5
70
  8
0
  6
CONTINUOUS
 62
     7
 10
582.45
 20
463.2499999999999
 30
0.0
 11
582.55
 21
463.2499999999999
 31
0.0
  0
LINE
  5
71
  8
0
  6
CONTINUOUS
 62
     7
 10
582.45
 20
243.2499999999999
 30
0.0
 11
582.55
 21
243.2499999999999
 31
0.0
  0
LINE
  5
72
  8
0
  6
CONTINUOUS
 62
     7
 10
582.55
 20
241.7499999999999
 30
0.0
 11
582.9499999999999
 21
241.7499999999999
 31
0.0
  0
LINE
  5
73
  8
0
  6
CONTINUOUS
 62
     7
 10
582.55
 20
444.7499999999999
 30
0.0
 11
582.9499999999999
 21
444.7499999999999
 31
0.0
  0
ARC
  5
74
  8
0
  6
CONTINUOUS
 62
     7
 10
618.15
 20
416.1535917586967
 30
0.0
 40
4.399999999999986
 50
0.0
 51
84.99999999999994
  0
LINE
  5
75
  8
0
  6
CONTINUOUS
 62
     7
 10
611.5500000000001
 20
265.8348288289686
 30
0.0
 11
582.9499999999999
 21
263.3326530521272
 31
0.0
  0
LINE
  5
76
  8
0
  6
CONTINUOUS
 62
     7
 10
618.5334852680897
 20
265.9631515696995
 30
0.0
 11
612.5500000000001
 21
265.4396644403673
 31
0.0
  0
ARC
  5
77
  8
0
  6
CONTINUOUS
 62
     7
 10
611.7251162261018
 20
264.19295498318
 30
0.0
 40
1.65118606405482
 50
65.31875433032691
 51
96.08794213363478
  0
POLYLINE
  5
78
  8
0
  6
CONTINUOUS
 62
     7
 66
     1
 10
0.0
 20
0.0
 30
0.0
  0
VERTEX
  5
190
  8
0
  6
CONTINUOUS
 62
     7
 10
612.4146014528326
 20
265.6932967909854
 30
0.0
  0
VERTEX
  5
191
  8
0
  6
CONTINUOUS
 62
     7
 10
612.5004097048554
 20
265.635937176406
 30
0.0
  0
VERTEX
  5
192
  8
0
  6
CONTINUOUS
 62
     7
 10
612.5500000000001
 20
265.5552472105776
 30
0.0
  0
SEQEND
  5
2B1
  8
0
  6
CONTINUOUS
 62
     7
  0
LINE
  5
79
  8
0
  6
CONTINUOUS
 62
     7
 10
622.5500000000001
 20
416.1535917586967
 30
0.0
 11
622.5500000000001
 21
270.3464082413032
 31
0.0
  0
ARC
  5
7A
  8
0
  6
CONTINUOUS
 62
     7
 10
618.15
 20
270.3464082413032
 30
0.0
 40
4.400000000000071
 50
275.0000000000001
 51
0.0
  0
LINE
  5
7B
  8
0
  6
CONTINUOUS
 62
     7
 10
582.9499999999999
 20
423.1673469478727
 30
0.0
 11
611.5500000000001
 21
420.6651711710314
 31
0.0
  0
POLYLINE
  5
7C
  8
0
  6
CONTINUOUS
 62
     7
 66
     1
 10
0.0
 20
0.0
 30
0.0
  0
VERTEX
  5
193
  8
0
  6
CONTINUOUS
 62
     7
 10
612.5500000000001
 20
420.9447527894223
 30
0.0
  0
VERTEX
  5
194
  8
0
  6
CONTINUOUS
 62
     7
 10
612.4901410483122
 20
420.8555122766819
 30
0.0
  0
VERTEX
  5
195
  8
0
  6
CONTINUOUS
 62
     7
 10
612.3960490234716
 20
420.7970205031624
 30
0.0
  0
VERTEX
  5
196
  8
0
  6
CONTINUOUS
 62
     7
 10
612.2902228331542
 20
420.7515948897387
 30
0.0
  0
SEQEND
  5
2B2
  8
0
  6
CONTINUOUS
 62
     7
  0
ARC
  5
7D
  8
0
  6
CONTINUOUS
 62
     7
 10
611.7204988782039
 20
422.4180729268363
 30
0.0
 40
1.761174163157331
 50
264.4445073978761
 51
288.8741764752929
  0
LINE
  5
7E
  8
0
  6
CONTINUOUS
 62
     7
 10
612.5500000000001
 20
421.0603355596326
 30
0.0
 11
618.5334852680897
 21
420.5368484303004
 31
0.0
  0
ARC
  5
7F
  8
0
  6
CONTINUOUS
 62
     7
 10
588.9499999999999
 20
255.3520129558954
 30
0.0
 40
6.000000000000006
 50
95.0
 51
180.0
  0
ARC
  5
80
  8
0
  6
CONTINUOUS
 62
     7
 10
588.9499999999999
 20
431.1479870441045
 30
0.0
 40
6.000000000000006
 50
180.0
 51
265.0
  0
LINE
  5
81
  8
0
  6
CONTINUOUS
 62
     7
 10
612.5500000000001
 20
265.5552472105776
 30
0.0
 11
612.5500000000001
 21
264.3559956143847
 31
0.0
  0
ARC
  5
82
  8
0
  6
CONTINUOUS
 62
     7
 10
611.5500000000001
 20
422.1440043856152
 30
0.0
 40
1.000000000000001
 50
0.0
 51
85.00000000000006
  0
LINE
  5
83
  8
0
  6
CONTINUOUS
 62
     7
 10
612.5500000000001
 20
420.9447527894223
 30
0.0
 11
612.5500000000001
 21
422.1440043856152
 31
0.0
  0
ARC
  5
84
  8
0
  6
CONTINUOUS
 62
     7
 10
611.5500000000001
 20
264.3559956143847
 30
0.0
 40
1.000000000000001
 50
274.9999999999999
 51
0.0
  0
LINE
  5
85
  8
0
  6
CONTINUOUS
 62
     7
 10
611.6371557427477
 20
423.1401990837069
 30
0.0
 11
588.4270655435141
 21
425.170818855554
 31
0.0
  0
LINE
  5
86
  8
0
  6
CONTINUOUS
 62
     7
 10
611.6371557427477
 20
263.359800916293
 30
0.0
 11
588.4270655435141
 21
261.3291811444458
 31
0.0
  0
ENDBLK
  8
0
  0
BLOCK
  8
0
  2
D_FRAME_VIEW_3060
 70
     0
 10
0.0
 20
0.0
 30
0.0
  0
ENDBLK
  8
0
  0
BLOCK
  8
0
  2
D_FRAME_VIEW_4707
 70
     0
 10
0.0
 20
0.0
 30
0.0
  0
LINE
  5
D7
  8
0
  6
CONTINUOUS
 62
     7
 10
506.5000000000001
 20
177.55
 30
0.0
 11
506.5000000000001
 21
177.45
 31
0.0
  0
LINE
  5
D8
  8
0
  6
CONTINUOUS
 62
     7
 10
258.5000000000002
 20
177.55
 30
0.0
 11
258.5000000000002
 21
177.45
 31
0.0
  0
LINE
  5
D9
  8
0
  6
CONTINUOUS
 62
     7
 10
508.0
 20
177.45
 30
0.0
 11
508.0
 21
177.05
 31
0.0
  0
LINE
  5
DA
  8
0
  6
CONTINUOUS
 62
     7
 10
257.0
 20
177.45
 30
0.0
 11
257.0
 21
177.05
 31
0.0
  0
LINE
  5
DB
  8
0
  6
CONTINUOUS
 62
     7
 10
330.9
 20
148.45
 30
0.0
 11
330.9
 21
177.05
 31
0.0
  0
LINE
  5
DC
  8
0
  6
CONTINUOUS
 62
     7
 10
406.9
 20
148.45
 30
0.0
 11
406.9
 21
177.05
 31
0.0
  0
LINE
  5
DD
  8
0
  6
CONTINUOUS
 62
     7
 10
305.7
 20
148.45
 30
0.0
 11
305.7
 21
177.05
 31
0.0
  0
LINE
  5
DE
  8
0
  6
CONTINUOUS
 62
     7
 10
332.9
 20
177.05
 30
0.0
 11
332.9
 21
148.45
 31
0.0
  0
LINE
  5
DF
  8
0
  6
CONTINUOUS
 62
     7
 10
408.9
 20
177.05
 30
0.0
 11
408.9
 21
148.45
 31
0.0
  0
LINE
  5
E0
  8
0
  6
CONTINUOUS
 62
     7
 10
307.7
 20
177.05
 30
0.0
 11
307.7
 21
148.45
 31
0.0
  0
LINE
  5
E1
  8
0
  6
CONTINUOUS
 62
     7
 10
432.1
 20
148.45
 30
0.0
 11
432.1
 21
177.05
 31
0.0
  0
LINE
  5
E2
  8
0
  6
CONTINUOUS
 62
     7
 10
358.1
 20
177.05
 30
0.0
 11
358.1
 21
148.45
 31
0.0
  0
LINE
  5
E3
  8
0
  6
CONTINUOUS
 62
     7
 10
383.5
 20
177.05
 30
0.0
 11
383.5
 21
148.45
 31
0.0
  0
LINE
  5
E4
  8
0
  6
CONTINUOUS
 62
     7
 10
434.1
 20
177.05
 30
0.0
 11
434.1
 21
148.45
 31
0.0
  0
LINE
  5
E5
  8
0
  6
CONTINUOUS
 62
     7
 10
381.5
 20
148.45
 30
0.0
 11
381.5
 21
177.05
 31
0.0
  0
LINE
  5
E6
  8
0
  6
CONTINUOUS
 62
     7
 10
356.1
 20
148.45
 30
0.0
 11
356.1
 21
177.05
 31
0.0
  0
LINE
  5
E7
  8
0
  6
CONTINUOUS
 62
     7
 10
457.3
 20
148.45
 30
0.0
 11
457.3
 21
177.05
 31
0.0
  0
LINE
  5
E8
  8
0
  6
CONTINUOUS
 62
     7
 10
459.3
 20
177.05
 30
0.0
 11
459.3
 21
148.45
 31
0.0
  0
LINE
  5
E9
  8
0
  6
CONTINUOUS
 62
     7
 10
278.1
 20
141.85
 30
0.0
 11
278.1
 21
177.05
 31
0.0
  0
LINE
  5
EA
  8
0
  6
CONTINUOUS
 62
     7
 10
486.9
 20
177.05
 30
0.0
 11
486.9
 21
141.85
 31
0.0
  0
CIRCLE
  5
EB
  8
0
  6
CONTINUOUS
 62
     7
 10
445.7
 20
157.45
 30
0.0
 40
11.0
  0
CIRCLE
  5
EC
  8
0
  6
CONTINUOUS
 62
     7
 10
369.7
 20
157.45
 30
0.0
 40
11.0
  0
CIRCLE
  5
ED
  8
0
  6
CONTINUOUS
 62
     7
 10
319.3
 20
157.45
 30
0.0
 40
11.0
  0
CIRCLE
  5
EE
  8
0
  6
CONTINUOUS
 62
     7
 10
294.1
 20
157.45
 30
0.0
 40
11.0
  0
CIRCLE
  5
EF
  8
0
  6
CONTINUOUS
 62
     7
 10
470.9
 20
157.45
 30
0.0
 40
11.0
  0
CIRCLE
  5
F0
  8
0
  6
CONTINUOUS
 62
     7
 10
420.5
 20
157.45
 30
0.0
 40
11.0
  0
CIRCLE
  5
F1
  8
0
  6
CONTINUOUS
 62
     7
 10
344.5
 20
157.45
 30
0.0
 40
11.0
  0
CIRCLE
  5
F2
  8
0
  6
CONTINUOUS
 62
     7
 10
395.3
 20
157.45
 30
0.0
 40
11.0
  0
LINE
  5
F3
  8
0
  6
CONTINUOUS
 62
     7
 10
472.4
 20
160.45
 30
0.0
 11
469.4
 21
160.45
 31
0.0
  0
LINE
  5
F4
  8
0
  6
CONTINUOUS
 62
     7
 10
320.8
 20
160.45
 30
0.0
 11
317.8
 21
160.45
 31
0.0
  0
LINE
  5
F5
  8
0
  6
CONTINUOUS
 62
     7
 10
422.0000000000001
 20
160.45
 30
0.0
 11
419.0000000000001
 21
160.45
 31
0.0
  0
LINE
  5
F6
  8
0
  6
CONTINUOUS
 62
     7
 10
447.2
 20
160.45
 30
0.0
 11
444.2
 21
160.45
 31
0.0
  0
LINE
  5
F7
  8
0
  6
CONTINUOUS
 62
     7
 10
371.2
 20
160.45
 30
0.0
 11
368.2
 21
160.45
 31
0.0
  0
LINE
  5
F8
  8
0
  6
CONTINUOUS
 62
     7
 10
295.6
 20
160.45
 30
0.0
 11
292.6
 21
160.45
 31
0.0
  0
LINE
  5
F9
  8
0
  6
CONTINUOUS
 62
     7
 10
396.8
 20
160.45
 30
0.0
 11
393.8
 21
160.45
 31
0.0
  0
LINE
  5
FA
  8
0
  6
CONTINUOUS
 62
     7
 10
345.9999999999999
 20
160.45
 30
0.0
 11
342.9999999999999
 21
160.45
 31
0.0
  0
LINE
  5
FB
  8
0
  6
CONTINUOUS
 62
     7
 10
292.6
 20
154.45
 30
0.0
 11
295.6
 21
154.45
 31
0.0
  0
LINE
  5
FC
  8
0
  6
CONTINUOUS
 62
     7
 10
393.8
 20
154.45
 30
0.0
 11
396.8
 21
154.45
 31
0.0
  0
LINE
  5
FD
  8
0
  6
CONTINUOUS
 62
     7
 10
469.4
 20
154.45
 30
0.0
 11
472.4
 21
154.45
 31
0.0
  0
LINE
  5
FE
  8
0
  6
CONTINUOUS
 62
     7
 10
419.0000000000001
 20
154.45
 30
0.0
 11
422.0000000000001
 21
154.45
 31
0.0
  0
LINE
  5
FF
  8
0
  6
CONTINUOUS
 62
     7
 10
317.8
 20
154.45
 30
0.0
 11
320.8
 21
154.45
 31
0.0
  0
LINE
  5
100
  8
0
  6
CONTINUOUS
 62
     7
 10
368.2
 20
154.45
 30
0.0
 11
371.2
 21
154.45
 31
0.0
  0
LINE
  5
101
  8
0
  6
CONTINUOUS
 62
     7
 10
342.9999999999999
 20
154.45
 30
0.0
 11
345.9999999999999
 21
154.45
 31
0.0
  0
LINE
  5
102
  8
0
  6
CONTINUOUS
 62
     7
 10
444.2
 20
154.45
 30
0.0
 11
447.2
 21
154.45
 31
0.0
  0
ARC
  5
103
  8
0
  6
CONTINUOUS
 62
     7
 10
482.5000000000001
 20
141.85
 30
0.0
 40
4.399999999999987
 50
270.0
 51
0.0
  0
ARC
  5
104
  8
0
  6
CONTINUOUS
 62
     7
 10
282.4999999999999
 20
141.85
 30
0.0
 40
4.399999999999959
 50
180.0
 51
270.0
  0
LINE
  5
105
  8
0
  6
CONTINUOUS
 62
     7
 10
482.5000000000001
 20
137.45
 30
0.0
 11
282.4999999999999
 21
137.45
 31
0.0
  0
ENDBLK
  8
0
  0
BLOCK
  8
0
  2
D_FRAME_VIEW_3063
 70
     0
 10
0.0
 20
0.0
 30
0.0
  0
LINE
  5
10A
  8
0
  6
CONTINUOUS
 62
     7
 10
263.5000000000001
 20
243.2499999999999
 30
0.0
 11
501.4999999999999
 21
243.2499999999999
 31
0.0
  0
ARC
  5
10B
  8
0
  6
CONTINUOUS
 62
     7
 10
279.0000000000001
 20
259.2499999999999
 30
0.0
 40
2.000000000000002
 50
180.0
 51
269.9999999999992
  0
LINE
  5
10C
  8
0
  6
CONTINUOUS
 62
     7
 10
486.0000000000001
 20
257.2499999999999
 30
0.0
 11
279.0000000000001
 21
257.2499999999999
 31
0.0
  0
ARC
  5
10D
  8
0
  6
CONTINUOUS
 62
     7
 10
486.0000000000001
 20
259.2499999999999
 30
0.0
 40
1.999999999999988
 50
270.0
 51
359.9999999999993
  0
LINE
  5
10E
  8
0
  6
CONTINUOUS
 62
     7
 10
488.0
 20
427.2499999999999
 30
0.0
 11
488.0
 21
259.2499999999999
 31
0.0
  0
ARC
  5
10F
  8
0
  6
CONTINUOUS
 62
     7
 10
486.0
 20
427.2499999999999
 30
0.0
 40
2.000000000000002
 50
0.0
 51
90.00000000000159
  0
LINE
  5
110
  8
0
  6
CONTINUOUS
 62
     7
 10
279.0000000000001
 20
429.25
 30
0.0
 11
486.0
 21
429.25
 31
0.0
  0
ARC
  5
111
  8
0
  6
CONTINUOUS
 62
     7
 10
279.0000000000001
 20
427.25
 30
0.0
 40
1.999999999999974
 50
90.0
 51
179.9999999999992
  0
LINE
  5
112
  8
0
  6
CONTINUOUS
 62
     7
 10
277.0000000000001
 20
259.2499999999999
 30
0.0
 11
277.0000000000001
 21
427.25
 31
0.0
  0
ARC
  5
113
  8
0
  6
CONTINUOUS
 62
     7
 10
263.5000000000001
 20
248.2499999999999
 30
0.0
 40
5.000000000000004
 50
180.0
 51
270.0
  0
LINE
  5
114
  8
0
  6
CONTINUOUS
 62
     7
 10
258.5000000000002
 20
438.25
 30
0.0
 11
258.5000000000002
 21
248.25
 31
0.0
  0
ARC
  5
115
  8
0
  6
CONTINUOUS
 62
     7
 10
263.5000000000002
 20
438.25
 30
0.0
 40
5.000000000000004
 50
90.00000000000064
 51
180.0
  0
LINE
  5
116
  8
0
  6
CONTINUOUS
 62
     7
 10
481.5000000000001
 20
443.25
 30
0.0
 11
263.5000000000001
 21
443.25
 31
0.0
  0
ARC
  5
117
  8
0
  6
CONTINUOUS
 62
     7
 10
481.5000000000001
 20
448.25
 30
0.0
 40
5.000000000000004
 50
270.0
 51
359.9999999999997
  0
LINE
  5
118
  8
0
  6
CONTINUOUS
 62
     7
 10
486.5000000000001
 20
458.25
 30
0.0
 11
486.5000000000001
 21
448.25
 31
0.0
  0
ARC
  5
119
  8
0
  6
CONTINUOUS
 62
     7
 10
491.5000000000001
 20
458.25
 30
0.0
 40
5.000000000000004
 50
90.0000000000003
 51
180.0
  0
LINE
  5
11A
  8
0
  6
CONTINUOUS
 62
     7
 10
501.5000000000001
 20
463.25
 30
0.0
 11
491.5000000000001
 21
463.25
 31
0.0
  0
ARC
  5
11B
  8
0
  6
CONTINUOUS
 62
     7
 10
501.5000000000001
 20
458.25
 30
0.0
 40
5.000000000000004
 50
0.0000000000003181
 51
90.0
  0
LINE
  5
11C
  8
0
  6
CONTINUOUS
 62
     7
 10
506.5000000000001
 20
248.2499999999999
 30
0.0
 11
506.5000000000001
 21
458.25
 31
0.0
  0
ARC
  5
11D
  8
0
  6
CONTINUOUS
 62
     7
 10
501.5000000000001
 20
248.2499999999999
 30
0.0
 40
5.000000000000004
 50
269.9999999999995
 51
359.9999999999998
  0
POLYLINE
  5
11E
  8
0
  6
CONTINUOUS
 62
     7
 66
     1
 10
0.0
 20
0.0
 30
0.0
  0
VERTEX
  5
199
  8
0
  6
CONTINUOUS
 62
     7
 10
332.5
 20
424.6477080974739
 30
0.0
  0
VERTEX
  5
19A
  8
0
  6
CONTINUOUS
 62
     7
 10
332.4884711682419
 20
424.7652094186855
 30
0.0
  0
VERTEX
  5
19B
  8
0
  6
CONTINUOUS
 62
     7
 10
332.4543277195068
 20
424.8781952300183
 30
0.0
  0
VERTEX
  5
19C
  8
0
  6
CONTINUOUS
 62
     7
 10
332.3988817673815
 20
424.9823235501061
 30
0.0
  0
VERTEX
  5
19D
  8
0
  6
CONTINUOUS
 62
     7
 10
332.3242640687119
 20
425.0735927860038
 30
0.0
  0
VERTEX
  5
19E
  8
0
  6
CONTINUOUS
 62
     7
 10
332.2333421398117
 20
425.1484955121602
 30
0.0
  0
VERTEX
  5
19F
  8
0
  6
CONTINUOUS
 62
     7
 10
332.129610059419
 20
425.204153258815
 30
0.0
  0
VERTEX
  5
1A0
  8
0
  6
CONTINUOUS
 62
     7
 10
332.0170541932097
 20
425.2384271299775
 30
0.0
  0
VERTEX
  5
1A1
  8
0
  6
CONTINUOUS
 62
     7
 10
331.9
 20
425.2499999999999
 30
0.0
  0
SEQEND
  5
2B3
  8
0
  6
CONTINUOUS
 62
     7
  0
POLYLINE
  5
11F
  8
0
  6
CONTINUOUS
 62
     7
 66
     1
 10
0.0
 20
0.0
 30
0.0
  0
VERTEX
  5
1A2
  8
0
  6
CONTINUOUS
 62
     7
 10
331.9
 20
261.25
 30
0.0
  0
VERTEX
  5
1A3
  8
0
  6
CONTINUOUS
 62
     7
 10
332.0170541932097
 20
261.2615728700225
 30
0.0
  0
VERTEX
  5
1A4
  8
0
  6
CONTINUOUS
 62
     7
 10
332.129610059419
 20
261.295846741185
 30
0.0
  0
VERTEX
  5
1A5
  8
0
  6
CONTINUOUS
 62
     7
 10
332.2333421398117
 20
261.3515044878397
 30
0.0
  0
VERTEX
  5
1A6
  8
0
  6
CONTINUOUS
 62
     7
 10
332.3242640687119
 20
261.4264072139961
 30
0.0
  0
VERTEX
  5
1A7
  8
0
  6
CONTINUOUS
 62
     7
 10
332.3988817673815
 20
261.5176764498938
 30
0.0
  0
VERTEX
  5
1A8
  8
0
  6
CONTINUOUS
 62
     7
 10
332.4543277195068
 20
261.6218047699817
 30
0.0
  0
VERTEX
  5
1A9
  8
0
  6
CONTINUOUS
 62
     7
 10
332.4884711682419
 20
261.7347905813145
 30
0.0
  0
VERTEX
  5
1AA
  8
0
  6
CONTINUOUS
 62
     7
 10
332.5
 20
261.852291902526
 30
0.0
  0
SEQEND
  5
2B4
  8
0
  6
CONTINUOUS
 62
     7
  0
LINE
  5
120
  8
0
  6
CONTINUOUS
 62
     7
 10
458.3
 20
265.8396644403673
 30
0.0
 11
458.9
 21
265.7871712422518
 31
0.0
  0
LINE
  5
121
  8
0
  6
CONTINUOUS
 62
     7
 10
457.7
 20
265.7871712422518
 30
0.0
 11
458.3
 21
265.8396644403673
 31
0.0
  0
LINE
  5
122
  8
0
  6
CONTINUOUS
 62
     7
 10
457.7
 20
263.25
 30
0.0
 11
433.7
 21
263.25
 31
0.0
  0
LINE
  5
123
  8
0
  6
CONTINUOUS
 62
     7
 10
433.1
 20
265.8396644403673
 30
0.0
 11
433.7
 21
265.7871712422518
 31
0.0
  0
LINE
  5
124
  8
0
  6
CONTINUOUS
 62
     7
 10
432.5
 20
265.7871712422518
 30
0.0
 11
433.1
 21
265.8396644403673
 31
0.0
  0
LINE
  5
125
  8
0
  6
CONTINUOUS
 62
     7
 10
432.5
 20
263.25
 30
0.0
 11
408.4999999999999
 21
263.25
 31
0.0
  0
LINE
  5
126
  8
0
  6
CONTINUOUS
 62
     7
 10
407.9
 20
265.8396644403673
 30
0.0
 11
408.5
 21
265.7871712422518
 31
0.0
  0
LINE
  5
127
  8
0
  6
CONTINUOUS
 62
     7
 10
407.3
 20
265.7871712422518
 30
0.0
 11
407.9
 21
265.8396644403673
 31
0.0
  0
LINE
  5
128
  8
0
  6
CONTINUOUS
 62
     7
 10
407.3
 20
263.25
 30
0.0
 11
383.1
 21
263.25
 31
0.0
  0
LINE
  5
129
  8
0
  6
CONTINUOUS
 62
     7
 10
382.5
 20
265.8396644403673
 30
0.0
 11
383.1
 21
265.7871712422518
 31
0.0
  0
LINE
  5
12A
  8
0
  6
CONTINUOUS
 62
     7
 10
381.9
 20
265.7871712422518
 30
0.0
 11
382.5
 21
265.8396644403673
 31
0.0
  0
LINE
  5
12B
  8
0
  6
CONTINUOUS
 62
     7
 10
381.9
 20
263.25
 30
0.0
 11
357.7
 21
263.25
 31
0.0
  0
LINE
  5
12C
  8
0
  6
CONTINUOUS
 62
     7
 10
357.1
 20
265.8396644403673
 30
0.0
 11
357.6999999999999
 21
265.7871712422518
 31
0.0
  0
LINE
  5
12D
  8
0
  6
CONTINUOUS
 62
     7
 10
356.5
 20
265.7871712422518
 30
0.0
 11
357.1
 21
265.8396644403673
 31
0.0
  0
LINE
  5
12E
  8
0
  6
CONTINUOUS
 62
     7
 10
356.5
 20
263.25
 30
0.0
 11
332.5
 21
263.25
 31
0.0
  0
LINE
  5
12F
  8
0
  6
CONTINUOUS
 62
     7
 10
331.9
 20
265.8396644403673
 30
0.0
 11
332.4999999999999
 21
265.7871712422518
 31
0.0
  0
LINE
  5
130
  8
0
  6
CONTINUOUS
 62
     7
 10
331.3
 20
265.7871712422518
 30
0.0
 11
331.9
 21
265.8396644403673
 31
0.0
  0
LINE
  5
131
  8
0
  6
CONTINUOUS
 62
     7
 10
331.3
 20
263.25
 30
0.0
 11
307.3
 21
263.25
 31
0.0
  0
LINE
  5
132
  8
0
  6
CONTINUOUS
 62
     7
 10
306.7
 20
265.8396644403673
 30
0.0
 11
307.3
 21
265.7871712422518
 31
0.0
  0
LINE
  5
133
  8
0
  6
CONTINUOUS
 62
     7
 10
306.1
 20
265.7871712422518
 30
0.0
 11
306.7
 21
265.8396644403673
 31
0.0
  0
LINE
  5
134
  8
0
  6
CONTINUOUS
 62
     7
 10
306.1
 20
263.25
 30
0.0
 11
282.4999999999999
 21
263.25
 31
0.0
  0
LINE
  5
135
  8
0
  6
CONTINUOUS
 62
     7
 10
482.5000000000001
 20
263.25
 30
0.0
 11
458.9
 21
263.25
 31
0.0
  0
LINE
  5
136
  8
0
  6
CONTINUOUS
 62
     7
 10
257.0
 20
247.75
 30
0.0
 11
257.0
 21
438.7499999999999
 31
0.0
  0
ARC
  5
137
  8
0
  6
CONTINUOUS
 62
     7
 10
263.0
 20
438.7499999999999
 30
0.0
 40
6.000000000000005
 50
90.0
 51
179.9999999999998
  0
LINE
  5
138
  8
0
  6
CONTINUOUS
 62
     7
 10
263.0
 20
444.7499999999999
 30
0.0
 11
485.0707142142714
 21
444.7499999999999
 31
0.0
  0
ARC
  5
139
  8
0
  6
CONTINUOUS
 62
     7
 10
502.0
 20
438.7499999999999
 30
0.0
 40
6.000000000000009
 50
0.0
 51
41.40962210927029
  0
LINE
  5
13A
  8
0
  6
CONTINUOUS
 62
     7
 10
508.0
 20
438.7499999999999
 30
0.0
 11
508.0
 21
247.75
 31
0.0
  0
ARC
  5
13B
  8
0
  6
CONTINUOUS
 62
     7
 10
502.0
 20
247.75
 30
0.0
 40
6.000000000000005
 50
270.0
 51
359.9999999999998
  0
LINE
  5
13C
  8
0
  6
CONTINUOUS
 62
     7
 10
502.0
 20
241.75
 30
0.0
 11
263.0
 21
241.75
 31
0.0
  0
ARC
  5
13D
  8
0
  6
CONTINUOUS
 62
     7
 10
263.0
 20
247.75
 30
0.0
 40
6.000000000000005
 50
180.0
 51
270.0
  0
LINE
  5
13E
  8
0
  6
CONTINUOUS
 62
     7
 10
282.1
 20
263.2701268402772
 30
0.0
 11
282.4999999999999
 21
263.2499999999999
 31
0.0
  0
POLYLINE
  5
13F
  8
0
  6
CONTINUOUS
 62
     7
 66
     1
 10
0.0
 20
0.0
 30
0.0
  0
VERTEX
  5
1AB
  8
0
  6
CONTINUOUS
 62
     7
 10
306.1
 20
261.852291902526
 30
0.0
  0
VERTEX
  5
1AC
  8
0
  6
CONTINUOUS
 62
     7
 10
306.1115288317581
 20
261.7347905813145
 30
0.0
  0
VERTEX
  5
1AD
  8
0
  6
CONTINUOUS
 62
     7
 10
306.1456722804932
 20
261.6218047699817
 30
0.0
  0
VERTEX
  5
1AE
  8
0
  6
CONTINUOUS
 62
     7
 10
306.2011182326185
 20
261.5176764498938
 30
0.0
  0
VERTEX
  5
1AF
  8
0
  6
CONTINUOUS
 62
     7
 10
306.2757359312881
 20
261.4264072139961
 30
0.0
  0
VERTEX
  5
1B0
  8
0
  6
CONTINUOUS
 62
     7
 10
306.3666578601882
 20
261.3515044878397
 30
0.0
  0
VERTEX
  5
1B1
  8
0
  6
CONTINUOUS
 62
     7
 10
306.470389940581
 20
261.295846741185
 30
0.0
  0
VERTEX
  5
1B2
  8
0
  6
CONTINUOUS
 62
     7
 10
306.5829458067903
 20
261.2615728700225
 30
0.0
  0
VERTEX
  5
1B3
  8
0
  6
CONTINUOUS
 62
     7
 10
306.7
 20
261.25
 30
0.0
  0
SEQEND
  5
2B5
  8
0
  6
CONTINUOUS
 62
     7
  0
POLYLINE
  5
140
  8
0
  6
CONTINUOUS
 62
     7
 66
     1
 10
0.0
 20
0.0
 30
0.0
  0
VERTEX
  5
1B4
  8
0
  6
CONTINUOUS
 62
     7
 10
306.7
 20
261.25
 30
0.0
  0
VERTEX
  5
1B5
  8
0
  6
CONTINUOUS
 62
     7
 10
306.8170541932097
 20
261.2615728700225
 30
0.0
  0
VERTEX
  5
1B6
  8
0
  6
CONTINUOUS
 62
     7
 10
306.929610059419
 20
261.295846741185
 30
0.0
  0
VERTEX
  5
1B7
  8
0
  6
CONTINUOUS
 62
     7
 10
307.0333421398117
 20
261.3515044878397
 30
0.0
  0
VERTEX
  5
1B8
  8
0
  6
CONTINUOUS
 62
     7
 10
307.1242640687119
 20
261.4264072139961
 30
0.0
  0
VERTEX
  5
1B9
  8
0
  6
CONTINUOUS
 62
     7
 10
307.1988817673815
 20
261.5176764498938
 30
0.0
  0
VERTEX
  5
1BA
  8
0
  6
CONTINUOUS
 62
     7
 10
307.2543277195068
 20
261.6218047699817
 30
0.0
  0
VERTEX
  5
1BB
  8
0
  6
CONTINUOUS
 62
     7
 10
307.2884711682419
 20
261.7347905813145
 30
0.0
  0
VERTEX
  5
1BC
  8
0
  6
CONTINUOUS
 62
     7
 10
307.3
 20
261.852291902526
 30
0.0
  0
SEQEND
  5
2B6
  8
0
  6
CONTINUOUS
 62
     7
  0
POLYLINE
  5
141
  8
0
  6
CONTINUOUS
 62
     7
 66
     1
 10
0.0
 20
0.0
 30
0.0
  0
VERTEX
  5
1BD
  8
0
  6
CONTINUOUS
 62
     7
 10
331.3
 20
261.852291902526
 30
0.0
  0
VERTEX
  5
1BE
  8
0
  6
CONTINUOUS
 62
     7
 10
331.311528831758
 20
261.7347905813145
 30
0.0
  0
VERTEX
  5
1BF
  8
0
  6
CONTINUOUS
 62
     7
 10
331.3456722804932
 20
261.6218047699817
 30
0.0
  0
VERTEX
  5
1C0
  8
0
  6
CONTINUOUS
 62
     7
 10
331.4011182326184
 20
261.5176764498938
 30
0.0
  0
VERTEX
  5
1C1
  8
0
  6
CONTINUOUS
 62
     7
 10
331.4757359312881
 20
261.4264072139961
 30
0.0
  0
VERTEX
  5
1C2
  8
0
  6
CONTINUOUS
 62
     7
 10
331.5666578601882
 20
261.3515044878397
 30
0.0
  0
VERTEX
  5
1C3
  8
0
  6
CONTINUOUS
 62
     7
 10
331.6703899405809
 20
261.295846741185
 30
0.0
  0
VERTEX
  5
1C4
  8
0
  6
CONTINUOUS
 62
     7
 10
331.7829458067903
 20
261.2615728700225
 30
0.0
  0
VERTEX
  5
1C5
  8
0
  6
CONTINUOUS
 62
     7
 10
331.9
 20
261.25
 30
0.0
  0
SEQEND
  5
2B7
  8
0
  6
CONTINUOUS
 62
     7
  0
POLYLINE
  5
142
  8
0
  6
CONTINUOUS
 62
     7
 66
     1
 10
0.0
 20
0.0
 30
0.0
  0
VERTEX
  5
1C6
  8
0
  6
CONTINUOUS
 62
     7
 10
356.4999999999999
 20
261.852291902526
 30
0.0
  0
VERTEX
  5
1C7
  8
0
  6
CONTINUOUS
 62
     7
 10
356.511528831758
 20
261.7347905813145
 30
0.0
  0
VERTEX
  5
1C8
  8
0
  6
CONTINUOUS
 62
     7
 10
356.5456722804932
 20
261.6218047699817
 30
0.0
  0
VERTEX
  5
1C9
  8
0
  6
CONTINUOUS
 62
     7
 10
356.6011182326184
 20
261.5176764498938
 30
0.0
  0
VERTEX
  5
1CA
  8
0
  6
CONTINUOUS
 62
     7
 10
356.675735931288
 20
261.4264072139961
 30
0.0
  0
VERTEX
  5
1CB
  8
0
  6
CONTINUOUS
 62
     7
 10
356.7666578601882
 20
261.3515044878397
 30
0.0
  0
VERTEX
  5
1CC
  8
0
  6
CONTINUOUS
 62
     7
 10
356.8703899405809
 20
261.295846741185
 30
0.0
  0
VERTEX
  5
1CD
  8
0
  6
CONTINUOUS
 62
     7
 10
356.9829458067903
 20
261.2615728700225
 30
0.0
  0
VERTEX
  5
1CE
  8
0
  6
CONTINUOUS
 62
     7
 10
357.1
 20
261.25
 30
0.0
  0
SEQEND
  5
2B8
  8
0
  6
CONTINUOUS
 62
     7
  0
POLYLINE
  5
143
  8
0
  6
CONTINUOUS
 62
     7
 66
     1
 10
0.0
 20
0.0
 30
0.0
  0
VERTEX
  5
1CF
  8
0
  6
CONTINUOUS
 62
     7
 10
357.1
 20
261.25
 30
0.0
  0
VERTEX
  5
1D0
  8
0
  6
CONTINUOUS
 62
     7
 10
357.2170541932097
 20
261.2615728700225
 30
0.0
  0
VERTEX
  5
1D1
  8
0
  6
CONTINUOUS
 62
     7
 10
357.329610059419
 20
261.295846741185
 30
0.0
  0
VERTEX
  5
1D2
  8
0
  6
CONTINUOUS
 62
     7
 10
357.4333421398117
 20
261.3515044878397
 30
0.0
  0
VERTEX
  5
1D3
  8
0
  6
CONTINUOUS
 62
     7
 10
357.5242640687119
 20
261.4264072139961
 30
0.0
  0
VERTEX
  5
1D4
  8
0
  6
CONTINUOUS
 62
     7
 10
357.5988817673815
 20
261.5176764498938
 30
0.0
  0
VERTEX
  5
1D5
  8
0
  6
CONTINUOUS
 62
     7
 10
357.6543277195067
 20
261.6218047699817
 30
0.0
  0
VERTEX
  5
1D6
  8
0
  6
CONTINUOUS
 62
     7
 10
357.6884711682419
 20
261.7347905813145
 30
0.0
  0
VERTEX
  5
1D7
  8
0
  6
CONTINUOUS
 62
     7
 10
357.7
 20
261.852291902526
 30
0.0
  0
SEQEND
  5
2B9
  8
0
  6
CONTINUOUS
 62
     7
  0
POLYLINE
  5
144
  8
0
  6
CONTINUOUS
 62
     7
 66
     1
 10
0.0
 20
0.0
 30
0.0
  0
VERTEX
  5
1D8
  8
0
  6
CONTINUOUS
 62
     7
 10
381.9
 20
261.852291902526
 30
0.0
  0
VERTEX
  5
1D9
  8
0
  6
CONTINUOUS
 62
     7
 10
381.9115288317581
 20
261.7347905813145
 30
0.0
  0
VERTEX
  5
1DA
  8
0
  6
CONTINUOUS
 62
     7
 10
381.9456722804932
 20
261.6218047699817
 30
0.0
  0
VERTEX
  5
1DB
  8
0
  6
CONTINUOUS
 62
     7
 10
382.0011182326185
 20
261.5176764498938
 30
0.0
  0
VERTEX
  5
1DC
  8
0
  6
CONTINUOUS
 62
     7
 10
382.0757359312881
 20
261.4264072139961
 30
0.0
  0
VERTEX
  5
1DD
  8
0
  6
CONTINUOUS
 62
     7
 10
382.1666578601883
 20
261.3515044878397
 30
0.0
  0
VERTEX
  5
1DE
  8
0
  6
CONTINUOUS
 62
     7
 10
382.270389940581
 20
261.295846741185
 30
0.0
  0
VERTEX
  5
1DF
  8
0
  6
CONTINUOUS
 62
     7
 10
382.3829458067903
 20
261.2615728700225
 30
0.0
  0
VERTEX
  5
1E0
  8
0
  6
CONTINUOUS
 62
     7
 10
382.5
 20
261.25
 30
0.0
  0
SEQEND
  5
2BA
  8
0
  6
CONTINUOUS
 62
     7
  0
POLYLINE
  5
145
  8
0
  6
CONTINUOUS
 62
     7
 66
     1
 10
0.0
 20
0.0
 30
0.0
  0
VERTEX
  5
1E1
  8
0
  6
CONTINUOUS
 62
     7
 10
382.5
 20
261.25
 30
0.0
  0
VERTEX
  5
1E2
  8
0
  6
CONTINUOUS
 62
     7
 10
382.6170541932097
 20
261.2615728700225
 30
0.0
  0
VERTEX
  5
1E3
  8
0
  6
CONTINUOUS
 62
     7
 10
382.729610059419
 20
261.295846741185
 30
0.0
  0
VERTEX
  5
1E4
  8
0
  6
CONTINUOUS
 62
     7
 10
382.8333421398117
 20
261.3515044878397
 30
0.0
  0
VERTEX
  5
1E5
  8
0
  6
CONTINUOUS
 62
     7
 10
382.9242640687119
 20
261.4264072139961
 30
0.0
  0
VERTEX
  5
1E6
  8
0
  6
CONTINUOUS
 62
     7
 10
382.9988817673815
 20
261.5176764498938
 30
0.0
  0
VERTEX
  5
1E7
  8
0
  6
CONTINUOUS
 62
     7
 10
383.0543277195068
 20
261.6218047699817
 30
0.0
  0
VERTEX
  5
1E8
  8
0
  6
CONTINUOUS
 62
     7
 10
383.0884711682419
 20
261.7347905813145
 30
0.0
  0
VERTEX
  5
1E9
  8
0
  6
CONTINUOUS
 62
     7
 10
383.1
 20
261.852291902526
 30
0.0
  0
SEQEND
  5
2BB
  8
0
  6
CONTINUOUS
 62
     7
  0
POLYLINE
  5
146
  8
0
  6
CONTINUOUS
 62
     7
 66
     1
 10
0.0
 20
0.0
 30
0.0
  0
VERTEX
  5
1EA
  8
0
  6
CONTINUOUS
 62
     7
 10
407.3
 20
261.852291902526
 30
0.0
  0
VERTEX
  5
1EB
  8
0
  6
CONTINUOUS
 62
     7
 10
407.3115288317581
 20
261.7347905813145
 30
0.0
  0
VERTEX
  5
1EC
  8
0
  6
CONTINUOUS
 62
     7
 10
407.3456722804933
 20
261.6218047699817
 30
0.0
  0
VERTEX
  5
1ED
  8
0
  6
CONTINUOUS
 62
     7
 10
407.4011182326185
 20
261.5176764498938
 30
0.0
  0
VERTEX
  5
1EE
  8
0
  6
CONTINUOUS
 62
     7
 10
407.4757359312881
 20
261.4264072139961
 30
0.0
  0
VERTEX
  5
1EF
  8
0
  6
CONTINUOUS
 62
     7
 10
407.5666578601883
 20
261.3515044878397
 30
0.0
  0
VERTEX
  5
1F0
  8
0
  6
CONTINUOUS
 62
     7
 10
407.670389940581
 20
261.295846741185
 30
0.0
  0
VERTEX
  5
1F1
  8
0
  6
CONTINUOUS
 62
     7
 10
407.7829458067903
 20
261.2615728700225
 30
0.0
  0
VERTEX
  5
1F2
  8
0
  6
CONTINUOUS
 62
     7
 10
407.9
 20
261.25
 30
0.0
  0
SEQEND
  5
2BC
  8
0
  6
CONTINUOUS
 62
     7
  0
POLYLINE
  5
147
  8
0
  6
CONTINUOUS
 62
     7
 66
     1
 10
0.0
 20
0.0
 30
0.0
  0
VERTEX
  5
1F3
  8
0
  6
CONTINUOUS
 62
     7
 10
407.9
 20
261.25
 30
0.0
  0
VERTEX
  5
1F4
  8
0
  6
CONTINUOUS
 62
     7
 10
408.0170541932097
 20
261.2615728700225
 30
0.0
  0
VERTEX
  5
1F5
  8
0
  6
CONTINUOUS
 62
     7
 10
408.1296100594191
 20
261.295846741185
 30
0.0
  0
VERTEX
  5
1F6
  8
0
  6
CONTINUOUS
 62
     7
 10
408.2333421398118
 20
261.3515044878397
 30
0.0
  0
VERTEX
  5
1F7
  8
0
  6
CONTINUOUS
 62
     7
 10
408.324264068712
 20
261.4264072139961
 30
0.0
  0
VERTEX
  5
1F8
  8
0
  6
CONTINUOUS
 62
     7
 10
408.3988817673816
 20
261.5176764498938
 30
0.0
  0
VERTEX
  5
1F9
  8
0
  6
CONTINUOUS
 62
     7
 10
408.4543277195068
 20
261.6218047699817
 30
0.0
  0
VERTEX
  5
1FA
  8
0
  6
CONTINUOUS
 62
     7
 10
408.488471168242
 20
261.7347905813145
 30
0.0
  0
VERTEX
  5
1FB
  8
0
  6
CONTINUOUS
 62
     7
 10
408.5000000000001
 20
261.852291902526
 30
0.0
  0
SEQEND
  5
2BD
  8
0
  6
CONTINUOUS
 62
     7
  0
POLYLINE
  5
148
  8
0
  6
CONTINUOUS
 62
     7
 66
     1
 10
0.0
 20
0.0
 30
0.0
  0
VERTEX
  5
1FC
  8
0
  6
CONTINUOUS
 62
     7
 10
432.5
 20
261.852291902526
 30
0.0
  0
VERTEX
  5
1FD
  8
0
  6
CONTINUOUS
 62
     7
 10
432.5115288317581
 20
261.7347905813145
 30
0.0
  0
VERTEX
  5
1FE
  8
0
  6
CONTINUOUS
 62
     7
 10
432.5456722804932
 20
261.6218047699817
 30
0.0
  0
VERTEX
  5
1FF
  8
0
  6
CONTINUOUS
 62
     7
 10
432.6011182326185
 20
261.5176764498938
 30
0.0
  0
VERTEX
  5
200
  8
0
  6
CONTINUOUS
 62
     7
 10
432.6757359312881
 20
261.4264072139961
 30
0.0
  0
VERTEX
  5
201
  8
0
  6
CONTINUOUS
 62
     7
 10
432.7666578601883
 20
261.3515044878397
 30
0.0
  0
VERTEX
  5
202
  8
0
  6
CONTINUOUS
 62
     7
 10
432.870389940581
 20
261.295846741185
 30
0.0
  0
VERTEX
  5
203
  8
0
  6
CONTINUOUS
 62
     7
 10
432.9829458067903
 20
261.2615728700225
 30
0.0
  0
VERTEX
  5
204
  8
0
  6
CONTINUOUS
 62
     7
 10
433.1
 20
261.25
 30
0.0
  0
SEQEND
  5
2BE
  8
0
  6
CONTINUOUS
 62
     7
  0
POLYLINE
  5
149
  8
0
  6
CONTINUOUS
 62
     7
 66
     1
 10
0.0
 20
0.0
 30
0.0
  0
VERTEX
  5
205
  8
0
  6
CONTINUOUS
 62
     7
 10
433.1
 20
261.25
 30
0.0
  0
VERTEX
  5
206
  8
0
  6
CONTINUOUS
 62
     7
 10
433.2170541932097
 20
261.2615728700225
 30
0.0
  0
VERTEX
  5
207
  8
0
  6
CONTINUOUS
 62
     7
 10
433.3296100594191
 20
261.295846741185
 30
0.0
  0
VERTEX
  5
208
  8
0
  6
CONTINUOUS
 62
     7
 10
433.4333421398118
 20
261.3515044878397
 30
0.0
  0
VERTEX
  5
209
  8
0
  6
CONTINUOUS
 62
     7
 10
433.5242640687119
 20
261.4264072139961
 30
0.0
  0
VERTEX
  5
20A
  8
0
  6
CONTINUOUS
 62
     7
 10
433.5988817673816
 20
261.5176764498938
 30
0.0
  0
VERTEX
  5
20B
  8
0
  6
CONTINUOUS
 62
     7
 10
433.6543277195068
 20
261.6218047699817
 30
0.0
  0
VERTEX
  5
20C
  8
0
  6
CONTINUOUS
 62
     7
 10
433.688471168242
 20
261.7347905813145
 30
0.0
  0
VERTEX
  5
20D
  8
0
  6
CONTINUOUS
 62
     7
 10
433.7
 20
261.852291902526
 30
0.0
  0
SEQEND
  5
2BF
  8
0
  6
CONTINUOUS
 62
     7
  0
POLYLINE
  5
14A
  8
0
  6
CONTINUOUS
 62
     7
 66
     1
 10
0.0
 20
0.0
 30
0.0
  0
VERTEX
  5
20E
  8
0
  6
CONTINUOUS
 62
     7
 10
457.7
 20
261.852291902526
 30
0.0
  0
VERTEX
  5
20F
  8
0
  6
CONTINUOUS
 62
     7
 10
457.7115288317581
 20
261.7347905813145
 30
0.0
  0
VERTEX
  5
210
  8
0
  6
CONTINUOUS
 62
     7
 10
457.7456722804932
 20
261.6218047699817
 30
0.0
  0
VERTEX
  5
211
  8
0
  6
CONTINUOUS
 62
     7
 10
457.8011182326185
 20
261.5176764498938
 30
0.0
  0
VERTEX
  5
212
  8
0
  6
CONTINUOUS
 62
     7
 10
457.8757359312881
 20
261.4264072139961
 30
0.0
  0
VERTEX
  5
213
  8
0
  6
CONTINUOUS
 62
     7
 10
457.9666578601883
 20
261.3515044878397
 30
0.0
  0
VERTEX
  5
214
  8
0
  6
CONTINUOUS
 62
     7
 10
458.070389940581
 20
261.295846741185
 30
0.0
  0
VERTEX
  5
215
  8
0
  6
CONTINUOUS
 62
     7
 10
458.1829458067903
 20
261.2615728700225
 30
0.0
  0
VERTEX
  5
216
  8
0
  6
CONTINUOUS
 62
     7
 10
458.3
 20
261.25
 30
0.0
  0
SEQEND
  5
2C0
  8
0
  6
CONTINUOUS
 62
     7
  0
POLYLINE
  5
14B
  8
0
  6
CONTINUOUS
 62
     7
 66
     1
 10
0.0
 20
0.0
 30
0.0
  0
VERTEX
  5
217
  8
0
  6
CONTINUOUS
 62
     7
 10
458.3
 20
261.25
 30
0.0
  0
VERTEX
  5
218
  8
0
  6
CONTINUOUS
 62
     7
 10
458.4170541932097
 20
261.2615728700225
 30
0.0
  0
VERTEX
  5
219
  8
0
  6
CONTINUOUS
 62
     7
 10
458.529610059419
 20
261.295846741185
 30
0.0
  0
VERTEX
  5
21A
  8
0
  6
CONTINUOUS
 62
     7
 10
458.6333421398118
 20
261.3515044878397
 30
0.0
  0
VERTEX
  5
21B
  8
0
  6
CONTINUOUS
 62
     7
 10
458.7242640687119
 20
261.4264072139961
 30
0.0
  0
VERTEX
  5
21C
  8
0
  6
CONTINUOUS
 62
     7
 10
458.7988817673815
 20
261.5176764498938
 30
0.0
  0
VERTEX
  5
21D
  8
0
  6
CONTINUOUS
 62
     7
 10
458.8543277195068
 20
261.6218047699817
 30
0.0
  0
VERTEX
  5
21E
  8
0
  6
CONTINUOUS
 62
     7
 10
458.8884711682419
 20
261.7347905813145
 30
0.0
  0
VERTEX
  5
21F
  8
0
  6
CONTINUOUS
 62
     7
 10
458.9
 20
261.852291902526
 30
0.0
  0
SEQEND
  5
2C1
  8
0
  6
CONTINUOUS
 62
     7
  0
LINE
  5
14C
  8
0
  6
CONTINUOUS
 62
     7
 10
482.5000000000001
 20
263.2499999999999
 30
0.0
 11
482.9
 21
263.2701268402772
 31
0.0
  0
LINE
  5
14D
  8
0
  6
CONTINUOUS
 62
     7
 10
483.0015473934639
 20
257.2498236853299
 30
0.0
 11
482.8999999999999
 21
258.22096986204
 31
0.0
  0
LINE
  5
14E
  8
0
  6
CONTINUOUS
 62
     7
 10
484.1
 20
258.22096986204
 30
0.0
 11
483.9984509284055
 21
257.2498147303693
 31
0.0
  0
POLYLINE
  5
14F
  8
0
  6
CONTINUOUS
 62
     7
 66
     1
 10
0.0
 20
0.0
 30
0.0
  0
VERTEX
  5
220
  8
0
  6
CONTINUOUS
 62
     7
 10
484.1
 20
263.5852150384608
 30
0.0
  0
VERTEX
  5
221
  8
0
  6
CONTINUOUS
 62
     7
 10
484.7741602254075
 20
263.9620873850093
 30
0.0
  0
VERTEX
  5
222
  8
0
  6
CONTINUOUS
 62
     7
 10
485.3636867427435
 20
264.4618892337805
 30
0.0
  0
VERTEX
  5
223
  8
0
  6
CONTINUOUS
 62
     7
 10
485.8466401061364
 20
265.0660202753987
 30
0.0
  0
VERTEX
  5
224
  8
0
  6
CONTINUOUS
 62
     7
 10
486.2050470287821
 20
265.7519975512568
 30
0.0
  0
VERTEX
  5
225
  8
0
  6
CONTINUOUS
 62
     7
 10
486.4255692654142
 20
266.4942921650793
 30
0.0
  0
VERTEX
  5
226
  8
0
  6
CONTINUOUS
 62
     7
 10
486.5000000000001
 20
267.2652793501733
 30
0.0
  0
SEQEND
  5
2C2
  8
0
  6
CONTINUOUS
 62
     7
  0
LINE
  5
150
  8
0
  6
CONTINUOUS
 62
     7
 10
486.5000000000001
 20
419.2347206498266
 30
0.0
 11
486.5000000000001
 21
267.2652793501733
 31
0.0
  0
POLYLINE
  5
151
  8
0
  6
CONTINUOUS
 62
     7
 66
     1
 10
0.0
 20
0.0
 30
0.0
  0
VERTEX
  5
227
  8
0
  6
CONTINUOUS
 62
     7
 10
486.5000000000001
 20
419.2347206498266
 30
0.0
  0
VERTEX
  5
228
  8
0
  6
CONTINUOUS
 62
     7
 10
486.4255692654142
 20
420.0057078349205
 30
0.0
  0
VERTEX
  5
229
  8
0
  6
CONTINUOUS
 62
     7
 10
486.2050470287821
 20
420.7480024487431
 30
0.0
  0
VERTEX
  5
22A
  8
0
  6
CONTINUOUS
 62
     7
 10
485.8466401061364
 20
421.4339797246012
 30
0.0
  0
VERTEX
  5
22B
  8
0
  6
CONTINUOUS
 62
     7
 10
485.3636867427435
 20
422.0381107662193
 30
0.0
  0
VERTEX
  5
22C
  8
0
  6
CONTINUOUS
 62
     7
 10
484.7741602254075
 20
422.5379126149905
 30
0.0
  0
VERTEX
  5
22D
  8
0
  6
CONTINUOUS
 62
     7
 10
484.1
 20
422.9147849615391
 30
0.0
  0
SEQEND
  5
2C3
  8
0
  6
CONTINUOUS
 62
     7
  0
LINE
  5
152
  8
0
  6
CONTINUOUS
 62
     7
 10
483.998452606536
 20
429.25017631467
 30
0.0
 11
484.1
 21
428.2790301379599
 31
0.0
  0
LINE
  5
153
  8
0
  6
CONTINUOUS
 62
     7
 10
482.9
 20
428.2790301379599
 30
0.0
 11
483.0015490715944
 21
429.2501852696306
 31
0.0
  0
LINE
  5
154
  8
0
  6
CONTINUOUS
 62
     7
 10
482.9
 20
423.2298731597227
 30
0.0
 11
482.5000000000001
 21
423.2499999999999
 31
0.0
  0
LINE
  5
155
  8
0
  6
CONTINUOUS
 62
     7
 10
458.9
 20
423.2499999999999
 30
0.0
 11
482.5000000000001
 21
423.2499999999999
 31
0.0
  0
POLYLINE
  5
156
  8
0
  6
CONTINUOUS
 62
     7
 66
     1
 10
0.0
 20
0.0
 30
0.0
  0
VERTEX
  5
22E
  8
0
  6
CONTINUOUS
 62
     7
 10
458.9
 20
424.6477080974739
 30
0.0
  0
VERTEX
  5
22F
  8
0
  6
CONTINUOUS
 62
     7
 10
458.8884711682419
 20
424.7652094186855
 30
0.0
  0
VERTEX
  5
230
  8
0
  6
CONTINUOUS
 62
     7
 10
458.8543277195068
 20
424.8781952300183
 30
0.0
  0
VERTEX
  5
231
  8
0
  6
CONTINUOUS
 62
     7
 10
458.7988817673815
 20
424.9823235501061
 30
0.0
  0
VERTEX
  5
232
  8
0
  6
CONTINUOUS
 62
     7
 10
458.7242640687119
 20
425.0735927860038
 30
0.0
  0
VERTEX
  5
233
  8
0
  6
CONTINUOUS
 62
     7
 10
458.6333421398118
 20
425.1484955121602
 30
0.0
  0
VERTEX
  5
234
  8
0
  6
CONTINUOUS
 62
     7
 10
458.529610059419
 20
425.204153258815
 30
0.0
  0
VERTEX
  5
235
  8
0
  6
CONTINUOUS
 62
     7
 10
458.4170541932097
 20
425.2384271299775
 30
0.0
  0
VERTEX
  5
236
  8
0
  6
CONTINUOUS
 62
     7
 10
458.3
 20
425.2499999999999
 30
0.0
  0
SEQEND
  5
2C4
  8
0
  6
CONTINUOUS
 62
     7
  0
POLYLINE
  5
157
  8
0
  6
CONTINUOUS
 62
     7
 66
     1
 10
0.0
 20
0.0
 30
0.0
  0
VERTEX
  5
237
  8
0
  6
CONTINUOUS
 62
     7
 10
458.3
 20
425.2499999999999
 30
0.0
  0
VERTEX
  5
238
  8
0
  6
CONTINUOUS
 62
     7
 10
458.1829458067903
 20
425.2384271299775
 30
0.0
  0
VERTEX
  5
239
  8
0
  6
CONTINUOUS
 62
     7
 10
458.070389940581
 20
425.204153258815
 30
0.0
  0
VERTEX
  5
23A
  8
0
  6
CONTINUOUS
 62
     7
 10
457.9666578601883
 20
425.1484955121602
 30
0.0
  0
VERTEX
  5
23B
  8
0
  6
CONTINUOUS
 62
     7
 10
457.8757359312881
 20
425.0735927860038
 30
0.0
  0
VERTEX
  5
23C
  8
0
  6
CONTINUOUS
 62
     7
 10
457.8011182326185
 20
424.9823235501061
 30
0.0
  0
VERTEX
  5
23D
  8
0
  6
CONTINUOUS
 62
     7
 10
457.7456722804932
 20
424.8781952300183
 30
0.0
  0
VERTEX
  5
23E
  8
0
  6
CONTINUOUS
 62
     7
 10
457.7115288317581
 20
424.7652094186854
 30
0.0
  0
VERTEX
  5
23F
  8
0
  6
CONTINUOUS
 62
     7
 10
457.7
 20
424.6477080974739
 30
0.0
  0
SEQEND
  5
2C5
  8
0
  6
CONTINUOUS
 62
     7
  0
LINE
  5
158
  8
0
  6
CONTINUOUS
 62
     7
 10
433.7
 20
423.2499999999999
 30
0.0
 11
457.7
 21
423.2499999999999
 31
0.0
  0
POLYLINE
  5
159
  8
0
  6
CONTINUOUS
 62
     7
 66
     1
 10
0.0
 20
0.0
 30
0.0
  0
VERTEX
  5
240
  8
0
  6
CONTINUOUS
 62
     7
 10
433.7
 20
424.6477080974739
 30
0.0
  0
VERTEX
  5
241
  8
0
  6
CONTINUOUS
 62
     7
 10
433.688471168242
 20
424.7652094186855
 30
0.0
  0
VERTEX
  5
242
  8
0
  6
CONTINUOUS
 62
     7
 10
433.6543277195068
 20
424.8781952300183
 30
0.0
  0
VERTEX
  5
243
  8
0
  6
CONTINUOUS
 62
     7
 10
433.5988817673816
 20
424.9823235501061
 30
0.0
  0
VERTEX
  5
244
  8
0
  6
CONTINUOUS
 62
     7
 10
433.5242640687119
 20
425.0735927860038
 30
0.0
  0
VERTEX
  5
245
  8
0
  6
CONTINUOUS
 62
     7
 10
433.4333421398118
 20
425.1484955121602
 30
0.0
  0
VERTEX
  5
246
  8
0
  6
CONTINUOUS
 62
     7
 10
433.3296100594191
 20
425.204153258815
 30
0.0
  0
VERTEX
  5
247
  8
0
  6
CONTINUOUS
 62
     7
 10
433.2170541932097
 20
425.2384271299775
 30
0.0
  0
VERTEX
  5
248
  8
0
  6
CONTINUOUS
 62
     7
 10
433.1
 20
425.2499999999999
 30
0.0
  0
SEQEND
  5
2C6
  8
0
  6
CONTINUOUS
 62
     7
  0
POLYLINE
  5
15A
  8
0
  6
CONTINUOUS
 62
     7
 66
     1
 10
0.0
 20
0.0
 30
0.0
  0
VERTEX
  5
249
  8
0
  6
CONTINUOUS
 62
     7
 10
433.1
 20
425.2499999999999
 30
0.0
  0
VERTEX
  5
24A
  8
0
  6
CONTINUOUS
 62
     7
 10
432.9829458067903
 20
425.2384271299775
 30
0.0
  0
VERTEX
  5
24B
  8
0
  6
CONTINUOUS
 62
     7
 10
432.870389940581
 20
425.204153258815
 30
0.0
  0
VERTEX
  5
24C
  8
0
  6
CONTINUOUS
 62
     7
 10
432.7666578601883
 20
425.1484955121602
 30
0.0
  0
VERTEX
  5
24D
  8
0
  6
CONTINUOUS
 62
     7
 10
432.6757359312881
 20
425.0735927860038
 30
0.0
  0
VERTEX
  5
24E
  8
0
  6
CONTINUOUS
 62
     7
 10
432.6011182326185
 20
424.9823235501061
 30
0.0
  0
VERTEX
  5
24F
  8
0
  6
CONTINUOUS
 62
     7
 10
432.5456722804932
 20
424.8781952300183
 30
0.0
  0
VERTEX
  5
250
  8
0
  6
CONTINUOUS
 62
     7
 10
432.5115288317581
 20
424.7652094186854
 30
0.0
  0
VERTEX
  5
251
  8
0
  6
CONTINUOUS
 62
     7
 10
432.5
 20
424.6477080974739
 30
0.0
  0
SEQEND
  5
2C7
  8
0
  6
CONTINUOUS
 62
     7
  0
LINE
  5
15B
  8
0
  6
CONTINUOUS
 62
     7
 10
408.5
 20
423.2499999999999
 30
0.0
 11
432.5
 21
423.2499999999999
 31
0.0
  0
POLYLINE
  5
15C
  8
0
  6
CONTINUOUS
 62
     7
 66
     1
 10
0.0
 20
0.0
 30
0.0
  0
VERTEX
  5
252
  8
0
  6
CONTINUOUS
 62
     7
 10
408.5000000000001
 20
424.6477080974739
 30
0.0
  0
VERTEX
  5
253
  8
0
  6
CONTINUOUS
 62
     7
 10
408.488471168242
 20
424.7652094186855
 30
0.0
  0
VERTEX
  5
254
  8
0
  6
CONTINUOUS
 62
     7
 10
408.4543277195068
 20
424.8781952300183
 30
0.0
  0
VERTEX
  5
255
  8
0
  6
CONTINUOUS
 62
     7
 10
408.3988817673816
 20
424.9823235501061
 30
0.0
  0
VERTEX
  5
256
  8
0
  6
CONTINUOUS
 62
     7
 10
408.324264068712
 20
425.0735927860038
 30
0.0
  0
VERTEX
  5
257
  8
0
  6
CONTINUOUS
 62
     7
 10
408.2333421398118
 20
425.1484955121602
 30
0.0
  0
VERTEX
  5
258
  8
0
  6
CONTINUOUS
 62
     7
 10
408.1296100594191
 20
425.204153258815
 30
0.0
  0
VERTEX
  5
259
  8
0
  6
CONTINUOUS
 62
     7
 10
408.0170541932097
 20
425.2384271299775
 30
0.0
  0
VERTEX
  5
25A
  8
0
  6
CONTINUOUS
 62
     7
 10
407.9
 20
425.2499999999999
 30
0.0
  0
SEQEND
  5
2C8
  8
0
  6
CONTINUOUS
 62
     7
  0
POLYLINE
  5
15D
  8
0
  6
CONTINUOUS
 62
     7
 66
     1
 10
0.0
 20
0.0
 30
0.0
  0
VERTEX
  5
25B
  8
0
  6
CONTINUOUS
 62
     7
 10
407.9
 20
425.2499999999999
 30
0.0
  0
VERTEX
  5
25C
  8
0
  6
CONTINUOUS
 62
     7
 10
407.7829458067903
 20
425.2384271299775
 30
0.0
  0
VERTEX
  5
25D
  8
0
  6
CONTINUOUS
 62
     7
 10
407.670389940581
 20
425.204153258815
 30
0.0
  0
VERTEX
  5
25E
  8
0
  6
CONTINUOUS
 62
     7
 10
407.5666578601883
 20
425.1484955121602
 30
0.0
  0
VERTEX
  5
25F
  8
0
  6
CONTINUOUS
 62
     7
 10
407.4757359312881
 20
425.0735927860038
 30
0.0
  0
VERTEX
  5
260
  8
0
  6
CONTINUOUS
 62
     7
 10
407.4011182326185
 20
424.9823235501061
 30
0.0
  0
VERTEX
  5
261
  8
0
  6
CONTINUOUS
 62
     7
 10
407.3456722804933
 20
424.8781952300183
 30
0.0
  0
VERTEX
  5
262
  8
0
  6
CONTINUOUS
 62
     7
 10
407.3115288317581
 20
424.7652094186854
 30
0.0
  0
VERTEX
  5
263
  8
0
  6
CONTINUOUS
 62
     7
 10
407.3
 20
424.6477080974739
 30
0.0
  0
SEQEND
  5
2C9
  8
0
  6
CONTINUOUS
 62
     7
  0
LINE
  5
15E
  8
0
  6
CONTINUOUS
 62
     7
 10
383.1
 20
423.2499999999999
 30
0.0
 11
407.3
 21
423.2499999999999
 31
0.0
  0
POLYLINE
  5
15F
  8
0
  6
CONTINUOUS
 62
     7
 66
     1
 10
0.0
 20
0.0
 30
0.0
  0
VERTEX
  5
264
  8
0
  6
CONTINUOUS
 62
     7
 10
383.1
 20
424.6477080974739
 30
0.0
  0
VERTEX
  5
265
  8
0
  6
CONTINUOUS
 62
     7
 10
383.0884711682419
 20
424.7652094186855
 30
0.0
  0
VERTEX
  5
266
  8
0
  6
CONTINUOUS
 62
     7
 10
383.0543277195068
 20
424.8781952300183
 30
0.0
  0
VERTEX
  5
267
  8
0
  6
CONTINUOUS
 62
     7
 10
382.9988817673815
 20
424.9823235501061
 30
0.0
  0
VERTEX
  5
268
  8
0
  6
CONTINUOUS
 62
     7
 10
382.9242640687119
 20
425.0735927860038
 30
0.0
  0
VERTEX
  5
269
  8
0
  6
CONTINUOUS
 62
     7
 10
382.8333421398117
 20
425.1484955121602
 30
0.0
  0
VERTEX
  5
26A
  8
0
  6
CONTINUOUS
 62
     7
 10
382.729610059419
 20
425.204153258815
 30
0.0
  0
VERTEX
  5
26B
  8
0
  6
CONTINUOUS
 62
     7
 10
382.6170541932097
 20
425.2384271299775
 30
0.0
  0
VERTEX
  5
26C
  8
0
  6
CONTINUOUS
 62
     7
 10
382.5
 20
425.2499999999999
 30
0.0
  0
SEQEND
  5
2CA
  8
0
  6
CONTINUOUS
 62
     7
  0
POLYLINE
  5
160
  8
0
  6
CONTINUOUS
 62
     7
 66
     1
 10
0.0
 20
0.0
 30
0.0
  0
VERTEX
  5
26D
  8
0
  6
CONTINUOUS
 62
     7
 10
382.5
 20
425.2499999999999
 30
0.0
  0
VERTEX
  5
26E
  8
0
  6
CONTINUOUS
 62
     7
 10
382.3829458067903
 20
425.2384271299775
 30
0.0
  0
VERTEX
  5
26F
  8
0
  6
CONTINUOUS
 62
     7
 10
382.270389940581
 20
425.204153258815
 30
0.0
  0
VERTEX
  5
270
  8
0
  6
CONTINUOUS
 62
     7
 10
382.1666578601883
 20
425.1484955121602
 30
0.0
  0
VERTEX
  5
271
  8
0
  6
CONTINUOUS
 62
     7
 10
382.0757359312881
 20
425.0735927860038
 30
0.0
  0
VERTEX
  5
272
  8
0
  6
CONTINUOUS
 62
     7
 10
382.0011182326185
 20
424.9823235501061
 30
0.0
  0
VERTEX
  5
273
  8
0
  6
CONTINUOUS
 62
     7
 10
381.9456722804932
 20
424.8781952300183
 30
0.0
  0
VERTEX
  5
274
  8
0
  6
CONTINUOUS
 62
     7
 10
381.9115288317581
 20
424.7652094186854
 30
0.0
  0
VERTEX
  5
275
  8
0
  6
CONTINUOUS
 62
     7
 10
381.9
 20
424.6477080974739
 30
0.0
  0
SEQEND
  5
2CB
  8
0
  6
CONTINUOUS
 62
     7
  0
LINE
  5
161
  8
0
  6
CONTINUOUS
 62
     7
 10
357.7
 20
423.2499999999999
 30
0.0
 11
381.9
 21
423.2499999999999
 31
0.0
  0
POLYLINE
  5
162
  8
0
  6
CONTINUOUS
 62
     7
 66
     1
 10
0.0
 20
0.0
 30
0.0
  0
VERTEX
  5
276
  8
0
  6
CONTINUOUS
 62
     7
 10
357.7
 20
424.6477080974739
 30
0.0
  0
VERTEX
  5
277
  8
0
  6
CONTINUOUS
 62
     7
 10
357.6884711682419
 20
424.7652094186855
 30
0.0
  0
VERTEX
  5
278
  8
0
  6
CONTINUOUS
 62
     7
 10
357.6543277195067
 20
424.8781952300183
 30
0.0
  0
VERTEX
  5
279
  8
0
  6
CONTINUOUS
 62
     7
 10
357.5988817673815
 20
424.9823235501061
 30
0.0
  0
VERTEX
  5
27A
  8
0
  6
CONTINUOUS
 62
     7
 10
357.5242640687119
 20
425.0735927860038
 30
0.0
  0
VERTEX
  5
27B
  8
0
  6
CONTINUOUS
 62
     7
 10
357.4333421398117
 20
425.1484955121602
 30
0.0
  0
VERTEX
  5
27C
  8
0
  6
CONTINUOUS
 62
     7
 10
357.329610059419
 20
425.204153258815
 30
0.0
  0
VERTEX
  5
27D
  8
0
  6
CONTINUOUS
 62
     7
 10
357.2170541932097
 20
425.2384271299775
 30
0.0
  0
VERTEX
  5
27E
  8
0
  6
CONTINUOUS
 62
     7
 10
357.1
 20
425.2499999999999
 30
0.0
  0
SEQEND
  5
2CC
  8
0
  6
CONTINUOUS
 62
     7
  0
POLYLINE
  5
163
  8
0
  6
CONTINUOUS
 62
     7
 66
     1
 10
0.0
 20
0.0
 30
0.0
  0
VERTEX
  5
27F
  8
0
  6
CONTINUOUS
 62
     7
 10
357.1
 20
425.2499999999999
 30
0.0
  0
VERTEX
  5
280
  8
0
  6
CONTINUOUS
 62
     7
 10
356.9829458067903
 20
425.2384271299775
 30
0.0
  0
VERTEX
  5
281
  8
0
  6
CONTINUOUS
 62
     7
 10
356.8703899405809
 20
425.204153258815
 30
0.0
  0
VERTEX
  5
282
  8
0
  6
CONTINUOUS
 62
     7
 10
356.7666578601882
 20
425.1484955121602
 30
0.0
  0
VERTEX
  5
283
  8
0
  6
CONTINUOUS
 62
     7
 10
356.675735931288
 20
425.0735927860038
 30
0.0
  0
VERTEX
  5
284
  8
0
  6
CONTINUOUS
 62
     7
 10
356.6011182326184
 20
424.9823235501061
 30
0.0
  0
VERTEX
  5
285
  8
0
  6
CONTINUOUS
 62
     7
 10
356.5456722804932
 20
424.8781952300183
 30
0.0
  0
VERTEX
  5
286
  8
0
  6
CONTINUOUS
 62
     7
 10
356.511528831758
 20
424.7652094186854
 30
0.0
  0
VERTEX
  5
287
  8
0
  6
CONTINUOUS
 62
     7
 10
356.4999999999999
 20
424.6477080974739
 30
0.0
  0
SEQEND
  5
2CD
  8
0
  6
CONTINUOUS
 62
     7
  0
LINE
  5
164
  8
0
  6
CONTINUOUS
 62
     7
 10
332.5
 20
423.2499999999999
 30
0.0
 11
356.5000000000001
 21
423.2499999999999
 31
0.0
  0
POLYLINE
  5
165
  8
0
  6
CONTINUOUS
 62
     7
 66
     1
 10
0.0
 20
0.0
 30
0.0
  0
VERTEX
  5
288
  8
0
  6
CONTINUOUS
 62
     7
 10
331.9
 20
425.2499999999999
 30
0.0
  0
VERTEX
  5
289
  8
0
  6
CONTINUOUS
 62
     7
 10
331.7829458067903
 20
425.2384271299775
 30
0.0
  0
VERTEX
  5
28A
  8
0
  6
CONTINUOUS
 62
     7
 10
331.6703899405809
 20
425.204153258815
 30
0.0
  0
VERTEX
  5
28B
  8
0
  6
CONTINUOUS
 62
     7
 10
331.5666578601882
 20
425.1484955121602
 30
0.0
  0
VERTEX
  5
28C
  8
0
  6
CONTINUOUS
 62
     7
 10
331.4757359312881
 20
425.0735927860038
 30
0.0
  0
VERTEX
  5
28D
  8
0
  6
CONTINUOUS
 62
     7
 10
331.4011182326184
 20
424.9823235501061
 30
0.0
  0
VERTEX
  5
28E
  8
0
  6
CONTINUOUS
 62
     7
 10
331.3456722804932
 20
424.8781952300183
 30
0.0
  0
VERTEX
  5
28F
  8
0
  6
CONTINUOUS
 62
     7
 10
331.311528831758
 20
424.7652094186854
 30
0.0
  0
VERTEX
  5
290
  8
0
  6
CONTINUOUS
 62
     7
 10
331.3
 20
424.6477080974739
 30
0.0
  0
SEQEND
  5
2CE
  8
0
  6
CONTINUOUS
 62
     7
  0
LINE
  5
166
  8
0
  6
CONTINUOUS
 62
     7
 10
307.3
 20
423.2499999999999
 30
0.0
 11
331.3
 21
423.2499999999999
 31
0.0
  0
POLYLINE
  5
167
  8
0
  6
CONTINUOUS
 62
     7
 66
     1
 10
0.0
 20
0.0
 30
0.0
  0
VERTEX
  5
291
  8
0
  6
CONTINUOUS
 62
     7
 10
307.3
 20
424.6477080974739
 30
0.0
  0
VERTEX
  5
292
  8
0
  6
CONTINUOUS
 62
     7
 10
307.2884711682419
 20
424.7652094186855
 30
0.0
  0
VERTEX
  5
293
  8
0
  6
CONTINUOUS
 62
     7
 10
307.2543277195068
 20
424.8781952300183
 30
0.0
  0
VERTEX
  5
294
  8
0
  6
CONTINUOUS
 62
     7
 10
307.1988817673815
 20
424.9823235501061
 30
0.0
  0
VERTEX
  5
295
  8
0
  6
CONTINUOUS
 62
     7
 10
307.1242640687119
 20
425.0735927860038
 30
0.0
  0
VERTEX
  5
296
  8
0
  6
CONTINUOUS
 62
     7
 10
307.0333421398117
 20
425.1484955121602
 30
0.0
  0
VERTEX
  5
297
  8
0
  6
CONTINUOUS
 62
     7
 10
306.929610059419
 20
425.204153258815
 30
0.0
  0
VERTEX
  5
298
  8
0
  6
CONTINUOUS
 62
     7
 10
306.8170541932097
 20
425.2384271299775
 30
0.0
  0
VERTEX
  5
299
  8
0
  6
CONTINUOUS
 62
     7
 10
306.7
 20
425.2499999999999
 30
0.0
  0
SEQEND
  5
2CF
  8
0
  6
CONTINUOUS
 62
     7
  0
POLYLINE
  5
168
  8
0
  6
CONTINUOUS
 62
     7
 66
     1
 10
0.0
 20
0.0
 30
0.0
  0
VERTEX
  5
29A
  8
0
  6
CONTINUOUS
 62
     7
 10
306.7
 20
425.2499999999999
 30
0.0
  0
VERTEX
  5
29B
  8
0
  6
CONTINUOUS
 62
     7
 10
306.5829458067903
 20
425.2384271299775
 30
0.0
  0
VERTEX
  5
29C
  8
0
  6
CONTINUOUS
 62
     7
 10
306.470389940581
 20
425.204153258815
 30
0.0
  0
VERTEX
  5
29D
  8
0
  6
CONTINUOUS
 62
     7
 10
306.3666578601882
 20
425.1484955121602
 30
0.0
  0
VERTEX
  5
29E
  8
0
  6
CONTINUOUS
 62
     7
 10
306.2757359312881
 20
425.0735927860038
 30
0.0
  0
VERTEX
  5
29F
  8
0
  6
CONTINUOUS
 62
     7
 10
306.2011182326185
 20
424.9823235501061
 30
0.0
  0
VERTEX
  5
2A0
  8
0
  6
CONTINUOUS
 62
     7
 10
306.1456722804932
 20
424.8781952300183
 30
0.0
  0
VERTEX
  5
2A1
  8
0
  6
CONTINUOUS
 62
     7
 10
306.1115288317581
 20
424.7652094186854
 30
0.0
  0
VERTEX
  5
2A2
  8
0
  6
CONTINUOUS
 62
     7
 10
306.1
 20
424.6477080974739
 30
0.0
  0
SEQEND
  5
2D0
  8
0
  6
CONTINUOUS
 62
     7
  0
LINE
  5
169
  8
0
  6
CONTINUOUS
 62
     7
 10
282.4999999999999
 20
423.2499999999999
 30
0.0
 11
306.1
 21
423.2499999999999
 31
0.0
  0
LINE
  5
16A
  8
0
  6
CONTINUOUS
 62
     7
 10
282.4999999999999
 20
423.2499999999999
 30
0.0
 11
282.1
 21
423.2298731597227
 31
0.0
  0
LINE
  5
16B
  8
0
  6
CONTINUOUS
 62
     7
 10
281.9984526065361
 20
429.25017631467
 30
0.0
 11
282.1
 21
428.2790301379599
 31
0.0
  0
LINE
  5
16C
  8
0
  6
CONTINUOUS
 62
     7
 10
280.9
 20
428.2790301379599
 30
0.0
 11
281.0015490715945
 21
429.2501852696307
 31
0.0
  0
POLYLINE
  5
16D
  8
0
  6
CONTINUOUS
 62
     7
 66
     1
 10
0.0
 20
0.0
 30
0.0
  0
VERTEX
  5
2A3
  8
0
  6
CONTINUOUS
 62
     7
 10
280.8999999999999
 20
422.9147849615391
 30
0.0
  0
VERTEX
  5
2A4
  8
0
  6
CONTINUOUS
 62
     7
 10
280.2258397745925
 20
422.5379126149905
 30
0.0
  0
VERTEX
  5
2A5
  8
0
  6
CONTINUOUS
 62
     7
 10
279.6363132572565
 20
422.0381107662193
 30
0.0
  0
VERTEX
  5
2A6
  8
0
  6
CONTINUOUS
 62
     7
 10
279.1533598938636
 20
421.4339797246012
 30
0.0
  0
VERTEX
  5
2A7
  8
0
  6
CONTINUOUS
 62
     7
 10
278.7949529712179
 20
420.7480024487431
 30
0.0
  0
VERTEX
  5
2A8
  8
0
  6
CONTINUOUS
 62
     7
 10
278.5744307345858
 20
420.0057078349205
 30
0.0
  0
VERTEX
  5
2A9
  8
0
  6
CONTINUOUS
 62
     7
 10
278.4999999999999
 20
419.2347206498266
 30
0.0
  0
SEQEND
  5
2D1
  8
0
  6
CONTINUOUS
 62
     7
  0
LINE
  5
16E
  8
0
  6
CONTINUOUS
 62
     7
 10
278.4999999999999
 20
267.2652793501733
 30
0.0
 11
278.4999999999999
 21
419.2347206498266
 31
0.0
  0
POLYLINE
  5
16F
  8
0
  6
CONTINUOUS
 62
     7
 66
     1
 10
0.0
 20
0.0
 30
0.0
  0
VERTEX
  5
2AA
  8
0
  6
CONTINUOUS
 62
     7
 10
278.4999999999999
 20
267.2652793501733
 30
0.0
  0
VERTEX
  5
2AB
  8
0
  6
CONTINUOUS
 62
     7
 10
278.5744307345858
 20
266.4942921650794
 30
0.0
  0
VERTEX
  5
2AC
  8
0
  6
CONTINUOUS
 62
     7
 10
278.7949529712179
 20
265.7519975512569
 30
0.0
  0
VERTEX
  5
2AD
  8
0
  6
CONTINUOUS
 62
     7
 10
279.1533598938636
 20
265.0660202753987
 30
0.0
  0
VERTEX
  5
2AE
  8
0
  6
CONTINUOUS
 62
     7
 10
279.6363132572565
 20
264.4618892337805
 30
0.0
  0
VERTEX
  5
2AF
  8
0
  6
CONTINUOUS
 62
     7
 10
280.2258397745925
 20
263.9620873850093
 30
0.0
  0
VERTEX
  5
2B0
  8
0
  6
CONTINUOUS
 62
     7
 10
280.9
 20
263.5852150384608
 30
0.0
  0
SEQEND
  5
2D2
  8
0
  6
CONTINUOUS
 62
     7
  0
LINE
  5
170
  8
0
  6
CONTINUOUS
 62
     7
 10
281.001547393464
 20
257.2498236853299
 30
0.0
 11
280.9
 21
258.22096986204
 31
0.0
  0
LINE
  5
171
  8
0
  6
CONTINUOUS
 62
     7
 10
282.1
 20
258.22096986204
 30
0.0
 11
281.9984509284055
 21
257.2498147303693
 31
0.0
  0
LINE
  5
172
  8
0
  6
CONTINUOUS
 62
     7
 10
306.7
 20
420.6603355596326
 30
0.0
 11
306.1
 21
420.7128287577482
 31
0.0
  0
LINE
  5
173
  8
0
  6
CONTINUOUS
 62
     7
 10
307.3
 20
420.7128287577482
 30
0.0
 11
306.7
 21
420.6603355596326
 31
0.0
  0
LINE
  5
174
  8
0
  6
CONTINUOUS
 62
     7
 10
331.9
 20
420.6603355596326
 30
0.0
 11
331.3
 21
420.7128287577482
 31
0.0
  0
LINE
  5
175
  8
0
  6
CONTINUOUS
 62
     7
 10
332.5
 20
420.7128287577482
 30
0.0
 11
331.9
 21
420.6603355596326
 31
0.0
  0
LINE
  5
176
  8
0
  6
CONTINUOUS
 62
     7
 10
357.1
 20
420.6603355596326
 30
0.0
 11
356.5
 21
420.7128287577482
 31
0.0
  0
LINE
  5
177
  8
0
  6
CONTINUOUS
 62
     7
 10
357.7
 20
420.7128287577482
 30
0.0
 11
357.1
 21
420.6603355596326
 31
0.0
  0
LINE
  5
178
  8
0
  6
CONTINUOUS
 62
     7
 10
382.5
 20
420.6603355596326
 30
0.0
 11
381.9
 21
420.7128287577482
 31
0.0
  0
LINE
  5
179
  8
0
  6
CONTINUOUS
 62
     7
 10
383.1
 20
420.7128287577482
 30
0.0
 11
382.5
 21
420.6603355596326
 31
0.0
  0
LINE
  5
17A
  8
0
  6
CONTINUOUS
 62
     7
 10
407.9
 20
420.6603355596326
 30
0.0
 11
407.3000000000001
 21
420.7128287577482
 31
0.0
  0
LINE
  5
17B
  8
0
  6
CONTINUOUS
 62
     7
 10
408.5
 20
420.7128287577482
 30
0.0
 11
407.9
 21
420.6603355596326
 31
0.0
  0
LINE
  5
17C
  8
0
  6
CONTINUOUS
 62
     7
 10
433.1
 20
420.6603355596326
 30
0.0
 11
432.5000000000001
 21
420.7128287577482
 31
0.0
  0
LINE
  5
17D
  8
0
  6
CONTINUOUS
 62
     7
 10
433.7
 20
420.7128287577482
 30
0.0
 11
433.1
 21
420.6603355596326
 31
0.0
  0
LINE
  5
17E
  8
0
  6
CONTINUOUS
 62
     7
 10
458.3
 20
420.6603355596326
 30
0.0
 11
457.7
 21
420.7128287577482
 31
0.0
  0
LINE
  5
17F
  8
0
  6
CONTINUOUS
 62
     7
 10
458.9
 20
420.7128287577482
 30
0.0
 11
458.3
 21
420.6603355596326
 31
0.0
  0
LINE
  5
180
  8
0
  6
CONTINUOUS
 62
     7
 10
281.5
 20
420.5328337228572
 30
0.0
 11
280.9
 21
420.3776137192873
 31
0.0
  0
LINE
  5
181
  8
0
  6
CONTINUOUS
 62
     7
 10
282.1
 20
420.6927019174709
 30
0.0
 11
281.5
 21
420.5328337228573
 31
0.0
  0
LINE
  5
182
  8
0
  6
CONTINUOUS
 62
     7
 10
483.5
 20
420.5328337228573
 30
0.0
 11
482.9
 21
420.6927019174709
 31
0.0
  0
LINE
  5
183
  8
0
  6
CONTINUOUS
 62
     7
 10
484.1000247643794
 20
420.3776073127422
 30
0.0
 11
483.5000000000001
 21
420.5328337228573
 31
0.0
  0
LINE
  5
184
  8
0
  6
CONTINUOUS
 62
     7
 10
281.5
 20
265.9671662771427
 30
0.0
 11
282.1
 21
265.807298082529
 31
0.0
  0
LINE
  5
185
  8
0
  6
CONTINUOUS
 62
     7
 10
280.8999752356206
 20
266.1223926872577
 30
0.0
 11
281.4999999999999
 21
265.9671662771427
 31
0.0
  0
LINE
  5
186
  8
0
  6
CONTINUOUS
 62
     7
 10
483.5
 20
265.9671662771427
 30
0.0
 11
484.1
 21
266.1223862807126
 31
0.0
  0
LINE
  5
187
  8
0
  6
CONTINUOUS
 62
     7
 10
482.9
 20
265.807298082529
 30
0.0
 11
483.5
 21
265.9671662771427
 31
0.0
  0
ENDBLK
  8
0
  0
ENDSEC
  0
SECTION
  2
ENTITIES
  0
INSERT
  5
87
  8
0
  6
CONTINUOUS
 62
     7
  2
D_FRAME_VIEW_4764
 10
0.0
 20
0.0
 30
0.0
  0
TEXT
  5
88
  8
0
  6
CONTINUOUS
 62
     7
 10
402.0484306614981
 20
66.65684006502438
 30
0.0
 40
6.0
  1
SB-4SA
  0
INSERT
  5
8C
  8
0
  6
CONTINUOUS
 62
     7
  2
D_FRAME_VIEW_3060
 10
0.0
 20
0.0
 30
0.0
  0
LINE
  5
8D
  8
0
  6
CONTINUOUS
 62
     7
 10
357.7
 20
420.7128287577482
 30
0.0
 11
357.7
 21
424.647708097474
 31
0.0
  0
LINE
  5
8E
  8
0
  6
CONTINUOUS
 62
     7
 10
381.9
 20
261.852291902526
 30
0.0
 11
381.9
 21
265.7871712422518
 31
0.0
  0
ARC
  5
8F
  8
0
  6
CONTINUOUS
 62
     7
 10
345.9999999999999
 20
157.45
 30
0.0
 40
3.0
 50
270.0
 51
90.0
  0
ARC
  5
90
  8
0
  6
CONTINUOUS
 62
     7
 10
371.2
 20
157.45
 30
0.0
 40
3.0
 50
270.0
 51
90.0
  0
ARC
  5
91
  8
0
  6
CONTINUOUS
 62
     7
 10
317.8
 20
157.45
 30
0.0
 40
3.000000000000004
 50
90.0
 51
270.0
  0
LINE
  5
92
  8
0
  6
CONTINUOUS
 62
     7
 10
381.9
 20
424.6477080974739
 30
0.0
 11
381.9
 21
420.7128287577482
 31
0.0
  0
LINE
  5
93
  8
0
  6
CONTINUOUS
 62
     7
 10
482.9
 20
428.2790301379599
 30
0.0
 11
482.9
 21
420.6927019174709
 31
0.0
  0
LINE
  5
94
  8
0
  6
CONTINUOUS
 62
     7
 10
458.9
 20
261.852291902526
 30
0.0
 11
458.9
 21
265.7871712422518
 31
0.0
  0
LINE
  5
95
  8
0
  6
CONTINUOUS
 62
     7
 10
258.5000000000001
 20
177.55
 30
0.0
 11
506.4999999999999
 21
177.55
 31
0.0
  0
LINE
  5
96
  8
0
  6
CONTINUOUS
 62
     7
 10
582.55
 20
463.2499999999999
 30
0.0
 11
582.55
 21
241.7499999999999
 31
0.0
  0
LINE
  5
97
  8
0
  6
CONTINUOUS
 62
     7
 10
282.5
 20
177.05
 30
0.0
 11
282.5
 21
148.45
 31
0.0
  0
LINE
  5
98
  8
0
  6
CONTINUOUS
 62
     7
 10
407.3
 20
261.852291902526
 30
0.0
 11
407.3
 21
265.7871712422518
 31
0.0
  0
LINE
  5
99
  8
0
  6
CONTINUOUS
 62
     7
 10
458.9
 20
424.647708097474
 30
0.0
 11
458.9
 21
420.7128287577482
 31
0.0
  0
LINE
  5
9A
  8
0
  6
CONTINUOUS
 62
     7
 10
357.7
 20
261.852291902526
 30
0.0
 11
357.7
 21
265.7871712422518
 31
0.0
  0
LINE
  5
9B
  8
0
  6
CONTINUOUS
 62
     7
 10
307.3
 20
261.852291902526
 30
0.0
 11
307.3
 21
265.7871712422518
 31
0.0
  0
ARC
  5
9C
  8
0
  6
CONTINUOUS
 62
     7
 10
419.0000000000001
 20
157.45
 30
0.0
 40
3.0
 50
90.0
 51
270.0
  0
ARC
  5
9D
  8
0
  6
CONTINUOUS
 62
     7
 10
292.6
 20
157.45
 30
0.0
 40
3.000000000000004
 50
90.0
 51
270.0
  0
LINE
  5
9E
  8
0
  6
CONTINUOUS
 62
     7
 10
408.5
 20
424.647708097474
 30
0.0
 11
408.5
 21
420.7128287577482
 31
0.0
  0
ARC
  5
9F
  8
0
  6
CONTINUOUS
 62
     7
 10
396.8
 20
157.45
 30
0.0
 40
3.000000000000004
 50
270.0
 51
90.0
  0
LINE
  5
A0
  8
0
  6
CONTINUOUS
 62
     7
 10
383.1
 20
261.852291902526
 30
0.0
 11
383.1
 21
265.7871712422518
 31
0.0
  0
LINE
  5
A1
  8
0
  6
CONTINUOUS
 62
     7
 10
457.7
 20
261.852291902526
 30
0.0
 11
457.7
 21
265.7871712422518
 31
0.0
  0
LINE
  5
A2
  8
0
  6
CONTINUOUS
 62
     7
 10
356.5
 20
424.6477080974739
 30
0.0
 11
356.5
 21
420.7128287577482
 31
0.0
  0
LINE
  5
A3
  8
0
  6
CONTINUOUS
 62
     7
 10
408.5
 20
261.852291902526
 30
0.0
 11
408.5
 21
265.7871712422518
 31
0.0
  0
LINE
  5
A4
  8
0
  6
CONTINUOUS
 62
     7
 10
356.5
 20
261.852291902526
 30
0.0
 11
356.5
 21
265.7871712422518
 31
0.0
  0
LINE
  5
A5
  8
0
  6
CONTINUOUS
 62
     7
 10
306.1
 20
261.852291902526
 30
0.0
 11
306.1
 21
265.7871712422518
 31
0.0
  0
LINE
  5
A6
  8
0
  6
CONTINUOUS
 62
     7
 10
582.9499999999999
 20
444.7499999999999
 30
0.0
 11
582.9499999999999
 21
241.75
 31
0.0
  0
ARC
  5
A7
  8
0
  6
CONTINUOUS
 62
     7
 10
472.4
 20
157.45
 30
0.0
 40
3.000000000000004
 50
270.0
 51
90.0
  0
LINE
  5
A8
  8
0
  6
CONTINUOUS
 62
     7
 10
332.5
 20
261.852291902526
 30
0.0
 11
332.5
 21
265.7871712422518
 31
0.0
  0
ARC
  5
A9
  8
0
  6
CONTINUOUS
 62
     7
 10
342.9999999999999
 20
157.45
 30
0.0
 40
3.000000000000004
 50
90.0
 51
270.0
  0
LINE
  5
AA
  8
0
  6
CONTINUOUS
 62
     7
 10
508.0
 20
177.45
 30
0.0
 11
257.0000000000001
 21
177.45
 31
0.0
  0
LINE
  5
AB
  8
0
  6
CONTINUOUS
 62
     7
 10
482.5
 20
148.45
 30
0.0
 11
482.5
 21
177.05
 31
0.0
  0
LINE
  5
AC
  8
0
  6
CONTINUOUS
 62
     7
 10
280.9
 20
266.1223862807126
 30
0.0
 11
280.9
 21
258.22096986204
 31
0.0
  0
LINE
  5
AD
  8
0
  6
CONTINUOUS
 62
     7
 10
508.0
 20
177.05
 30
0.0
 11
257.0000000000001
 21
177.05
 31
0.0
  0
LINE
  5
AE
  8
0
  6
CONTINUOUS
 62
     7
 10
484.5
 20
177.05
 30
0.0
 11
484.5
 21
148.45
 31
0.0
  0
LINE
  5
AF
  8
0
  6
CONTINUOUS
 62
     7
 10
280.9
 20
428.2790301379599
 30
0.0
 11
280.9
 21
420.3776137192874
 31
0.0
  0
LINE
  5
B0
  8
0
  6
CONTINUOUS
 62
     7
 10
282.1
 20
258.22096986204
 30
0.0
 11
282.1
 21
265.807298082529
 31
0.0
  0
LINE
  5
B1
  8
0
  6
CONTINUOUS
 62
     7
 10
332.5
 20
420.7128287577482
 30
0.0
 11
332.5
 21
424.647708097474
 31
0.0
  0
LINE
  5
B2
  8
0
  6
CONTINUOUS
 62
     7
 10
457.7
 20
420.7128287577482
 30
0.0
 11
457.7
 21
424.6477080974739
 31
0.0
  0
LINE
  5
B3
  8
0
  6
CONTINUOUS
 62
     7
 10
407.3
 20
420.7128287577482
 30
0.0
 11
407.3
 21
424.6477080974739
 31
0.0
  0
LINE
  5
B4
  8
0
  6
CONTINUOUS
 62
     7
 10
433.7
 20
424.647708097474
 30
0.0
 11
433.7
 21
420.7128287577482
 31
0.0
  0
LINE
  5
B5
  8
0
  6
CONTINUOUS
 62
     7
 10
383.1
 20
420.7128287577482
 30
0.0
 11
383.1
 21
424.647708097474
 31
0.0
  0
LINE
  5
B6
  8
0
  6
CONTINUOUS
 62
     7
 10
306.1
 20
424.6477080974739
 30
0.0
 11
306.1
 21
420.7128287577482
 31
0.0
  0
LINE
  5
B7
  8
0
  6
CONTINUOUS
 62
     7
 10
280.5
 20
148.45
 30
0.0
 11
280.5
 21
177.05
 31
0.0
  0
LINE
  5
B8
  8
0
  6
CONTINUOUS
 62
     7
 10
482.9
 20
265.807298082529
 30
0.0
 11
482.9
 21
258.22096986204
 31
0.0
  0
LINE
  5
B9
  8
0
  6
CONTINUOUS
 62
     7
 10
282.1
 20
420.6927019174709
 30
0.0
 11
282.1
 21
428.2790301379599
 31
0.0
  0
LINE
  5
BA
  8
0
  6
CONTINUOUS
 62
     7
 10
432.5
 20
420.7128287577482
 30
0.0
 11
432.5
 21
424.6477080974739
 31
0.0
  0
LINE
  5
BB
  8
0
  6
CONTINUOUS
 62
     7
 10
331.3
 20
424.6477080974739
 30
0.0
 11
331.3
 21
420.7128287577482
 31
0.0
  0
LINE
  5
BC
  8
0
  6
CONTINUOUS
 62
     7
 10
433.7
 20
261.852291902526
 30
0.0
 11
433.7
 21
265.7871712422518
 31
0.0
  0
LINE
  5
BD
  8
0
  6
CONTINUOUS
 62
     7
 10
432.5
 20
261.852291902526
 30
0.0
 11
432.5
 21
265.7871712422518
 31
0.0
  0
LINE
  5
BE
  8
0
  6
CONTINUOUS
 62
     7
 10
484.1
 20
258.22096986204
 30
0.0
 11
484.1
 21
266.1223862807126
 31
0.0
  0
LINE
  5
BF
  8
0
  6
CONTINUOUS
 62
     7
 10
331.3
 20
261.852291902526
 30
0.0
 11
331.3
 21
265.7871712422518
 31
0.0
  0
ARC
  5
C0
  8
0
  6
CONTINUOUS
 62
     7
 10
422.0000000000001
 20
157.45
 30
0.0
 40
3.000000000000004
 50
270.0
 51
90.0
  0
LINE
  5
C1
  8
0
  6
CONTINUOUS
 62
     7
 10
307.3
 20
420.7128287577482
 30
0.0
 11
307.3
 21
424.647708097474
 31
0.0
  0
ARC
  5
C2
  8
0
  6
CONTINUOUS
 62
     7
 10
444.2
 20
157.45
 30
0.0
 40
3.0
 50
90.0
 51
270.0
  0
LINE
  5
C3
  8
0
  6
CONTINUOUS
 62
     7
 10
582.45
 20
243.2499999999999
 30
0.0
 11
582.45
 21
463.2499999999999
 31
0.0
  0
LINE
  5
C4
  8
0
  6
CONTINUOUS
 62
     7
 10
484.1
 20
420.3776137192873
 30
0.0
 11
484.1
 21
428.2790301379599
 31
0.0
  0
ARC
  5
C5
  8
0
  6
CONTINUOUS
 62
     7
 10
281.5
 20
148.45
 30
0.0
 40
1.000000000000001
 50
180.0
 51
0.0
  0
ARC
  5
C6
  8
0
  6
CONTINUOUS
 62
     7
 10
331.9
 20
148.45
 30
0.0
 40
1.000000000000001
 50
180.0
 51
0.0
  0
ARC
  5
C7
  8
0
  6
CONTINUOUS
 62
     7
 10
295.6
 20
157.45
 30
0.0
 40
3.0
 50
270.0
 51
90.0
  0
ARC
  5
C8
  8
0
  6
CONTINUOUS
 62
     7
 10
357.1
 20
148.45
 30
0.0
 40
1.000000000000001
 50
180.0
 51
0.0
  0
ARC
  5
C9
  8
0
  6
CONTINUOUS
 62
     7
 10
368.2
 20
157.45
 30
0.0
 40
3.000000000000004
 50
90.0
 51
270.0
  0
ARC
  5
CA
  8
0
  6
CONTINUOUS
 62
     7
 10
433.1
 20
148.45
 30
0.0
 40
1.000000000000001
 50
180.0
 51
0.0
  0
ARC
  5
CB
  8
0
  6
CONTINUOUS
 62
     7
 10
320.8
 20
157.45
 30
0.0
 40
3.0
 50
270.0
 51
90.0
  0
ARC
  5
CC
  8
0
  6
CONTINUOUS
 62
     7
 10
483.5
 20
148.45
 30
0.0
 40
1.000000000000001
 50
180.0
 51
0.0
  0
ARC
  5
CD
  8
0
  6
CONTINUOUS
 62
     7
 10
306.7
 20
148.45
 30
0.0
 40
1.000000000000001
 50
180.0
 51
0.0
  0
ARC
  5
CE
  8
0
  6
CONTINUOUS
 62
     7
 10
469.4
 20
157.45
 30
0.0
 40
3.0
 50
90.0
 51
270.0
  0
ARC
  5
CF
  8
0
  6
CONTINUOUS
 62
     7
 10
447.2
 20
157.45
 30
0.0
 40
3.000000000000004
 50
270.0
 51
90.0
  0
ARC
  5
D0
  8
0
  6
CONTINUOUS
 62
     7
 10
407.9
 20
148.45
 30
0.0
 40
1.000000000000001
 50
180.0
 51
0.0
  0
ARC
  5
D1
  8
0
  6
CONTINUOUS
 62
     7
 10
393.8
 20
157.45
 30
0.0
 40
3.0
 50
90.0
 51
270.0
  0
ARC
  5
D2
  8
0
  6
CONTINUOUS
 62
     7
 10
382.5
 20
148.45
 30
0.0
 40
1.000000000000001
 50
180.0
 51
0.0
  0
ARC
  5
D3
  8
0
  6
CONTINUOUS
 62
     7
 10
458.3
 20
148.45
 30
0.0
 40
1.000000000000001
 50
180.0
 51
0.0
  0
INSERT
  5
106
  8
0
  6
CONTINUOUS
 62
     7
  2
D_FRAME_VIEW_4707
 10
0.0
 20
0.0
 30
0.0
  0
INSERT
  5
188
  8
0
  6
CONTINUOUS
 62
     7
  2
D_FRAME_VIEW_3063
 10
0.0
 20
0.0
 30
0.0
  0
ENDSEC
  0
EOF
