  0
SECTION
  2
HEADER
  9
$ACADVER
  1
AC1006
  9
$DWGCODEPAGE
  3
ansi_932
  9
$INSBASE
 10
0.0
 20
0.0
 30
0.0
  9
$EXTMIN
 10
-376.3790317670566
 20
52.78430063732736
  9
$EXTMAX
 10
-98.86864571804915
 20
234.2248689459713
  9
$LIMMIN
 10
0.0
 20
0.0
  9
$LIMMAX
 10
12.0
 20
9.0
  9
$ORTHOMODE
 70
     0
  9
$REGENMODE
 70
     1
  9
$FILLMODE
 70
     1
  9
$QTEXTMODE
 70
     0
  9
$MIRRTEXT
 70
     1
  9
$DRAGMODE
 70
     2
  9
$LTSCALE
 40
1.0
  9
$OSMODE
 70
    37
  9
$ATTMODE
 70
     1
  9
$TEXTSIZE
 40
0.2
  9
$TRACEWID
 40
0.05
  9
$TEXTSTYLE
  7
STANDARD
  9
$CLAYER
  8
0
  9
$CELTYPE
  6
BYLAYER
  9
$CECOLOR
 62
   256
  9
$DIMSCALE
 40
1.0
  9
$DIMASZ
 40
3.0
  9
$DIMEXO
 40
0.0625
  9
$DIMDLI
 40
0.38
  9
$DIMRND
 40
0.0
  9
$DIMDLE
 40
0.0
  9
$DIMEXE
 40
1.5
  9
$DIMTP
 40
0.0
  9
$DIMTM
 40
0.0
  9
$DIMTXT
 40
3.0
  9
$DIMCEN
 40
0.09
  9
$DIMTSZ
 40
0.0
  9
$DIMTOL
 70
     0
  9
$DIMLIM
 70
     0
  9
$DIMTIH
 70
     1
  9
$DIMTOH
 70
     1
  9
$DIMSE1
 70
     0
  9
$DIMSE2
 70
     0
  9
$DIMTAD
 70
     1
  9
$DIMZIN
 70
     0
  9
$DIMBLK
  1

  9
$DIMASO
 70
     1
  9
$DIMSHO
 70
     1
  9
$DIMPOST
  1

  9
$DIMAPOST
  1

  9
$DIMALT
 70
     0
  9
$DIMALTD
 70
     2
  9
$DIMALTF
 40
25.4
  9
$DIMLFAC
 40
1.0
  9
$DIMTOFL
 70
     0
  9
$DIMTVP
 40
0.0
  9
$DIMTIX
 70
     0
  9
$DIMSOXD
 70
     0
  9
$DIMSAH
 70
     0
  9
$DIMBLK1
  1

  9
$DIMBLK2
  1

  9
$LUNITS
 70
     2
  9
$LUPREC
 70
     4
  9
$SKETCHINC
 40
0.1
  9
$FILLETRAD
 40
0.5
  9
$AUNITS
 70
     0
  9
$AUPREC
 70
     0
  9
$MENU
  1
.
  9
$ELEVATION
 40
0.0
  9
$THICKNESS
 40
0.0
  9
$LIMCHECK
 70
     0
  9
$CHAMFERA
 40
0.0
  9
$CHAMFERB
 40
0.0
  9
$SKPOLY
 70
     0
  9
$TDCREATE
 40
2459692.426787697
  9
$TDUPDATE
 40
2459692.42678809
  9
$TDINDWG
 40
0.0000000116
  9
$TDUSRTIMER
 40
0.0000000116
  9
$USRTIMER
 70
     1
  9
$ANGBASE
 50
0.0
  9
$ANGDIR
 70
     0
  9
$PDMODE
 70
     0
  9
$PDSIZE
 40
0.0
  9
$PLINEWID
 40
0.0
  9
$COORDS
 70
     1
  9
$SPLFRAME
 70
     0
  9
$SPLINETYPE
 70
     6
  9
$SPLINESEGS
 70
     8
  9
$ATTDIA
 70
     0
  9
$ATTREQ
 70
     1
  9
$HANDLING
 70
     1
  9
$HANDSEED
  5
659
  9
$SURFTAB1
 70
     6
  9
$SURFTAB2
 70
     6
  9
$SURFTYPE
 70
     6
  9
$SURFU
 70
     6
  9
$SURFV
 70
     6
  9
$UCSNAME
  2

  9
$UCSORG
 10
0.0
 20
0.0
 30
0.0
  9
$UCSXDIR
 10
1.0
 20
0.0
 30
0.0
  9
$UCSYDIR
 10
0.0
 20
1.0
 30
0.0
  9
$USERI1
 70
     0
  9
$USERI2
 70
     0
  9
$USERI3
 70
     0
  9
$USERI4
 70
     0
  9
$USERI5
 70
     0
  9
$USERR1
 40
0.0
  9
$USERR2
 40
0.0
  9
$USERR3
 40
0.0
  9
$USERR4
 40
0.0
  9
$USERR5
 40
0.0
  9
$WORLDVIEW
 70
     1
  0
ENDSEC
  0
SECTION
  2
TABLES
  0
TABLE
  2
VPORT
 70
     1
  0
VPORT
  2
*ACTIVE
 70
     0
 10
0.0
 20
0.0
 11
1.0
 21
1.0
 12
-237.6238387425529
 22
143.5045847916493
 13
0.0
 23
0.0
 14
0.5
 24
0.5
 15
0.5
 25
0.5
 16
0.0
 26
0.0
 36
1.0
 17
0.0
 27
0.0
 37
0.0
 40
181.440568308644
 41
1.6
 42
50.0
 43
0.0
 44
0.0
 50
0.0
 51
0.0
 71
     0
 72
   100
 73
     1
 74
     3
 75
     0
 76
     0
 77
     0
 78
     0
  0
ENDTAB
  0
TABLE
  2
LTYPE
 70
     1
  0
LTYPE
  2
CONTINUOUS
 70
     0
  3
Solid line
 72
    65
 73
     0
 40
0.0
  0
ENDTAB
  0
TABLE
  2
LAYER
 70
     1
  0
LAYER
  2
0
 70
     0
 62
     7
  6
CONTINUOUS
  0
ENDTAB
  0
TABLE
  2
STYLE
 70
     2
  0
STYLE
  2
STANDARD
 70
     0
 40
0.0
 41
1.0
 50
0.0
 71
     0
 42
0.2
  3
txt
  4

  0
STYLE
  2
ＭＳ_ゴシック
 70
     0
 40
0.0
 41
1.0
 50
0.0
 71
     0
 42
0.2
  3
ＭＳ ゴシック.shx
  4

  0
ENDTAB
  0
TABLE
  2
VIEW
 70
     0
  0
ENDTAB
  0
TABLE
  2
UCS
 70
     0
  0
ENDTAB
  0
ENDSEC
  0
SECTION
  2
BLOCKS
  0
ENDSEC
  0
SECTION
  2
ENTITIES
  0
LINE
  5
6F
  8
0
  6
CONTINUOUS
 62
   253
 10
-180.6264659949978
 20
133.2360890542528
 30
0.0
 11
-180.5784147978908
 21
133.7236829895092
 31
0.0
  0
LINE
  5
70
  8
0
  6
CONTINUOUS
 62
   253
 10
-366.7579404467118
 20
219.1144974830399
 30
0.0
 11
-366.9892050917637
 21
218.6824651782202
 31
0.0
  0
LINE
  5
71
  8
0
  6
CONTINUOUS
 62
     7
 10
-171.3790317670565
 20
227.2248689459713
 30
0.0
 11
-171.3790317670565
 21
124.2248689459713
 31
0.0
  0
LINE
  5
72
  8
0
  6
CONTINUOUS
 62
   253
 10
-350.2443277925293
 20
53.096702293171
 30
0.0
 11
-350.1301108736265
 21
53.15888790542105
 31
0.0
  0
LINE
  5
73
  8
0
  6
CONTINUOUS
 62
   253
 10
-304.015917949692
 20
53.24484186240015
 30
0.0
 11
-303.9131238080932
 21
53.34930909024797
 31
0.0
  0
LINE
  5
74
  8
0
  6
CONTINUOUS
 62
   253
 10
-364.676627126997
 20
220.2248879844392
 30
0.0
 11
-365.1650382545095
 21
220.1769173048845
 31
0.0
  0
LINE
  5
75
  8
0
  6
CONTINUOUS
 62
   253
 10
-180.5784147978908
 20
217.7260549024335
 30
0.0
 11
-180.6264659949978
 21
218.2136488376898
 31
0.0
  0
LINE
  5
76
  8
0
  6
CONTINUOUS
 62
     7
 10
-369.3790317670566
 20
234.2248689459713
 30
0.0
 11
-178.3790317670565
 21
234.2248689459713
 31
0.0
  0
LINE
  5
77
  8
0
  6
CONTINUOUS
 62
   253
 10
-180.7688584423493
 20
132.7672727137224
 30
0.0
 11
-180.6264659949978
 21
133.2360890542528
 31
0.0
  0
LINE
  5
78
  8
0
  6
CONTINUOUS
 62
   253
 10
-183.081436407116
 20
220.2248879844392
 30
0.0
 11
-364.6766271269971
 21
220.2248879844392
 31
0.0
  0
ARC
  5
79
  8
0
  6
CONTINUOUS
 62
   253
 10
-305.230110171049
 20
54.29511852385104
 30
0.0
 40
1.630129651618491
 50
329.564063182574
 51
3.145945071191193
  0
LINE
  5
7A
  8
0
  6
CONTINUOUS
 62
   253
 10
-289.2335493939711
 20
53.0215268461945
 30
0.0
 11
-289.15170713051
 21
53.01761079903845
 31
0.0
  0
LINE
  5
7B
  8
0
  6
CONTINUOUS
 62
   253
 10
-364.6766271269971
 20
131.2248499075034
 30
0.0
 11
-183.0814364071159
 21
131.2248499075034
 31
0.0
  0
LINE
  5
7C
  8
0
  6
CONTINUOUS
 62
   253
 10
-303.9131238080932
 20
53.34930909024797
 30
0.0
 11
-303.8246187311821
 21
53.46933617144433
 31
0.0
  0
LINE
  5
7D
  8
0
  6
CONTINUOUS
 62
   253
 10
-290.008024722794
 20
53.60556589899223
 30
0.0
 11
-289.9610271026783
 21
53.51492721004054
 31
0.0
  0
LINE
  5
7E
  8
0
  6
CONTINUOUS
 62
   253
 10
-181.3113774471364
 20
131.9565857683168
 30
0.0
 11
-181.0001230874012
 21
132.3352404089027
 31
0.0
  0
LINE
  5
7F
  8
0
  6
CONTINUOUS
 62
   253
 10
-181.0001230874012
 20
132.3352404089027
 30
0.0
 11
-180.7688584423493
 21
132.7672727137224
 31
0.0
  0
LINE
  5
80
  8
0
  6
CONTINUOUS
 62
   253
 10
-366.0673967649323
 20
219.803885617062
 30
0.0
 11
-366.4466860869766
 21
219.4931521236259
 31
0.0
  0
LINE
  5
81
  8
0
  6
CONTINUOUS
 62
   253
 10
-367.1315975391152
 20
218.2136488376898
 30
0.0
 11
-367.1796487362222
 21
217.7260549024334
 31
0.0
  0
LINE
  5
82
  8
0
  6
CONTINUOUS
 62
   253
 10
-182.5930252796035
 20
131.2728205870582
 30
0.0
 11
-182.1234231935794
 21
131.4149746753765
 31
0.0
  0
LINE
  5
83
  8
0
  6
CONTINUOUS
 62
   253
 10
-366.9892050917637
 20
132.7672727137224
 30
0.0
 11
-366.7579404467118
 21
132.3352404089027
 31
0.0
  0
ARC
  5
84
  8
0
  6
CONTINUOUS
 62
     7
 10
-178.3790317670565
 20
227.2248689459713
 30
0.0
 40
7.000000000000006
 50
0.0
 51
90.0
  0
LINE
  5
85
  8
0
  6
CONTINUOUS
 62
   253
 10
-366.7579404467118
 20
132.3352404089027
 30
0.0
 11
-366.4466860869767
 21
131.9565857683168
 31
0.0
  0
LINE
  5
86
  8
0
  6
CONTINUOUS
 62
   253
 10
-303.9908510795378
 20
212.763953360861
 30
0.0
 11
-303.9783434817172
 21
212.745504584763
 31
0.0
  0
LINE
  5
87
  8
0
  6
CONTINUOUS
 62
   253
 10
-367.1796487362222
 20
133.7236829895092
 30
0.0
 11
-367.1315975391152
 21
133.2360890542528
 31
0.0
  0
LINE
  5
88
  8
0
  6
CONTINUOUS
 62
   253
 10
-335.5038122234774
 20
138.5002893509619
 30
0.0
 11
-335.5267485375124
 21
138.5080398010186
 31
0.0
  0
LINE
  5
89
  8
0
  6
CONTINUOUS
 62
   253
 10
-304.2443277925293
 20
53.096702293171
 30
0.0
 11
-304.1301108736265
 21
53.15888790542105
 31
0.0
  0
LINE
  5
8A
  8
0
  6
CONTINUOUS
 62
   253
 10
-365.1650382545095
 20
131.2728205870582
 30
0.0
 11
-364.6766271269971
 21
131.2248499075034
 31
0.0
  0
LINE
  5
8B
  8
0
  6
CONTINUOUS
 62
   253
 10
-181.0001230874012
 20
219.1144974830399
 30
0.0
 11
-181.3113774471364
 21
219.4931521236259
 31
0.0
  0
LINE
  5
8C
  8
0
  6
CONTINUOUS
 62
     7
 10
-135.0686457180492
 20
117.2248689459713
 30
0.0
 11
-135.5686457180492
 21
117.2248689459713
 31
0.0
  0
ARC
  5
8D
  8
0
  6
CONTINUOUS
 62
     7
 10
-120.5686457180492
 20
213.9747501295587
 30
0.0
 40
0.5000000000000004
 50
180.0
 51
267.3687731891123
  0
ARC
  5
8E
  8
0
  6
CONTINUOUS
 62
     7
 10
-369.3790317670566
 20
124.2248689459713
 30
0.0
 40
7.000000000000006
 50
180.0
 51
270.0
  0
LINE
  5
8F
  8
0
  6
CONTINUOUS
 62
   253
 10
-365.6346403405337
 20
131.4149746753765
 30
0.0
 11
-365.1650382545095
 21
131.2728205870582
 31
0.0
  0
LINE
  5
90
  8
0
  6
CONTINUOUS
 62
   253
 10
-181.6906667691808
 20
131.6458522748806
 30
0.0
 11
-181.3113774471364
 21
131.9565857683168
 31
0.0
  0
LINE
  5
91
  8
0
  6
CONTINUOUS
 62
     7
 10
-135.5686457180492
 20
234.2248689459713
 30
0.0
 11
-135.0686457180492
 21
234.2248689459713
 31
0.0
  0
LINE
  5
92
  8
0
  6
CONTINUOUS
 62
     7
 10
-178.3790317670565
 20
117.2248689459713
 30
0.0
 11
-369.3790317670566
 21
117.2248689459713
 31
0.0
  0
LINE
  5
93
  8
0
  6
CONTINUOUS
 62
   253
 10
-289.9057247242197
 20
53.42790627801521
 30
0.0
 11
-289.8162228562048
 21
53.31697203340377
 31
0.0
  0
LINE
  5
94
  8
0
  6
CONTINUOUS
 62
     7
 10
-376.3790317670566
 20
124.2248689459713
 30
0.0
 11
-376.3790317670566
 21
227.2248689459713
 31
0.0
  0
LINE
  5
95
  8
0
  6
CONTINUOUS
 62
   253
 10
-183.0814364071159
 20
131.2248499075034
 30
0.0
 11
-182.5930252796035
 21
131.2728205870582
 31
0.0
  0
LINE
  5
96
  8
0
  6
CONTINUOUS
 62
   253
 10
-182.1234231935794
 20
131.4149746753765
 30
0.0
 11
-181.6906667691808
 21
131.6458522748806
 31
0.0
  0
LINE
  5
97
  8
0
  6
CONTINUOUS
 62
   253
 10
-366.4466860869767
 20
131.9565857683168
 30
0.0
 11
-366.0673967649323
 21
131.6458522748807
 31
0.0
  0
LINE
  5
98
  8
0
  6
CONTINUOUS
 62
   253
 10
-289.5924990289764
 20
53.13729742557491
 30
0.0
 11
-289.4799890091481
 21
53.08217717533027
 31
0.0
  0
ARC
  5
99
  8
0
  6
CONTINUOUS
 62
     7
 10
-178.3790317670565
 20
124.2248689459713
 30
0.0
 40
6.999999999999992
 50
270.0
 51
0.0
  0
LINE
  5
9A
  8
0
  6
CONTINUOUS
 62
   253
 10
-367.1315975391152
 20
133.2360890542528
 30
0.0
 11
-366.9892050917637
 21
132.7672727137224
 31
0.0
  0
LINE
  5
9B
  8
0
  6
CONTINUOUS
 62
   253
 10
-350.015917949692
 20
53.24484186240015
 30
0.0
 11
-349.9131238080932
 21
53.34930909024796
 31
0.0
  0
LINE
  5
9C
  8
0
  6
CONTINUOUS
 62
   253
 10
-366.0673967649323
 20
131.6458522748807
 30
0.0
 11
-365.6346403405337
 21
131.4149746753765
 31
0.0
  0
LINE
  5
9D
  8
0
  6
CONTINUOUS
 62
   253
 10
-365.6346403405336
 20
220.0347632165661
 30
0.0
 11
-366.0673967649323
 21
219.803885617062
 31
0.0
  0
LINE
  5
9E
  8
0
  6
CONTINUOUS
 62
   253
 10
-289.4799890091481
 20
53.08217717533027
 30
0.0
 11
-289.3565177174883
 21
53.0422725834536
 31
0.0
  0
LINE
  5
9F
  8
0
  6
CONTINUOUS
 62
   253
 10
-180.6264659949978
 20
218.2136488376898
 30
0.0
 11
-180.7688584423493
 21
218.6824651782203
 31
0.0
  0
LINE
  5
A0
  8
0
  6
CONTINUOUS
 62
   253
 10
-365.1650382545095
 20
220.1769173048845
 30
0.0
 11
-365.6346403405336
 21
220.0347632165661
 31
0.0
  0
LINE
  5
A1
  8
0
  6
CONTINUOUS
 62
   253
 10
-366.4466860869766
 20
219.4931521236259
 30
0.0
 11
-366.7579404467118
 21
219.1144974830399
 31
0.0
  0
LINE
  5
A2
  8
0
  6
CONTINUOUS
 62
   253
 10
-366.9892050917637
 20
218.6824651782202
 30
0.0
 11
-367.1315975391152
 21
218.2136488376898
 31
0.0
  0
LINE
  5
A3
  8
0
  6
CONTINUOUS
 62
   253
 10
-304.4846105042375
 20
53.02627440229952
 30
0.0
 11
-304.363295164471
 21
53.05250417122569
 31
0.0
  0
LINE
  5
A4
  8
0
  6
CONTINUOUS
 62
   253
 10
-289.7090811538581
 20
53.21712813361209
 30
0.0
 11
-289.5924990289764
 21
53.13729742557491
 31
0.0
  0
LINE
  5
A5
  8
0
  6
CONTINUOUS
 62
   253
 10
-367.1796487362222
 20
217.7260549024334
 30
0.0
 11
-367.1796487362222
 21
133.7236829895092
 31
0.0
  0
LINE
  5
A6
  8
0
  6
CONTINUOUS
 62
   253
 10
-304.050628489599
 20
212.832043022875
 30
0.0
 11
-304.03429108405
 21
212.8159590291485
 31
0.0
  0
LINE
  5
A7
  8
0
  6
CONTINUOUS
 62
   253
 10
-304.0043667331386
 20
212.7818735955798
 30
0.0
 11
-303.9908510795378
 21
212.763953360861
 31
0.0
  0
LINE
  5
A8
  8
0
  6
CONTINUOUS
 62
   253
 10
-349.9668737377727
 20
212.7265712196428
 30
0.0
 11
-349.9564691732179
 21
212.707198372342
 31
0.0
  0
LINE
  5
A9
  8
0
  6
CONTINUOUS
 62
   253
 10
-304.0858592424688
 20
212.8621020630005
 30
0.0
 11
-304.0678315372498
 21
212.8474362584384
 31
0.0
  0
LINE
  5
AA
  8
0
  6
CONTINUOUS
 62
   253
 10
-335.4088208930175
 20
138.4791419418317
 30
0.0
 11
-335.4329430687371
 21
138.4829230509467
 31
0.0
  0
LINE
  5
AB
  8
0
  6
CONTINUOUS
 62
   253
 10
-335.6902319968634
 20
138.6023016335042
 30
0.0
 11
-335.7074350445142
 21
138.6176948690676
 31
0.0
  0
LINE
  5
AC
  8
0
  6
CONTINUOUS
 62
   253
 10
-335.8404494171488
 20
138.8653618537153
 30
0.0
 11
-335.8428524283061
 21
138.8864742481052
 31
0.0
  0
LINE
  5
AD
  8
0
  6
CONTINUOUS
 62
   253
 10
-335.8368638705006
 20
138.844350175762
 30
0.0
 11
-335.8404494171488
 21
138.8653618537153
 31
0.0
  0
LINE
  5
AE
  8
0
  6
CONTINUOUS
 62
   253
 10
-349.9259592035468
 20
212.6262486194841
 30
0.0
 11
-349.9211996636127
 21
212.6053877161806
 31
0.0
  0
LINE
  5
AF
  8
0
  6
CONTINUOUS
 62
   253
 10
-243.8261821364725
 20
138.8028288428127
 30
0.0
 11
-243.8321043305664
 21
138.8234892724585
 31
0.0
  0
LINE
  5
B0
  8
0
  6
CONTINUOUS
 62
   253
 10
-335.7797200523961
 20
138.7042333071796
 30
0.0
 11
-335.7911897963405
 21
138.7231666722998
 31
0.0
  0
LINE
  5
B1
  8
0
  6
CONTINUOUS
 62
   253
 10
-335.6533948780552
 20
138.5737323951884
 30
0.0
 11
-335.6722042916444
 21
138.5876358289421
 31
0.0
  0
LINE
  5
B2
  8
0
  6
CONTINUOUS
 62
   253
 10
-335.4329430687371
 20
138.4829230509467
 30
0.0
 11
-335.4568535519294
 21
138.487715998551
 31
0.0
  0
LINE
  5
B3
  8
0
  6
CONTINUOUS
 62
   253
 10
-335.4804953782688
 20
138.4935093659281
 30
0.0
 11
-335.5038122234774
 21
138.5002893509619
 31
0.0
  0
LINE
  5
B4
  8
0
  6
CONTINUOUS
 62
   253
 10
-304.0188582428316
 20
212.7992225957594
 30
0.0
 11
-304.0043667331386
 21
212.7818735955798
 31
0.0
  0
LINE
  5
B5
  8
0
  6
CONTINUOUS
 62
   253
 10
-335.7392052912815
 20
138.6505152961832
 30
0.0
 11
-335.7536968009746
 21
138.6678642963628
 31
0.0
  0
LINE
  5
B6
  8
0
  6
CONTINUOUS
 62
   253
 10
-315.9874673525546
 20
212.9758044314445
 30
0.0
 11
-316.4751236635736
 21
212.9280823966029
 31
0.0
  0
LINE
  5
B7
  8
0
  6
CONTINUOUS
 62
   253
 10
-243.8191113972516
 20
138.782418108224
 30
0.0
 11
-243.8261821364725
 21
138.8028288428127
 31
0.0
  0
LINE
  5
B8
  8
0
  6
CONTINUOUS
 62
   253
 10
-349.9564691732179
 20
212.707198372342
 30
0.0
 11
-349.9471545758831
 21
212.6874321967242
 31
0.0
  0
LINE
  5
B9
  8
0
  6
CONTINUOUS
 62
   253
 10
-335.3601717060669
 20
138.4746488394565
 30
0.0
 11
-335.3845444934325
 21
138.4763816793188
 31
0.0
  0
LINE
  5
BA
  8
0
  6
CONTINUOUS
 62
   253
 10
-335.8015943608954
 20
138.7425395196006
 30
0.0
 11
-335.8109089582301
 21
138.7623056952184
 31
0.0
  0
LINE
  5
BB
  8
0
  6
CONTINUOUS
 62
   253
 10
-335.7672124545754
 20
138.6857845310817
 30
0.0
 11
-335.7797200523961
 21
138.7042333071796
 31
0.0
  0
LINE
  5
BC
  8
0
  6
CONTINUOUS
 62
   253
 10
-335.3845444934325
 20
138.4763816793188
 30
0.0
 11
-335.4088208930175
 21
138.4791419418317
 31
0.0
  0
LINE
  5
BD
  8
0
  6
CONTINUOUS
 62
   253
 10
-335.7237724500631
 20
138.6337788627941
 30
0.0
 11
-335.7392052912815
 21
138.6505152961832
 31
0.0
  0
LINE
  5
BE
  8
0
  6
CONTINUOUS
 62
   253
 10
-303.915211105807
 20
212.5632636438374
 30
0.0
 11
-303.9139963550733
 21
212.542100831171
 31
0.0
  0
LINE
  5
BF
  8
0
  6
CONTINUOUS
 62
   253
 10
-335.4568535519294
 20
138.487715998551
 30
0.0
 11
-335.4804953782688
 21
138.4935093659281
 31
0.0
  0
LINE
  5
C0
  8
0
  6
CONTINUOUS
 62
   253
 10
-335.7911897963405
 20
138.7231666722998
 30
0.0
 11
-335.8015943608954
 21
138.7425395196006
 31
0.0
  0
LINE
  5
C1
  8
0
  6
CONTINUOUS
 62
   253
 10
-335.7074350445142
 20
138.6176948690676
 30
0.0
 11
-335.7237724500631
 21
138.6337788627941
 31
0.0
  0
LINE
  5
C2
  8
0
  6
CONTINUOUS
 62
   253
 10
-303.9668737377726
 20
212.7265712196428
 30
0.0
 11
-303.9564691732178
 21
212.707198372342
 31
0.0
  0
LINE
  5
C3
  8
0
  6
CONTINUOUS
 62
   253
 10
-335.8191113972516
 20
138.782418108224
 30
0.0
 11
-335.8261821364725
 21
138.8028288428127
 31
0.0
  0
LINE
  5
C4
  8
0
  6
CONTINUOUS
 62
   253
 10
-335.5492496769085
 20
138.5167422514292
 30
0.0
 11
-335.5712620349598
 21
138.5263759694792
 31
0.0
  0
LINE
  5
C5
  8
0
  6
CONTINUOUS
 62
   253
 10
-335.5267485375124
 20
138.5080398010186
 30
0.0
 11
-335.5492496769085
 21
138.5167422514292
 31
0.0
  0
LINE
  5
C6
  8
0
  6
CONTINUOUS
 62
   253
 10
-303.9564691732178
 20
212.707198372342
 30
0.0
 11
-303.9471545758832
 21
212.6874321967242
 31
0.0
  0
LINE
  5
C7
  8
0
  6
CONTINUOUS
 62
   253
 10
-304.1444516066063
 20
212.9013946528818
 30
0.0
 11
-304.1242149664778
 21
212.8891134361646
 31
0.0
  0
LINE
  5
C8
  8
0
  6
CONTINUOUS
 62
   253
 10
-304.03429108405
 20
212.8159590291485
 30
0.0
 11
-304.0188582428316
 21
212.7992225957594
 31
0.0
  0
LINE
  5
C9
  8
0
  6
CONTINUOUS
 62
   253
 10
-303.9211996636126
 20
212.6053877161806
 30
0.0
 11
-303.9176141169644
 21
212.5843760382273
 31
0.0
  0
LINE
  5
CA
  8
0
  6
CONTINUOUS
 62
   253
 10
-335.5927331694334
 20
138.5369180038026
 30
0.0
 11
-335.613611927507
 21
138.5483432390608
 31
0.0
  0
LINE
  5
CB
  8
0
  6
CONTINUOUS
 62
   253
 10
-303.9471545758832
 20
212.6874321967242
 30
0.0
 11
-303.9389521368616
 21
212.6673197837186
 31
0.0
  0
LINE
  5
CC
  8
0
  6
CONTINUOUS
 62
   253
 10
-303.9176141169644
 20
212.5843760382273
 30
0.0
 11
-303.915211105807
 21
212.5632636438374
 31
0.0
  0
LINE
  5
CD
  8
0
  6
CONTINUOUS
 62
   253
 10
-335.8321043305664
 20
138.8234892724585
 30
0.0
 11
-335.8368638705006
 21
138.844350175762
 31
0.0
  0
LINE
  5
CE
  8
0
  6
CONTINUOUS
 62
   253
 10
-335.5712620349598
 20
138.5263759694792
 30
0.0
 11
-335.5927331694334
 21
138.5369180038026
 31
0.0
  0
LINE
  5
CF
  8
0
  6
CONTINUOUS
 62
   253
 10
-335.8109089582301
 20
138.7623056952184
 30
0.0
 11
-335.8191113972516
 21
138.782418108224
 31
0.0
  0
LINE
  5
D0
  8
0
  6
CONTINUOUS
 62
   253
 10
-335.6338485676353
 20
138.560624455778
 30
0.0
 11
-335.6533948780552
 21
138.5737323951884
 31
0.0
  0
LINE
  5
D1
  8
0
  6
CONTINUOUS
 62
   253
 10
-303.9318813976407
 20
212.6469090491299
 30
0.0
 11
-303.9259592035468
 21
212.6262486194841
 31
0.0
  0
LINE
  5
D2
  8
0
  6
CONTINUOUS
 62
   253
 10
-303.9783434817172
 20
212.745504584763
 30
0.0
 11
-303.9668737377726
 21
212.7265712196428
 31
0.0
  0
LINE
  5
D3
  8
0
  6
CONTINUOUS
 62
   253
 10
-335.8428524283061
 20
138.8864742481052
 30
0.0
 11
-335.8440671790399
 21
138.9076370607717
 31
0.0
  0
LINE
  5
D4
  8
0
  6
CONTINUOUS
 62
   253
 10
-303.9259592035468
 20
212.6262486194841
 30
0.0
 11
-303.9211996636126
 21
212.6053877161806
 31
0.0
  0
LINE
  5
D5
  8
0
  6
CONTINUOUS
 62
   253
 10
-304.1242149664778
 20
212.8891134361646
 30
0.0
 11
-304.1046686560579
 21
212.8760054967543
 31
0.0
  0
LINE
  5
D6
  8
0
  6
CONTINUOUS
 62
   253
 10
-335.8261821364725
 20
138.8028288428127
 30
0.0
 11
-335.8321043305664
 21
138.8234892724585
 31
0.0
  0
LINE
  5
D7
  8
0
  6
CONTINUOUS
 62
   253
 10
-303.9389521368616
 20
212.6673197837186
 30
0.0
 11
-303.9318813976407
 21
212.6469090491299
 31
0.0
  0
LINE
  5
D8
  8
0
  6
CONTINUOUS
 62
   253
 10
-335.6722042916444
 20
138.5876358289421
 30
0.0
 11
-335.6902319968634
 21
138.6023016335042
 31
0.0
  0
LINE
  5
D9
  8
0
  6
CONTINUOUS
 62
   253
 10
-335.613611927507
 20
138.5483432390608
 30
0.0
 11
-335.6338485676353
 21
138.560624455778
 31
0.0
  0
LINE
  5
DA
  8
0
  6
CONTINUOUS
 62
   253
 10
-304.0678315372498
 20
212.8474362584384
 30
0.0
 11
-304.050628489599
 21
212.832043022875
 31
0.0
  0
LINE
  5
DB
  8
0
  6
CONTINUOUS
 62
   253
 10
-335.7536968009746
 20
138.6678642963628
 30
0.0
 11
-335.7672124545754
 21
138.6857845310817
 31
0.0
  0
LINE
  5
DC
  8
0
  6
CONTINUOUS
 62
   253
 10
-304.1046686560579
 20
212.8760054967543
 30
0.0
 11
-304.0858592424688
 21
212.8621020630005
 31
0.0
  0
ARC
  5
DD
  8
0
  6
CONTINUOUS
 62
     7
 10
-281.3790317670565
 20
62.78430063732737
 30
0.0
 40
3.000000000000001
 50
270.0
 51
313.3164722123752
  0
ARC
  5
DE
  8
0
  6
CONTINUOUS
 62
   253
 10
-281.3507266846352
 20
62.81350062580386
 30
0.0
 40
2.962000772127745
 50
359.5027156376567
 51
24.88271512369534
  0
ARC
  5
DF
  8
0
  6
CONTINUOUS
 62
   253
 10
-242.14159637292
 20
54.34801509799613
 30
0.0
 40
2.014361888699274
 50
178.959925441134
 51
197.4326531754704
  0
ARC
  5
E0
  8
0
  6
CONTINUOUS
 62
     7
 10
-324.4232147285629
 20
55.78430063732738
 30
0.0
 40
3.000000000000008
 50
270.0
 51
358.0182377470439
  0
ARC
  5
E1
  8
0
  6
CONTINUOUS
 62
   253
 10
-334.4338545674513
 20
54.31778456769438
 30
0.0
 40
1.723066950010582
 50
177.7783727783867
 51
209.4407876698129
  0
LINE
  5
E2
  8
0
  6
CONTINUOUS
 62
   253
 10
-243.7090811538581
 20
53.21712813361208
 30
0.0
 11
-243.5924990289764
 21
53.13729742557489
 31
0.0
  0
ARC
  5
E3
  8
0
  6
CONTINUOUS
 62
     7
 10
-330.3790317670565
 20
62.78430063732737
 30
0.0
 40
3.000000000000001
 50
180.0
 51
270.0
  0
ARC
  5
E4
  8
0
  6
CONTINUOUS
 62
     7
 10
-184.733566884787
 20
55.78430063732738
 30
0.0
 40
3.000000000000017
 50
269.9999999999998
 51
357.1533830841863
  0
LINE
  5
E5
  8
0
  6
CONTINUOUS
 62
   253
 10
-243.2335493939711
 20
53.0215268461945
 30
0.0
 11
-243.15170713051
 21
53.01761079903845
 31
0.0
  0
ARC
  5
E6
  8
0
  6
CONTINUOUS
 62
   253
 10
-196.1415963729193
 20
54.34801509799632
 30
0.0
 40
2.014361888700103
 50
178.9599254411401
 51
197.4326531754691
  0
LINE
  5
E7
  8
0
  6
CONTINUOUS
 62
   253
 10
-197.479989009148
 20
53.08217717533027
 30
0.0
 11
-197.3565177174883
 21
53.0422725834536
 31
0.0
  0
LINE
  5
E8
  8
0
  6
CONTINUOUS
 62
   253
 10
-335.4396998663445
 20
53.06693333775902
 30
0.0
 11
-335.3139090573599
 21
53.0330199286487
 31
0.0
  0
LINE
  5
E9
  8
0
  6
CONTINUOUS
 62
   253
 10
-258.6063564036032
 20
53.01761079903845
 30
0.0
 11
-258.4846105042375
 21
53.02627440229952
 31
0.0
  0
LINE
  5
EA
  8
0
  6
CONTINUOUS
 62
   253
 10
-257.9131238080932
 20
53.34930909024797
 30
0.0
 11
-257.8246187311821
 21
53.46933617144433
 31
0.0
  0
LINE
  5
EB
  8
0
  6
CONTINUOUS
 62
   253
 10
-243.8162228562048
 20
53.31697203340377
 30
0.0
 11
-243.7090811538581
 21
53.21712813361208
 31
0.0
  0
ARC
  5
EC
  8
0
  6
CONTINUOUS
 62
     7
 10
-315.3348488055502
 20
55.78430063732738
 30
0.0
 40
3.000000000000003
 50
181.9817622529559
 51
270.0
  0
ARC
  5
ED
  8
0
  6
CONTINUOUS
 62
   253
 10
-312.3970361589591
 20
62.81127490850134
 30
0.0
 40
2.972282658924023
 50
155.1619110916906
 51
180.4526581469621
  0
LINE
  5
EE
  8
0
  6
CONTINUOUS
 62
   253
 10
-335.1927229950014
 20
53.0186005928176
 30
0.0
 11
-335.15170713051
 21
53.01761079903845
 31
0.0
  0
LINE
  5
EF
  8
0
  6
CONTINUOUS
 62
   253
 10
-243.5924990289764
 20
53.13729742557489
 30
0.0
 11
-243.479989009148
 21
53.08217717533027
 31
0.0
  0
LINE
  5
F0
  8
0
  6
CONTINUOUS
 62
   253
 10
-258.2443277925293
 20
53.096702293171
 30
0.0
 11
-258.1301108736265
 21
53.15888790542105
 31
0.0
  0
LINE
  5
F1
  8
0
  6
CONTINUOUS
 62
   253
 10
-335.5560865717242
 20
53.11731879827759
 30
0.0
 11
-335.4396998663445
 21
53.06693333775902
 31
0.0
  0
LINE
  5
F2
  8
0
  6
CONTINUOUS
 62
   253
 10
-243.3565177174883
 20
53.0422725834536
 30
0.0
 11
-243.2335493939711
 21
53.0215268461945
 31
0.0
  0
LINE
  5
F3
  8
0
  6
CONTINUOUS
 62
   253
 10
-212.0159179496919
 20
53.24484186240015
 30
0.0
 11
-211.9131238080932
 21
53.34930909024797
 31
0.0
  0
LINE
  5
F4
  8
0
  6
CONTINUOUS
 62
   253
 10
-335.6488482487807
 20
53.17266364870236
 30
0.0
 11
-335.5560865717242
 21
53.11731879827759
 31
0.0
  0
LINE
  5
F5
  8
0
  6
CONTINUOUS
 62
   253
 10
-212.4846105042375
 20
53.02627440229952
 30
0.0
 11
-212.3632951644709
 21
53.05250417122569
 31
0.0
  0
LINE
  5
F6
  8
0
  6
CONTINUOUS
 62
   253
 10
-197.3565177174883
 20
53.0422725834536
 30
0.0
 11
-197.2335493939711
 21
53.0215268461945
 31
0.0
  0
LINE
  5
F7
  8
0
  6
CONTINUOUS
 62
   253
 10
-350.6063564036032
 20
53.01761079903845
 30
0.0
 11
-350.4846105042375
 21
53.02627440229952
 31
0.0
  0
LINE
  5
F8
  8
0
  6
CONTINUOUS
 62
   253
 10
-258.015917949692
 20
53.24484186240015
 30
0.0
 11
-257.9131238080932
 21
53.34930909024797
 31
0.0
  0
ARC
  5
F9
  8
0
  6
CONTINUOUS
 62
     7
 10
-355.3790317670565
 20
62.78430063732737
 30
0.0
 40
3.000000000000001
 50
270.0
 51
0.0
  0
ARC
  5
FA
  8
0
  6
CONTINUOUS
 62
   253
 10
-312.3550265441427
 20
62.77321076396655
 30
0.0
 40
3.014234788467006
 50
179.722813853043
 51
212.4228455553837
  0
LINE
  5
FB
  8
0
  6
CONTINUOUS
 62
   253
 10
-212.2443277925292
 20
53.096702293171
 30
0.0
 11
-212.1301108736265
 21
53.15888790542105
 31
0.0
  0
LINE
  5
FC
  8
0
  6
CONTINUOUS
 62
   253
 10
-350.4846105042375
 20
53.02627440229952
 30
0.0
 11
-350.363295164471
 21
53.05250417122569
 31
0.0
  0
LINE
  5
FD
  8
0
  6
CONTINUOUS
 62
   253
 10
-258.4846105042375
 20
53.02627440229952
 30
0.0
 11
-258.363295164471
 21
53.05250417122569
 31
0.0
  0
ARC
  5
FE
  8
0
  6
CONTINUOUS
 62
   253
 10
-213.2301101710484
 20
54.2951185238509
 30
0.0
 40
1.63012965161786
 50
329.5640631825675
 51
3.145945071198241
  0
LINE
  5
FF
  8
0
  6
CONTINUOUS
 62
   253
 10
-335.9344117613566
 20
53.47085610434106
 30
0.0
 11
-335.8479191044914
 21
53.35282470355809
 31
0.0
  0
LINE
  5
100
  8
0
  6
CONTINUOUS
 62
   253
 10
-258.363295164471
 20
53.05250417122569
 30
0.0
 11
-258.2443277925293
 21
53.096702293171
 31
0.0
  0
LINE
  5
101
  8
0
  6
CONTINUOUS
 62
   253
 10
-335.3139090573599
 20
53.0330199286487
 30
0.0
 11
-335.1927229950014
 21
53.0186005928176
 31
0.0
  0
LINE
  5
102
  8
0
  6
CONTINUOUS
 62
   253
 10
-243.9057247242197
 20
53.42790627801521
 30
0.0
 11
-243.8162228562048
 21
53.31697203340377
 31
0.0
  0
LINE
  5
103
  8
0
  6
CONTINUOUS
 62
   253
 10
-243.479989009148
 20
53.08217717533027
 30
0.0
 11
-243.3565177174883
 21
53.0422725834536
 31
0.0
  0
LINE
  5
104
  8
0
  6
CONTINUOUS
 62
   253
 10
-212.3632951644709
 20
53.05250417122569
 30
0.0
 11
-212.2443277925292
 21
53.096702293171
 31
0.0
  0
LINE
  5
105
  8
0
  6
CONTINUOUS
 62
   253
 10
-198.0634381136433
 20
53.7445433569363
 30
0.0
 11
-198.008024722794
 21
53.60556589899223
 31
0.0
  0
LINE
  5
106
  8
0
  6
CONTINUOUS
 62
   253
 10
-197.8162228562048
 20
53.31697203340377
 30
0.0
 11
-197.7090811538581
 21
53.21712813361211
 31
0.0
  0
LINE
  5
107
  8
0
  6
CONTINUOUS
 62
   253
 10
-211.9131238080932
 20
53.34930909024797
 30
0.0
 11
-211.824618731182
 21
53.46933617144433
 31
0.0
  0
ARC
  5
108
  8
0
  6
CONTINUOUS
 62
   253
 10
-266.3970361589578
 20
62.81127490850098
 30
0.0
 40
2.97228265892538
 50
155.1619110916951
 51
180.4526581469549
  0
ARC
  5
109
  8
0
  6
CONTINUOUS
 62
     7
 10
-278.4232147285629
 20
55.78430063732738
 30
0.0
 40
3.000000000000007
 50
270.0
 51
358.0182377470442
  0
ARC
  5
10A
  8
0
  6
CONTINUOUS
 62
     7
 10
-363.0244966493261
 20
55.78430063732738
 30
0.0
 40
3.000000000000003
 50
182.846616915819
 51
270.0000000000002
  0
LINE
  5
10B
  8
0
  6
CONTINUOUS
 62
     7
 10
-184.733566884787
 20
52.78430063732738
 30
0.0
 11
-269.3348488055502
 21
52.78430063732738
 31
0.0
  0
LINE
  5
10C
  8
0
  6
CONTINUOUS
 62
     7
 10
-324.4232147285629
 20
52.78430063732738
 30
0.0
 11
-363.024496649326
 21
52.78430063732738
 31
0.0
  0
ARC
  5
10D
  8
0
  6
CONTINUOUS
 62
   253
 10
-259.2301101710485
 20
54.2951185238509
 30
0.0
 40
1.63012965161786
 50
329.5640631825675
 51
3.145945071198014
  0
LINE
  5
10E
  8
0
  6
CONTINUOUS
 62
   253
 10
-212.1301108736265
 20
53.15888790542105
 30
0.0
 11
-212.0159179496919
 21
53.24484186240015
 31
0.0
  0
ARC
  5
10F
  8
0
  6
CONTINUOUS
 62
     7
 10
-235.3790317670565
 20
62.78430063732737
 30
0.0
 40
3.000000000000001
 50
270.0
 51
0.0
  0
LINE
  5
110
  8
0
  6
CONTINUOUS
 62
   253
 10
-197.9057247242197
 20
53.42790627801521
 30
0.0
 11
-197.8162228562048
 21
53.31697203340377
 31
0.0
  0
LINE
  5
111
  8
0
  6
CONTINUOUS
 62
     7
 10
-278.4232147285629
 20
52.78430063732738
 30
0.0
 11
-315.3348488055502
 21
52.78430063732738
 31
0.0
  0
LINE
  5
112
  8
0
  6
CONTINUOUS
 62
     7
 10
-238.3790317670565
 20
59.78430063732738
 30
0.0
 11
-235.3790317670565
 21
59.78430063732738
 31
0.0
  0
LINE
  5
113
  8
0
  6
CONTINUOUS
 62
   253
 10
-243.9610271026783
 20
53.51492721004054
 30
0.0
 11
-243.9057247242197
 21
53.42790627801521
 31
0.0
  0
LINE
  5
114
  8
0
  6
CONTINUOUS
 62
   253
 10
-197.7090811538581
 20
53.21712813361211
 30
0.0
 11
-197.5924990289764
 21
53.13729742557489
 31
0.0
  0
LINE
  5
115
  8
0
  6
CONTINUOUS
 62
   253
 10
-258.1301108736265
 20
53.15888790542105
 30
0.0
 11
-258.015917949692
 21
53.24484186240015
 31
0.0
  0
LINE
  5
116
  8
0
  6
CONTINUOUS
 62
   253
 10
-335.7468543382615
 20
53.24899706043862
 30
0.0
 11
-335.6488482487807
 21
53.17266364870236
 31
0.0
  0
LINE
  5
117
  8
0
  6
CONTINUOUS
 62
   253
 10
-198.008024722794
 20
53.60556589899223
 30
0.0
 11
-197.9610271026783
 21
53.51492721004054
 31
0.0
  0
LINE
  5
118
  8
0
  6
CONTINUOUS
 62
   253
 10
-197.2335493939711
 20
53.0215268461945
 30
0.0
 11
-197.15170713051
 21
53.01761079903845
 31
0.0
  0
LINE
  5
119
  8
0
  6
CONTINUOUS
 62
   253
 10
-212.6063564036032
 20
53.01761079903845
 30
0.0
 11
-212.4846105042375
 21
53.02627440229952
 31
0.0
  0
LINE
  5
11A
  8
0
  6
CONTINUOUS
 62
   253
 10
-349.9131238080932
 20
53.34930909024796
 30
0.0
 11
-349.8246187311821
 21
53.46933617144433
 31
0.0
  0
ARC
  5
11B
  8
0
  6
CONTINUOUS
 62
     7
 10
-121.5686457180492
 20
220.1070371916032
 30
0.0
 40
0.5000000000000014
 50
359.999999999996
 51
89.49999999999989
  0
LINE
  5
11C
  8
0
  6
CONTINUOUS
 62
   253
 10
-181.6906667691808
 20
219.803885617062
 30
0.0
 11
-182.1234231935794
 21
220.0347632165661
 31
0.0
  0
LINE
  5
11D
  8
0
  6
CONTINUOUS
 62
   253
 10
-197.9610271026783
 20
53.51492721004054
 30
0.0
 11
-197.9057247242197
 21
53.42790627801521
 31
0.0
  0
LINE
  5
11E
  8
0
  6
CONTINUOUS
 62
     7
 10
-120.5915994335389
 20
213.4752772805016
 30
0.0
 11
-101.7309234251106
 21
212.6085182727613
 31
0.0
  0
ARC
  5
11F
  8
0
  6
CONTINUOUS
 62
     7
 10
-101.8686457180492
 20
141.8380567135239
 30
0.0
 40
3.0
 50
272.6312268108879
 51
0.0000000000002842
  0
LINE
  5
120
  8
0
  6
CONTINUOUS
 62
   253
 10
-304.6063564036032
 20
53.01761079903845
 30
0.0
 11
-304.4846105042375
 21
53.02627440229952
 31
0.0
  0
LINE
  5
121
  8
0
  6
CONTINUOUS
 62
   253
 10
-180.7688584423493
 20
218.6824651782203
 30
0.0
 11
-181.0001230874012
 21
219.1144974830399
 31
0.0
  0
LINE
  5
122
  8
0
  6
CONTINUOUS
 62
   253
 10
-182.5930252796035
 20
220.1769173048845
 30
0.0
 11
-183.081436407116
 21
220.2248879844392
 31
0.0
  0
ARC
  5
123
  8
0
  6
CONTINUOUS
 62
     7
 10
-121.5686457180492
 20
131.3427007003394
 30
0.0
 40
0.5000000000000004
 50
270.5000000000003
 51
0.0
  0
ARC
  5
124
  8
0
  6
CONTINUOUS
 62
     7
 10
-101.8686457180492
 20
209.6116811784187
 30
0.0
 40
3.000000000000003
 50
0.0000000000001325
 51
87.368773189112
  0
LINE
  5
125
  8
0
  6
CONTINUOUS
 62
   253
 10
-304.363295164471
 20
53.05250417122569
 30
0.0
 11
-304.2443277925293
 21
53.096702293171
 31
0.0
  0
LINE
  5
126
  8
0
  6
CONTINUOUS
 62
     7
 10
-121.5642824503
 20
130.8427197388073
 30
0.0
 11
-135.0686457180492
 21
130.7248689459713
 31
0.0
  0
LINE
  5
127
  8
0
  6
CONTINUOUS
 62
   253
 10
-335.8479191044914
 20
53.35282470355809
 30
0.0
 11
-335.7468543382615
 21
53.24899706043862
 31
0.0
  0
ARC
  5
128
  8
0
  6
CONTINUOUS
 62
   253
 10
-351.2301101710483
 20
54.29511852385095
 30
0.0
 40
1.630129651617779
 50
329.5640631825627
 51
3.145945071195968
  0
LINE
  5
129
  8
0
  6
CONTINUOUS
 62
   253
 10
-289.8162228562048
 20
53.31697203340377
 30
0.0
 11
-289.7090811538581
 21
53.21712813361209
 31
0.0
  0
LINE
  5
12A
  8
0
  6
CONTINUOUS
 62
   253
 10
-180.5784147978908
 20
133.7236829895092
 30
0.0
 11
-180.5784147978908
 21
217.7260549024334
 31
0.0
  0
LINE
  5
12B
  8
0
  6
CONTINUOUS
 62
   253
 10
-182.1234231935794
 20
220.0347632165661
 30
0.0
 11
-182.5930252796035
 21
220.1769173048845
 31
0.0
  0
ARC
  5
12C
  8
0
  6
CONTINUOUS
 62
     7
 10
-269.3348488055502
 20
55.78430063732738
 30
0.0
 40
3.000000000000003
 50
181.9817622529559
 51
270.0
  0
LINE
  5
12D
  8
0
  6
CONTINUOUS
 62
   253
 10
-244.0634381136433
 20
53.7445433569363
 30
0.0
 11
-244.008024722794
 21
53.60556589899223
 31
0.0
  0
LINE
  5
12E
  8
0
  6
CONTINUOUS
 62
   253
 10
-244.008024722794
 20
53.60556589899223
 30
0.0
 11
-243.9610271026783
 21
53.51492721004054
 31
0.0
  0
LINE
  5
12F
  8
0
  6
CONTINUOUS
 62
   253
 10
-181.3113774471364
 20
219.4931521236259
 30
0.0
 11
-181.6906667691808
 21
219.803885617062
 31
0.0
  0
LINE
  5
130
  8
0
  6
CONTINUOUS
 62
     7
 10
-98.86864571804915
 20
209.6116811784187
 30
0.0
 11
-98.86864571804915
 21
141.8380567135239
 31
0.0
  0
LINE
  5
131
  8
0
  6
CONTINUOUS
 62
   253
 10
-290.0634381136433
 20
53.7445433569363
 30
0.0
 11
-290.008024722794
 21
53.60556589899223
 31
0.0
  0
LINE
  5
132
  8
0
  6
CONTINUOUS
 62
   253
 10
-289.9610271026783
 20
53.51492721004054
 30
0.0
 11
-289.9057247242197
 21
53.42790627801521
 31
0.0
  0
ARC
  5
133
  8
0
  6
CONTINUOUS
 62
   253
 10
-288.1415963729202
 20
54.3480150979961
 30
0.0
 40
2.01436188869908
 50
178.9599254411333
 51
197.4326531754713
  0
ARC
  5
134
  8
0
  6
CONTINUOUS
 62
     7
 10
-120.5686457180492
 20
137.4749877623839
 30
0.0
 40
0.4999999999999907
 50
92.63122681088768
 51
180.0
  0
LINE
  5
135
  8
0
  6
CONTINUOUS
 62
   253
 10
-350.1301108736265
 20
53.15888790542105
 30
0.0
 11
-350.015917949692
 21
53.24484186240015
 31
0.0
  0
LINE
  5
136
  8
0
  6
CONTINUOUS
 62
   253
 10
-304.1301108736265
 20
53.15888790542105
 30
0.0
 11
-304.015917949692
 21
53.24484186240015
 31
0.0
  0
LINE
  5
137
  8
0
  6
CONTINUOUS
 62
     7
 10
-135.0686457180492
 20
220.7248689459713
 30
0.0
 11
-121.5642824503
 21
220.6070181531353
 31
0.0
  0
ARC
  5
138
  8
0
  6
CONTINUOUS
 62
     7
 10
-369.3790317670566
 20
227.2248689459713
 30
0.0
 40
7.000000000000006
 50
90.0
 51
180.0
  0
LINE
  5
139
  8
0
  6
CONTINUOUS
 62
     7
 10
-101.7309234251106
 20
138.8412196191813
 30
0.0
 11
-120.5915994335389
 21
137.974460611441
 31
0.0
  0
LINE
  5
13A
  8
0
  6
CONTINUOUS
 62
   253
 10
-289.3565177174883
 20
53.0422725834536
 30
0.0
 11
-289.2335493939711
 21
53.0215268461945
 31
0.0
  0
LINE
  5
13B
  8
0
  6
CONTINUOUS
 62
   253
 10
-350.363295164471
 20
53.05250417122569
 30
0.0
 11
-350.2443277925293
 21
53.096702293171
 31
0.0
  0
LINE
  5
13C
  8
0
  6
CONTINUOUS
 62
   253
 10
-197.5924990289764
 20
53.13729742557489
 30
0.0
 11
-197.479989009148
 21
53.08217717533027
 31
0.0
  0
LINE
  5
13D
  8
0
  6
CONTINUOUS
 62
   253
 10
-275.6935348500359
 20
139.5837346923992
 30
0.0
 11
-275.4629827666044
 21
140.0159370223728
 31
0.0
  0
LINE
  5
13E
  8
0
  6
CONTINUOUS
 62
   253
 10
-350.1046686560579
 20
138.5737323951884
 30
0.0
 11
-350.1242149664778
 21
138.5606244557781
 31
0.0
  0
LINE
  5
13F
  8
0
  6
CONTINUOUS
 62
   253
 10
-316.4751236635736
 20
212.9280823966029
 30
0.0
 11
-316.9438641289473
 21
212.7861283712359
 31
0.0
  0
LINE
  5
140
  8
0
  6
CONTINUOUS
 62
   253
 10
-276.0039597187353
 20
212.2447064526635
 30
0.0
 11
-276.3823519428501
 21
212.5553865831156
 31
0.0
  0
LINE
  5
141
  8
0
  6
CONTINUOUS
 62
   253
 10
-276.3823519428501
 20
138.894351308827
 30
0.0
 11
-276.0039597187353
 21
139.2050314392791
 31
0.0
  0
LINE
  5
142
  8
0
  6
CONTINUOUS
 62
     7
 10
-321.2400576470308
 20
131.8383563056369
 30
0.0
 11
-321.2400576470308
 21
138.5584197665371
 31
0.0
  0
LINE
  5
143
  8
0
  6
CONTINUOUS
 62
   253
 10
-277.7705961815585
 20
138.4739334604981
 30
0.0
 11
-277.2829398705395
 21
138.5216554953397
 31
0.0
  0
LINE
  5
144
  8
0
  6
CONTINUOUS
 62
   253
 10
-277.2829398705395
 20
138.5216554953397
 30
0.0
 11
-276.8141994051658
 21
138.6636095207067
 31
0.0
  0
LINE
  5
145
  8
0
  6
CONTINUOUS
 62
   253
 10
-349.9211996636127
 20
138.844350175762
 30
0.0
 11
-349.9259592035468
 21
138.8234892724585
 31
0.0
  0
LINE
  5
146
  8
0
  6
CONTINUOUS
 62
     7
 10
-321.2400576470308
 20
138.5584197665371
 30
0.0
 11
-321.2734631356082
 21
140.973119451098
 31
0.0
  0
LINE
  5
147
  8
0
  6
CONTINUOUS
 62
     7
 10
-275.2400576470308
 20
131.8383563056369
 30
0.0
 11
-275.2400576470308
 21
138.5584197665371
 31
0.0
  0
LINE
  5
148
  8
0
  6
CONTINUOUS
 62
   253
 10
-275.4629827666044
 20
140.0159370223728
 30
0.0
 11
-275.3211456132989
 21
140.4850625841556
 31
0.0
  0
LINE
  5
149
  8
0
  6
CONTINUOUS
 62
   253
 10
-318.2950807675087
 20
211.4338008695698
 30
0.0
 11
-318.4369179208142
 21
210.964675307787
 31
0.0
  0
LINE
  5
14A
  8
0
  6
CONTINUOUS
 62
   253
 10
-276.0039597187353
 20
139.2050314392791
 30
0.0
 11
-275.6935348500359
 21
139.5837346923992
 31
0.0
  0
LINE
  5
14B
  8
0
  6
CONTINUOUS
 62
   253
 10
-349.9668737377727
 20
138.7231666722998
 30
0.0
 11
-349.9783434817171
 21
138.7042333071796
 31
0.0
  0
LINE
  5
14C
  8
0
  6
CONTINUOUS
 62
   253
 10
-316.9438641289473
 20
212.7861283712359
 30
0.0
 11
-317.375711591263
 21
212.5553865831156
 31
0.0
  0
LINE
  5
14D
  8
0
  6
CONTINUOUS
 62
     7
 10
-275.2229075870913
 20
220.1113625478378
 30
0.0
 11
-275.2400576470308
 21
219.6113815863057
 31
0.0
  0
LINE
  5
14E
  8
0
  6
CONTINUOUS
 62
   253
 10
-349.9139963550733
 20
138.9076370607717
 30
0.0
 11
-349.915211105807
 21
138.8864742481052
 31
0.0
  0
LINE
  5
14F
  8
0
  6
CONTINUOUS
 62
   253
 10
-275.4629827666044
 20
211.4338008695697
 30
0.0
 11
-275.6935348500359
 21
211.8660031995434
 31
0.0
  0
LINE
  5
150
  8
0
  6
CONTINUOUS
 62
     7
 10
-321.2400576470308
 20
219.6113815863057
 30
0.0
 11
-321.2400576470308
 21
212.8913181254055
 31
0.0
  0
LINE
  5
151
  8
0
  6
CONTINUOUS
 62
   253
 10
-272.6126280801657
 20
131.3188363701721
 30
0.0
 11
-272.6126280801657
 21
220.1309015217705
 31
0.0
  0
LINE
  5
152
  8
0
  6
CONTINUOUS
 62
   253
 10
-321.1454354539474
 20
220.1309015217705
 30
0.0
 11
-321.1454354539474
 21
131.3188363701721
 31
0.0
  0
LINE
  5
153
  8
0
  6
CONTINUOUS
 62
   253
 10
-275.3211456132989
 20
210.964675307787
 30
0.0
 11
-275.4629827666044
 21
211.4338008695697
 31
0.0
  0
LINE
  5
154
  8
0
  6
CONTINUOUS
 62
   253
 10
-275.1454354539473
 20
220.1309015217705
 30
0.0
 11
-275.1454354539473
 21
131.3188363701721
 31
0.0
  0
LINE
  5
155
  8
0
  6
CONTINUOUS
 62
     7
 10
-318.5180058870823
 20
131.8383563056369
 30
0.0
 11
-318.5180058870823
 21
138.5584197665371
 31
0.0
  0
LINE
  5
156
  8
0
  6
CONTINUOUS
 62
   253
 10
-317.7541038153778
 20
212.2447064526635
 30
0.0
 11
-318.0645286840772
 21
211.8660031995435
 31
0.0
  0
LINE
  5
157
  8
0
  6
CONTINUOUS
 62
   253
 10
-318.0645286840772
 20
211.8660031995435
 30
0.0
 11
-318.2950807675087
 21
211.4338008695698
 31
0.0
  0
LINE
  5
158
  8
0
  6
CONTINUOUS
 62
     7
 10
-321.2400576470308
 20
212.8913181254055
 30
0.0
 11
-321.2734631356082
 21
210.4766184408446
 31
0.0
  0
LINE
  5
159
  8
0
  6
CONTINUOUS
 62
   253
 10
-275.6935348500359
 20
211.8660031995434
 30
0.0
 11
-276.0039597187353
 21
212.2447064526635
 31
0.0
  0
LINE
  5
15A
  8
0
  6
CONTINUOUS
 62
   253
 10
-317.375711591263
 20
212.5553865831156
 30
0.0
 11
-317.7541038153778
 21
212.2447064526635
 31
0.0
  0
LINE
  5
15B
  8
0
  6
CONTINUOUS
 62
   253
 10
-244.0390631230426
 20
211.6247815360362
 30
0.0
 11
-243.9466326062272
 21
211.7974537234372
 31
0.0
  0
LINE
  5
15C
  8
0
  6
CONTINUOUS
 62
   253
 10
-350.1868014991534
 20
138.5263759694792
 30
0.0
 11
-350.2088138572047
 21
138.5167422514292
 31
0.0
  0
LINE
  5
15D
  8
0
  6
CONTINUOUS
 62
     7
 10
-318.5180058870823
 20
219.6113815863057
 30
0.0
 11
-318.5180058870823
 21
212.8913181254055
 31
0.0
  0
LINE
  5
15E
  8
0
  6
CONTINUOUS
 62
   253
 10
-349.915211105807
 20
138.8864742481052
 30
0.0
 11
-349.9176141169645
 21
138.8653618537153
 31
0.0
  0
LINE
  5
15F
  8
0
  6
CONTINUOUS
 62
     7
 10
-272.5351559470217
 20
131.3383753441048
 30
0.0
 11
-272.5180058870823
 21
131.8383563056369
 31
0.0
  0
LINE
  5
160
  8
0
  6
CONTINUOUS
 62
   253
 10
-256.3877205564617
 20
211.2034730139863
 30
0.0
 11
-245.3703429776516
 21
211.2034730139863
 31
0.0
  0
LINE
  5
161
  8
0
  6
CONTINUOUS
 62
   253
 10
-276.8141994051658
 20
138.6636095207067
 30
0.0
 11
-276.3823519428501
 21
138.894351308827
 31
0.0
  0
LINE
  5
162
  8
0
  6
CONTINUOUS
 62
     7
 10
-318.5351559470217
 20
131.3383753441048
 30
0.0
 11
-318.5180058870823
 21
131.8383563056369
 31
0.0
  0
LINE
  5
163
  8
0
  6
CONTINUOUS
 62
   253
 10
-349.9389521368616
 20
138.782418108224
 30
0.0
 11
-349.9471545758831
 21
138.7623056952184
 31
0.0
  0
LINE
  5
164
  8
0
  6
CONTINUOUS
 62
   253
 10
-350.0043667331386
 20
138.6678642963628
 30
0.0
 11
-350.0188582428317
 21
138.6505152961833
 31
0.0
  0
LINE
  5
165
  8
0
  6
CONTINUOUS
 62
   253
 10
-350.1242149664778
 20
138.5606244557781
 30
0.0
 11
-350.1444516066063
 21
138.5483432390608
 31
0.0
  0
LINE
  5
166
  8
0
  6
CONTINUOUS
 62
   253
 10
-318.6126280801657
 20
131.3188363701721
 30
0.0
 11
-318.6126280801657
 21
220.1309015217705
 31
0.0
  0
LINE
  5
167
  8
0
  6
CONTINUOUS
 62
   253
 10
-275.2734631356083
 20
210.4766184408446
 30
0.0
 11
-275.3211456132989
 21
210.964675307787
 31
0.0
  0
LINE
  5
168
  8
0
  6
CONTINUOUS
 62
   253
 10
-349.9564691732179
 20
138.7425395196007
 30
0.0
 11
-349.9668737377727
 21
138.7231666722998
 31
0.0
  0
LINE
  5
169
  8
0
  6
CONTINUOUS
 62
   253
 10
-349.9318813976407
 20
138.8028288428127
 30
0.0
 11
-349.9389521368616
 21
138.782418108224
 31
0.0
  0
LINE
  5
16A
  8
0
  6
CONTINUOUS
 62
   253
 10
-349.9176141169645
 20
138.8653618537153
 30
0.0
 11
-349.9211996636127
 21
138.844350175762
 31
0.0
  0
LINE
  5
16B
  8
0
  6
CONTINUOUS
 62
   253
 10
-276.8141994051658
 20
212.7861283712359
 30
0.0
 11
-277.2829398705395
 21
212.9280823966029
 31
0.0
  0
LINE
  5
16C
  8
0
  6
CONTINUOUS
 62
   253
 10
-318.4369179208142
 20
210.964675307787
 30
0.0
 11
-318.4846003985048
 21
210.4766184408446
 31
0.0
  0
LINE
  5
16D
  8
0
  6
CONTINUOUS
 62
   253
 10
-276.3823519428501
 20
212.5553865831156
 30
0.0
 11
-276.8141994051658
 21
212.7861283712359
 31
0.0
  0
LINE
  5
16E
  8
0
  6
CONTINUOUS
 62
     7
 10
-318.5180058870823
 20
212.8913181254055
 30
0.0
 11
-318.4846003985048
 21
210.4766184408446
 31
0.0
  0
LINE
  5
16F
  8
0
  6
CONTINUOUS
 62
   253
 10
-243.9466326062272
 20
211.7974537234372
 30
0.0
 11
-243.8896824461956
 21
211.9848056980467
 31
0.0
  0
LINE
  5
170
  8
0
  6
CONTINUOUS
 62
   253
 10
-277.2829398705395
 20
212.9280823966029
 30
0.0
 11
-277.7705961815585
 21
212.9758044314445
 31
0.0
  0
LINE
  5
171
  8
0
  6
CONTINUOUS
 62
   253
 10
-350.0678315372498
 20
138.6023016335042
 30
0.0
 11
-350.0858592424688
 21
138.5876358289421
 31
0.0
  0
LINE
  5
172
  8
0
  6
CONTINUOUS
 62
     7
 10
-321.2229075870913
 20
220.1113625478378
 30
0.0
 11
-321.2400576470308
 21
219.6113815863057
 31
0.0
  0
LINE
  5
173
  8
0
  6
CONTINUOUS
 62
     7
 10
-275.2400576470308
 20
138.5584197665371
 30
0.0
 11
-275.2734631356082
 21
140.973119451098
 31
0.0
  0
LINE
  5
174
  8
0
  6
CONTINUOUS
 62
   253
 10
-350.03429108405
 20
138.6337788627941
 30
0.0
 11
-350.050628489599
 21
138.6176948690676
 31
0.0
  0
LINE
  5
175
  8
0
  6
CONTINUOUS
 62
     7
 10
-318.5180058870823
 20
138.5584197665371
 30
0.0
 11
-318.4846003985048
 21
140.973119451098
 31
0.0
  0
LINE
  5
176
  8
0
  6
CONTINUOUS
 62
   253
 10
-289.8191113972516
 20
212.6673197837186
 30
0.0
 11
-289.81090895823
 21
212.6874321967242
 31
0.0
  0
LINE
  5
177
  8
0
  6
CONTINUOUS
 62
   253
 10
-350.3492426410957
 20
138.4791419418317
 30
0.0
 11
-350.3735190406807
 21
138.4763816793188
 31
0.0
  0
LINE
  5
178
  8
0
  6
CONTINUOUS
 62
   253
 10
-289.8428524283062
 20
212.5632636438374
 30
0.0
 11
-289.8404494171488
 21
212.5843760382273
 31
0.0
  0
LINE
  5
179
  8
0
  6
CONTINUOUS
 62
   253
 10
-350.2542513106358
 20
138.5002893509619
 30
0.0
 11
-350.2775681558444
 21
138.4935093659281
 31
0.0
  0
LINE
  5
17A
  8
0
  6
CONTINUOUS
 62
   253
 10
-197.7536968009746
 20
212.7818735955798
 30
0.0
 11
-197.7392052912815
 21
212.7992225957594
 31
0.0
  0
LINE
  5
17B
  8
0
  6
CONTINUOUS
 62
   253
 10
-350.050628489599
 20
138.6176948690676
 30
0.0
 11
-350.0678315372498
 21
138.6023016335042
 31
0.0
  0
LINE
  5
17C
  8
0
  6
CONTINUOUS
 62
   253
 10
-349.9471545758831
 20
138.7623056952184
 30
0.0
 11
-349.9564691732179
 21
138.7425395196007
 31
0.0
  0
LINE
  5
17D
  8
0
  6
CONTINUOUS
 62
   253
 10
-349.9908510795378
 20
138.6857845310817
 30
0.0
 11
-350.0043667331386
 21
138.6678642963628
 31
0.0
  0
LINE
  5
17E
  8
0
  6
CONTINUOUS
 62
   253
 10
-244.1634237494816
 20
211.4734214577661
 30
0.0
 11
-244.0390631230426
 21
211.6247815360362
 31
0.0
  0
LINE
  5
17F
  8
0
  6
CONTINUOUS
 62
   253
 10
-350.2088138572047
 20
138.5167422514292
 30
0.0
 11
-350.2313149966008
 21
138.5080398010186
 31
0.0
  0
LINE
  5
180
  8
0
  6
CONTINUOUS
 62
   253
 10
-243.8896824461956
 20
211.9848056980467
 30
0.0
 11
-243.8704000930553
 21
212.1796412887435
 31
0.0
  0
LINE
  5
181
  8
0
  6
CONTINUOUS
 62
   253
 10
-197.7797200523961
 20
212.745504584763
 30
0.0
 11
-197.7672124545754
 21
212.763953360861
 31
0.0
  0
LINE
  5
182
  8
0
  6
CONTINUOUS
 62
   253
 10
-289.8015943608954
 20
212.707198372342
 30
0.0
 11
-289.7911897963406
 21
212.7265712196428
 31
0.0
  0
LINE
  5
183
  8
0
  6
CONTINUOUS
 62
   253
 10
-197.7911897963405
 20
212.7265712196428
 30
0.0
 11
-197.7797200523961
 21
212.745504584763
 31
0.0
  0
LINE
  5
184
  8
0
  6
CONTINUOUS
 62
   253
 10
-350.2313149966008
 20
138.5080398010186
 30
0.0
 11
-350.2542513106358
 21
138.5002893509619
 31
0.0
  0
LINE
  5
185
  8
0
  6
CONTINUOUS
 62
   253
 10
-289.5927331694334
 20
212.9128198881401
 30
0.0
 11
-289.5712620349599
 21
212.9233619224634
 31
0.0
  0
LINE
  5
186
  8
0
  6
CONTINUOUS
 62
   253
 10
-350.3251204653761
 20
138.4829230509467
 30
0.0
 11
-350.3492426410957
 21
138.4791419418317
 31
0.0
  0
LINE
  5
187
  8
0
  6
CONTINUOUS
 62
     7
 10
-275.2400576470308
 20
219.6113815863057
 30
0.0
 11
-275.2400576470308
 21
212.8913181254055
 31
0.0
  0
LINE
  5
188
  8
0
  6
CONTINUOUS
 62
   253
 10
-289.779720052396
 20
212.745504584763
 30
0.0
 11
-289.7672124545754
 21
212.763953360861
 31
0.0
  0
LINE
  5
189
  8
0
  6
CONTINUOUS
 62
   253
 10
-349.9783434817171
 20
138.7042333071796
 30
0.0
 11
-349.9908510795378
 21
138.6857845310817
 31
0.0
  0
LINE
  5
18A
  8
0
  6
CONTINUOUS
 62
   253
 10
-289.7672124545754
 20
212.763953360861
 30
0.0
 11
-289.7536968009746
 21
212.7818735955798
 31
0.0
  0
LINE
  5
18B
  8
0
  6
CONTINUOUS
 62
     7
 10
-275.2400576470308
 20
212.8913181254055
 30
0.0
 11
-275.2734631356082
 21
210.4766184408446
 31
0.0
  0
LINE
  5
18C
  8
0
  6
CONTINUOUS
 62
   253
 10
-350.0858592424688
 20
138.5876358289421
 30
0.0
 11
-350.1046686560579
 21
138.5737323951884
 31
0.0
  0
LINE
  5
18D
  8
0
  6
CONTINUOUS
 62
   253
 10
-350.0188582428317
 20
138.6505152961833
 30
0.0
 11
-350.03429108405
 21
138.6337788627941
 31
0.0
  0
LINE
  5
18E
  8
0
  6
CONTINUOUS
 62
   253
 10
-197.8428524283061
 20
212.5632636438374
 30
0.0
 11
-197.8404494171487
 21
212.5843760382273
 31
0.0
  0
LINE
  5
18F
  8
0
  6
CONTINUOUS
 62
   253
 10
-197.7237724500631
 20
212.8159590291485
 30
0.0
 11
-197.7074350445142
 21
212.832043022875
 31
0.0
  0
LINE
  5
190
  8
0
  6
CONTINUOUS
 62
     7
 10
-272.5180058870823
 20
219.6113815863057
 30
0.0
 11
-272.5180058870823
 21
212.8913181254055
 31
0.0
  0
LINE
  5
191
  8
0
  6
CONTINUOUS
 62
     7
 10
-272.5180058870823
 20
212.8913181254055
 30
0.0
 11
-272.4846003985048
 21
210.4766184408446
 31
0.0
  0
LINE
  5
192
  8
0
  6
CONTINUOUS
 62
   253
 10
-349.9259592035468
 20
138.8234892724585
 30
0.0
 11
-349.9318813976407
 21
138.8028288428127
 31
0.0
  0
LINE
  5
193
  8
0
  6
CONTINUOUS
 62
     7
 10
-272.5180058870823
 20
131.8383563056369
 30
0.0
 11
-272.5180058870823
 21
138.5584197665371
 31
0.0
  0
LINE
  5
194
  8
0
  6
CONTINUOUS
 62
     7
 10
-272.5180058870823
 20
219.6113815863057
 30
0.0
 11
-272.5351559470217
 21
220.1113625478378
 31
0.0
  0
LINE
  5
195
  8
0
  6
CONTINUOUS
 62
     7
 10
-321.2400576470308
 20
131.8383563056369
 30
0.0
 11
-321.2229075870912
 21
131.3383753441048
 31
0.0
  0
LINE
  5
196
  8
0
  6
CONTINUOUS
 62
   253
 10
-350.1444516066063
 20
138.5483432390608
 30
0.0
 11
-350.1653303646798
 21
138.5369180038026
 31
0.0
  0
LINE
  5
197
  8
0
  6
CONTINUOUS
 62
   253
 10
-350.1653303646798
 20
138.5369180038026
 30
0.0
 11
-350.1868014991534
 21
138.5263759694792
 31
0.0
  0
LINE
  5
198
  8
0
  6
CONTINUOUS
 62
     7
 10
-272.5180058870823
 20
138.5584197665371
 30
0.0
 11
-272.4846003985048
 21
140.973119451098
 31
0.0
  0
LINE
  5
199
  8
0
  6
CONTINUOUS
 62
   253
 10
-289.7911897963406
 20
212.7265712196428
 30
0.0
 11
-289.779720052396
 21
212.745504584763
 31
0.0
  0
LINE
  5
19A
  8
0
  6
CONTINUOUS
 62
   253
 10
-197.7392052912815
 20
212.7992225957594
 30
0.0
 11
-197.7237724500631
 21
212.8159590291485
 31
0.0
  0
LINE
  5
19B
  8
0
  6
CONTINUOUS
 62
   253
 10
-289.7237724500632
 20
212.8159590291485
 30
0.0
 11
-289.7074350445142
 21
212.832043022875
 31
0.0
  0
LINE
  5
19C
  8
0
  6
CONTINUOUS
 62
   253
 10
-197.7672124545754
 20
212.763953360861
 30
0.0
 11
-197.7536968009746
 21
212.7818735955798
 31
0.0
  0
LINE
  5
19D
  8
0
  6
CONTINUOUS
 62
   253
 10
-197.8321043305664
 20
212.6262486194841
 30
0.0
 11
-197.8261821364725
 21
212.6469090491299
 31
0.0
  0
LINE
  5
19E
  8
0
  6
CONTINUOUS
 62
     7
 10
-318.5180058870823
 20
219.6113815863057
 30
0.0
 11
-318.5351559470217
 21
220.1113625478378
 31
0.0
  0
LINE
  5
19F
  8
0
  6
CONTINUOUS
 62
     7
 10
-275.2400576470308
 20
131.8383563056369
 30
0.0
 11
-275.2229075870913
 21
131.3383753441048
 31
0.0
  0
LINE
  5
1A0
  8
0
  6
CONTINUOUS
 62
   253
 10
-289.5038122234774
 20
212.9494485409807
 30
0.0
 11
-289.4804953782688
 21
212.9562285260145
 31
0.0
  0
LINE
  5
1A1
  8
0
  6
CONTINUOUS
 62
   253
 10
-289.6338485676354
 20
212.8891134361646
 30
0.0
 11
-289.6136119275069
 21
212.9013946528818
 31
0.0
  0
LINE
  5
1A2
  8
0
  6
CONTINUOUS
 62
   253
 10
-245.3703429776515
 20
211.2034730139863
 30
0.0
 11
-244.8703620161195
 21
211.1806955906292
 31
0.0
  0
LINE
  5
1A3
  8
0
  6
CONTINUOUS
 62
   253
 10
-197.8261821364725
 20
212.6469090491299
 30
0.0
 11
-197.8191113972516
 21
212.6673197837186
 31
0.0
  0
LINE
  5
1A4
  8
0
  6
CONTINUOUS
 62
   253
 10
-197.7074350445142
 20
212.832043022875
 30
0.0
 11
-197.6902319968633
 21
212.8474362584384
 31
0.0
  0
LINE
  5
1A5
  8
0
  6
CONTINUOUS
 62
   253
 10
-197.6533948780553
 20
212.8760054967543
 30
0.0
 11
-197.6338485676353
 21
212.8891134361646
 31
0.0
  0
LINE
  5
1A6
  8
0
  6
CONTINUOUS
 62
   253
 10
-243.5267485375124
 20
212.941698090924
 30
0.0
 11
-243.5038122234774
 21
212.9494485409807
 31
0.0
  0
LINE
  5
1A7
  8
0
  6
CONTINUOUS
 62
   253
 10
-197.8368638705005
 20
212.6053877161806
 30
0.0
 11
-197.8321043305664
 21
212.6262486194841
 31
0.0
  0
LINE
  5
1A8
  8
0
  6
CONTINUOUS
 62
   253
 10
-335.7797200523961
 20
212.745504584763
 30
0.0
 11
-335.7672124545754
 21
212.763953360861
 31
0.0
  0
LINE
  5
1A9
  8
0
  6
CONTINUOUS
 62
   253
 10
-197.6902319968633
 20
212.8474362584384
 30
0.0
 11
-197.6722042916444
 21
212.8621020630005
 31
0.0
  0
LINE
  5
1AA
  8
0
  6
CONTINUOUS
 62
   253
 10
-289.7074350445142
 20
212.832043022875
 30
0.0
 11
-289.6902319968634
 21
212.8474362584384
 31
0.0
  0
LINE
  5
1AB
  8
0
  6
CONTINUOUS
 62
   253
 10
-197.8440671790399
 20
212.542100831171
 30
0.0
 11
-197.8428524283061
 21
212.5632636438374
 31
0.0
  0
LINE
  5
1AC
  8
0
  6
CONTINUOUS
 62
   253
 10
-289.8321043305664
 20
212.6262486194841
 30
0.0
 11
-289.8261821364725
 21
212.6469090491299
 31
0.0
  0
LINE
  5
1AD
  8
0
  6
CONTINUOUS
 62
   253
 10
-289.6533948780552
 20
212.8760054967543
 30
0.0
 11
-289.6338485676354
 21
212.8891134361646
 31
0.0
  0
LINE
  5
1AE
  8
0
  6
CONTINUOUS
 62
   253
 10
-243.8321043305664
 20
212.6262486194841
 30
0.0
 11
-243.8261821364725
 21
212.6469090491299
 31
0.0
  0
LINE
  5
1AF
  8
0
  6
CONTINUOUS
 62
   253
 10
-335.8191113972516
 20
212.6673197837186
 30
0.0
 11
-335.8109089582301
 21
212.6874321967242
 31
0.0
  0
LINE
  5
1B0
  8
0
  6
CONTINUOUS
 62
   253
 10
-243.7672124545754
 20
212.763953360861
 30
0.0
 11
-243.7536968009746
 21
212.7818735955798
 31
0.0
  0
LINE
  5
1B1
  8
0
  6
CONTINUOUS
 62
   253
 10
-289.6902319968634
 20
212.8474362584384
 30
0.0
 11
-289.6722042916444
 21
212.8621020630005
 31
0.0
  0
LINE
  5
1B2
  8
0
  6
CONTINUOUS
 62
   253
 10
-289.4329430687371
 20
212.9668148409959
 30
0.0
 11
-289.4088208930175
 21
212.9705959501109
 31
0.0
  0
LINE
  5
1B3
  8
0
  6
CONTINUOUS
 62
   253
 10
-243.7797200523961
 20
212.745504584763
 30
0.0
 11
-243.7672124545754
 21
212.763953360861
 31
0.0
  0
LINE
  5
1B4
  8
0
  6
CONTINUOUS
 62
   253
 10
-335.8261821364725
 20
212.6469090491299
 30
0.0
 11
-335.8191113972516
 21
212.6673197837186
 31
0.0
  0
LINE
  5
1B5
  8
0
  6
CONTINUOUS
 62
   253
 10
-243.5712620349598
 20
212.9233619224634
 30
0.0
 11
-243.5492496769085
 21
212.9329956405134
 31
0.0
  0
LINE
  5
1B6
  8
0
  6
CONTINUOUS
 62
   253
 10
-289.5267485375124
 20
212.941698090924
 30
0.0
 11
-289.5038122234774
 21
212.9494485409807
 31
0.0
  0
LINE
  5
1B7
  8
0
  6
CONTINUOUS
 62
   253
 10
-289.5492496769085
 20
212.9329956405134
 30
0.0
 11
-289.5267485375124
 21
212.941698090924
 31
0.0
  0
LINE
  5
1B8
  8
0
  6
CONTINUOUS
 62
   253
 10
-289.81090895823
 20
212.6874321967242
 30
0.0
 11
-289.8015943608954
 21
212.707198372342
 31
0.0
  0
LINE
  5
1B9
  8
0
  6
CONTINUOUS
 62
   253
 10
-289.8261821364725
 20
212.6469090491299
 30
0.0
 11
-289.8191113972516
 21
212.6673197837186
 31
0.0
  0
LINE
  5
1BA
  8
0
  6
CONTINUOUS
 62
   253
 10
-289.4568535519294
 20
212.9620218933916
 30
0.0
 11
-289.4329430687371
 21
212.9668148409959
 31
0.0
  0
LINE
  5
1BB
  8
0
  6
CONTINUOUS
 62
   253
 10
-289.7392052912815
 20
212.7992225957594
 30
0.0
 11
-289.7237724500632
 21
212.8159590291485
 31
0.0
  0
LINE
  5
1BC
  8
0
  6
CONTINUOUS
 62
   253
 10
-289.4804953782688
 20
212.9562285260145
 30
0.0
 11
-289.4568535519294
 21
212.9620218933916
 31
0.0
  0
LINE
  5
1BD
  8
0
  6
CONTINUOUS
 62
   253
 10
-350.2775681558444
 20
138.4935093659281
 30
0.0
 11
-350.3012099821838
 21
138.487715998551
 31
0.0
  0
LINE
  5
1BE
  8
0
  6
CONTINUOUS
 62
   253
 10
-289.3601717060669
 20
212.9750890524861
 30
0.0
 11
-289.3357605966398
 21
212.975790341381
 31
0.0
  0
LINE
  5
1BF
  8
0
  6
CONTINUOUS
 62
   253
 10
-335.8428524283061
 20
212.5632636438374
 30
0.0
 11
-335.8404494171488
 21
212.5843760382273
 31
0.0
  0
LINE
  5
1C0
  8
0
  6
CONTINUOUS
 62
   253
 10
-335.8109089582301
 20
212.6874321967242
 30
0.0
 11
-335.8015943608954
 21
212.707198372342
 31
0.0
  0
LINE
  5
1C1
  8
0
  6
CONTINUOUS
 62
   253
 10
-350.3735190406807
 20
138.4763816793188
 30
0.0
 11
-350.3978918280462
 21
138.4746488394565
 31
0.0
  0
LINE
  5
1C2
  8
0
  6
CONTINUOUS
 62
   253
 10
-335.8015943608954
 20
212.707198372342
 30
0.0
 11
-335.7911897963405
 21
212.7265712196428
 31
0.0
  0
LINE
  5
1C3
  8
0
  6
CONTINUOUS
 62
   253
 10
-350.3012099821838
 20
138.487715998551
 30
0.0
 11
-350.3251204653761
 21
138.4829230509467
 31
0.0
  0
LINE
  5
1C4
  8
0
  6
CONTINUOUS
 62
   253
 10
-243.5038122234774
 20
212.9494485409807
 30
0.0
 11
-243.4804953782688
 21
212.9562285260145
 31
0.0
  0
LINE
  5
1C5
  8
0
  6
CONTINUOUS
 62
   253
 10
-197.6722042916444
 20
212.8621020630005
 30
0.0
 11
-197.6533948780553
 21
212.8760054967543
 31
0.0
  0
LINE
  5
1C6
  8
0
  6
CONTINUOUS
 62
   253
 10
-197.5492496769085
 20
212.9329956405134
 30
0.0
 11
-197.5267485375124
 21
212.941698090924
 31
0.0
  0
LINE
  5
1C7
  8
0
  6
CONTINUOUS
 62
   253
 10
-289.6722042916444
 20
212.8621020630005
 30
0.0
 11
-289.6533948780552
 21
212.8760054967543
 31
0.0
  0
LINE
  5
1C8
  8
0
  6
CONTINUOUS
 62
   253
 10
-289.4088208930175
 20
212.9705959501109
 30
0.0
 11
-289.3845444934325
 21
212.9733562126237
 31
0.0
  0
LINE
  5
1C9
  8
0
  6
CONTINUOUS
 62
   253
 10
-197.81090895823
 20
212.6874321967242
 30
0.0
 11
-197.8015943608953
 21
212.707198372342
 31
0.0
  0
LINE
  5
1CA
  8
0
  6
CONTINUOUS
 62
   253
 10
-289.8404494171488
 20
212.5843760382273
 30
0.0
 11
-289.8368638705006
 21
212.6053877161806
 31
0.0
  0
LINE
  5
1CB
  8
0
  6
CONTINUOUS
 62
   253
 10
-289.6136119275069
 20
212.9013946528818
 30
0.0
 11
-289.5927331694334
 21
212.9128198881401
 31
0.0
  0
LINE
  5
1CC
  8
0
  6
CONTINUOUS
 62
   253
 10
-197.8404494171487
 20
212.5843760382273
 30
0.0
 11
-197.8368638705005
 21
212.6053877161806
 31
0.0
  0
LINE
  5
1CD
  8
0
  6
CONTINUOUS
 62
   253
 10
-289.7536968009746
 20
212.7818735955798
 30
0.0
 11
-289.7392052912815
 21
212.7992225957594
 31
0.0
  0
LINE
  5
1CE
  8
0
  6
CONTINUOUS
 62
   253
 10
-197.8015943608953
 20
212.707198372342
 30
0.0
 11
-197.7911897963405
 21
212.7265712196428
 31
0.0
  0
LINE
  5
1CF
  8
0
  6
CONTINUOUS
 62
   253
 10
-197.6338485676353
 20
212.8891134361646
 30
0.0
 11
-197.6136119275069
 21
212.9013946528818
 31
0.0
  0
LINE
  5
1D0
  8
0
  6
CONTINUOUS
 62
   253
 10
-243.7237724500631
 20
212.8159590291485
 30
0.0
 11
-243.7074350445142
 21
212.832043022875
 31
0.0
  0
LINE
  5
1D1
  8
0
  6
CONTINUOUS
 62
   253
 10
-243.6902319968633
 20
212.8474362584384
 30
0.0
 11
-243.6722042916444
 21
212.8621020630005
 31
0.0
  0
LINE
  5
1D2
  8
0
  6
CONTINUOUS
 62
   253
 10
-243.81090895823
 20
212.6874321967242
 30
0.0
 11
-243.8015943608953
 21
212.707198372342
 31
0.0
  0
LINE
  5
1D3
  8
0
  6
CONTINUOUS
 62
   253
 10
-289.8368638705006
 20
212.6053877161806
 30
0.0
 11
-289.8321043305664
 21
212.6262486194841
 31
0.0
  0
LINE
  5
1D4
  8
0
  6
CONTINUOUS
 62
   253
 10
-197.6136119275069
 20
212.9013946528818
 30
0.0
 11
-197.5927331694334
 21
212.9128198881401
 31
0.0
  0
LINE
  5
1D5
  8
0
  6
CONTINUOUS
 62
   253
 10
-243.7392052912815
 20
212.7992225957594
 30
0.0
 11
-243.7237724500631
 21
212.8159590291485
 31
0.0
  0
LINE
  5
1D6
  8
0
  6
CONTINUOUS
 62
   253
 10
-197.8191113972516
 20
212.6673197837186
 30
0.0
 11
-197.81090895823
 21
212.6874321967242
 31
0.0
  0
LINE
  5
1D7
  8
0
  6
CONTINUOUS
 62
   253
 10
-289.3845444934325
 20
212.9733562126237
 30
0.0
 11
-289.3601717060669
 21
212.9750890524861
 31
0.0
  0
LINE
  5
1D8
  8
0
  6
CONTINUOUS
 62
   253
 10
-289.8440671790399
 20
212.542100831171
 30
0.0
 11
-289.8428524283062
 21
212.5632636438374
 31
0.0
  0
LINE
  5
1D9
  8
0
  6
CONTINUOUS
 62
   253
 10
-243.6338485676353
 20
212.8891134361646
 30
0.0
 11
-243.6136119275069
 21
212.9013946528818
 31
0.0
  0
LINE
  5
1DA
  8
0
  6
CONTINUOUS
 62
   253
 10
-243.5492496769085
 20
212.9329956405134
 30
0.0
 11
-243.5267485375124
 21
212.941698090924
 31
0.0
  0
LINE
  5
1DB
  8
0
  6
CONTINUOUS
 62
   253
 10
-243.6533948780553
 20
212.8760054967543
 30
0.0
 11
-243.6338485676353
 21
212.8891134361646
 31
0.0
  0
LINE
  5
1DC
  8
0
  6
CONTINUOUS
 62
   253
 10
-289.5712620349599
 20
212.9233619224634
 30
0.0
 11
-289.5492496769085
 21
212.9329956405134
 31
0.0
  0
LINE
  5
1DD
  8
0
  6
CONTINUOUS
 62
   253
 10
-243.8404494171487
 20
212.5843760382273
 30
0.0
 11
-243.8368638705005
 21
212.6053877161806
 31
0.0
  0
LINE
  5
1DE
  8
0
  6
CONTINUOUS
 62
   253
 10
-243.8440671790399
 20
212.542100831171
 30
0.0
 11
-243.8428524283061
 21
212.5632636438374
 31
0.0
  0
LINE
  5
1DF
  8
0
  6
CONTINUOUS
 62
   253
 10
-243.8261821364725
 20
212.6469090491299
 30
0.0
 11
-243.8191113972516
 21
212.6673197837186
 31
0.0
  0
LINE
  5
1E0
  8
0
  6
CONTINUOUS
 62
   253
 10
-197.5038122234774
 20
212.9494485409807
 30
0.0
 11
-197.4804953782688
 21
212.9562285260145
 31
0.0
  0
LINE
  5
1E1
  8
0
  6
CONTINUOUS
 62
   253
 10
-243.4804953782688
 20
212.9562285260145
 30
0.0
 11
-243.4568535519294
 21
212.9620218933916
 31
0.0
  0
LINE
  5
1E2
  8
0
  6
CONTINUOUS
 62
   253
 10
-335.7911897963405
 20
212.7265712196428
 30
0.0
 11
-335.7797200523961
 21
212.745504584763
 31
0.0
  0
LINE
  5
1E3
  8
0
  6
CONTINUOUS
 62
   253
 10
-197.8896824461956
 20
139.4649321938959
 30
0.0
 11
-197.9466326062271
 21
139.6522841685054
 31
0.0
  0
LINE
  5
1E4
  8
0
  6
CONTINUOUS
 62
   253
 10
-197.3845444934325
 20
212.9733562126237
 30
0.0
 11
-197.3601717060669
 21
212.9750890524861
 31
0.0
  0
LINE
  5
1E5
  8
0
  6
CONTINUOUS
 62
   253
 10
-197.4329430687371
 20
212.9668148409959
 30
0.0
 11
-197.4088208930175
 21
212.9705959501109
 31
0.0
  0
LINE
  5
1E6
  8
0
  6
CONTINUOUS
 62
   253
 10
-197.4804953782688
 20
212.9562285260145
 30
0.0
 11
-197.4568535519294
 21
212.9620218933916
 31
0.0
  0
LINE
  5
1E7
  8
0
  6
CONTINUOUS
 62
   253
 10
-243.8428524283061
 20
212.5632636438374
 30
0.0
 11
-243.8404494171487
 21
212.5843760382273
 31
0.0
  0
LINE
  5
1E8
  8
0
  6
CONTINUOUS
 62
   253
 10
-243.8191113972516
 20
212.6673197837186
 30
0.0
 11
-243.81090895823
 21
212.6874321967242
 31
0.0
  0
LINE
  5
1E9
  8
0
  6
CONTINUOUS
 62
   253
 10
-197.5267485375124
 20
212.941698090924
 30
0.0
 11
-197.5038122234774
 21
212.9494485409807
 31
0.0
  0
LINE
  5
1EA
  8
0
  6
CONTINUOUS
 62
   253
 10
-243.3845444934325
 20
212.9733562126237
 30
0.0
 11
-243.360171706067
 21
212.9750890524861
 31
0.0
  0
LINE
  5
1EB
  8
0
  6
CONTINUOUS
 62
   253
 10
-257.5946397846315
 20
211.4734214577661
 30
0.0
 11
-257.443125728134
 21
211.3491872145106
 31
0.0
  0
LINE
  5
1EC
  8
0
  6
CONTINUOUS
 62
   253
 10
-243.6136119275069
 20
212.9013946528818
 30
0.0
 11
-243.5927331694334
 21
212.9128198881401
 31
0.0
  0
LINE
  5
1ED
  8
0
  6
CONTINUOUS
 62
   253
 10
-335.8704000930554
 20
131.8120233916215
 30
0.0
 11
-335.8704000930554
 21
139.2700966031992
 31
0.0
  0
LINE
  5
1EE
  8
0
  6
CONTINUOUS
 62
   253
 10
-243.6722042916444
 20
212.8621020630005
 30
0.0
 11
-243.6533948780553
 21
212.8760054967543
 31
0.0
  0
LINE
  5
1EF
  8
0
  6
CONTINUOUS
 62
   253
 10
-197.8704000930553
 20
139.2700966031992
 30
0.0
 11
-197.8896824461956
 21
139.4649321938959
 31
0.0
  0
LINE
  5
1F0
  8
0
  6
CONTINUOUS
 62
   253
 10
-243.7074350445142
 20
212.832043022875
 30
0.0
 11
-243.6902319968633
 21
212.8474362584384
 31
0.0
  0
LINE
  5
1F1
  8
0
  6
CONTINUOUS
 62
   253
 10
-335.8440671790399
 20
212.542100831171
 30
0.0
 11
-335.8428524283061
 21
212.5632636438374
 31
0.0
  0
LINE
  5
1F2
  8
0
  6
CONTINUOUS
 62
   253
 10
-243.4088208930175
 20
212.9705959501109
 30
0.0
 11
-243.3845444934325
 21
212.9733562126237
 31
0.0
  0
LINE
  5
1F3
  8
0
  6
CONTINUOUS
 62
   253
 10
-197.4088208930175
 20
212.9705959501109
 30
0.0
 11
-197.3845444934325
 21
212.9733562126237
 31
0.0
  0
LINE
  5
1F4
  8
0
  6
CONTINUOUS
 62
   253
 10
-336.1634237494816
 20
211.4734214577661
 30
0.0
 11
-336.0390631230425
 21
211.6247815360362
 31
0.0
  0
LINE
  5
1F5
  8
0
  6
CONTINUOUS
 62
   253
 10
-257.443125728134
 20
211.3491872145106
 30
0.0
 11
-257.2702778817504
 21
211.2568506314693
 31
0.0
  0
LINE
  5
1F6
  8
0
  6
CONTINUOUS
 62
   253
 10
-197.5927331694334
 20
212.9128198881401
 30
0.0
 11
-197.5712620349598
 21
212.9233619224634
 31
0.0
  0
LINE
  5
1F7
  8
0
  6
CONTINUOUS
 62
   253
 10
-243.8015943608953
 20
212.707198372342
 30
0.0
 11
-243.7911897963405
 21
212.7265712196428
 31
0.0
  0
LINE
  5
1F8
  8
0
  6
CONTINUOUS
 62
   253
 10
-335.8404494171488
 20
212.5843760382273
 30
0.0
 11
-335.8368638705006
 21
212.6053877161806
 31
0.0
  0
LINE
  5
1F9
  8
0
  6
CONTINUOUS
 62
   253
 10
-243.4329430687371
 20
212.9668148409959
 30
0.0
 11
-243.4088208930175
 21
212.9705959501109
 31
0.0
  0
LINE
  5
1FA
  8
0
  6
CONTINUOUS
 62
   253
 10
-197.5712620349598
 20
212.9233619224634
 30
0.0
 11
-197.5492496769085
 21
212.9329956405134
 31
0.0
  0
LINE
  5
1FB
  8
0
  6
CONTINUOUS
 62
   253
 10
-243.5927331694334
 20
212.9128198881401
 30
0.0
 11
-243.5712620349598
 21
212.9233619224634
 31
0.0
  0
LINE
  5
1FC
  8
0
  6
CONTINUOUS
 62
   253
 10
-335.8321043305664
 20
212.6262486194841
 30
0.0
 11
-335.8261821364725
 21
212.6469090491299
 31
0.0
  0
LINE
  5
1FD
  8
0
  6
CONTINUOUS
 62
   253
 10
-243.7536968009746
 20
212.7818735955798
 30
0.0
 11
-243.7392052912815
 21
212.7992225957594
 31
0.0
  0
LINE
  5
1FE
  8
0
  6
CONTINUOUS
 62
   253
 10
-243.8368638705005
 20
212.6053877161806
 30
0.0
 11
-243.8321043305664
 21
212.6262486194841
 31
0.0
  0
LINE
  5
1FF
  8
0
  6
CONTINUOUS
 62
   253
 10
-197.4568535519294
 20
212.9620218933916
 30
0.0
 11
-197.4329430687371
 21
212.9668148409959
 31
0.0
  0
LINE
  5
200
  8
0
  6
CONTINUOUS
 62
     7
 10
-340.8790317670565
 20
217.4698689459713
 30
0.0
 11
-340.8790317670565
 21
217.4798689459713
 31
0.0
  0
LINE
  5
201
  8
0
  6
CONTINUOUS
 62
   253
 10
-243.4568535519294
 20
212.9620218933916
 30
0.0
 11
-243.4329430687371
 21
212.9668148409959
 31
0.0
  0
LINE
  5
202
  8
0
  6
CONTINUOUS
 62
   253
 10
-335.8368638705006
 20
212.6053877161806
 30
0.0
 11
-335.8321043305664
 21
212.6262486194841
 31
0.0
  0
LINE
  5
203
  8
0
  6
CONTINUOUS
 62
   253
 10
-243.7911897963405
 20
212.7265712196428
 30
0.0
 11
-243.7797200523961
 21
212.745504584763
 31
0.0
  0
LINE
  5
204
  8
0
  6
CONTINUOUS
 62
   253
 10
-198.8703620161195
 20
140.2690423013134
 30
0.0
 11
-199.3703429776516
 21
140.2462648779562
 31
0.0
  0
LINE
  5
205
  8
0
  6
CONTINUOUS
 62
   253
 10
-336.6753282196656
 20
211.199958347815
 30
0.0
 11
-336.4877856523628
 21
211.2568506314692
 31
0.0
  0
LINE
  5
206
  8
0
  6
CONTINUOUS
 62
   253
 10
-364.0297843710883
 20
220.1113625478378
 30
0.0
 11
-364.5177222431631
 21
220.0633088086372
 31
0.0
  0
LINE
  5
207
  8
0
  6
CONTINUOUS
 62
   253
 10
-212.0341179349186
 20
219.9912409679926
 30
0.0
 11
-212.1098817343467
 21
220.0534202565469
 31
0.0
  0
LINE
  5
208
  8
0
  6
CONTINUOUS
 62
   253
 10
-181.2272930388174
 20
138.1520298102493
 30
0.0
 11
-181.2272930388174
 21
133.8375656679955
 31
0.0
  0
LINE
  5
209
  8
0
  6
CONTINUOUS
 62
   253
 10
-366.4598889616579
 20
210.4790441564977
 30
0.0
 11
-366.5307704952957
 21
213.2977080816933
 31
0.0
  0
LINE
  5
20A
  8
0
  6
CONTINUOUS
 62
   253
 10
-304.0341179349185
 20
131.4584969239501
 30
0.0
 11
-303.9719386463642
 21
131.5342607233782
 31
0.0
  0
LINE
  5
20B
  8
0
  6
CONTINUOUS
 62
   253
 10
-197.3440862175078
 20
220.1113625478378
 30
0.0
 11
-183.7282791630247
 21
220.1113625478378
 31
0.0
  0
LINE
  5
20C
  8
0
  6
CONTINUOUS
 62
   253
 10
-366.4826822998813
 20
218.0997596657413
 30
0.0
 11
-366.5307704952957
 21
217.6121722239471
 31
0.0
  0
LINE
  5
20D
  8
0
  6
CONTINUOUS
 62
   253
 10
-365.4192556101586
 20
219.6901323023609
 30
0.0
 11
-365.798224736574
 21
219.379342612348
 31
0.0
  0
LINE
  5
20E
  8
0
  6
CONTINUOUS
 62
   253
 10
-243.8607865998937
 20
219.7352512794911
 30
0.0
 11
-243.8704000930553
 21
219.6377145003211
 31
0.0
  0
LINE
  5
20F
  8
0
  6
CONTINUOUS
 62
   253
 10
-181.2981745724552
 20
140.970693735445
 30
0.0
 11
-181.2272930388174
 21
138.1520298102493
 31
0.0
  0
LINE
  5
210
  8
0
  6
CONTINUOUS
 62
   253
 10
-366.5307704952957
 20
133.8375656679955
 30
0.0
 11
-366.5307704952957
 21
138.1520298102493
 31
0.0
  0
LINE
  5
211
  8
0
  6
CONTINUOUS
 62
   253
 10
-211.9719386463642
 20
131.5342607233782
 30
0.0
 11
-211.9257331529344
 21
131.6206977547482
 31
0.0
  0
LINE
  5
212
  8
0
  6
CONTINUOUS
 62
   253
 10
-257.9257331529344
 20
131.6206977547482
 30
0.0
 11
-257.8972769342194
 21
131.7144866124515
 31
0.0
  0
LINE
  5
213
  8
0
  6
CONTINUOUS
 62
   253
 10
-181.417714413336
 20
218.5685864082645
 30
0.0
 11
-181.648825799979
 21
219.0006456110089
 31
0.0
  0
LINE
  5
214
  8
0
  6
CONTINUOUS
 62
   253
 10
-366.5307704952957
 20
133.8375656679955
 30
0.0
 11
-366.4826822998813
 21
133.3499782262014
 31
0.0
  0
LINE
  5
215
  8
0
  6
CONTINUOUS
 62
   253
 10
-212.4139773166054
 20
220.1113625478378
 30
0.0
 11
-212.38764440259
 21
220.1376954618532
 31
0.0
  0
LINE
  5
216
  8
0
  6
CONTINUOUS
 62
   253
 10
-258.4139773166054
 20
220.1113625478378
 30
0.0
 11
-258.38764440259
 21
220.1376954618532
 31
0.0
  0
LINE
  5
217
  8
0
  6
CONTINUOUS
 62
   253
 10
-366.1092377341341
 20
132.4490922809338
 30
0.0
 11
-365.7982247365741
 21
132.0703952795947
 31
0.0
  0
LINE
  5
218
  8
0
  6
CONTINUOUS
 62
   253
 10
-181.648825799979
 20
132.4490922809338
 30
0.0
 11
-181.417714413336
 21
132.8811514836782
 31
0.0
  0
LINE
  5
219
  8
0
  6
CONTINUOUS
 62
   253
 10
-272.5351559470217
 20
220.1113625478378
 30
0.0
 11
-258.4139773166054
 21
220.1113625478378
 31
0.0
  0
LINE
  5
21A
  8
0
  6
CONTINUOUS
 62
   253
 10
-289.3704191315232
 20
220.1376954618532
 30
0.0
 11
-289.3440862175078
 21
220.1113625478378
 31
0.0
  0
LINE
  5
21B
  8
0
  6
CONTINUOUS
 62
   253
 10
-258.2901076234199
 20
131.321655923251
 30
0.0
 11
-258.1963187657167
 21
131.350112141966
 31
0.0
  0
LINE
  5
21C
  8
0
  6
CONTINUOUS
 62
   253
 10
-258.1098817343466
 20
131.3963176353957
 30
0.0
 11
-258.0341179349185
 21
131.4584969239501
 31
0.0
  0
LINE
  5
21D
  8
0
  6
CONTINUOUS
 62
     7
 10
-272.5351559470217
 20
220.1113625478378
 30
0.0
 11
-272.6126280801657
 21
220.1309015217705
 31
0.0
  0
LINE
  5
21E
  8
0
  6
CONTINUOUS
 62
   253
 10
-181.2753812342318
 20
218.0997596657413
 30
0.0
 11
-181.417714413336
 21
218.5685864082645
 31
0.0
  0
LINE
  5
21F
  8
0
  6
CONTINUOUS
 62
   253
 10
-181.648825799979
 20
219.0006456110089
 30
0.0
 11
-181.959838797539
 21
219.379342612348
 31
0.0
  0
LINE
  5
220
  8
0
  6
CONTINUOUS
 62
   253
 10
-243.7239455991946
 20
219.9912409679925
 30
0.0
 11
-243.786124887749
 21
219.9154771685644
 31
0.0
  0
LINE
  5
221
  8
0
  6
CONTINUOUS
 62
   253
 10
-212.1098817343467
 20
220.0534202565469
 30
0.0
 11
-212.1963187657167
 21
220.0996257499767
 31
0.0
  0
LINE
  5
222
  8
0
  6
CONTINUOUS
 62
   253
 10
-182.3388079239544
 20
131.7596055895818
 30
0.0
 11
-181.959838797539
 21
132.0703952795947
 31
0.0
  0
LINE
  5
223
  8
0
  6
CONTINUOUS
 62
   253
 10
-365.4192556101587
 20
131.7596055895818
 30
0.0
 11
-364.9868859166718
 21
131.5286601160925
 31
0.0
  0
LINE
  5
224
  8
0
  6
CONTINUOUS
 62
   253
 10
-335.7239455991947
 20
131.4584969239501
 30
0.0
 11
-335.6481817997666
 21
131.3963176353957
 31
0.0
  0
LINE
  5
225
  8
0
  6
CONTINUOUS
 62
   253
 10
-365.798224736574
 20
219.379342612348
 30
0.0
 11
-366.1092377341341
 21
219.0006456110089
 31
0.0
  0
LINE
  5
226
  8
0
  6
CONTINUOUS
 62
   253
 10
-212.1963187657167
 20
131.350112141966
 30
0.0
 11
-212.1098817343467
 21
131.3963176353957
 31
0.0
  0
LINE
  5
227
  8
0
  6
CONTINUOUS
 62
   253
 10
-211.8972769342194
 20
219.7352512794911
 30
0.0
 11
-211.9257331529344
 21
219.8290401371944
 31
0.0
  0
LINE
  5
228
  8
0
  6
CONTINUOUS
 62
   253
 10
-182.7711776174413
 20
131.5286601160925
 30
0.0
 11
-182.3388079239544
 21
131.7596055895818
 31
0.0
  0
LINE
  5
229
  8
0
  6
CONTINUOUS
 62
     7
 10
-274.1460335687432
 20
220.139326602429
 30
0.0
 11
-275.1454354539474
 21
220.1309015217705
 31
0.0
  0
LINE
  5
22A
  8
0
  6
CONTINUOUS
 62
   253
 10
-211.8876634410579
 20
219.6377145003211
 30
0.0
 11
-211.8972769342194
 21
219.7352512794911
 31
0.0
  0
LINE
  5
22B
  8
0
  6
CONTINUOUS
 62
   253
 10
-304.2901076234201
 20
131.321655923251
 30
0.0
 11
-304.1963187657167
 21
131.350112141966
 31
0.0
  0
LINE
  5
22C
  8
0
  6
CONTINUOUS
 62
   253
 10
-181.2272930388174
 20
213.2977080816933
 30
0.0
 11
-181.2981745724552
 21
210.4790441564977
 31
0.0
  0
LINE
  5
22D
  8
0
  6
CONTINUOUS
 62
   253
 10
-366.3403491207771
 20
132.8811514836782
 30
0.0
 11
-366.1092377341341
 21
132.4490922809338
 31
0.0
  0
LINE
  5
22E
  8
0
  6
CONTINUOUS
 62
     7
 10
-275.1454354539473
 20
220.1309015217705
 30
0.0
 11
-275.2229075870913
 21
220.1113625478378
 31
0.0
  0
LINE
  5
22F
  8
0
  6
CONTINUOUS
 62
   253
 10
-243.3704191315232
 20
220.1376954618532
 30
0.0
 11
-243.3440862175078
 21
220.1113625478378
 31
0.0
  0
LINE
  5
230
  8
0
  6
CONTINUOUS
 62
   253
 10
-364.9868859166718
 20
131.5286601160925
 30
0.0
 11
-364.5177222431631
 21
131.3864290833054
 31
0.0
  0
LINE
  5
231
  8
0
  6
CONTINUOUS
 62
   253
 10
-350.4139773166054
 20
220.1113625478378
 30
0.0
 11
-350.38764440259
 21
220.1376954618532
 31
0.0
  0
LINE
  5
232
  8
0
  6
CONTINUOUS
 62
   253
 10
-335.8704000930553
 20
131.8120233916216
 30
0.0
 11
-335.8607865998938
 21
131.7144866124516
 31
0.0
  0
LINE
  5
233
  8
0
  6
CONTINUOUS
 62
   253
 10
-243.4679559106932
 20
220.1280819686916
 30
0.0
 11
-243.5617447683965
 21
220.0996257499766
 31
0.0
  0
LINE
  5
234
  8
0
  6
CONTINUOUS
 62
   253
 10
-289.8323303811787
 20
219.8290401371943
 30
0.0
 11
-289.8607865998937
 21
219.7352512794911
 31
0.0
  0
LINE
  5
235
  8
0
  6
CONTINUOUS
 62
   253
 10
-257.9719386463641
 20
131.5342607233782
 30
0.0
 11
-257.9257331529344
 21
131.6206977547482
 31
0.0
  0
LINE
  5
236
  8
0
  6
CONTINUOUS
 62
   253
 10
-289.5617447683965
 20
220.0996257499767
 30
0.0
 11
-289.6481817997666
 21
220.0534202565469
 31
0.0
  0
LINE
  5
237
  8
0
  6
CONTINUOUS
 62
   253
 10
-212.1963187657167
 20
220.0996257499767
 30
0.0
 11
-212.29010762342
 21
220.1280819686916
 31
0.0
  0
LINE
  5
238
  8
0
  6
CONTINUOUS
 62
   253
 10
-289.4679559106932
 20
220.1280819686916
 30
0.0
 11
-289.5617447683965
 21
220.0996257499767
 31
0.0
  0
LINE
  5
239
  8
0
  6
CONTINUOUS
 62
   253
 10
-335.8607865998938
 20
131.7144866124516
 30
0.0
 11
-335.8323303811788
 21
131.6206977547483
 31
0.0
  0
LINE
  5
23A
  8
0
  6
CONTINUOUS
 62
   253
 10
-181.2272930388174
 20
217.6121722239471
 30
0.0
 11
-181.2272930388174
 21
213.2977080816933
 31
0.0
  0
LINE
  5
23B
  8
0
  6
CONTINUOUS
 62
   253
 10
-364.0297843710883
 20
220.1113625478378
 30
0.0
 11
-350.4139773166054
 21
220.1113625478378
 31
0.0
  0
LINE
  5
23C
  8
0
  6
CONTINUOUS
 62
   253
 10
-181.417714413336
 20
132.8811514836782
 30
0.0
 11
-181.2753812342318
 21
133.3499782262014
 31
0.0
  0
LINE
  5
23D
  8
0
  6
CONTINUOUS
 62
   253
 10
-291.3703429776515
 20
140.2462648779563
 30
0.0
 11
-302.3877205564616
 21
140.2462648779563
 31
0.0
  0
LINE
  5
23E
  8
0
  6
CONTINUOUS
 62
   253
 10
-258.1963187657167
 20
131.350112141966
 30
0.0
 11
-258.1098817343466
 21
131.3963176353957
 31
0.0
  0
LINE
  5
23F
  8
0
  6
CONTINUOUS
 62
     7
 10
-296.8840317670565
 20
133.9798689459713
 30
0.0
 11
-298.8790317670565
 21
133.9798689459713
 31
0.0
  0
LINE
  5
240
  8
0
  6
CONTINUOUS
 62
   253
 10
-304.38764440259
 20
131.3120424300894
 30
0.0
 11
-304.2901076234201
 21
131.321655923251
 31
0.0
  0
LINE
  5
241
  8
0
  6
CONTINUOUS
 62
   253
 10
-289.6481817997666
 20
220.0534202565469
 30
0.0
 11
-289.7239455991946
 21
219.9912409679925
 31
0.0
  0
LINE
  5
242
  8
0
  6
CONTINUOUS
 62
   253
 10
-183.24034129095
 20
220.0633088086373
 30
0.0
 11
-183.7282791630247
 21
220.1113625478378
 31
0.0
  0
LINE
  5
243
  8
0
  6
CONTINUOUS
 62
   253
 10
-243.7861248877491
 20
131.5342607233782
 30
0.0
 11
-243.7239455991947
 21
131.4584969239501
 31
0.0
  0
LINE
  5
244
  8
0
  6
CONTINUOUS
 62
     7
 10
-344.8790317670565
 20
217.4798689459713
 30
0.0
 11
-344.8790317670565
 21
217.4698689459713
 31
0.0
  0
LINE
  5
245
  8
0
  6
CONTINUOUS
 62
   253
 10
-183.24034129095
 20
131.3864290833054
 30
0.0
 11
-182.7711776174413
 21
131.5286601160925
 31
0.0
  0
LINE
  5
246
  8
0
  6
CONTINUOUS
 62
   253
 10
-366.4826822998813
 20
133.3499782262014
 30
0.0
 11
-366.3403491207771
 21
132.8811514836782
 31
0.0
  0
LINE
  5
247
  8
0
  6
CONTINUOUS
 62
   253
 10
-243.3440862175078
 20
131.3383753441048
 30
0.0
 11
-243.3704191315232
 21
131.3120424300894
 31
0.0
  0
LINE
  5
248
  8
0
  6
CONTINUOUS
 62
   253
 10
-364.5177222431631
 20
131.3864290833054
 30
0.0
 11
-364.0297843710884
 21
131.3383753441049
 31
0.0
  0
LINE
  5
249
  8
0
  6
CONTINUOUS
 62
   253
 10
-197.3704191315232
 20
220.1376954618532
 30
0.0
 11
-197.3440862175078
 21
220.1113625478378
 31
0.0
  0
LINE
  5
24A
  8
0
  6
CONTINUOUS
 62
     7
 10
-320.1460335687432
 20
220.139326602429
 30
0.0
 11
-321.1454354539474
 21
220.1309015217705
 31
0.0
  0
LINE
  5
24B
  8
0
  6
CONTINUOUS
 62
   253
 10
-183.7282791630247
 20
131.3383753441048
 30
0.0
 11
-197.3440862175078
 21
131.3383753441048
 31
0.0
  0
LINE
  5
24C
  8
0
  6
CONTINUOUS
 62
   253
 10
-243.8607865998938
 20
131.7144866124515
 30
0.0
 11
-243.8323303811788
 21
131.6206977547482
 31
0.0
  0
LINE
  5
24D
  8
0
  6
CONTINUOUS
 62
   253
 10
-366.340349120777
 20
218.5685864082644
 30
0.0
 11
-366.4826822998813
 21
218.0997596657413
 31
0.0
  0
LINE
  5
24E
  8
0
  6
CONTINUOUS
 62
     7
 10
-318.5351559470217
 20
220.1113625478378
 30
0.0
 11
-318.6126280801657
 21
220.1309015217705
 31
0.0
  0
LINE
  5
24F
  8
0
  6
CONTINUOUS
 62
   253
 10
-350.38764440259
 20
131.3120424300894
 30
0.0
 11
-350.4139773166054
 21
131.3383753441048
 31
0.0
  0
LINE
  5
250
  8
0
  6
CONTINUOUS
 62
   253
 10
-243.5617447683965
 20
131.350112141966
 30
0.0
 11
-243.4679559106932
 21
131.321655923251
 31
0.0
  0
LINE
  5
251
  8
0
  6
CONTINUOUS
 62
   253
 10
-289.3440862175078
 20
131.3383753441048
 30
0.0
 11
-289.3704191315232
 21
131.3120424300894
 31
0.0
  0
LINE
  5
252
  8
0
  6
CONTINUOUS
 62
   253
 10
-243.8323303811788
 20
131.6206977547482
 30
0.0
 11
-243.7861248877491
 21
131.5342607233782
 31
0.0
  0
LINE
  5
253
  8
0
  6
CONTINUOUS
 62
     7
 10
-274.1460335687432
 20
131.3104112895136
 30
0.0
 11
-273.6120299653699
 21
131.3104112895136
 31
0.0
  0
LINE
  5
254
  8
0
  6
CONTINUOUS
 62
     7
 10
-321.1454354539474
 20
220.1309015217705
 30
0.0
 11
-321.2229075870912
 21
220.1113625478378
 31
0.0
  0
LINE
  5
255
  8
0
  6
CONTINUOUS
 62
   253
 10
-258.38764440259
 20
131.3120424300894
 30
0.0
 11
-258.4139773166054
 21
131.3383753441048
 31
0.0
  0
LINE
  5
256
  8
0
  6
CONTINUOUS
 62
     7
 10
-273.6120299653699
 20
131.3104112895136
 30
0.0
 11
-272.6126280801657
 21
131.3188363701721
 31
0.0
  0
LINE
  5
257
  8
0
  6
CONTINUOUS
 62
   253
 10
-243.3440862175078
 20
220.1113625478378
 30
0.0
 11
-212.4139773166054
 21
220.1113625478378
 31
0.0
  0
LINE
  5
258
  8
0
  6
CONTINUOUS
 62
   253
 10
-366.5307704952957
 20
213.2977080816933
 30
0.0
 11
-366.5307704952957
 21
217.6121722239471
 31
0.0
  0
LINE
  5
259
  8
0
  6
CONTINUOUS
 62
     7
 10
-318.6126280801657
 20
220.1309015217705
 30
0.0
 11
-319.6120299653699
 21
220.139326602429
 31
0.0
  0
LINE
  5
25A
  8
0
  6
CONTINUOUS
 62
     7
 10
-272.6126280801657
 20
220.1309015217705
 30
0.0
 11
-273.6120299653699
 21
220.139326602429
 31
0.0
  0
LINE
  5
25B
  8
0
  6
CONTINUOUS
 62
   253
 10
-350.4139773166054
 20
131.3383753441048
 30
0.0
 11
-364.0297843710883
 21
131.3383753441048
 31
0.0
  0
LINE
  5
25C
  8
0
  6
CONTINUOUS
 62
     7
 10
-320.1460335687432
 20
131.3104112895136
 30
0.0
 11
-319.6120299653699
 21
131.3104112895136
 31
0.0
  0
LINE
  5
25D
  8
0
  6
CONTINUOUS
 62
     7
 10
-275.2229075870914
 20
131.3383753441048
 30
0.0
 11
-275.1454354539474
 21
131.3188363701721
 31
0.0
  0
LINE
  5
25E
  8
0
  6
CONTINUOUS
 62
     7
 10
-321.1454354539474
 20
131.3188363701721
 30
0.0
 11
-320.1460335687432
 21
131.3104112895136
 31
0.0
  0
LINE
  5
25F
  8
0
  6
CONTINUOUS
 62
   253
 10
-364.9868859166717
 20
219.9210777758501
 30
0.0
 11
-365.4192556101586
 21
219.6901323023609
 31
0.0
  0
LINE
  5
260
  8
0
  6
CONTINUOUS
 62
     7
 10
-272.6126280801657
 20
131.3188363701721
 30
0.0
 11
-272.5351559470218
 21
131.3383753441048
 31
0.0
  0
LINE
  5
261
  8
0
  6
CONTINUOUS
 62
     7
 10
-319.6120299653699
 20
220.139326602429
 30
0.0
 11
-320.1460335687432
 21
220.139326602429
 31
0.0
  0
LINE
  5
262
  8
0
  6
CONTINUOUS
 62
   253
 10
-243.6481817997665
 20
131.3963176353957
 30
0.0
 11
-243.5617447683965
 21
131.350112141966
 31
0.0
  0
LINE
  5
263
  8
0
  6
CONTINUOUS
 62
   253
 10
-321.2229075870912
 20
131.3383753441048
 30
0.0
 11
-335.3440862175078
 21
131.3383753441048
 31
0.0
  0
LINE
  5
264
  8
0
  6
CONTINUOUS
 62
   253
 10
-182.3388079239544
 20
219.6901323023609
 30
0.0
 11
-182.7711776174413
 21
219.9210777758502
 31
0.0
  0
LINE
  5
265
  8
0
  6
CONTINUOUS
 62
   253
 10
-304.4139773166054
 20
220.1113625478378
 30
0.0
 11
-304.38764440259
 21
220.1376954618532
 31
0.0
  0
LINE
  5
266
  8
0
  6
CONTINUOUS
 62
   253
 10
-181.959838797539
 20
219.379342612348
 30
0.0
 11
-182.3388079239544
 21
219.6901323023609
 31
0.0
  0
LINE
  5
267
  8
0
  6
CONTINUOUS
 62
   253
 10
-183.7282791630247
 20
131.3383753441049
 30
0.0
 11
-183.24034129095
 21
131.3864290833054
 31
0.0
  0
LINE
  5
268
  8
0
  6
CONTINUOUS
 62
   253
 10
-366.1092377341341
 20
219.0006456110089
 30
0.0
 11
-366.340349120777
 21
218.5685864082644
 31
0.0
  0
LINE
  5
269
  8
0
  6
CONTINUOUS
 62
   253
 10
-181.959838797539
 20
132.0703952795947
 30
0.0
 11
-181.648825799979
 21
132.4490922809338
 31
0.0
  0
LINE
  5
26A
  8
0
  6
CONTINUOUS
 62
   253
 10
-318.5351559470217
 20
220.1113625478378
 30
0.0
 11
-304.4139773166054
 21
220.1113625478378
 31
0.0
  0
LINE
  5
26B
  8
0
  6
CONTINUOUS
 62
     7
 10
-321.2229075870912
 20
131.3383753441048
 30
0.0
 11
-321.1454354539474
 21
131.3188363701721
 31
0.0
  0
LINE
  5
26C
  8
0
  6
CONTINUOUS
 62
   253
 10
-335.3704191315232
 20
220.1376954618532
 30
0.0
 11
-335.3440862175078
 21
220.1113625478378
 31
0.0
  0
LINE
  5
26D
  8
0
  6
CONTINUOUS
 62
   253
 10
-258.4139773166054
 20
131.3383753441048
 30
0.0
 11
-272.5351559470217
 21
131.3383753441048
 31
0.0
  0
LINE
  5
26E
  8
0
  6
CONTINUOUS
 62
   253
 10
-197.3440862175078
 20
131.3383753441048
 30
0.0
 11
-197.3704191315232
 21
131.3120424300894
 31
0.0
  0
LINE
  5
26F
  8
0
  6
CONTINUOUS
 62
   253
 10
-364.5177222431631
 20
220.0633088086372
 30
0.0
 11
-364.9868859166717
 21
219.9210777758501
 31
0.0
  0
LINE
  5
270
  8
0
  6
CONTINUOUS
 62
     7
 10
-273.6120299653699
 20
220.139326602429
 30
0.0
 11
-274.1460335687432
 21
220.139326602429
 31
0.0
  0
LINE
  5
271
  8
0
  6
CONTINUOUS
 62
     7
 10
-319.6120299653699
 20
131.3104112895136
 30
0.0
 11
-318.6126280801657
 21
131.3188363701721
 31
0.0
  0
LINE
  5
272
  8
0
  6
CONTINUOUS
 62
   253
 10
-275.2229075870914
 20
131.3383753441048
 30
0.0
 11
-289.3440862175078
 21
131.3383753441048
 31
0.0
  0
LINE
  5
273
  8
0
  6
CONTINUOUS
 62
   253
 10
-212.4139773166054
 20
131.3383753441048
 30
0.0
 11
-243.3440862175078
 21
131.3383753441048
 31
0.0
  0
LINE
  5
274
  8
0
  6
CONTINUOUS
 62
   253
 10
-366.5307704952957
 20
138.1520298102493
 30
0.0
 11
-366.4598889616579
 21
140.970693735445
 31
0.0
  0
LINE
  5
275
  8
0
  6
CONTINUOUS
 62
   253
 10
-243.4679559106932
 20
131.321655923251
 30
0.0
 11
-243.3704191315232
 21
131.3120424300894
 31
0.0
  0
LINE
  5
276
  8
0
  6
CONTINUOUS
 62
   253
 10
-335.3440862175078
 20
131.3383753441048
 30
0.0
 11
-335.3704191315232
 21
131.3120424300894
 31
0.0
  0
LINE
  5
277
  8
0
  6
CONTINUOUS
 62
   253
 10
-365.7982247365741
 20
132.0703952795947
 30
0.0
 11
-365.4192556101587
 21
131.7596055895818
 31
0.0
  0
LINE
  5
278
  8
0
  6
CONTINUOUS
 62
   253
 10
-182.7711776174413
 20
219.9210777758502
 30
0.0
 11
-183.24034129095
 21
220.0633088086373
 31
0.0
  0
LINE
  5
279
  8
0
  6
CONTINUOUS
 62
   253
 10
-181.2272930388174
 20
217.6121722239472
 30
0.0
 11
-181.2753812342318
 21
218.0997596657413
 31
0.0
  0
LINE
  5
27A
  8
0
  6
CONTINUOUS
 62
   253
 10
-181.2753812342318
 20
133.3499782262014
 30
0.0
 11
-181.2272930388174
 21
133.8375656679955
 31
0.0
  0
LINE
  5
27B
  8
0
  6
CONTINUOUS
 62
     7
 10
-275.1454354539473
 20
131.3188363701721
 30
0.0
 11
-274.1460335687431
 21
131.3104112895136
 31
0.0
  0
LINE
  5
27C
  8
0
  6
CONTINUOUS
 62
   253
 10
-335.3440862175078
 20
220.1113625478378
 30
0.0
 11
-321.2229075870912
 21
220.1113625478378
 31
0.0
  0
LINE
  5
27D
  8
0
  6
CONTINUOUS
 62
   253
 10
-289.3440862175078
 20
220.1113625478378
 30
0.0
 11
-275.2229075870914
 21
220.1113625478378
 31
0.0
  0
LINE
  5
27E
  8
0
  6
CONTINUOUS
 62
     7
 10
-318.6126280801657
 20
131.3188363701721
 30
0.0
 11
-318.5351559470217
 21
131.3383753441048
 31
0.0
  0
LINE
  5
27F
  8
0
  6
CONTINUOUS
 62
   253
 10
-243.8704000930553
 20
131.8120233916215
 30
0.0
 11
-243.8607865998938
 21
131.7144866124515
 31
0.0
  0
LINE
  5
280
  8
0
  6
CONTINUOUS
 62
   253
 10
-243.7239455991947
 20
131.4584969239501
 30
0.0
 11
-243.6481817997665
 21
131.3963176353957
 31
0.0
  0
LINE
  5
281
  8
0
  6
CONTINUOUS
 62
   253
 10
-336.8703620161195
 20
140.2690423013134
 30
0.0
 11
-337.3703429776515
 21
140.2462648779562
 31
0.0
  0
LINE
  5
282
  8
0
  6
CONTINUOUS
 62
   253
 10
-212.38764440259
 20
131.3120424300894
 30
0.0
 11
-212.4139773166054
 21
131.3383753441048
 31
0.0
  0
LINE
  5
283
  8
0
  6
CONTINUOUS
 62
   253
 10
-289.5617447683965
 20
131.350112141966
 30
0.0
 11
-289.4679559106932
 21
131.321655923251
 31
0.0
  0
LINE
  5
284
  8
0
  6
CONTINUOUS
 62
   253
 10
-350.0341179349185
 20
131.4584969239501
 30
0.0
 11
-349.9719386463641
 21
131.5342607233782
 31
0.0
  0
LINE
  5
285
  8
0
  6
CONTINUOUS
 62
   253
 10
-211.9257331529344
 20
131.6206977547482
 30
0.0
 11
-211.8972769342194
 21
131.7144866124515
 31
0.0
  0
LINE
  5
286
  8
0
  6
CONTINUOUS
 62
   253
 10
-197.7239455991946
 20
219.9912409679925
 30
0.0
 11
-197.786124887749
 21
219.9154771685644
 31
0.0
  0
LINE
  5
287
  8
0
  6
CONTINUOUS
 62
   253
 10
-197.6481817997665
 20
220.0534202565469
 30
0.0
 11
-197.7239455991946
 21
219.9912409679925
 31
0.0
  0
LINE
  5
288
  8
0
  6
CONTINUOUS
 62
   253
 10
-349.9257331529344
 20
131.6206977547483
 30
0.0
 11
-349.8972769342195
 21
131.7144866124516
 31
0.0
  0
LINE
  5
289
  8
0
  6
CONTINUOUS
 62
   253
 10
-197.786124887749
 20
219.9154771685644
 30
0.0
 11
-197.8323303811788
 21
219.8290401371944
 31
0.0
  0
LINE
  5
28A
  8
0
  6
CONTINUOUS
 62
   253
 10
-289.7239455991947
 20
131.4584969239501
 30
0.0
 11
-289.6481817997665
 21
131.3963176353957
 31
0.0
  0
LINE
  5
28B
  8
0
  6
CONTINUOUS
 62
   253
 10
-335.7239455991946
 20
219.9912409679925
 30
0.0
 11
-335.786124887749
 21
219.9154771685644
 31
0.0
  0
LINE
  5
28C
  8
0
  6
CONTINUOUS
 62
   253
 10
-197.5617447683965
 20
131.350112141966
 30
0.0
 11
-197.4679559106931
 21
131.321655923251
 31
0.0
  0
LINE
  5
28D
  8
0
  6
CONTINUOUS
 62
   253
 10
-350.0341179349185
 20
219.9912409679925
 30
0.0
 11
-350.1098817343466
 21
220.0534202565469
 31
0.0
  0
LINE
  5
28E
  8
0
  6
CONTINUOUS
 62
   253
 10
-289.6481817997665
 20
131.3963176353957
 30
0.0
 11
-289.5617447683965
 21
131.350112141966
 31
0.0
  0
LINE
  5
28F
  8
0
  6
CONTINUOUS
 62
   253
 10
-349.8972769342195
 20
131.7144866124516
 30
0.0
 11
-349.8876634410579
 21
131.8120233916216
 31
0.0
  0
LINE
  5
290
  8
0
  6
CONTINUOUS
 62
   253
 10
-349.9719386463641
 20
131.5342607233782
 30
0.0
 11
-349.9257331529344
 21
131.6206977547483
 31
0.0
  0
LINE
  5
291
  8
0
  6
CONTINUOUS
 62
   253
 10
-350.1963187657167
 20
220.0996257499767
 30
0.0
 11
-350.2901076234199
 21
220.1280819686916
 31
0.0
  0
LINE
  5
292
  8
0
  6
CONTINUOUS
 62
   253
 10
-197.786124887749
 20
131.5342607233782
 30
0.0
 11
-197.7239455991946
 21
131.4584969239501
 31
0.0
  0
LINE
  5
293
  8
0
  6
CONTINUOUS
 62
   253
 10
-304.1098817343466
 20
220.0534202565469
 30
0.0
 11
-304.1963187657167
 21
220.0996257499766
 31
0.0
  0
LINE
  5
294
  8
0
  6
CONTINUOUS
 62
   253
 10
-258.0341179349185
 20
219.9912409679925
 30
0.0
 11
-258.1098817343467
 21
220.0534202565469
 31
0.0
  0
LINE
  5
295
  8
0
  6
CONTINUOUS
 62
   253
 10
-258.29010762342
 20
220.1280819686916
 30
0.0
 11
-258.38764440259
 21
220.1376954618532
 31
0.0
  0
LINE
  5
296
  8
0
  6
CONTINUOUS
 62
   253
 10
-350.3876444025899
 20
131.3120424300894
 30
0.0
 11
-350.2901076234199
 21
131.321655923251
 31
0.0
  0
LINE
  5
297
  8
0
  6
CONTINUOUS
 62
   253
 10
-304.1963187657167
 20
220.0996257499766
 30
0.0
 11
-304.2901076234199
 21
220.1280819686916
 31
0.0
  0
LINE
  5
298
  8
0
  6
CONTINUOUS
 62
   253
 10
-350.1098817343466
 20
131.3963176353957
 30
0.0
 11
-350.0341179349185
 21
131.4584969239501
 31
0.0
  0
LINE
  5
299
  8
0
  6
CONTINUOUS
 62
   253
 10
-289.4679559106932
 20
131.321655923251
 30
0.0
 11
-289.3704191315232
 21
131.3120424300894
 31
0.0
  0
LINE
  5
29A
  8
0
  6
CONTINUOUS
 62
   253
 10
-335.4679559106931
 20
220.1280819686916
 30
0.0
 11
-335.5617447683964
 21
220.0996257499766
 31
0.0
  0
LINE
  5
29B
  8
0
  6
CONTINUOUS
 62
   253
 10
-197.8607865998937
 20
219.7352512794911
 30
0.0
 11
-197.8704000930553
 21
219.6377145003211
 31
0.0
  0
LINE
  5
29C
  8
0
  6
CONTINUOUS
 62
   253
 10
-349.8876634410579
 20
219.6377145003211
 30
0.0
 11
-349.8972769342194
 21
219.7352512794911
 31
0.0
  0
LINE
  5
29D
  8
0
  6
CONTINUOUS
 62
   253
 10
-197.8323303811788
 20
131.6206977547482
 30
0.0
 11
-197.786124887749
 21
131.5342607233782
 31
0.0
  0
LINE
  5
29E
  8
0
  6
CONTINUOUS
 62
   253
 10
-197.8323303811788
 20
219.8290401371944
 30
0.0
 11
-197.8607865998937
 21
219.7352512794911
 31
0.0
  0
LINE
  5
29F
  8
0
  6
CONTINUOUS
 62
   253
 10
-289.8323303811788
 20
131.6206977547482
 30
0.0
 11
-289.7861248877491
 21
131.5342607233782
 31
0.0
  0
LINE
  5
2A0
  8
0
  6
CONTINUOUS
 62
   253
 10
-257.9257331529344
 20
219.8290401371944
 30
0.0
 11
-257.9719386463641
 21
219.9154771685644
 31
0.0
  0
LINE
  5
2A1
  8
0
  6
CONTINUOUS
 62
   253
 10
-349.8972769342194
 20
219.7352512794911
 30
0.0
 11
-349.9257331529344
 21
219.8290401371943
 31
0.0
  0
LINE
  5
2A2
  8
0
  6
CONTINUOUS
 62
   253
 10
-289.7861248877491
 20
131.5342607233782
 30
0.0
 11
-289.7239455991947
 21
131.4584969239501
 31
0.0
  0
LINE
  5
2A3
  8
0
  6
CONTINUOUS
 62
   253
 10
-350.2901076234199
 20
220.1280819686916
 30
0.0
 11
-350.3876444025899
 21
220.1376954618532
 31
0.0
  0
LINE
  5
2A4
  8
0
  6
CONTINUOUS
 62
   253
 10
-211.8972769342194
 20
131.7144866124515
 30
0.0
 11
-211.8876634410578
 21
131.8120233916215
 31
0.0
  0
LINE
  5
2A5
  8
0
  6
CONTINUOUS
 62
   253
 10
-304.0341179349185
 20
219.9912409679925
 30
0.0
 11
-304.1098817343466
 21
220.0534202565469
 31
0.0
  0
LINE
  5
2A6
  8
0
  6
CONTINUOUS
 62
   253
 10
-257.8972769342194
 20
219.7352512794911
 30
0.0
 11
-257.9257331529344
 21
219.8290401371944
 31
0.0
  0
LINE
  5
2A7
  8
0
  6
CONTINUOUS
 62
   253
 10
-258.1098817343467
 20
220.0534202565469
 30
0.0
 11
-258.1963187657167
 21
220.0996257499767
 31
0.0
  0
LINE
  5
2A8
  8
0
  6
CONTINUOUS
 62
   253
 10
-197.8704000930553
 20
131.8120233916215
 30
0.0
 11
-197.8607865998937
 21
131.7144866124515
 31
0.0
  0
LINE
  5
2A9
  8
0
  6
CONTINUOUS
 62
   253
 10
-257.8876634410579
 20
219.6377145003211
 30
0.0
 11
-257.8972769342194
 21
219.7352512794911
 31
0.0
  0
LINE
  5
2AA
  8
0
  6
CONTINUOUS
 62
   253
 10
-335.6481817997665
 20
220.0534202565469
 30
0.0
 11
-335.7239455991946
 21
219.9912409679925
 31
0.0
  0
LINE
  5
2AB
  8
0
  6
CONTINUOUS
 62
   253
 10
-349.9257331529344
 20
219.8290401371943
 30
0.0
 11
-349.9719386463641
 21
219.9154771685644
 31
0.0
  0
LINE
  5
2AC
  8
0
  6
CONTINUOUS
 62
   253
 10
-303.8972769342194
 20
219.735251279491
 30
0.0
 11
-303.9257331529344
 21
219.8290401371943
 31
0.0
  0
LINE
  5
2AD
  8
0
  6
CONTINUOUS
 62
   253
 10
-258.1963187657167
 20
220.0996257499767
 30
0.0
 11
-258.29010762342
 21
220.1280819686916
 31
0.0
  0
LINE
  5
2AE
  8
0
  6
CONTINUOUS
 62
   253
 10
-335.8607865998937
 20
219.7352512794911
 30
0.0
 11
-335.8704000930553
 21
219.6377145003211
 31
0.0
  0
LINE
  5
2AF
  8
0
  6
CONTINUOUS
 62
   253
 10
-197.4679559106931
 20
220.1280819686916
 30
0.0
 11
-197.5617447683965
 21
220.0996257499767
 31
0.0
  0
LINE
  5
2B0
  8
0
  6
CONTINUOUS
 62
   253
 10
-349.9719386463641
 20
219.9154771685644
 30
0.0
 11
-350.0341179349185
 21
219.9912409679925
 31
0.0
  0
LINE
  5
2B1
  8
0
  6
CONTINUOUS
 62
   253
 10
-303.8876634410579
 20
219.6377145003211
 30
0.0
 11
-303.8972769342194
 21
219.735251279491
 31
0.0
  0
LINE
  5
2B2
  8
0
  6
CONTINUOUS
 62
   253
 10
-197.4679559106931
 20
131.321655923251
 30
0.0
 11
-197.3704191315232
 21
131.3120424300894
 31
0.0
  0
LINE
  5
2B3
  8
0
  6
CONTINUOUS
 62
   253
 10
-197.3704191315232
 20
220.1376954618532
 30
0.0
 11
-197.4679559106931
 21
220.1280819686916
 31
0.0
  0
LINE
  5
2B4
  8
0
  6
CONTINUOUS
 62
   253
 10
-197.5617447683965
 20
220.0996257499767
 30
0.0
 11
-197.6481817997665
 21
220.0534202565469
 31
0.0
  0
LINE
  5
2B5
  8
0
  6
CONTINUOUS
 62
   253
 10
-197.7239455991946
 20
131.4584969239501
 30
0.0
 11
-197.6481817997665
 21
131.3963176353957
 31
0.0
  0
LINE
  5
2B6
  8
0
  6
CONTINUOUS
 62
   253
 10
-304.2901076234199
 20
220.1280819686916
 30
0.0
 11
-304.3876444025899
 21
220.1376954618532
 31
0.0
  0
LINE
  5
2B7
  8
0
  6
CONTINUOUS
 62
   253
 10
-197.8607865998937
 20
131.7144866124515
 30
0.0
 11
-197.8323303811788
 21
131.6206977547482
 31
0.0
  0
LINE
  5
2B8
  8
0
  6
CONTINUOUS
 62
   253
 10
-350.1098817343466
 20
220.0534202565469
 30
0.0
 11
-350.1963187657167
 21
220.0996257499767
 31
0.0
  0
LINE
  5
2B9
  8
0
  6
CONTINUOUS
 62
   253
 10
-257.8972769342194
 20
131.7144866124515
 30
0.0
 11
-257.8876634410579
 21
131.8120233916215
 31
0.0
  0
LINE
  5
2BA
  8
0
  6
CONTINUOUS
 62
   253
 10
-257.9719386463641
 20
219.9154771685644
 30
0.0
 11
-258.0341179349185
 21
219.9912409679925
 31
0.0
  0
LINE
  5
2BB
  8
0
  6
CONTINUOUS
 62
   253
 10
-289.8704000930553
 20
131.8120233916215
 30
0.0
 11
-289.8607865998937
 21
131.7144866124515
 31
0.0
  0
LINE
  5
2BC
  8
0
  6
CONTINUOUS
 62
   253
 10
-335.3704191315232
 20
220.1376954618532
 30
0.0
 11
-335.4679559106931
 21
220.1280819686916
 31
0.0
  0
LINE
  5
2BD
  8
0
  6
CONTINUOUS
 62
   253
 10
-350.2901076234199
 20
131.321655923251
 30
0.0
 11
-350.1963187657167
 21
131.350112141966
 31
0.0
  0
LINE
  5
2BE
  8
0
  6
CONTINUOUS
 62
   253
 10
-289.8607865998937
 20
131.7144866124515
 30
0.0
 11
-289.8323303811788
 21
131.6206977547482
 31
0.0
  0
LINE
  5
2BF
  8
0
  6
CONTINUOUS
 62
   253
 10
-335.8323303811788
 20
219.8290401371944
 30
0.0
 11
-335.8607865998937
 21
219.7352512794911
 31
0.0
  0
LINE
  5
2C0
  8
0
  6
CONTINUOUS
 62
     7
 10
-298.8790317670565
 20
133.9698689459713
 30
0.0
 11
-296.8840317670566
 21
133.9698689459713
 31
0.0
  0
LINE
  5
2C1
  8
0
  6
CONTINUOUS
 62
   253
 10
-212.29010762342
 20
220.1280819686916
 30
0.0
 11
-212.38764440259
 21
220.1376954618532
 31
0.0
  0
LINE
  5
2C2
  8
0
  6
CONTINUOUS
 62
   253
 10
-211.9257331529344
 20
219.8290401371944
 30
0.0
 11
-211.9719386463642
 21
219.9154771685644
 31
0.0
  0
LINE
  5
2C3
  8
0
  6
CONTINUOUS
 62
   253
 10
-211.9719386463642
 20
219.9154771685644
 30
0.0
 11
-212.0341179349186
 21
219.9912409679926
 31
0.0
  0
LINE
  5
2C4
  8
0
  6
CONTINUOUS
 62
   253
 10
-335.786124887749
 20
219.9154771685644
 30
0.0
 11
-335.8323303811788
 21
219.8290401371944
 31
0.0
  0
LINE
  5
2C5
  8
0
  6
CONTINUOUS
 62
     7
 10
-298.8790317670565
 20
133.9798689459713
 30
0.0
 11
-298.8790317670565
 21
133.9698689459713
 31
0.0
  0
LINE
  5
2C6
  8
0
  6
CONTINUOUS
 62
   253
 10
-303.9719386463642
 20
131.5342607233782
 30
0.0
 11
-303.9257331529344
 21
131.6206977547482
 31
0.0
  0
LINE
  5
2C7
  8
0
  6
CONTINUOUS
 62
   253
 10
-243.8704000930553
 20
212.1796412887435
 30
0.0
 11
-243.8704000930553
 21
219.6377145003211
 31
0.0
  0
LINE
  5
2C8
  8
0
  6
CONTINUOUS
 62
   253
 10
-258.0341179349185
 20
131.4584969239501
 30
0.0
 11
-257.9719386463641
 21
131.5342607233782
 31
0.0
  0
LINE
  5
2C9
  8
0
  6
CONTINUOUS
 62
   253
 10
-243.5617447683965
 20
220.0996257499766
 30
0.0
 11
-243.6481817997665
 21
220.0534202565469
 31
0.0
  0
LINE
  5
2CA
  8
0
  6
CONTINUOUS
 62
   253
 10
-243.786124887749
 20
219.9154771685644
 30
0.0
 11
-243.8323303811788
 21
219.8290401371944
 31
0.0
  0
LINE
  5
2CB
  8
0
  6
CONTINUOUS
 62
   253
 10
-289.7861248877491
 20
219.9154771685644
 30
0.0
 11
-289.8323303811787
 21
219.8290401371943
 31
0.0
  0
LINE
  5
2CC
  8
0
  6
CONTINUOUS
 62
   253
 10
-289.7239455991946
 20
219.9912409679925
 30
0.0
 11
-289.7861248877491
 21
219.9154771685644
 31
0.0
  0
LINE
  5
2CD
  8
0
  6
CONTINUOUS
 62
   253
 10
-212.38764440259
 20
131.3120424300894
 30
0.0
 11
-212.29010762342
 21
131.321655923251
 31
0.0
  0
LINE
  5
2CE
  8
0
  6
CONTINUOUS
 62
   253
 10
-212.29010762342
 20
131.321655923251
 30
0.0
 11
-212.1963187657167
 21
131.350112141966
 31
0.0
  0
LINE
  5
2CF
  8
0
  6
CONTINUOUS
 62
   253
 10
-335.5617447683965
 20
131.350112141966
 30
0.0
 11
-335.4679559106933
 21
131.321655923251
 31
0.0
  0
LINE
  5
2D0
  8
0
  6
CONTINUOUS
 62
   253
 10
-335.8323303811788
 20
131.6206977547483
 30
0.0
 11
-335.7861248877491
 21
131.5342607233782
 31
0.0
  0
LINE
  5
2D1
  8
0
  6
CONTINUOUS
 62
   253
 10
-243.3704191315232
 20
220.1376954618532
 30
0.0
 11
-243.4679559106932
 21
220.1280819686916
 31
0.0
  0
LINE
  5
2D2
  8
0
  6
CONTINUOUS
 62
   253
 10
-243.8323303811788
 20
219.8290401371944
 30
0.0
 11
-243.8607865998937
 21
219.7352512794911
 31
0.0
  0
LINE
  5
2D3
  8
0
  6
CONTINUOUS
 62
   253
 10
-303.8972769342194
 20
131.7144866124515
 30
0.0
 11
-303.8876634410579
 21
131.8120233916215
 31
0.0
  0
LINE
  5
2D4
  8
0
  6
CONTINUOUS
 62
   253
 10
-304.1963187657167
 20
131.350112141966
 30
0.0
 11
-304.1098817343467
 21
131.3963176353957
 31
0.0
  0
LINE
  5
2D5
  8
0
  6
CONTINUOUS
 62
   253
 10
-212.1098817343467
 20
131.3963176353957
 30
0.0
 11
-212.0341179349185
 21
131.4584969239501
 31
0.0
  0
LINE
  5
2D6
  8
0
  6
CONTINUOUS
 62
   253
 10
-335.6481817997666
 20
131.3963176353957
 30
0.0
 11
-335.5617447683965
 21
131.350112141966
 31
0.0
  0
LINE
  5
2D7
  8
0
  6
CONTINUOUS
 62
   253
 10
-335.4679559106933
 20
131.321655923251
 30
0.0
 11
-335.3704191315233
 21
131.3120424300894
 31
0.0
  0
LINE
  5
2D8
  8
0
  6
CONTINUOUS
 62
   253
 10
-243.6481817997665
 20
220.0534202565469
 30
0.0
 11
-243.7239455991946
 21
219.9912409679925
 31
0.0
  0
LINE
  5
2D9
  8
0
  6
CONTINUOUS
 62
   253
 10
-289.3704191315232
 20
220.1376954618532
 30
0.0
 11
-289.4679559106932
 21
220.1280819686916
 31
0.0
  0
LINE
  5
2DA
  8
0
  6
CONTINUOUS
 62
   253
 10
-289.8607865998937
 20
219.7352512794911
 30
0.0
 11
-289.8704000930553
 21
219.6377145003211
 31
0.0
  0
LINE
  5
2DB
  8
0
  6
CONTINUOUS
 62
   253
 10
-212.0341179349185
 20
131.4584969239501
 30
0.0
 11
-211.9719386463642
 21
131.5342607233782
 31
0.0
  0
LINE
  5
2DC
  8
0
  6
CONTINUOUS
 62
   253
 10
-335.7861248877491
 20
131.5342607233782
 30
0.0
 11
-335.7239455991947
 21
131.4584969239501
 31
0.0
  0
LINE
  5
2DD
  8
0
  6
CONTINUOUS
 62
   253
 10
-304.1098817343467
 20
131.3963176353957
 30
0.0
 11
-304.0341179349185
 21
131.4584969239501
 31
0.0
  0
LINE
  5
2DE
  8
0
  6
CONTINUOUS
 62
   253
 10
-258.38764440259
 20
131.3120424300894
 30
0.0
 11
-258.2901076234199
 21
131.321655923251
 31
0.0
  0
LINE
  5
2DF
  8
0
  6
CONTINUOUS
 62
   253
 10
-303.9257331529344
 20
131.6206977547482
 30
0.0
 11
-303.8972769342194
 21
131.7144866124515
 31
0.0
  0
LINE
  5
2E0
  8
0
  6
CONTINUOUS
 62
   253
 10
-257.811430927886
 20
139.6522841685054
 30
0.0
 11
-257.8683810879176
 21
139.4649321938959
 31
0.0
  0
LINE
  5
2E1
  8
0
  6
CONTINUOUS
 62
     7
 10
-344.8790317670565
 20
217.4698689459713
 30
0.0
 11
-342.8840317670565
 21
217.4698689459713
 31
0.0
  0
LINE
  5
2E2
  8
0
  6
CONTINUOUS
 62
     7
 10
-202.8790317670565
 20
217.4698689459713
 30
0.0
 11
-202.8790317670565
 21
217.4798689459713
 31
0.0
  0
LINE
  5
2E3
  8
0
  6
CONTINUOUS
 62
   253
 10
-336.3149378059792
 20
140.100550677432
 30
0.0
 11
-336.4877856523628
 21
140.1928872604734
 31
0.0
  0
LINE
  5
2E4
  8
0
  6
CONTINUOUS
 62
     7
 10
-340.8790317670565
 20
217.4798689459713
 30
0.0
 11
-342.8740317670565
 21
217.4798689459713
 31
0.0
  0
LINE
  5
2E5
  8
0
  6
CONTINUOUS
 62
     7
 10
-204.8840317670565
 20
217.4698689459713
 30
0.0
 11
-204.8840317670565
 21
215.4748689459713
 31
0.0
  0
LINE
  5
2E6
  8
0
  6
CONTINUOUS
 62
     7
 10
-204.8740317670565
 20
215.4748689459713
 30
0.0
 11
-204.8740317670565
 21
217.4698689459713
 31
0.0
  0
LINE
  5
2E7
  8
0
  6
CONTINUOUS
 62
   253
 10
-257.443125728134
 20
140.100550677432
 30
0.0
 11
-257.5946397846315
 21
139.9763164341766
 31
0.0
  0
LINE
  5
2E8
  8
0
  6
CONTINUOUS
 62
   253
 10
-335.8704000930553
 20
139.2700966031992
 30
0.0
 11
-335.8896824461956
 21
139.4649321938959
 31
0.0
  0
LINE
  5
2E9
  8
0
  6
CONTINUOUS
 62
   253
 10
-211.0827353144475
 20
211.199958347815
 30
0.0
 11
-210.8877015179937
 21
211.1806955906293
 31
0.0
  0
LINE
  5
2EA
  8
0
  6
CONTINUOUS
 62
   253
 10
-256.3877205564617
 20
140.2462648779562
 30
0.0
 11
-256.8877015179937
 21
140.2690423013134
 31
0.0
  0
LINE
  5
2EB
  8
0
  6
CONTINUOUS
 62
   253
 10
-335.9466326062272
 20
139.6522841685054
 30
0.0
 11
-336.0390631230426
 21
139.8249563559065
 31
0.0
  0
LINE
  5
2EC
  8
0
  6
CONTINUOUS
 62
   253
 10
-335.8896824461956
 20
139.4649321938959
 30
0.0
 11
-335.9466326062272
 21
139.6522841685054
 31
0.0
  0
LINE
  5
2ED
  8
0
  6
CONTINUOUS
 62
     7
 10
-342.8840317670565
 20
219.4748689459713
 30
0.0
 11
-342.8840317670565
 21
217.4798689459713
 31
0.0
  0
LINE
  5
2EE
  8
0
  6
CONTINUOUS
 62
   253
 10
-197.8704000930553
 20
131.8120233916215
 30
0.0
 11
-197.8704000930553
 21
139.2700966031992
 31
0.0
  0
LINE
  5
2EF
  8
0
  6
CONTINUOUS
 62
   253
 10
-211.0827353144476
 20
140.2497795441276
 30
0.0
 11
-211.2702778817503
 21
140.1928872604733
 31
0.0
  0
LINE
  5
2F0
  8
0
  6
CONTINUOUS
 62
   253
 10
-211.8876634410579
 20
212.1796412887435
 30
0.0
 11
-211.8683810879176
 21
211.9848056980467
 31
0.0
  0
LINE
  5
2F1
  8
0
  6
CONTINUOUS
 62
     7
 10
-342.8840317670565
 20
217.4698689459713
 30
0.0
 11
-342.8840317670565
 21
215.4748689459713
 31
0.0
  0
LINE
  5
2F2
  8
0
  6
CONTINUOUS
 62
   253
 10
-349.8876634410578
 20
139.2700966031992
 30
0.0
 11
-349.8876634410578
 21
131.8120233916215
 31
0.0
  0
LINE
  5
2F3
  8
0
  6
CONTINUOUS
 62
     7
 10
-206.8790317670565
 20
217.4698689459713
 30
0.0
 11
-204.8840317670565
 21
217.4698689459713
 31
0.0
  0
LINE
  5
2F4
  8
0
  6
CONTINUOUS
 62
   253
 10
-211.2702778817503
 20
211.2568506314693
 30
0.0
 11
-211.0827353144475
 21
211.199958347815
 31
0.0
  0
LINE
  5
2F5
  8
0
  6
CONTINUOUS
 62
   253
 10
-211.7190004110706
 20
139.8249563559064
 30
0.0
 11
-211.811430927886
 21
139.6522841685054
 31
0.0
  0
LINE
  5
2F6
  8
0
  6
CONTINUOUS
 62
     7
 10
-204.8840317670565
 20
215.4748689459713
 30
0.0
 11
-204.8740317670565
 21
215.4748689459713
 31
0.0
  0
LINE
  5
2F7
  8
0
  6
CONTINUOUS
 62
   253
 10
-257.8876634410578
 20
139.2700966031992
 30
0.0
 11
-257.8876634410578
 21
131.8120233916215
 31
0.0
  0
LINE
  5
2F8
  8
0
  6
CONTINUOUS
 62
   253
 10
-336.4877856523628
 20
140.1928872604734
 30
0.0
 11
-336.6753282196657
 21
140.2497795441276
 31
0.0
  0
LINE
  5
2F9
  8
0
  6
CONTINUOUS
 62
     7
 10
-252.8790317670565
 20
133.9698689459713
 30
0.0
 11
-250.8840317670565
 21
133.9698689459713
 31
0.0
  0
LINE
  5
2FA
  8
0
  6
CONTINUOUS
 62
   253
 10
-257.8683810879176
 20
139.4649321938959
 30
0.0
 11
-257.8876634410578
 21
139.2700966031992
 31
0.0
  0
LINE
  5
2FB
  8
0
  6
CONTINUOUS
 62
     7
 10
-204.8740317670565
 20
135.9748689459713
 30
0.0
 11
-204.8840317670565
 21
135.9748689459713
 31
0.0
  0
LINE
  5
2FC
  8
0
  6
CONTINUOUS
 62
   253
 10
-211.7190004110707
 20
211.6247815360362
 30
0.0
 11
-211.5946397846316
 21
211.4734214577661
 31
0.0
  0
LINE
  5
2FD
  8
0
  6
CONTINUOUS
 62
     7
 10
-342.8840317670565
 20
215.4748689459713
 30
0.0
 11
-342.8740317670565
 21
215.4748689459713
 31
0.0
  0
LINE
  5
2FE
  8
0
  6
CONTINUOUS
 62
     7
 10
-204.8740317670565
 20
217.4698689459713
 30
0.0
 11
-202.8790317670565
 21
217.4698689459713
 31
0.0
  0
LINE
  5
2FF
  8
0
  6
CONTINUOUS
 62
     7
 10
-202.8790317670565
 20
217.4798689459713
 30
0.0
 11
-204.8740317670565
 21
217.4798689459713
 31
0.0
  0
LINE
  5
300
  8
0
  6
CONTINUOUS
 62
     7
 10
-206.8790317670565
 20
217.4798689459713
 30
0.0
 11
-206.8790317670565
 21
217.4698689459713
 31
0.0
  0
LINE
  5
301
  8
0
  6
CONTINUOUS
 62
     7
 10
-342.8740317670565
 20
219.4748689459713
 30
0.0
 11
-342.8840317670565
 21
219.4748689459713
 31
0.0
  0
LINE
  5
302
  8
0
  6
CONTINUOUS
 62
   253
 10
-336.0390631230426
 20
139.8249563559065
 30
0.0
 11
-336.1634237494817
 21
139.9763164341766
 31
0.0
  0
LINE
  5
303
  8
0
  6
CONTINUOUS
 62
   253
 10
-211.5946397846315
 20
139.9763164341765
 30
0.0
 11
-211.7190004110706
 21
139.8249563559064
 31
0.0
  0
LINE
  5
304
  8
0
  6
CONTINUOUS
 62
     7
 10
-342.8740317670565
 20
217.4698689459713
 30
0.0
 11
-340.8790317670565
 21
217.4698689459713
 31
0.0
  0
LINE
  5
305
  8
0
  6
CONTINUOUS
 62
   253
 10
-210.3877205564616
 20
140.2462648779562
 30
0.0
 11
-210.8877015179937
 21
140.2690423013134
 31
0.0
  0
LINE
  5
306
  8
0
  6
CONTINUOUS
 62
     7
 10
-204.8740317670565
 20
219.4748689459713
 30
0.0
 11
-204.8840317670565
 21
219.4748689459713
 31
0.0
  0
LINE
  5
307
  8
0
  6
CONTINUOUS
 62
   253
 10
-257.5946397846315
 20
139.9763164341766
 30
0.0
 11
-257.7190004110706
 21
139.8249563559065
 31
0.0
  0
LINE
  5
308
  8
0
  6
CONTINUOUS
 62
     7
 10
-342.8740317670565
 20
215.4748689459713
 30
0.0
 11
-342.8740317670565
 21
217.4698689459713
 31
0.0
  0
LINE
  5
309
  8
0
  6
CONTINUOUS
 62
     7
 10
-204.8840317670565
 20
219.4748689459713
 30
0.0
 11
-204.8840317670565
 21
217.4798689459713
 31
0.0
  0
LINE
  5
30A
  8
0
  6
CONTINUOUS
 62
     7
 10
-342.8840317670565
 20
217.4798689459713
 30
0.0
 11
-344.8790317670565
 21
217.4798689459713
 31
0.0
  0
LINE
  5
30B
  8
0
  6
CONTINUOUS
 62
   253
 10
-211.8876634410579
 20
139.2700966031992
 30
0.0
 11
-211.8876634410579
 21
131.8120233916215
 31
0.0
  0
LINE
  5
30C
  8
0
  6
CONTINUOUS
 62
   253
 10
-211.8683810879176
 20
139.4649321938959
 30
0.0
 11
-211.8876634410578
 21
139.2700966031992
 31
0.0
  0
LINE
  5
30D
  8
0
  6
CONTINUOUS
 62
   253
 10
-211.8114309278861
 20
211.7974537234372
 30
0.0
 11
-211.7190004110707
 21
211.6247815360362
 31
0.0
  0
LINE
  5
30E
  8
0
  6
CONTINUOUS
 62
   253
 10
-211.443125728134
 20
140.1005506774319
 30
0.0
 11
-211.5946397846315
 21
139.9763164341765
 31
0.0
  0
LINE
  5
30F
  8
0
  6
CONTINUOUS
 62
     7
 10
-342.8740317670565
 20
217.4798689459713
 30
0.0
 11
-342.8740317670565
 21
219.4748689459713
 31
0.0
  0
LINE
  5
310
  8
0
  6
CONTINUOUS
 62
   253
 10
-211.5946397846316
 20
211.4734214577661
 30
0.0
 11
-211.443125728134
 21
211.3491872145107
 31
0.0
  0
LINE
  5
311
  8
0
  6
CONTINUOUS
 62
   253
 10
-210.8877015179937
 20
140.2690423013133
 30
0.0
 11
-211.0827353144476
 21
140.2497795441276
 31
0.0
  0
LINE
  5
312
  8
0
  6
CONTINUOUS
 62
     7
 10
-204.8740317670565
 20
217.4798689459713
 30
0.0
 11
-204.8740317670565
 21
219.4748689459713
 31
0.0
  0
LINE
  5
313
  8
0
  6
CONTINUOUS
 62
   253
 10
-211.8683810879176
 20
211.9848056980467
 30
0.0
 11
-211.8114309278861
 21
211.7974537234372
 31
0.0
  0
LINE
  5
314
  8
0
  6
CONTINUOUS
 62
   253
 10
-211.443125728134
 20
211.3491872145107
 30
0.0
 11
-211.2702778817503
 21
211.2568506314693
 31
0.0
  0
LINE
  5
315
  8
0
  6
CONTINUOUS
 62
   253
 10
-211.811430927886
 20
139.6522841685054
 30
0.0
 11
-211.8683810879176
 21
139.4649321938959
 31
0.0
  0
LINE
  5
316
  8
0
  6
CONTINUOUS
 62
   253
 10
-257.7190004110706
 20
139.8249563559065
 30
0.0
 11
-257.811430927886
 21
139.6522841685054
 31
0.0
  0
LINE
  5
317
  8
0
  6
CONTINUOUS
 62
   253
 10
-336.6753282196657
 20
140.2497795441276
 30
0.0
 11
-336.8703620161195
 21
140.2690423013134
 31
0.0
  0
LINE
  5
318
  8
0
  6
CONTINUOUS
 62
     7
 10
-204.8840317670565
 20
217.4798689459713
 30
0.0
 11
-206.8790317670565
 21
217.4798689459713
 31
0.0
  0
LINE
  5
319
  8
0
  6
CONTINUOUS
 62
   253
 10
-243.8704000930553
 20
131.8120233916215
 30
0.0
 11
-243.8704000930553
 21
139.2700966031992
 31
0.0
  0
LINE
  5
31A
  8
0
  6
CONTINUOUS
 62
   253
 10
-211.2702778817503
 20
140.1928872604733
 30
0.0
 11
-211.443125728134
 21
140.1005506774319
 31
0.0
  0
LINE
  5
31B
  8
0
  6
CONTINUOUS
 62
   253
 10
-210.8877015179937
 20
211.1806955906292
 30
0.0
 11
-210.3877205564616
 21
211.2034730139863
 31
0.0
  0
LINE
  5
31C
  8
0
  6
CONTINUOUS
 62
   253
 10
-336.1634237494817
 20
139.9763164341766
 30
0.0
 11
-336.3149378059792
 21
140.100550677432
 31
0.0
  0
LINE
  5
31D
  8
0
  6
CONTINUOUS
 62
     7
 10
-296.8740317670565
 20
131.9748689459713
 30
0.0
 11
-296.8740317670565
 21
133.9698689459713
 31
0.0
  0
LINE
  5
31E
  8
0
  6
CONTINUOUS
 62
     7
 10
-204.8840317670565
 20
131.9748689459713
 30
0.0
 11
-204.8740317670565
 21
131.9748689459713
 31
0.0
  0
LINE
  5
31F
  8
0
  6
CONTINUOUS
 62
     7
 10
-248.8790317670565
 20
133.9698689459713
 30
0.0
 11
-248.8790317670565
 21
133.9798689459713
 31
0.0
  0
LINE
  5
320
  8
0
  6
CONTINUOUS
 62
     7
 10
-252.8790317670565
 20
133.9798689459713
 30
0.0
 11
-252.8790317670565
 21
133.9698689459713
 31
0.0
  0
LINE
  5
321
  8
0
  6
CONTINUOUS
 62
   253
 10
-199.3703429776516
 20
211.2034730139863
 30
0.0
 11
-198.8703620161195
 21
211.1806955906292
 31
0.0
  0
LINE
  5
322
  8
0
  6
CONTINUOUS
 62
   253
 10
-303.0827353144476
 20
140.2497795441276
 30
0.0
 11
-303.2702778817504
 21
140.1928872604734
 31
0.0
  0
LINE
  5
323
  8
0
  6
CONTINUOUS
 62
   253
 10
-349.5946397846316
 20
139.9763164341765
 30
0.0
 11
-349.7190004110706
 21
139.8249563559064
 31
0.0
  0
LINE
  5
324
  8
0
  6
CONTINUOUS
 62
     7
 10
-296.8840317670565
 20
133.9698689459713
 30
0.0
 11
-296.8840317670565
 21
131.9748689459713
 31
0.0
  0
LINE
  5
325
  8
0
  6
CONTINUOUS
 62
     7
 10
-250.8740317670565
 20
133.9698689459713
 30
0.0
 11
-248.8790317670565
 21
133.9698689459713
 31
0.0
  0
LINE
  5
326
  8
0
  6
CONTINUOUS
 62
     7
 10
-296.8840317670565
 20
131.9748689459713
 30
0.0
 11
-296.8740317670565
 21
131.9748689459713
 31
0.0
  0
LINE
  5
327
  8
0
  6
CONTINUOUS
 62
     7
 10
-250.8840317670565
 20
131.9748689459713
 30
0.0
 11
-250.8740317670565
 21
131.9748689459713
 31
0.0
  0
LINE
  5
328
  8
0
  6
CONTINUOUS
 62
   253
 10
-198.0390631230426
 20
211.6247815360362
 30
0.0
 11
-197.9466326062271
 21
211.7974537234372
 31
0.0
  0
LINE
  5
329
  8
0
  6
CONTINUOUS
 62
   253
 10
-302.8877015179937
 20
140.2690423013134
 30
0.0
 11
-303.0827353144476
 21
140.2497795441276
 31
0.0
  0
LINE
  5
32A
  8
0
  6
CONTINUOUS
 62
     7
 10
-294.8790317670565
 20
133.9698689459713
 30
0.0
 11
-294.8790317670565
 21
133.9798689459713
 31
0.0
  0
LINE
  5
32B
  8
0
  6
CONTINUOUS
 62
     7
 10
-206.8790317670565
 20
133.9698689459713
 30
0.0
 11
-204.8840317670565
 21
133.9698689459713
 31
0.0
  0
LINE
  5
32C
  8
0
  6
CONTINUOUS
 62
     7
 10
-250.8740317670565
 20
135.9748689459713
 30
0.0
 11
-250.8840317670565
 21
135.9748689459713
 31
0.0
  0
LINE
  5
32D
  8
0
  6
CONTINUOUS
 62
     7
 10
-250.8840317670565
 20
133.9698689459713
 30
0.0
 11
-250.8840317670565
 21
131.9748689459713
 31
0.0
  0
LINE
  5
32E
  8
0
  6
CONTINUOUS
 62
     7
 10
-202.8790317670565
 20
133.9698689459713
 30
0.0
 11
-202.8790317670565
 21
133.9798689459713
 31
0.0
  0
LINE
  5
32F
  8
0
  6
CONTINUOUS
 62
     7
 10
-204.8840317670565
 20
133.9798689459713
 30
0.0
 11
-206.8790317670565
 21
133.9798689459713
 31
0.0
  0
LINE
  5
330
  8
0
  6
CONTINUOUS
 62
   253
 10
-335.8704000930554
 20
212.1796412887435
 30
0.0
 11
-335.8704000930554
 21
219.6377145003211
 31
0.0
  0
LINE
  5
331
  8
0
  6
CONTINUOUS
 62
   253
 10
-198.4877856523628
 20
211.2568506314693
 30
0.0
 11
-198.3149378059792
 21
211.3491872145107
 31
0.0
  0
LINE
  5
332
  8
0
  6
CONTINUOUS
 62
   253
 10
-348.8877015179937
 20
140.2690423013133
 30
0.0
 11
-349.0827353144476
 21
140.2497795441276
 31
0.0
  0
LINE
  5
333
  8
0
  6
CONTINUOUS
 62
   253
 10
-349.443125728134
 20
140.100550677432
 30
0.0
 11
-349.5946397846316
 21
139.9763164341765
 31
0.0
  0
LINE
  5
334
  8
0
  6
CONTINUOUS
 62
   253
 10
-198.3149378059792
 20
211.3491872145107
 30
0.0
 11
-198.1634237494816
 21
211.4734214577661
 31
0.0
  0
LINE
  5
335
  8
0
  6
CONTINUOUS
 62
     7
 10
-250.8740317670565
 20
215.4748689459713
 30
0.0
 11
-250.8740317670565
 21
217.4698689459713
 31
0.0
  0
LINE
  5
336
  8
0
  6
CONTINUOUS
 62
   253
 10
-197.9466326062271
 20
211.7974537234372
 30
0.0
 11
-197.8896824461956
 21
211.9848056980467
 31
0.0
  0
LINE
  5
337
  8
0
  6
CONTINUOUS
 62
   253
 10
-289.8704000930553
 20
139.2700966031992
 30
0.0
 11
-289.8896824461956
 21
139.4649321938959
 31
0.0
  0
LINE
  5
338
  8
0
  6
CONTINUOUS
 62
   253
 10
-197.8896824461956
 20
211.9848056980467
 30
0.0
 11
-197.8704000930553
 21
212.1796412887434
 31
0.0
  0
LINE
  5
339
  8
0
  6
CONTINUOUS
 62
     7
 10
-248.8790317670565
 20
133.9798689459713
 30
0.0
 11
-250.8740317670565
 21
133.9798689459713
 31
0.0
  0
LINE
  5
33A
  8
0
  6
CONTINUOUS
 62
   253
 10
-245.3703429776515
 20
140.2462648779563
 30
0.0
 11
-256.3877205564617
 21
140.2462648779563
 31
0.0
  0
LINE
  5
33B
  8
0
  6
CONTINUOUS
 62
     7
 10
-250.8840317670565
 20
135.9748689459713
 30
0.0
 11
-250.8840317670565
 21
133.9798689459713
 31
0.0
  0
LINE
  5
33C
  8
0
  6
CONTINUOUS
 62
     7
 10
-250.8740317670565
 20
133.9798689459713
 30
0.0
 11
-250.8740317670565
 21
135.9748689459713
 31
0.0
  0
LINE
  5
33D
  8
0
  6
CONTINUOUS
 62
   253
 10
-289.8704000930553
 20
131.8120233916215
 30
0.0
 11
-289.8704000930553
 21
139.2700966031992
 31
0.0
  0
LINE
  5
33E
  8
0
  6
CONTINUOUS
 62
     7
 10
-296.8740317670565
 20
133.9698689459713
 30
0.0
 11
-294.8790317670565
 21
133.9698689459713
 31
0.0
  0
LINE
  5
33F
  8
0
  6
CONTINUOUS
 62
     7
 10
-294.8790317670565
 20
133.9798689459713
 30
0.0
 11
-296.8740317670565
 21
133.9798689459713
 31
0.0
  0
LINE
  5
340
  8
0
  6
CONTINUOUS
 62
     7
 10
-204.8840317670565
 20
133.9698689459713
 30
0.0
 11
-204.8840317670565
 21
131.9748689459713
 31
0.0
  0
LINE
  5
341
  8
0
  6
CONTINUOUS
 62
   253
 10
-303.8876634410579
 20
139.2700966031992
 30
0.0
 11
-303.8876634410579
 21
131.8120233916215
 31
0.0
  0
LINE
  5
342
  8
0
  6
CONTINUOUS
 62
     7
 10
-250.8840317670565
 20
133.9798689459713
 30
0.0
 11
-252.8790317670565
 21
133.9798689459713
 31
0.0
  0
LINE
  5
343
  8
0
  6
CONTINUOUS
 62
     7
 10
-206.8790317670565
 20
133.9798689459713
 30
0.0
 11
-206.8790317670565
 21
133.9698689459713
 31
0.0
  0
LINE
  5
344
  8
0
  6
CONTINUOUS
 62
   253
 10
-289.8704000930553
 20
212.1796412887435
 30
0.0
 11
-289.8704000930553
 21
219.6377145003211
 31
0.0
  0
LINE
  5
345
  8
0
  6
CONTINUOUS
 62
     7
 10
-296.8840317670565
 20
135.9748689459713
 30
0.0
 11
-296.8840317670565
 21
133.9798689459713
 31
0.0
  0
LINE
  5
346
  8
0
  6
CONTINUOUS
 62
     7
 10
-204.8740317670565
 20
131.9748689459713
 30
0.0
 11
-204.8740317670565
 21
133.9698689459713
 31
0.0
  0
LINE
  5
347
  8
0
  6
CONTINUOUS
 62
     7
 10
-250.8740317670565
 20
131.9748689459713
 30
0.0
 11
-250.8740317670565
 21
133.9698689459713
 31
0.0
  0
LINE
  5
348
  8
0
  6
CONTINUOUS
 62
     7
 10
-204.8840317670565
 20
135.9748689459713
 30
0.0
 11
-204.8840317670565
 21
133.9798689459713
 31
0.0
  0
LINE
  5
349
  8
0
  6
CONTINUOUS
 62
   253
 10
-349.8683810879176
 20
139.4649321938959
 30
0.0
 11
-349.8876634410579
 21
139.2700966031992
 31
0.0
  0
LINE
  5
34A
  8
0
  6
CONTINUOUS
 62
   253
 10
-198.8703620161195
 20
211.1806955906293
 30
0.0
 11
-198.6753282196656
 21
211.199958347815
 31
0.0
  0
LINE
  5
34B
  8
0
  6
CONTINUOUS
 62
     7
 10
-202.8790317670565
 20
133.9798689459713
 30
0.0
 11
-204.8740317670565
 21
133.9798689459713
 31
0.0
  0
LINE
  5
34C
  8
0
  6
CONTINUOUS
 62
     7
 10
-296.8740317670565
 20
133.9798689459713
 30
0.0
 11
-296.8740317670565
 21
135.9748689459713
 31
0.0
  0
LINE
  5
34D
  8
0
  6
CONTINUOUS
 62
     7
 10
-204.8740317670565
 20
133.9798689459713
 30
0.0
 11
-204.8740317670565
 21
135.9748689459713
 31
0.0
  0
LINE
  5
34E
  8
0
  6
CONTINUOUS
 62
     7
 10
-296.8740317670565
 20
135.9748689459713
 30
0.0
 11
-296.8840317670565
 21
135.9748689459713
 31
0.0
  0
LINE
  5
34F
  8
0
  6
CONTINUOUS
 62
   253
 10
-303.2702778817504
 20
140.1928872604734
 30
0.0
 11
-303.443125728134
 21
140.100550677432
 31
0.0
  0
LINE
  5
350
  8
0
  6
CONTINUOUS
 62
     7
 10
-204.8740317670565
 20
133.9698689459713
 30
0.0
 11
-202.8790317670565
 21
133.9698689459713
 31
0.0
  0
LINE
  5
351
  8
0
  6
CONTINUOUS
 62
   253
 10
-303.8876634410579
 20
219.6377145003211
 30
0.0
 11
-303.8876634410579
 21
212.1796412887435
 31
0.0
  0
LINE
  5
352
  8
0
  6
CONTINUOUS
 62
   253
 10
-198.6753282196656
 20
211.199958347815
 30
0.0
 11
-198.4877856523628
 21
211.2568506314693
 31
0.0
  0
LINE
  5
353
  8
0
  6
CONTINUOUS
 62
   253
 10
-302.3877205564616
 20
211.2034730139863
 30
0.0
 11
-291.3703429776515
 21
211.2034730139863
 31
0.0
  0
LINE
  5
354
  8
0
  6
CONTINUOUS
 62
   253
 10
-349.2702778817504
 20
140.1928872604734
 30
0.0
 11
-349.443125728134
 21
140.100550677432
 31
0.0
  0
LINE
  5
355
  8
0
  6
CONTINUOUS
 62
   253
 10
-349.7190004110706
 20
139.8249563559064
 30
0.0
 11
-349.8114309278861
 21
139.6522841685054
 31
0.0
  0
LINE
  5
356
  8
0
  6
CONTINUOUS
 62
   253
 10
-349.0827353144476
 20
140.2497795441276
 30
0.0
 11
-349.2702778817504
 21
140.1928872604734
 31
0.0
  0
LINE
  5
357
  8
0
  6
CONTINUOUS
 62
   253
 10
-348.3877205564616
 20
140.2462648779562
 30
0.0
 11
-348.8877015179937
 21
140.2690423013134
 31
0.0
  0
LINE
  5
358
  8
0
  6
CONTINUOUS
 62
   253
 10
-198.1634237494816
 20
211.4734214577661
 30
0.0
 11
-198.0390631230426
 21
211.6247815360362
 31
0.0
  0
LINE
  5
359
  8
0
  6
CONTINUOUS
 62
   253
 10
-349.8114309278861
 20
139.6522841685054
 30
0.0
 11
-349.8683810879176
 21
139.4649321938959
 31
0.0
  0
LINE
  5
35A
  8
0
  6
CONTINUOUS
 62
   253
 10
-243.9466326062271
 20
139.6522841685054
 30
0.0
 11
-244.0390631230426
 21
139.8249563559065
 31
0.0
  0
LINE
  5
35B
  8
0
  6
CONTINUOUS
 62
   253
 10
-244.1634237494816
 20
139.9763164341765
 30
0.0
 11
-244.3149378059792
 21
140.100550677432
 31
0.0
  0
LINE
  5
35C
  8
0
  6
CONTINUOUS
 62
     7
 10
-296.8840317670565
 20
217.4698689459713
 30
0.0
 11
-296.8840317670565
 21
215.4748689459713
 31
0.0
  0
LINE
  5
35D
  8
0
  6
CONTINUOUS
 62
     7
 10
-250.8740317670565
 20
219.4748689459713
 30
0.0
 11
-250.8840317670565
 21
219.4748689459713
 31
0.0
  0
LINE
  5
35E
  8
0
  6
CONTINUOUS
 62
   253
 10
-303.443125728134
 20
140.100550677432
 30
0.0
 11
-303.5946397846316
 21
139.9763164341766
 31
0.0
  0
LINE
  5
35F
  8
0
  6
CONTINUOUS
 62
   253
 10
-257.8876634410578
 20
219.6377145003211
 30
0.0
 11
-257.8876634410578
 21
212.1796412887435
 31
0.0
  0
LINE
  5
360
  8
0
  6
CONTINUOUS
 62
     7
 10
-248.8790317670565
 20
217.4698689459713
 30
0.0
 11
-248.8790317670565
 21
217.4798689459713
 31
0.0
  0
LINE
  5
361
  8
0
  6
CONTINUOUS
 62
   253
 10
-244.6753282196656
 20
140.2497795441276
 30
0.0
 11
-244.8703620161195
 21
140.2690423013134
 31
0.0
  0
LINE
  5
362
  8
0
  6
CONTINUOUS
 62
   253
 10
-290.0390631230426
 20
139.8249563559065
 30
0.0
 11
-290.1634237494816
 21
139.9763164341765
 31
0.0
  0
LINE
  5
363
  8
0
  6
CONTINUOUS
 62
   253
 10
-303.7190004110707
 20
139.8249563559065
 30
0.0
 11
-303.8114309278861
 21
139.6522841685054
 31
0.0
  0
LINE
  5
364
  8
0
  6
CONTINUOUS
 62
   253
 10
-290.4877856523628
 20
140.1928872604734
 30
0.0
 11
-290.6753282196656
 21
140.2497795441276
 31
0.0
  0
LINE
  5
365
  8
0
  6
CONTINUOUS
 62
     7
 10
-252.8790317670565
 20
217.4798689459713
 30
0.0
 11
-252.8790317670565
 21
217.4698689459713
 31
0.0
  0
LINE
  5
366
  8
0
  6
CONTINUOUS
 62
     7
 10
-298.8790317670565
 20
217.4798689459713
 30
0.0
 11
-298.8790317670565
 21
217.4698689459713
 31
0.0
  0
LINE
  5
367
  8
0
  6
CONTINUOUS
 62
   253
 10
-290.6753282196656
 20
140.2497795441276
 30
0.0
 11
-290.8703620161195
 21
140.2690423013133
 31
0.0
  0
LINE
  5
368
  8
0
  6
CONTINUOUS
 62
   253
 10
-290.8703620161195
 20
211.1806955906293
 30
0.0
 11
-290.6753282196656
 21
211.199958347815
 31
0.0
  0
LINE
  5
369
  8
0
  6
CONTINUOUS
 62
     7
 10
-250.8840317670565
 20
219.4748689459713
 30
0.0
 11
-250.8840317670565
 21
217.4798689459713
 31
0.0
  0
LINE
  5
36A
  8
0
  6
CONTINUOUS
 62
     7
 10
-296.8740317670565
 20
217.4798689459713
 30
0.0
 11
-296.8740317670565
 21
219.4748689459713
 31
0.0
  0
LINE
  5
36B
  8
0
  6
CONTINUOUS
 62
     7
 10
-342.8840317670565
 20
133.9798689459713
 30
0.0
 11
-344.8790317670565
 21
133.9798689459713
 31
0.0
  0
LINE
  5
36C
  8
0
  6
CONTINUOUS
 62
   253
 10
-210.3877205564616
 20
211.2034730139863
 30
0.0
 11
-199.3703429776516
 21
211.2034730139863
 31
0.0
  0
LINE
  5
36D
  8
0
  6
CONTINUOUS
 62
   253
 10
-303.5946397846316
 20
139.9763164341766
 30
0.0
 11
-303.7190004110707
 21
139.8249563559065
 31
0.0
  0
LINE
  5
36E
  8
0
  6
CONTINUOUS
 62
   253
 10
-290.1634237494816
 20
211.4734214577661
 30
0.0
 11
-290.0390631230426
 21
211.6247815360362
 31
0.0
  0
LINE
  5
36F
  8
0
  6
CONTINUOUS
 62
     7
 10
-294.8790317670565
 20
217.4798689459713
 30
0.0
 11
-296.8740317670565
 21
217.4798689459713
 31
0.0
  0
LINE
  5
370
  8
0
  6
CONTINUOUS
 62
   253
 10
-348.8877015179937
 20
211.1806955906292
 30
0.0
 11
-348.3877205564616
 21
211.2034730139863
 31
0.0
  0
LINE
  5
371
  8
0
  6
CONTINUOUS
 62
   253
 10
-291.3703429776515
 20
211.2034730139863
 30
0.0
 11
-290.8703620161195
 21
211.1806955906292
 31
0.0
  0
LINE
  5
372
  8
0
  6
CONTINUOUS
 62
   253
 10
-244.4877856523628
 20
140.1928872604734
 30
0.0
 11
-244.6753282196656
 21
140.2497795441276
 31
0.0
  0
LINE
  5
373
  8
0
  6
CONTINUOUS
 62
     7
 10
-294.8790317670565
 20
217.4698689459713
 30
0.0
 11
-294.8790317670565
 21
217.4798689459713
 31
0.0
  0
LINE
  5
374
  8
0
  6
CONTINUOUS
 62
   253
 10
-337.3703429776515
 20
140.2462648779563
 30
0.0
 11
-348.3877205564616
 21
140.2462648779563
 31
0.0
  0
LINE
  5
375
  8
0
  6
CONTINUOUS
 62
   253
 10
-302.3877205564616
 20
140.2462648779562
 30
0.0
 11
-302.8877015179937
 21
140.2690423013134
 31
0.0
  0
LINE
  5
376
  8
0
  6
CONTINUOUS
 62
   253
 10
-290.4877856523628
 20
211.2568506314693
 30
0.0
 11
-290.3149378059792
 21
211.3491872145107
 31
0.0
  0
LINE
  5
377
  8
0
  6
CONTINUOUS
 62
   253
 10
-303.8683810879177
 20
139.4649321938959
 30
0.0
 11
-303.887663441058
 21
139.2700966031992
 31
0.0
  0
LINE
  5
378
  8
0
  6
CONTINUOUS
 62
   253
 10
-289.9466326062271
 20
211.7974537234372
 30
0.0
 11
-289.8896824461956
 21
211.9848056980467
 31
0.0
  0
LINE
  5
379
  8
0
  6
CONTINUOUS
 62
     7
 10
-250.8740317670565
 20
217.4698689459713
 30
0.0
 11
-248.8790317670565
 21
217.4698689459713
 31
0.0
  0
LINE
  5
37A
  8
0
  6
CONTINUOUS
 62
     7
 10
-252.8790317670565
 20
217.4698689459713
 30
0.0
 11
-250.8840317670565
 21
217.4698689459713
 31
0.0
  0
LINE
  5
37B
  8
0
  6
CONTINUOUS
 62
   253
 10
-243.8896824461956
 20
139.4649321938959
 30
0.0
 11
-243.9466326062271
 21
139.6522841685054
 31
0.0
  0
LINE
  5
37C
  8
0
  6
CONTINUOUS
 62
     7
 10
-248.8790317670565
 20
217.4798689459713
 30
0.0
 11
-250.8740317670565
 21
217.4798689459713
 31
0.0
  0
LINE
  5
37D
  8
0
  6
CONTINUOUS
 62
   253
 10
-290.3149378059792
 20
211.3491872145107
 30
0.0
 11
-290.1634237494816
 21
211.4734214577661
 31
0.0
  0
LINE
  5
37E
  8
0
  6
CONTINUOUS
 62
   253
 10
-290.0390631230426
 20
211.6247815360362
 30
0.0
 11
-289.9466326062271
 21
211.7974537234372
 31
0.0
  0
LINE
  5
37F
  8
0
  6
CONTINUOUS
 62
     7
 10
-250.8840317670565
 20
215.4748689459713
 30
0.0
 11
-250.8740317670565
 21
215.4748689459713
 31
0.0
  0
LINE
  5
380
  8
0
  6
CONTINUOUS
 62
   253
 10
-244.8703620161195
 20
140.2690423013134
 30
0.0
 11
-245.3703429776515
 21
140.2462648779562
 31
0.0
  0
LINE
  5
381
  8
0
  6
CONTINUOUS
 62
   253
 10
-289.9466326062272
 20
139.6522841685054
 30
0.0
 11
-290.0390631230426
 21
139.8249563559065
 31
0.0
  0
LINE
  5
382
  8
0
  6
CONTINUOUS
 62
   253
 10
-243.8704000930553
 20
139.2700966031992
 30
0.0
 11
-243.8896824461956
 21
139.4649321938959
 31
0.0
  0
LINE
  5
383
  8
0
  6
CONTINUOUS
 62
   253
 10
-244.0390631230426
 20
139.8249563559065
 30
0.0
 11
-244.1634237494816
 21
139.9763164341765
 31
0.0
  0
LINE
  5
384
  8
0
  6
CONTINUOUS
 62
   253
 10
-290.6753282196656
 20
211.199958347815
 30
0.0
 11
-290.4877856523628
 21
211.2568506314693
 31
0.0
  0
LINE
  5
385
  8
0
  6
CONTINUOUS
 62
     7
 10
-296.8840317670565
 20
215.4748689459713
 30
0.0
 11
-296.8740317670565
 21
215.4748689459713
 31
0.0
  0
LINE
  5
386
  8
0
  6
CONTINUOUS
 62
     7
 10
-296.8740317670565
 20
219.4748689459713
 30
0.0
 11
-296.8840317670565
 21
219.4748689459713
 31
0.0
  0
LINE
  5
387
  8
0
  6
CONTINUOUS
 62
   253
 10
-290.3149378059792
 20
140.100550677432
 30
0.0
 11
-290.4877856523628
 21
140.1928872604734
 31
0.0
  0
LINE
  5
388
  8
0
  6
CONTINUOUS
 62
     7
 10
-298.8790317670565
 20
217.4698689459713
 30
0.0
 11
-296.8840317670566
 21
217.4698689459713
 31
0.0
  0
LINE
  5
389
  8
0
  6
CONTINUOUS
 62
     7
 10
-250.8840317670565
 20
217.4798689459713
 30
0.0
 11
-252.8790317670565
 21
217.4798689459713
 31
0.0
  0
LINE
  5
38A
  8
0
  6
CONTINUOUS
 62
     7
 10
-250.8840317670565
 20
217.4698689459713
 30
0.0
 11
-250.8840317670565
 21
215.4748689459713
 31
0.0
  0
LINE
  5
38B
  8
0
  6
CONTINUOUS
 62
     7
 10
-296.8840317670565
 20
219.4748689459713
 30
0.0
 11
-296.8840317670565
 21
217.4798689459713
 31
0.0
  0
LINE
  5
38C
  8
0
  6
CONTINUOUS
 62
   253
 10
-289.8896824461956
 20
139.4649321938959
 30
0.0
 11
-289.9466326062272
 21
139.6522841685054
 31
0.0
  0
LINE
  5
38D
  8
0
  6
CONTINUOUS
 62
     7
 10
-250.8740317670565
 20
217.4798689459713
 30
0.0
 11
-250.8740317670565
 21
219.4748689459713
 31
0.0
  0
LINE
  5
38E
  8
0
  6
CONTINUOUS
 62
   253
 10
-303.8114309278861
 20
139.6522841685054
 30
0.0
 11
-303.8683810879177
 21
139.4649321938959
 31
0.0
  0
LINE
  5
38F
  8
0
  6
CONTINUOUS
 62
     7
 10
-296.8840317670565
 20
217.4798689459713
 30
0.0
 11
-298.8790317670565
 21
217.4798689459713
 31
0.0
  0
LINE
  5
390
  8
0
  6
CONTINUOUS
 62
     7
 10
-296.8740317670565
 20
215.4748689459713
 30
0.0
 11
-296.8740317670565
 21
217.4698689459713
 31
0.0
  0
LINE
  5
391
  8
0
  6
CONTINUOUS
 62
   253
 10
-244.3149378059792
 20
140.100550677432
 30
0.0
 11
-244.4877856523628
 21
140.1928872604734
 31
0.0
  0
LINE
  5
392
  8
0
  6
CONTINUOUS
 62
   253
 10
-302.8877015179937
 20
211.1806955906292
 30
0.0
 11
-302.3877205564616
 21
211.2034730139863
 31
0.0
  0
LINE
  5
393
  8
0
  6
CONTINUOUS
 62
     7
 10
-296.8740317670565
 20
217.4698689459713
 30
0.0
 11
-294.8790317670565
 21
217.4698689459713
 31
0.0
  0
LINE
  5
394
  8
0
  6
CONTINUOUS
 62
   253
 10
-290.8703620161195
 20
140.2690423013134
 30
0.0
 11
-291.3703429776515
 21
140.2462648779562
 31
0.0
  0
LINE
  5
395
  8
0
  6
CONTINUOUS
 62
   253
 10
-290.1634237494816
 20
139.9763164341765
 30
0.0
 11
-290.3149378059792
 21
140.100550677432
 31
0.0
  0
LINE
  5
396
  8
0
  6
CONTINUOUS
 62
   253
 10
-289.8896824461956
 20
211.9848056980467
 30
0.0
 11
-289.8704000930554
 21
212.1796412887434
 31
0.0
  0
LINE
  5
397
  8
0
  6
CONTINUOUS
 62
   253
 10
-256.8877015179937
 20
140.2690423013134
 30
0.0
 11
-257.0827353144475
 21
140.2497795441276
 31
0.0
  0
LINE
  5
398
  8
0
  6
CONTINUOUS
 62
     7
 10
-344.8790317670565
 20
133.9798689459713
 30
0.0
 11
-344.8790317670565
 21
133.9698689459713
 31
0.0
  0
LINE
  5
399
  8
0
  6
CONTINUOUS
 62
     7
 10
-340.8790317670565
 20
133.9698689459713
 30
0.0
 11
-340.8790317670565
 21
133.9798689459713
 31
0.0
  0
LINE
  5
39A
  8
0
  6
CONTINUOUS
 62
   253
 10
-303.2702778817503
 20
211.2568506314693
 30
0.0
 11
-303.0827353144476
 21
211.199958347815
 31
0.0
  0
LINE
  5
39B
  8
0
  6
CONTINUOUS
 62
     7
 10
-342.8740317670565
 20
131.9748689459713
 30
0.0
 11
-342.8740317670565
 21
133.9698689459713
 31
0.0
  0
LINE
  5
39C
  8
0
  6
CONTINUOUS
 62
   253
 10
-303.5946397846316
 20
211.4734214577661
 30
0.0
 11
-303.443125728134
 21
211.3491872145107
 31
0.0
  0
LINE
  5
39D
  8
0
  6
CONTINUOUS
 62
   253
 10
-349.8876634410578
 20
219.6377145003211
 30
0.0
 11
-349.8876634410578
 21
212.1796412887435
 31
0.0
  0
LINE
  5
39E
  8
0
  6
CONTINUOUS
 62
   253
 10
-257.0827353144475
 20
140.2497795441276
 30
0.0
 11
-257.2702778817503
 21
140.1928872604734
 31
0.0
  0
LINE
  5
39F
  8
0
  6
CONTINUOUS
 62
     7
 10
-342.8840317670565
 20
133.9698689459713
 30
0.0
 11
-342.8840317670565
 21
131.9748689459713
 31
0.0
  0
LINE
  5
3A0
  8
0
  6
CONTINUOUS
 62
   253
 10
-349.2702778817503
 20
211.2568506314693
 30
0.0
 11
-349.0827353144476
 21
211.199958347815
 31
0.0
  0
LINE
  5
3A1
  8
0
  6
CONTINUOUS
 62
     7
 10
-342.8740317670565
 20
133.9798689459713
 30
0.0
 11
-342.8740317670565
 21
135.9748689459713
 31
0.0
  0
LINE
  5
3A2
  8
0
  6
CONTINUOUS
 62
   253
 10
-349.8114309278861
 20
211.7974537234372
 30
0.0
 11
-349.7190004110706
 21
211.6247815360362
 31
0.0
  0
LINE
  5
3A3
  8
0
  6
CONTINUOUS
 62
     7
 10
-342.8740317670565
 20
135.9748689459713
 30
0.0
 11
-342.8840317670565
 21
135.9748689459713
 31
0.0
  0
LINE
  5
3A4
  8
0
  6
CONTINUOUS
 62
   253
 10
-349.8683810879176
 20
211.9848056980467
 30
0.0
 11
-349.8114309278861
 21
211.7974537234372
 31
0.0
  0
LINE
  5
3A5
  8
0
  6
CONTINUOUS
 62
   253
 10
-349.0827353144476
 20
211.199958347815
 30
0.0
 11
-348.8877015179937
 21
211.1806955906293
 31
0.0
  0
LINE
  5
3A6
  8
0
  6
CONTINUOUS
 62
   253
 10
-303.8114309278861
 20
211.7974537234372
 30
0.0
 11
-303.7190004110706
 21
211.6247815360362
 31
0.0
  0
LINE
  5
3A7
  8
0
  6
CONTINUOUS
 62
     7
 10
-340.8790317670565
 20
133.9798689459713
 30
0.0
 11
-342.8740317670565
 21
133.9798689459713
 31
0.0
  0
LINE
  5
3A8
  8
0
  6
CONTINUOUS
 62
     7
 10
-273.1891103303475
 20
78.45101955737728
 30
0.0
 11
-273.2023968968342
 21
78.47100736756245
 31
0.0
  0
LINE
  5
3A9
  8
0
  6
CONTINUOUS
 62
   253
 10
-349.7190004110706
 20
211.6247815360362
 30
0.0
 11
-349.5946397846316
 21
211.4734214577661
 31
0.0
  0
LINE
  5
3AA
  8
0
  6
CONTINUOUS
 62
   253
 10
-303.8876634410579
 20
212.1796412887434
 30
0.0
 11
-303.8683810879176
 21
211.9848056980467
 31
0.0
  0
LINE
  5
3AB
  8
0
  6
CONTINUOUS
 62
   253
 10
-349.443125728134
 20
211.3491872145107
 30
0.0
 11
-349.2702778817503
 21
211.2568506314693
 31
0.0
  0
LINE
  5
3AC
  8
0
  6
CONTINUOUS
 62
     7
 10
-273.3396603955213
 20
78.60360341268245
 30
0.0
 11
-273.3600957185075
 21
78.61619082621556
 31
0.0
  0
LINE
  5
3AD
  8
0
  6
CONTINUOUS
 62
   253
 10
-349.8876634410579
 20
212.1796412887434
 30
0.0
 11
-349.8683810879176
 21
211.9848056980467
 31
0.0
  0
LINE
  5
3AE
  8
0
  6
CONTINUOUS
 62
     7
 10
-342.8840317670565
 20
131.9748689459713
 30
0.0
 11
-342.8740317670565
 21
131.9748689459713
 31
0.0
  0
LINE
  5
3AF
  8
0
  6
CONTINUOUS
 62
     7
 10
-344.8790317670565
 20
133.9698689459713
 30
0.0
 11
-342.8840317670565
 21
133.9698689459713
 31
0.0
  0
LINE
  5
3B0
  8
0
  6
CONTINUOUS
 62
     7
 10
-342.8740317670565
 20
133.9698689459713
 30
0.0
 11
-340.8790317670565
 21
133.9698689459713
 31
0.0
  0
LINE
  5
3B1
  8
0
  6
CONTINUOUS
 62
   253
 10
-197.8704000930553
 20
212.1796412887435
 30
0.0
 11
-197.8704000930553
 21
219.6377145003211
 31
0.0
  0
LINE
  5
3B2
  8
0
  6
CONTINUOUS
 62
   253
 10
-348.3877205564616
 20
211.2034730139863
 30
0.0
 11
-337.3703429776515
 21
211.2034730139863
 31
0.0
  0
LINE
  5
3B3
  8
0
  6
CONTINUOUS
 62
   253
 10
-303.0827353144476
 20
211.199958347815
 30
0.0
 11
-302.8877015179937
 21
211.1806955906293
 31
0.0
  0
LINE
  5
3B4
  8
0
  6
CONTINUOUS
 62
     7
 10
-342.8840317670565
 20
135.9748689459713
 30
0.0
 11
-342.8840317670565
 21
133.9798689459713
 31
0.0
  0
LINE
  5
3B5
  8
0
  6
CONTINUOUS
 62
   253
 10
-349.5946397846316
 20
211.4734214577661
 30
0.0
 11
-349.443125728134
 21
211.3491872145107
 31
0.0
  0
LINE
  5
3B6
  8
0
  6
CONTINUOUS
 62
   253
 10
-257.2702778817503
 20
140.1928872604734
 30
0.0
 11
-257.443125728134
 21
140.100550677432
 31
0.0
  0
LINE
  5
3B7
  8
0
  6
CONTINUOUS
 62
   253
 10
-303.8683810879176
 20
211.9848056980467
 30
0.0
 11
-303.8114309278861
 21
211.7974537234372
 31
0.0
  0
LINE
  5
3B8
  8
0
  6
CONTINUOUS
 62
   253
 10
-303.7190004110706
 20
211.6247815360362
 30
0.0
 11
-303.5946397846316
 21
211.4734214577661
 31
0.0
  0
LINE
  5
3B9
  8
0
  6
CONTINUOUS
 62
   253
 10
-303.443125728134
 20
211.3491872145107
 30
0.0
 11
-303.2702778817503
 21
211.2568506314693
 31
0.0
  0
LINE
  5
3BA
  8
0
  6
CONTINUOUS
 62
     7
 10
-319.2317688472622
 20
78.50895658145205
 30
0.0
 11
-319.2477865528951
 21
78.52683054327537
 31
0.0
  0
LINE
  5
3BB
  8
0
  6
CONTINUOUS
 62
     7
 10
-319.2023968968342
 20
78.47100736756245
 30
0.0
 11
-319.2166273323083
 21
78.49033455336946
 31
0.0
  0
LINE
  5
3BC
  8
0
  6
CONTINUOUS
 62
     7
 10
-319.4246897779151
 20
78.64787765807411
 30
0.0
 11
-319.4471517746621
 21
78.65633366819378
 31
0.0
  0
LINE
  5
3BD
  8
0
  6
CONTINUOUS
 62
     7
 10
-320.6417754528076
 20
78.24941579980306
 30
0.0
 11
-320.6443290637369
 21
78.22555108785791
 31
0.0
  0
LINE
  5
3BE
  8
0
  6
CONTINUOUS
 62
     7
 10
-320.5925745165146
 20
78.40924770213013
 30
0.0
 11
-320.6028548349824
 21
78.38755990700925
 31
0.0
  0
ARC
  5
3BF
  8
0
  6
CONTINUOUS
 62
     7
 10
-245.3703429776515
 20
78.98430063732738
 30
0.0
 40
1.000000000000001
 50
0.5000000000000949
 51
90.0
  0
ARC
  5
3C0
  8
0
  6
CONTINUOUS
 62
     7
 10
-210.3877205564616
 20
78.98430063732738
 30
0.0
 40
1.000000000000001
 50
90.0
 51
179.4999999999999
  0
LINE
  5
3C1
  8
0
  6
CONTINUOUS
 62
     7
 10
-320.4184031385918
 20
78.60360341268245
 30
0.0
 11
-320.4382108726214
 21
78.59004984940117
 31
0.0
  0
LINE
  5
3C2
  8
0
  6
CONTINUOUS
 62
     7
 10
-319.1307659137121
 20
78.31989161262422
 30
0.0
 11
-319.1378271220323
 21
78.34283032972138
 31
0.0
  0
LINE
  5
3C3
  8
0
  6
CONTINUOUS
 62
     7
 10
-319.4026594469848
 20
78.63835348230378
 30
0.0
 11
-319.4246897779151
 21
78.64787765807411
 31
0.0
  0
LINE
  5
3C4
  8
0
  6
CONTINUOUS
 62
     7
 10
-320.627297620401
 20
78.31989161262422
 30
0.0
 11
-320.6332499089389
 21
78.29664046929395
 31
0.0
  0
LINE
  5
3C5
  8
0
  6
CONTINUOUS
 62
     7
 10
-319.1137344703761
 20
78.22555108785791
 30
0.0
 11
-319.1162880813054
 21
78.24941579980307
 31
0.0
  0
LINE
  5
3C6
  8
0
  6
CONTINUOUS
 62
     7
 10
-291.3703429776515
 20
79.98430063732738
 30
0.0
 11
-302.3877205564616
 21
79.98430063732738
 31
0.0
  0
LINE
  5
3C7
  8
0
  6
CONTINUOUS
 62
     7
 10
-320.2414575951375
 20
78.67511043265209
 30
0.0
 11
-320.2649006699674
 21
78.66996576089149
 31
0.0
  0
LINE
  5
3C8
  8
0
  6
CONTINUOUS
 62
     7
 10
-319.5166059389754
 20
78.67511043265209
 30
0.0
 11
-319.5402688880931
 21
78.67912418950338
 31
0.0
  0
LINE
  5
3C9
  8
0
  6
CONTINUOUS
 62
     7
 10
-320.4573453770775
 20
78.57556136624308
 30
0.0
 11
-320.4757625625867
 21
78.56017134730479
 31
0.0
  0
LINE
  5
3CA
  8
0
  6
CONTINUOUS
 62
     7
 10
-320.5556666372788
 20
78.47100736756245
 30
0.0
 11
-320.5689532037655
 21
78.45101955737728
 31
0.0
  0
LINE
  5
3CB
  8
0
  6
CONTINUOUS
 62
     7
 10
-274.170027600849
 20
78.68372459192237
 30
0.0
 11
-274.1939663463471
 21
78.68199778302059
 31
0.0
  0
LINE
  5
3CC
  8
0
  6
CONTINUOUS
 62
     7
 10
-319.2477865528951
 20
78.52683054327537
 30
0.0
 11
-319.2646435415043
 21
78.54391525398508
 31
0.0
  0
ARC
  5
3CD
  8
0
  6
CONTINUOUS
 62
     7
 10
-256.3877205564617
 20
78.98430063732738
 30
0.0
 40
1.000000000000001
 50
90.0
 51
179.4999999999999
  0
LINE
  5
3CE
  8
0
  6
CONTINUOUS
 62
     7
 10
-320.6202364120808
 20
78.34283032972137
 30
0.0
 11
-320.627297620401
 21
78.31989161262422
 31
0.0
  0
LINE
  5
3CF
  8
0
  6
CONTINUOUS
 62
     7
 10
-319.1891103303475
 20
78.45101955737728
 30
0.0
 11
-319.2023968968342
 21
78.47100736756245
 31
0.0
  0
LINE
  5
3D0
  8
0
  6
CONTINUOUS
 62
     7
 10
-319.3007181570356
 20
78.57556136624308
 30
0.0
 11
-319.3198526614917
 21
78.59004984940117
 31
0.0
  0
LINE
  5
3D1
  8
0
  6
CONTINUOUS
 62
     7
 10
-319.3198526614917
 20
78.59004984940117
 30
0.0
 11
-319.3396603955213
 21
78.60360341268245
 31
0.0
  0
LINE
  5
3D2
  8
0
  6
CONTINUOUS
 62
     7
 10
-319.4699936807056
 20
78.66370202847968
 30
0.0
 11
-319.4931628641456
 21
78.66996576089149
 31
0.0
  0
LINE
  5
3D3
  8
0
  6
CONTINUOUS
 62
     7
 10
-319.1552086991306
 20
78.38755990700925
 30
0.0
 11
-319.1654890175984
 21
78.40924770213013
 31
0.0
  0
LINE
  5
3D4
  8
0
  6
CONTINUOUS
 62
     7
 10
-274.310911759451
 20
78.65633366819378
 30
0.0
 11
-274.3333737561979
 21
78.64787765807411
 31
0.0
  0
LINE
  5
3D5
  8
0
  6
CONTINUOUS
 62
     7
 10
-199.3703429776516
 20
79.98430063732738
 30
0.0
 11
-210.3877205564616
 21
79.98430063732738
 31
0.0
  0
LINE
  5
3D6
  8
0
  6
CONTINUOUS
 62
     7
 10
-320.21779464602
 20
78.67912418950338
 30
0.0
 11
-320.2414575951375
 21
78.67511043265209
 31
0.0
  0
LINE
  5
3D7
  8
0
  6
CONTINUOUS
 62
     7
 10
-320.6380795625408
 20
78.27313047458767
 30
0.0
 11
-320.6417754528076
 21
78.24941579980306
 31
0.0
  0
ARC
  5
3D8
  8
0
  6
CONTINUOUS
 62
     7
 10
-348.3877205564616
 20
78.98430063732738
 30
0.0
 40
1.000000000000001
 50
90.0
 51
179.4999999999999
  0
LINE
  5
3D9
  8
0
  6
CONTINUOUS
 62
     7
 10
-245.3703429776515
 20
79.98430063732738
 30
0.0
 11
-256.3877205564617
 21
79.98430063732738
 31
0.0
  0
ARC
  5
3DA
  8
0
  6
CONTINUOUS
 62
     7
 10
-302.3877205564616
 20
78.98430063732738
 30
0.0
 40
1.000000000000001
 50
90.0
 51
179.4999999999999
  0
LINE
  5
3DB
  8
0
  6
CONTINUOUS
 62
     7
 10
-320.3554040871282
 20
78.63835348230378
 30
0.0
 11
-320.3769519903583
 21
78.62778308631354
 31
0.0
  0
ARC
  5
3DC
  8
0
  6
CONTINUOUS
 62
     7
 10
-199.3703429776516
 20
78.98430063732738
 30
0.0
 40
1.000000000000001
 50
0.5000000000000812
 51
90.0
  0
LINE
  5
3DD
  8
0
  6
CONTINUOUS
 62
     7
 10
-319.1162880813054
 20
78.24941579980307
 30
0.0
 11
-319.1199839715722
 21
78.27313047458767
 31
0.0
  0
LINE
  5
3DE
  8
0
  6
CONTINUOUS
 62
     7
 10
-320.4934199926088
 20
78.54391525398506
 30
0.0
 11
-320.510276981218
 21
78.52683054327537
 31
0.0
  0
LINE
  5
3DF
  8
0
  6
CONTINUOUS
 62
     7
 10
-320.5262946868509
 20
78.50895658145205
 30
0.0
 11
-320.5414362018046
 21
78.49033455336946
 31
0.0
  0
LINE
  5
3E0
  8
0
  6
CONTINUOUS
 62
     7
 10
-376.3790317670566
 20
88.98430063732738
 30
0.0
 11
-376.3790317670566
 21
89.48430063732738
 31
0.0
  0
LINE
  5
3E1
  8
0
  6
CONTINUOUS
 62
     7
 10
-171.3790317670565
 20
89.48430063732738
 30
0.0
 11
-171.3790317670565
 21
88.98430063732738
 31
0.0
  0
LINE
  5
3E2
  8
0
  6
CONTINUOUS
 62
     7
 10
-319.564097187766
 20
78.68199778302059
 30
0.0
 11
-319.5880359332641
 21
78.68372459192237
 31
0.0
  0
LINE
  5
3E3
  8
0
  6
CONTINUOUS
 62
     7
 10
-319.1767982475106
 20
78.43041717835881
 30
0.0
 11
-319.1891103303475
 21
78.45101955737728
 31
0.0
  0
LINE
  5
3E4
  8
0
  6
CONTINUOUS
 62
     7
 10
-320.170027600849
 20
78.68372459192237
 30
0.0
 11
-320.1939663463471
 21
78.68199778302059
 31
0.0
  0
LINE
  5
3E5
  8
0
  6
CONTINUOUS
 62
     7
 10
-320.2649006699674
 20
78.66996576089149
 30
0.0
 11
-320.2880698534075
 21
78.66370202847968
 31
0.0
  0
LINE
  5
3E6
  8
0
  6
CONTINUOUS
 62
     7
 10
-320.6332499089389
 20
78.29664046929395
 30
0.0
 11
-320.6380795625408
 21
78.27313047458767
 31
0.0
  0
LINE
  5
3E7
  8
0
  6
CONTINUOUS
 62
     7
 10
-319.1199839715722
 20
78.27313047458767
 30
0.0
 11
-319.1248136251741
 21
78.29664046929395
 31
0.0
  0
LINE
  5
3E8
  8
0
  6
CONTINUOUS
 62
     7
 10
-320.1939663463471
 20
78.68199778302059
 30
0.0
 11
-320.21779464602
 21
78.67912418950338
 31
0.0
  0
LINE
  5
3E9
  8
0
  6
CONTINUOUS
 62
     7
 10
-320.510276981218
 20
78.52683054327537
 30
0.0
 11
-320.5262946868509
 21
78.50895658145205
 31
0.0
  0
LINE
  5
3EA
  8
0
  6
CONTINUOUS
 62
     7
 10
-320.5812652866024
 20
78.43041717835881
 30
0.0
 11
-320.5925745165146
 21
78.40924770213013
 31
0.0
  0
LINE
  5
3EB
  8
0
  6
CONTINUOUS
 62
     7
 10
-320.3333737561979
 20
78.64787765807411
 30
0.0
 11
-320.3554040871282
 21
78.63835348230378
 31
0.0
  0
LINE
  5
3EC
  8
0
  6
CONTINUOUS
 62
     7
 10
-320.6120825542849
 20
78.36540376561507
 30
0.0
 11
-320.6202364120808
 21
78.34283032972137
 31
0.0
  0
LINE
  5
3ED
  8
0
  6
CONTINUOUS
 62
     7
 10
-320.4382108726214
 20
78.59004984940117
 30
0.0
 11
-320.4573453770775
 21
78.57556136624308
 31
0.0
  0
LINE
  5
3EE
  8
0
  6
CONTINUOUS
 62
     7
 10
-319.1248136251741
 20
78.29664046929395
 30
0.0
 11
-319.1307659137121
 21
78.31989161262422
 31
0.0
  0
LINE
  5
3EF
  8
0
  6
CONTINUOUS
 62
     7
 10
-320.3979678156056
 20
78.61619082621556
 30
0.0
 11
-320.4184031385918
 21
78.60360341268245
 31
0.0
  0
LINE
  5
3F0
  8
0
  6
CONTINUOUS
 62
     7
 10
-320.310911759451
 20
78.65633366819378
 30
0.0
 11
-320.3333737561979
 21
78.64787765807411
 31
0.0
  0
ARC
  5
3F1
  8
0
  6
CONTINUOUS
 62
     7
 10
-284.3790317670565
 20
62.78430063732737
 30
0.0
 40
3.000000000000001
 50
90.0
 51
180.0
  0
LINE
  5
3F2
  8
0
  6
CONTINUOUS
 62
     7
 10
-358.3790317670565
 20
59.78430063732738
 30
0.0
 11
-355.3790317670565
 21
59.78430063732738
 31
0.0
  0
LINE
  5
3F3
  8
0
  6
CONTINUOUS
 62
     7
 10
-279.3209491016623
 20
60.60157396126282
 30
0.0
 11
-278.8586785785201
 21
61.1570883570657
 31
0.0
  0
LINE
  5
3F4
  8
0
  6
CONTINUOUS
 62
     7
 10
-284.3790317670565
 20
59.78430063732738
 30
0.0
 11
-281.3790317670565
 21
59.78430063732738
 31
0.0
  0
ARC
  5
3F5
  8
0
  6
CONTINUOUS
 62
     7
 10
-358.3790317670565
 20
62.78430063732737
 30
0.0
 40
3.000000000000001
 50
90.0
 51
180.0
  0
ARC
  5
3F6
  8
0
  6
CONTINUOUS
 62
     7
 10
-217.3790317670565
 20
62.78430063732737
 30
0.0
 40
3.000000000000001
 50
270.0
 51
0.0
  0
ARC
  5
3F7
  8
0
  6
CONTINUOUS
 62
     7
 10
-263.3790317670565
 20
62.78430063732737
 30
0.0
 40
3.000000000000001
 50
0.0
 51
90.0
  0
ARC
  5
3F8
  8
0
  6
CONTINUOUS
 62
     7
 10
-327.3790317670565
 20
62.78430063732737
 30
0.0
 40
3.000000000000001
 50
42.72000328171336
 51
90.0
  0
LINE
  5
3F9
  8
0
  6
CONTINUOUS
 62
     7
 10
-319.2646435415043
 20
78.54391525398508
 30
0.0
 11
-319.2823009715263
 21
78.56017134730479
 31
0.0
  0
LINE
  5
3FA
  8
0
  6
CONTINUOUS
 62
     7
 10
-319.4931628641456
 20
78.66996576089149
 30
0.0
 11
-319.5166059389754
 21
78.67511043265209
 31
0.0
  0
LINE
  5
3FB
  8
0
  6
CONTINUOUS
 62
     7
 10
-266.3790317670565
 20
59.78430063732738
 30
0.0
 11
-263.3790317670565
 21
59.78430063732738
 31
0.0
  0
ARC
  5
3FC
  8
0
  6
CONTINUOUS
 62
     7
 10
-309.3790317670565
 20
62.78430063732737
 30
0.0
 40
3.000000000000001
 50
0.0
 51
90.0
  0
LINE
  5
3FD
  8
0
  6
CONTINUOUS
 62
     7
 10
-319.4471517746621
 20
78.65633366819378
 30
0.0
 11
-319.4699936807056
 21
78.66370202847968
 31
0.0
  0
LINE
  5
3FE
  8
0
  6
CONTINUOUS
 62
     7
 10
-274.1939663463471
 20
78.68199778302059
 30
0.0
 11
-274.21779464602
 21
78.67912418950338
 31
0.0
  0
ARC
  5
3FF
  8
0
  6
CONTINUOUS
 62
     7
 10
-266.3790317670565
 20
62.78430063732737
 30
0.0
 40
3.000000000000001
 50
90.0
 51
137.2799967182867
  0
LINE
  5
400
  8
0
  6
CONTINUOUS
 62
     7
 10
-281.3790317670565
 20
65.78430063732739
 30
0.0
 11
-284.3790317670565
 21
65.78430063732739
 31
0.0
  0
ARC
  5
401
  8
0
  6
CONTINUOUS
 62
     7
 10
-327.3790317670565
 20
62.78430063732737
 30
0.0
 40
3.000000000000001
 50
270.0
 51
313.3164722123748
  0
LINE
  5
402
  8
0
  6
CONTINUOUS
 62
     7
 10
-274.2649006699675
 20
78.66996576089149
 30
0.0
 11
-274.2880698534075
 21
78.66370202847968
 31
0.0
  0
ARC
  5
403
  8
0
  6
CONTINUOUS
 62
     7
 10
-220.3790317670565
 20
62.78430063732737
 30
0.0
 40
3.000000000000001
 50
180.0
 51
270.0
  0
LINE
  5
404
  8
0
  6
CONTINUOUS
 62
     7
 10
-319.5402688880931
 20
78.67912418950338
 30
0.0
 11
-319.564097187766
 21
78.68199778302059
 31
0.0
  0
LINE
  5
405
  8
0
  6
CONTINUOUS
 62
     7
 10
-319.1654890175984
 20
78.40924770213013
 30
0.0
 11
-319.1767982475106
 21
78.43041717835881
 31
0.0
  0
ARC
  5
406
  8
0
  6
CONTINUOUS
 62
   253
 10
-327.394185842389
 20
62.77066055786061
 30
0.0
 40
3.005397200422911
 50
327.5277207919717
 51
0.3266197995927769
  0
LINE
  5
407
  8
0
  6
CONTINUOUS
 62
     7
 10
-220.3790317670565
 20
59.78430063732738
 30
0.0
 11
-217.3790317670565
 21
59.78430063732738
 31
0.0
  0
ARC
  5
408
  8
0
  6
CONTINUOUS
 62
     7
 10
-312.3790317670565
 20
62.78430063732737
 30
0.0
 40
3.000000000000001
 50
226.6835277876246
 51
270.0
  0
ARC
  5
409
  8
0
  6
CONTINUOUS
 62
     7
 10
-284.3790317670565
 20
62.78430063732737
 30
0.0
 40
3.000000000000001
 50
180.0000000000002
 51
270.0
  0
LINE
  5
40A
  8
0
  6
CONTINUOUS
 62
     7
 10
-319.2166273323083
 20
78.49033455336946
 30
0.0
 11
-319.2317688472622
 21
78.50895658145205
 31
0.0
  0
LINE
  5
40B
  8
0
  6
CONTINUOUS
 62
     7
 10
-268.8993849555931
 20
61.157088357066
 30
0.0
 11
-268.4371144324507
 21
60.60157396126283
 31
0.0
  0
LINE
  5
40C
  8
0
  6
CONTINUOUS
 62
     7
 10
-319.3600957185074
 20
78.61619082621556
 30
0.0
 11
-319.3811115437547
 21
78.62778308631354
 31
0.0
  0
ARC
  5
40D
  8
0
  6
CONTINUOUS
 62
     7
 10
-189.3790317670565
 20
62.78430063732737
 30
0.0
 40
3.000000000000001
 50
270.0
 51
0.0
  0
LINE
  5
40E
  8
0
  6
CONTINUOUS
 62
     7
 10
-274.1460335687432
 20
78.68430063732738
 30
0.0
 11
-274.170027600849
 21
78.68372459192237
 31
0.0
  0
LINE
  5
40F
  8
0
  6
CONTINUOUS
 62
     7
 10
-192.3790317670565
 20
59.78430063732738
 30
0.0
 11
-189.3790317670565
 21
59.78430063732738
 31
0.0
  0
LINE
  5
410
  8
0
  6
CONTINUOUS
 62
     7
 10
-319.2823009715263
 20
78.56017134730479
 30
0.0
 11
-319.3007181570356
 21
78.57556136624308
 31
0.0
  0
LINE
  5
411
  8
0
  6
CONTINUOUS
 62
     7
 10
-274.21779464602
 20
78.67912418950338
 30
0.0
 11
-274.2414575951375
 21
78.67511043265209
 31
0.0
  0
LINE
  5
412
  8
0
  6
CONTINUOUS
 62
     7
 10
-274.2880698534075
 20
78.66370202847968
 30
0.0
 11
-274.310911759451
 21
78.65633366819378
 31
0.0
  0
ARC
  5
413
  8
0
  6
CONTINUOUS
 62
     7
 10
-220.3790317670565
 20
62.78430063732737
 30
0.0
 40
3.000000000000001
 50
90.0
 51
180.0
  0
ARC
  5
414
  8
0
  6
CONTINUOUS
 62
     7
 10
-309.3790317670565
 20
62.78430063732737
 30
0.0
 40
3.000000000000001
 50
270.0
 51
0.0
  0
LINE
  5
415
  8
0
  6
CONTINUOUS
 62
     7
 10
-319.5880359332641
 20
78.68372459192237
 30
0.0
 11
-319.6120299653699
 21
78.68430063732738
 31
0.0
  0
LINE
  5
416
  8
0
  6
CONTINUOUS
 62
     7
 10
-312.3790317670565
 20
59.78430063732738
 30
0.0
 11
-309.3790317670565
 21
59.78430063732738
 31
0.0
  0
ARC
  5
417
  8
0
  6
CONTINUOUS
 62
   253
 10
-327.3507266846364
 20
62.81350062580361
 30
0.0
 40
2.962000772128909
 50
359.5027156376618
 51
24.88271512369022
  0
LINE
  5
418
  8
0
  6
CONTINUOUS
 62
     7
 10
-273.6120299653699
 20
78.68430063732738
 30
0.0
 11
-274.1460335687432
 21
78.68430063732738
 31
0.0
  0
ARC
  5
419
  8
0
  6
CONTINUOUS
 62
     7
 10
-192.3790317670565
 20
62.78430063732737
 30
0.0
 40
3.000000000000001
 50
180.0
 51
270.0
  0
ARC
  5
41A
  8
0
  6
CONTINUOUS
 62
     7
 10
-266.3790317670565
 20
62.78430063732737
 30
0.0
 40
3.000000000000001
 50
226.683527787625
 51
270.0
  0
LINE
  5
41B
  8
0
  6
CONTINUOUS
 62
     7
 10
-325.3209491016623
 20
60.60157396126282
 30
0.0
 11
-324.8586785785201
 21
61.15708835706571
 31
0.0
  0
LINE
  5
41C
  8
0
  6
CONTINUOUS
 62
     7
 10
-274.2414575951375
 20
78.67511043265209
 30
0.0
 11
-274.2649006699675
 21
78.66996576089149
 31
0.0
  0
LINE
  5
41D
  8
0
  6
CONTINUOUS
 62
     7
 10
-319.3811115437547
 20
78.62778308631354
 30
0.0
 11
-319.4026594469848
 21
78.63835348230378
 31
0.0
  0
LINE
  5
41E
  8
0
  6
CONTINUOUS
 62
     7
 10
-319.1459809798282
 20
78.36540376561507
 30
0.0
 11
-319.1552086991306
 21
78.38755990700925
 31
0.0
  0
LINE
  5
41F
  8
0
  6
CONTINUOUS
 62
     7
 10
-314.8993849555931
 20
61.157088357066
 30
0.0
 11
-314.4371144324508
 21
60.60157396126283
 31
0.0
  0
ARC
  5
420
  8
0
  6
CONTINUOUS
 62
   253
 10
-281.3941858423896
 20
62.77066055786078
 30
0.0
 40
3.005397200423523
 50
327.527720791975
 51
0.3266197995895368
  0
ARC
  5
421
  8
0
  6
CONTINUOUS
 62
     7
 10
-238.3790317670565
 20
62.78430063732737
 30
0.0
 40
3.000000000000001
 50
90.0
 51
180.0
  0
ARC
  5
422
  8
0
  6
CONTINUOUS
 62
     7
 10
-238.3790317670565
 20
62.78430063732737
 30
0.0
 40
3.000000000000001
 50
180.0
 51
270.0
  0
ARC
  5
423
  8
0
  6
CONTINUOUS
 62
   253
 10
-266.3550265441424
 20
62.77321076396666
 30
0.0
 40
3.014234788467256
 50
179.7228138530453
 51
212.4228455553832
  0
LINE
  5
424
  8
0
  6
CONTINUOUS
 62
     7
 10
-235.3790317670565
 20
65.78430063732739
 30
0.0
 11
-238.3790317670565
 21
65.78430063732739
 31
0.0
  0
ARC
  5
425
  8
0
  6
CONTINUOUS
 62
     7
 10
-189.3790317670565
 20
62.78430063732737
 30
0.0
 40
3.000000000000001
 50
0.0
 51
90.0
  0
ARC
  5
426
  8
0
  6
CONTINUOUS
 62
     7
 10
-358.3790317670565
 20
62.78430063732737
 30
0.0
 40
3.000000000000001
 50
180.0
 51
270.0
  0
ARC
  5
427
  8
0
  6
CONTINUOUS
 62
     7
 10
-235.3790317670565
 20
62.78430063732737
 30
0.0
 40
3.000000000000001
 50
0.0
 51
90.0
  0
LINE
  5
428
  8
0
  6
CONTINUOUS
 62
     7
 10
-330.3790317670565
 20
59.78430063732738
 30
0.0
 11
-327.3790317670565
 21
59.78430063732738
 31
0.0
  0
LINE
  5
429
  8
0
  6
CONTINUOUS
 62
     7
 10
-319.3396603955213
 20
78.60360341268245
 30
0.0
 11
-319.3600957185074
 21
78.61619082621556
 31
0.0
  0
LINE
  5
42A
  8
0
  6
CONTINUOUS
 62
     7
 10
-319.1378271220323
 20
78.34283032972138
 30
0.0
 11
-319.1459809798282
 21
78.36540376561507
 31
0.0
  0
ARC
  5
42B
  8
0
  6
CONTINUOUS
 62
     7
 10
-263.3790317670565
 20
62.78430063732737
 30
0.0
 40
3.000000000000001
 50
270.0
 51
0.0
  0
ARC
  5
42C
  8
0
  6
CONTINUOUS
 62
     7
 10
-312.3790317670565
 20
62.78430063732737
 30
0.0
 40
3.000000000000001
 50
90.0
 51
137.2799967182867
  0
LINE
  5
42D
  8
0
  6
CONTINUOUS
 62
     7
 10
-327.3790317670565
 20
65.78430063732739
 30
0.0
 11
-330.3790317670565
 21
65.78430063732739
 31
0.0
  0
LINE
  5
42E
  8
0
  6
CONTINUOUS
 62
     7
 10
-274.6202364120808
 20
78.34283032972137
 30
0.0
 11
-274.627297620401
 21
78.31989161262422
 31
0.0
  0
LINE
  5
42F
  8
0
  6
CONTINUOUS
 62
     7
 10
-273.1307659137121
 20
78.31989161262422
 30
0.0
 11
-273.1378271220323
 21
78.34283032972138
 31
0.0
  0
LINE
  5
430
  8
0
  6
CONTINUOUS
 62
     7
 10
-273.2646435415043
 20
78.54391525398508
 30
0.0
 11
-273.2823009715264
 21
78.56017134730479
 31
0.0
  0
LINE
  5
431
  8
0
  6
CONTINUOUS
 62
     7
 10
-273.2477865528951
 20
78.52683054327537
 30
0.0
 11
-273.2646435415043
 21
78.54391525398508
 31
0.0
  0
LINE
  5
432
  8
0
  6
CONTINUOUS
 62
     7
 10
-274.5925745165146
 20
78.40924770213013
 30
0.0
 11
-274.6028548349823
 21
78.38755990700925
 31
0.0
  0
LINE
  5
433
  8
0
  6
CONTINUOUS
 62
     7
 10
-274.4382108726213
 20
78.59004984940117
 30
0.0
 11
-274.4573453770774
 21
78.57556136624308
 31
0.0
  0
LINE
  5
434
  8
0
  6
CONTINUOUS
 62
     7
 10
-274.510276981218
 20
78.52683054327537
 30
0.0
 11
-274.5262946868509
 21
78.50895658145205
 31
0.0
  0
LINE
  5
435
  8
0
  6
CONTINUOUS
 62
     7
 10
-274.3333737561979
 20
78.64787765807411
 30
0.0
 11
-274.3554040871282
 21
78.63835348230378
 31
0.0
  0
LINE
  5
436
  8
0
  6
CONTINUOUS
 62
     7
 10
-273.4246897779151
 20
78.64787765807411
 30
0.0
 11
-273.4471517746621
 21
78.65633366819378
 31
0.0
  0
ARC
  5
437
  8
0
  6
CONTINUOUS
 62
     7
 10
-355.3790317670565
 20
62.78430063732737
 30
0.0
 40
3.000000000000001
 50
0.0
 51
90.0
  0
ARC
  5
438
  8
0
  6
CONTINUOUS
 62
     7
 10
-192.3790317670565
 20
62.78430063732737
 30
0.0
 40
3.000000000000001
 50
90.0
 51
180.0
  0
LINE
  5
439
  8
0
  6
CONTINUOUS
 62
     7
 10
-273.2823009715264
 20
78.56017134730479
 30
0.0
 11
-273.3007181570356
 21
78.57556136624308
 31
0.0
  0
LINE
  5
43A
  8
0
  6
CONTINUOUS
 62
     7
 10
-273.1162880813054
 20
78.24941579980307
 30
0.0
 11
-273.1199839715722
 21
78.27313047458769
 31
0.0
  0
LINE
  5
43B
  8
0
  6
CONTINUOUS
 62
     7
 10
-274.5689532037655
 20
78.45101955737728
 30
0.0
 11
-274.5812652866024
 21
78.43041717835881
 31
0.0
  0
LINE
  5
43C
  8
0
  6
CONTINUOUS
 62
     7
 10
-274.4757625625867
 20
78.56017134730479
 30
0.0
 11
-274.4934199926088
 21
78.54391525398506
 31
0.0
  0
LINE
  5
43D
  8
0
  6
CONTINUOUS
 62
     7
 10
-278.6636855110399
 20
64.05979846560325
 30
0.0
 11
-279.1749983996309
 21
64.81954924997257
 31
0.0
  0
LINE
  5
43E
  8
0
  6
CONTINUOUS
 62
     7
 10
-274.6332499089389
 20
78.29664046929395
 30
0.0
 11
-274.6380795625408
 21
78.27313047458767
 31
0.0
  0
LINE
  5
43F
  8
0
  6
CONTINUOUS
 62
     7
 10
-273.564097187766
 20
78.68199778302059
 30
0.0
 11
-273.5880359332641
 21
78.68372459192237
 31
0.0
  0
LINE
  5
440
  8
0
  6
CONTINUOUS
 62
     7
 10
-217.3790317670565
 20
65.78430063732739
 30
0.0
 11
-220.3790317670565
 21
65.78430063732739
 31
0.0
  0
LINE
  5
441
  8
0
  6
CONTINUOUS
 62
     7
 10
-273.4699936807056
 20
78.66370202847969
 30
0.0
 11
-273.4931628641456
 21
78.66996576089149
 31
0.0
  0
LINE
  5
442
  8
0
  6
CONTINUOUS
 62
     7
 10
-274.5812652866024
 20
78.43041717835881
 30
0.0
 11
-274.5925745165146
 21
78.40924770213013
 31
0.0
  0
LINE
  5
443
  8
0
  6
CONTINUOUS
 62
     7
 10
-273.3600957185075
 20
78.61619082621556
 30
0.0
 11
-273.3811115437547
 21
78.62778308631354
 31
0.0
  0
LINE
  5
444
  8
0
  6
CONTINUOUS
 62
     7
 10
-274.4573453770774
 20
78.57556136624308
 30
0.0
 11
-274.4757625625867
 21
78.56017134730479
 31
0.0
  0
LINE
  5
445
  8
0
  6
CONTINUOUS
 62
     7
 10
-273.4026594469848
 20
78.63835348230378
 30
0.0
 11
-273.4246897779151
 21
78.64787765807411
 31
0.0
  0
ARC
  5
446
  8
0
  6
CONTINUOUS
 62
     7
 10
-217.3790317670565
 20
62.78430063732737
 30
0.0
 40
3.000000000000001
 50
0.0
 51
90.0
  0
LINE
  5
447
  8
0
  6
CONTINUOUS
 62
     7
 10
-309.3790317670565
 20
65.78430063732739
 30
0.0
 11
-312.3790317670565
 21
65.78430063732739
 31
0.0
  0
LINE
  5
448
  8
0
  6
CONTINUOUS
 62
     7
 10
-274.3554040871282
 20
78.63835348230378
 30
0.0
 11
-274.3769519903584
 21
78.62778308631354
 31
0.0
  0
ARC
  5
449
  8
0
  6
CONTINUOUS
 62
     7
 10
-197.3440862175078
 20
75.98430063732738
 30
0.0
 40
1.000000000000001
 50
180.5000000000001
 51
270.0
  0
LINE
  5
44A
  8
0
  6
CONTINUOUS
 62
     7
 10
-274.6028548349823
 20
78.38755990700925
 30
0.0
 11
-274.6120825542848
 21
78.36540376561507
 31
0.0
  0
LINE
  5
44B
  8
0
  6
CONTINUOUS
 62
     7
 10
-273.1378271220323
 20
78.34283032972138
 30
0.0
 11
-273.1459809798282
 21
78.36540376561508
 31
0.0
  0
LINE
  5
44C
  8
0
  6
CONTINUOUS
 62
     7
 10
-274.6120825542848
 20
78.36540376561507
 30
0.0
 11
-274.6202364120808
 21
78.34283032972137
 31
0.0
  0
LINE
  5
44D
  8
0
  6
CONTINUOUS
 62
     7
 10
-274.5262946868509
 20
78.50895658145205
 30
0.0
 11
-274.5414362018046
 21
78.49033455336946
 31
0.0
  0
LINE
  5
44E
  8
0
  6
CONTINUOUS
 62
     7
 10
-273.1459809798282
 20
78.36540376561508
 30
0.0
 11
-273.1552086991307
 21
78.38755990700925
 31
0.0
  0
LINE
  5
44F
  8
0
  6
CONTINUOUS
 62
     7
 10
-273.5166059389755
 20
78.67511043265209
 30
0.0
 11
-273.5402688880931
 21
78.67912418950338
 31
0.0
  0
LINE
  5
450
  8
0
  6
CONTINUOUS
 62
     7
 10
-273.5402688880931
 20
78.67912418950338
 30
0.0
 11
-273.564097187766
 21
78.68199778302059
 31
0.0
  0
LINE
  5
451
  8
0
  6
CONTINUOUS
 62
     7
 10
-273.1767982475106
 20
78.43041717835881
 30
0.0
 11
-273.1891103303475
 21
78.45101955737728
 31
0.0
  0
LINE
  5
452
  8
0
  6
CONTINUOUS
 62
     7
 10
-273.3811115437547
 20
78.62778308631354
 30
0.0
 11
-273.4026594469848
 21
78.63835348230378
 31
0.0
  0
LINE
  5
453
  8
0
  6
CONTINUOUS
 62
     7
 10
-273.1137344703761
 20
78.22555108785791
 30
0.0
 11
-273.1162880813054
 21
78.24941579980307
 31
0.0
  0
LINE
  5
454
  8
0
  6
CONTINUOUS
 62
     7
 10
-273.1248136251742
 20
78.29664046929395
 30
0.0
 11
-273.1307659137121
 21
78.31989161262422
 31
0.0
  0
LINE
  5
455
  8
0
  6
CONTINUOUS
 62
     7
 10
-274.5556666372788
 20
78.47100736756245
 30
0.0
 11
-274.5689532037655
 21
78.45101955737728
 31
0.0
  0
LINE
  5
456
  8
0
  6
CONTINUOUS
 62
     7
 10
-273.1654890175984
 20
78.40924770213013
 30
0.0
 11
-273.1767982475106
 21
78.43041717835881
 31
0.0
  0
LINE
  5
457
  8
0
  6
CONTINUOUS
 62
     7
 10
-273.4931628641456
 20
78.66996576089149
 30
0.0
 11
-273.5166059389755
 21
78.67511043265209
 31
0.0
  0
LINE
  5
458
  8
0
  6
CONTINUOUS
 62
     7
 10
-274.5414362018046
 20
78.49033455336946
 30
0.0
 11
-274.5556666372788
 21
78.47100736756245
 31
0.0
  0
LINE
  5
459
  8
0
  6
CONTINUOUS
 62
     7
 10
-274.4184031385918
 20
78.60360341268245
 30
0.0
 11
-274.4382108726213
 21
78.59004984940117
 31
0.0
  0
LINE
  5
45A
  8
0
  6
CONTINUOUS
 62
     7
 10
-274.6380795625408
 20
78.27313047458767
 30
0.0
 11
-274.6417754528077
 21
78.24941579980306
 31
0.0
  0
LINE
  5
45B
  8
0
  6
CONTINUOUS
 62
     7
 10
-274.6417754528077
 20
78.24941579980306
 30
0.0
 11
-274.6443290637369
 21
78.22555108785791
 31
0.0
  0
LINE
  5
45C
  8
0
  6
CONTINUOUS
 62
     7
 10
-273.3198526614917
 20
78.59004984940117
 30
0.0
 11
-273.3396603955213
 21
78.60360341268245
 31
0.0
  0
ARC
  5
45D
  8
0
  6
CONTINUOUS
 62
     7
 10
-366.5071433174164
 20
75.4843006373274
 30
0.0
 40
0.4999999999999579
 50
182.8466169158166
 51
269.9999999999984
  0
LINE
  5
45E
  8
0
  6
CONTINUOUS
 62
     7
 10
-189.3790317670565
 20
65.78430063732739
 30
0.0
 11
-192.3790317670565
 21
65.78430063732739
 31
0.0
  0
LINE
  5
45F
  8
0
  6
CONTINUOUS
 62
     7
 10
-273.2166273323085
 20
78.49033455336946
 30
0.0
 11
-273.2317688472622
 21
78.50895658145205
 31
0.0
  0
LINE
  5
460
  8
0
  6
CONTINUOUS
 62
     7
 10
-273.2023968968342
 20
78.47100736756245
 30
0.0
 11
-273.2166273323085
 21
78.49033455336946
 31
0.0
  0
LINE
  5
461
  8
0
  6
CONTINUOUS
 62
     7
 10
-273.1552086991307
 20
78.38755990700925
 30
0.0
 11
-273.1654890175984
 21
78.40924770213013
 31
0.0
  0
LINE
  5
462
  8
0
  6
CONTINUOUS
 62
     7
 10
-273.4471517746621
 20
78.65633366819378
 30
0.0
 11
-273.4699936807056
 21
78.66370202847969
 31
0.0
  0
LINE
  5
463
  8
0
  6
CONTINUOUS
 62
     7
 10
-273.1199839715722
 20
78.27313047458769
 30
0.0
 11
-273.1248136251742
 21
78.29664046929395
 31
0.0
  0
LINE
  5
464
  8
0
  6
CONTINUOUS
 62
     7
 10
-274.627297620401
 20
78.31989161262422
 30
0.0
 11
-274.6332499089389
 21
78.29664046929395
 31
0.0
  0
LINE
  5
465
  8
0
  6
CONTINUOUS
 62
     7
 10
-274.4934199926088
 20
78.54391525398506
 30
0.0
 11
-274.510276981218
 21
78.52683054327537
 31
0.0
  0
LINE
  5
466
  8
0
  6
CONTINUOUS
 62
     7
 10
-273.2317688472622
 20
78.50895658145205
 30
0.0
 11
-273.2477865528951
 21
78.52683054327537
 31
0.0
  0
LINE
  5
467
  8
0
  6
CONTINUOUS
 62
     7
 10
-273.3007181570356
 20
78.57556136624308
 30
0.0
 11
-273.3198526614917
 21
78.59004984940117
 31
0.0
  0
LINE
  5
468
  8
0
  6
CONTINUOUS
 62
     7
 10
-274.3769519903584
 20
78.62778308631354
 30
0.0
 11
-274.3979678156056
 21
78.61619082621556
 31
0.0
  0
LINE
  5
469
  8
0
  6
CONTINUOUS
 62
     7
 10
-273.5880359332641
 20
78.68372459192237
 30
0.0
 11
-273.6120299653699
 21
78.68430063732738
 31
0.0
  0
LINE
  5
46A
  8
0
  6
CONTINUOUS
 62
     7
 10
-274.3979678156056
 20
78.61619082621556
 30
0.0
 11
-274.4184031385918
 21
78.60360341268245
 31
0.0
  0
LINE
  5
46B
  8
0
  6
CONTINUOUS
 62
     7
 10
-337.3703429776515
 20
79.98430063732738
 30
0.0
 11
-348.3877205564616
 21
79.98430063732738
 31
0.0
  0
LINE
  5
46C
  8
0
  6
CONTINUOUS
 62
     7
 10
-304.4139773166053
 20
74.98430063732738
 30
0.0
 11
-318.5180058870823
 21
74.98430063732738
 31
0.0
  0
LINE
  5
46D
  8
0
  6
CONTINUOUS
 62
     7
 10
-314.5830651344822
 20
64.81954924997255
 30
0.0
 11
-315.0943780230731
 21
64.05979846560324
 31
0.0
  0
LINE
  5
46E
  8
0
  6
CONTINUOUS
 62
     7
 10
-212.4139773166054
 20
74.98430063732738
 30
0.0
 11
-243.3440862175078
 21
74.98430063732738
 31
0.0
  0
ARC
  5
46F
  8
0
  6
CONTINUOUS
 62
     7
 10
-243.3440862175078
 20
75.98430063732738
 30
0.0
 40
1.000000000000001
 50
180.5000000000001
 51
270.0
  0
ARC
  5
470
  8
0
  6
CONTINUOUS
 62
     7
 10
-330.3790317670565
 20
62.78430063732737
 30
0.0
 40
3.000000000000001
 50
90.0
 51
180.0
  0
ARC
  5
471
  8
0
  6
CONTINUOUS
 62
     7
 10
-304.4139773166053
 20
75.98430063732738
 30
0.0
 40
1.000000000000001
 50
270.0
 51
359.5000000000001
  0
ARC
  5
472
  8
0
  6
CONTINUOUS
 62
     7
 10
-289.3440862175078
 20
75.98430063732738
 30
0.0
 40
1.000000000000001
 50
180.5000000000001
 51
269.9999999999984
  0
ARC
  5
473
  8
0
  6
CONTINUOUS
 62
     7
 10
-272.5180058870823
 20
75.48430063732738
 30
0.0
 40
0.4999999999999921
 50
181.9817622529559
 51
270.0
  0
LINE
  5
474
  8
0
  6
CONTINUOUS
 62
     7
 10
-319.6120299653699
 20
78.68430063732738
 30
0.0
 11
-320.1460335687432
 21
78.68430063732738
 31
0.0
  0
LINE
  5
475
  8
0
  6
CONTINUOUS
 62
     7
 10
-320.5689532037655
 20
78.45101955737728
 30
0.0
 11
-320.5812652866024
 21
78.43041717835881
 31
0.0
  0
ARC
  5
476
  8
0
  6
CONTINUOUS
 62
     7
 10
-335.3440862175078
 20
75.98430063732738
 30
0.0
 40
1.000000000000001
 50
180.5000000000001
 51
270.0
  0
ARC
  5
477
  8
0
  6
CONTINUOUS
 62
     7
 10
-181.2509202166967
 20
75.48430063732738
 30
0.0
 40
0.5000000000000004
 50
270.0000000000015
 51
357.1533830841839
  0
LINE
  5
478
  8
0
  6
CONTINUOUS
 62
     7
 10
-320.6028548349824
 20
78.38755990700925
 30
0.0
 11
-320.6120825542849
 21
78.36540376561507
 31
0.0
  0
LINE
  5
479
  8
0
  6
CONTINUOUS
 62
     7
 10
-320.2880698534075
 20
78.66370202847968
 30
0.0
 11
-320.310911759451
 21
78.65633366819378
 31
0.0
  0
ARC
  5
47A
  8
0
  6
CONTINUOUS
 62
     7
 10
-321.2400576470308
 20
75.48430063732738
 30
0.0
 40
0.5000000000000198
 50
270.0
 51
358.0182377470441
  0
LINE
  5
47B
  8
0
  6
CONTINUOUS
 62
     7
 10
-355.3790317670565
 20
65.78430063732739
 30
0.0
 11
-358.3790317670565
 21
65.78430063732739
 31
0.0
  0
LINE
  5
47C
  8
0
  6
CONTINUOUS
 62
     7
 10
-263.3790317670565
 20
65.78430063732739
 30
0.0
 11
-266.3790317670565
 21
65.78430063732739
 31
0.0
  0
ARC
  5
47D
  8
0
  6
CONTINUOUS
 62
     7
 10
-258.4139773166054
 20
75.98430063732738
 30
0.0
 40
1.000000000000001
 50
270.0
 51
359.5000000000001
  0
ARC
  5
47E
  8
0
  6
CONTINUOUS
 62
     7
 10
-350.4139773166054
 20
75.98430063732738
 30
0.0
 40
1.000000000000001
 50
270.0
 51
359.5000000000001
  0
LINE
  5
47F
  8
0
  6
CONTINUOUS
 62
     7
 10
-275.2400576470308
 20
74.98430063732738
 30
0.0
 11
-289.3440862175078
 21
74.98430063732738
 31
0.0
  0
LINE
  5
480
  8
0
  6
CONTINUOUS
 62
     7
 10
-258.4139773166054
 20
74.98430063732738
 30
0.0
 11
-272.5180058870823
 21
74.98430063732738
 31
0.0
  0
ARC
  5
481
  8
0
  6
CONTINUOUS
 62
     7
 10
-281.3790317670565
 20
62.78430063732737
 30
0.0
 40
3.000000000000001
 50
42.72000328171347
 51
90.00000000000001
  0
ARC
  5
482
  8
0
  6
CONTINUOUS
 62
     7
 10
-337.3703429776515
 20
78.98430063732738
 30
0.0
 40
1.000000000000001
 50
0.5000000000000812
 51
90.0
  0
ARC
  5
483
  8
0
  6
CONTINUOUS
 62
     7
 10
-291.3703429776515
 20
78.98430063732738
 30
0.0
 40
1.000000000000001
 50
0.5000000000000812
 51
90.0
  0
ARC
  5
484
  8
0
  6
CONTINUOUS
 62
     7
 10
-275.2400576470308
 20
75.48430063732738
 30
0.0
 40
0.4999999999999921
 50
270.0
 51
358.0182377470441
  0
LINE
  5
485
  8
0
  6
CONTINUOUS
 62
     7
 10
-320.1460335687432
 20
78.68430063732738
 30
0.0
 11
-320.170027600849
 21
78.68372459192237
 31
0.0
  0
LINE
  5
486
  8
0
  6
CONTINUOUS
 62
     7
 10
-320.4757625625867
 20
78.56017134730479
 30
0.0
 11
-320.4934199926088
 21
78.54391525398506
 31
0.0
  0
LINE
  5
487
  8
0
  6
CONTINUOUS
 62
     7
 10
-324.6636855110399
 20
64.05979846560325
 30
0.0
 11
-325.1749983996308
 21
64.81954924997255
 31
0.0
  0
LINE
  5
488
  8
0
  6
CONTINUOUS
 62
     7
 10
-320.5414362018046
 20
78.49033455336946
 30
0.0
 11
-320.5556666372788
 21
78.47100736756245
 31
0.0
  0
ARC
  5
489
  8
0
  6
CONTINUOUS
 62
     7
 10
-212.4139773166054
 20
75.98430063732738
 30
0.0
 40
1.000000000000001
 50
270.0
 51
359.5000000000001
  0
LINE
  5
48A
  8
0
  6
CONTINUOUS
 62
     7
 10
-321.2400576470308
 20
74.98430063732738
 30
0.0
 11
-335.3440862175078
 21
74.98430063732738
 31
0.0
  0
LINE
  5
48B
  8
0
  6
CONTINUOUS
 62
     7
 10
-268.5830651344822
 20
64.81954924997255
 30
0.0
 11
-269.0943780230731
 21
64.05979846560322
 31
0.0
  0
ARC
  5
48C
  8
0
  6
CONTINUOUS
 62
     7
 10
-318.5180058870823
 20
75.48430063732738
 30
0.0
 40
0.5000000000000198
 50
181.9817622529559
 51
270.0
  0
LINE
  5
48D
  8
0
  6
CONTINUOUS
 62
     7
 10
-320.3769519903583
 20
78.62778308631354
 30
0.0
 11
-320.3979678156056
 21
78.61619082621556
 31
0.0
  0
LINE
  5
48E
  8
0
  6
CONTINUOUS
 62
   253
 10
-304.050628489599
 20
138.6176948690676
 30
0.0
 11
-304.0678315372498
 21
138.6023016335042
 31
0.0
  0
LINE
  5
48F
  8
0
  6
CONTINUOUS
 62
   253
 10
-304.3251204653761
 20
138.4829230509467
 30
0.0
 11
-304.3492426410957
 21
138.4791419418317
 31
0.0
  0
LINE
  5
490
  8
0
  6
CONTINUOUS
 62
   253
 10
-289.4088208930175
 20
138.4791419418317
 30
0.0
 11
-289.4329430687371
 21
138.4829230509467
 31
0.0
  0
LINE
  5
491
  8
0
  6
CONTINUOUS
 62
   253
 10
-304.0188582428316
 20
138.6505152961832
 30
0.0
 11
-304.03429108405
 21
138.6337788627941
 31
0.0
  0
LINE
  5
492
  8
0
  6
CONTINUOUS
 62
   253
 10
-258.3735190406807
 20
212.9733562126237
 30
0.0
 11
-258.3492426410957
 21
212.9705959501109
 31
0.0
  0
LINE
  5
493
  8
0
  6
CONTINUOUS
 62
   253
 10
-257.9668737377726
 20
212.7265712196428
 30
0.0
 11
-257.9564691732178
 21
212.707198372342
 31
0.0
  0
LINE
  5
494
  8
0
  6
CONTINUOUS
 62
   253
 10
-258.03429108405
 20
138.6337788627941
 30
0.0
 11
-258.050628489599
 21
138.6176948690676
 31
0.0
  0
LINE
  5
495
  8
0
  6
CONTINUOUS
 62
   253
 10
-258.2775681558444
 20
138.4935093659281
 30
0.0
 11
-258.3012099821838
 21
138.487715998551
 31
0.0
  0
LINE
  5
496
  8
0
  6
CONTINUOUS
 62
   253
 10
-257.9318813976407
 20
212.6469090491299
 30
0.0
 11
-257.9259592035468
 21
212.6262486194841
 31
0.0
  0
LINE
  5
497
  8
0
  6
CONTINUOUS
 62
   253
 10
-258.2088138572047
 20
212.9329956405134
 30
0.0
 11
-258.1868014991533
 21
212.9233619224634
 31
0.0
  0
LINE
  5
498
  8
0
  6
CONTINUOUS
 62
   253
 10
-257.9211996636126
 20
212.6053877161806
 30
0.0
 11
-257.9176141169644
 21
212.5843760382273
 31
0.0
  0
LINE
  5
499
  8
0
  6
CONTINUOUS
 62
   253
 10
-289.6722042916444
 20
138.5876358289421
 30
0.0
 11
-289.6902319968634
 21
138.6023016335042
 31
0.0
  0
LINE
  5
49A
  8
0
  6
CONTINUOUS
 62
   253
 10
-258.0043667331386
 20
138.6678642963628
 30
0.0
 11
-258.0188582428316
 21
138.6505152961832
 31
0.0
  0
LINE
  5
49B
  8
0
  6
CONTINUOUS
 62
   253
 10
-289.3845444934325
 20
138.4763816793188
 30
0.0
 11
-289.4088208930175
 21
138.4791419418317
 31
0.0
  0
LINE
  5
49C
  8
0
  6
CONTINUOUS
 62
   253
 10
-258.050628489599
 20
138.6176948690676
 30
0.0
 11
-258.0678315372498
 21
138.6023016335042
 31
0.0
  0
LINE
  5
49D
  8
0
  6
CONTINUOUS
 62
   253
 10
-257.9564691732178
 20
212.707198372342
 30
0.0
 11
-257.9471545758831
 21
212.6874321967242
 31
0.0
  0
LINE
  5
49E
  8
0
  6
CONTINUOUS
 62
   253
 10
-289.4329430687371
 20
138.4829230509467
 30
0.0
 11
-289.4568535519294
 21
138.487715998551
 31
0.0
  0
LINE
  5
49F
  8
0
  6
CONTINUOUS
 62
   253
 10
-289.4568535519294
 20
138.487715998551
 30
0.0
 11
-289.4804953782688
 21
138.4935093659281
 31
0.0
  0
LINE
  5
4A0
  8
0
  6
CONTINUOUS
 62
   253
 10
-258.3251204653761
 20
138.4829230509467
 30
0.0
 11
-258.3492426410957
 21
138.4791419418317
 31
0.0
  0
LINE
  5
4A1
  8
0
  6
CONTINUOUS
 62
   253
 10
-289.5038122234774
 20
138.5002893509619
 30
0.0
 11
-289.5267485375124
 21
138.5080398010186
 31
0.0
  0
LINE
  5
4A2
  8
0
  6
CONTINUOUS
 62
   253
 10
-304.1653303646798
 20
138.5369180038026
 30
0.0
 11
-304.1868014991533
 21
138.5263759694792
 31
0.0
  0
LINE
  5
4A3
  8
0
  6
CONTINUOUS
 62
   253
 10
-304.0043667331386
 20
138.6678642963628
 30
0.0
 11
-304.0188582428316
 21
138.6505152961832
 31
0.0
  0
LINE
  5
4A4
  8
0
  6
CONTINUOUS
 62
   253
 10
-258.1868014991533
 20
212.9233619224634
 30
0.0
 11
-258.1653303646798
 21
212.9128198881401
 31
0.0
  0
LINE
  5
4A5
  8
0
  6
CONTINUOUS
 62
   253
 10
-258.0188582428316
 20
212.7992225957594
 30
0.0
 11
-258.0043667331386
 21
212.7818735955798
 31
0.0
  0
LINE
  5
4A6
  8
0
  6
CONTINUOUS
 62
   253
 10
-303.9318813976407
 20
138.8028288428127
 30
0.0
 11
-303.9389521368616
 21
138.782418108224
 31
0.0
  0
LINE
  5
4A7
  8
0
  6
CONTINUOUS
 62
   253
 10
-303.9783434817172
 20
138.7042333071796
 30
0.0
 11
-303.9908510795378
 21
138.6857845310817
 31
0.0
  0
LINE
  5
4A8
  8
0
  6
CONTINUOUS
 62
   253
 10
-258.2542513106358
 20
138.5002893509619
 30
0.0
 11
-258.2775681558444
 21
138.4935093659281
 31
0.0
  0
LINE
  5
4A9
  8
0
  6
CONTINUOUS
 62
   253
 10
-303.9668737377726
 20
138.7231666722998
 30
0.0
 11
-303.9783434817172
 21
138.7042333071796
 31
0.0
  0
LINE
  5
4AA
  8
0
  6
CONTINUOUS
 62
   253
 10
-258.1242149664778
 20
138.560624455778
 30
0.0
 11
-258.1444516066063
 21
138.5483432390608
 31
0.0
  0
LINE
  5
4AB
  8
0
  6
CONTINUOUS
 62
   253
 10
-258.104668656058
 20
138.5737323951884
 30
0.0
 11
-258.1242149664778
 21
138.560624455778
 31
0.0
  0
LINE
  5
4AC
  8
0
  6
CONTINUOUS
 62
   253
 10
-304.1046686560579
 20
138.5737323951884
 30
0.0
 11
-304.1242149664778
 21
138.560624455778
 31
0.0
  0
LINE
  5
4AD
  8
0
  6
CONTINUOUS
 62
   253
 10
-258.0678315372498
 20
138.6023016335042
 30
0.0
 11
-258.0858592424688
 21
138.5876358289421
 31
0.0
  0
LINE
  5
4AE
  8
0
  6
CONTINUOUS
 62
   253
 10
-258.1444516066063
 20
138.5483432390608
 30
0.0
 11
-258.1653303646798
 21
138.5369180038026
 31
0.0
  0
LINE
  5
4AF
  8
0
  6
CONTINUOUS
 62
   253
 10
-258.0858592424688
 20
138.5876358289421
 30
0.0
 11
-258.104668656058
 21
138.5737323951884
 31
0.0
  0
LINE
  5
4B0
  8
0
  6
CONTINUOUS
 62
   253
 10
-303.9176141169644
 20
138.8653618537153
 30
0.0
 11
-303.9211996636126
 21
138.844350175762
 31
0.0
  0
LINE
  5
4B1
  8
0
  6
CONTINUOUS
 62
   253
 10
-257.9471545758831
 20
138.7623056952184
 30
0.0
 11
-257.9564691732178
 21
138.7425395196006
 31
0.0
  0
LINE
  5
4B2
  8
0
  6
CONTINUOUS
 62
   253
 10
-258.2313149966008
 20
138.5080398010186
 30
0.0
 11
-258.2542513106358
 21
138.5002893509619
 31
0.0
  0
LINE
  5
4B3
  8
0
  6
CONTINUOUS
 62
   253
 10
-304.3012099821837
 20
138.487715998551
 30
0.0
 11
-304.3251204653761
 21
138.4829230509467
 31
0.0
  0
LINE
  5
4B4
  8
0
  6
CONTINUOUS
 62
   253
 10
-304.1444516066063
 20
138.5483432390608
 30
0.0
 11
-304.1653303646798
 21
138.5369180038026
 31
0.0
  0
LINE
  5
4B5
  8
0
  6
CONTINUOUS
 62
   253
 10
-258.1242149664778
 20
212.8891134361646
 30
0.0
 11
-258.104668656058
 21
212.8760054967543
 31
0.0
  0
LINE
  5
4B6
  8
0
  6
CONTINUOUS
 62
   253
 10
-289.6533948780552
 20
138.5737323951884
 30
0.0
 11
-289.6722042916444
 21
138.5876358289421
 31
0.0
  0
LINE
  5
4B7
  8
0
  6
CONTINUOUS
 62
   253
 10
-258.1868014991533
 20
138.5263759694792
 30
0.0
 11
-258.2088138572047
 21
138.5167422514292
 31
0.0
  0
LINE
  5
4B8
  8
0
  6
CONTINUOUS
 62
   253
 10
-258.050628489599
 20
212.832043022875
 30
0.0
 11
-258.03429108405
 21
212.8159590291485
 31
0.0
  0
LINE
  5
4B9
  8
0
  6
CONTINUOUS
 62
   253
 10
-257.9564691732178
 20
138.7425395196006
 30
0.0
 11
-257.9668737377726
 21
138.7231666722998
 31
0.0
  0
LINE
  5
4BA
  8
0
  6
CONTINUOUS
 62
   253
 10
-304.0858592424688
 20
138.5876358289421
 30
0.0
 11
-304.1046686560579
 21
138.5737323951884
 31
0.0
  0
LINE
  5
4BB
  8
0
  6
CONTINUOUS
 62
   253
 10
-257.9211996636126
 20
138.844350175762
 30
0.0
 11
-257.9259592035468
 21
138.8234892724585
 31
0.0
  0
LINE
  5
4BC
  8
0
  6
CONTINUOUS
 62
   253
 10
-304.1242149664778
 20
138.560624455778
 30
0.0
 11
-304.1444516066063
 21
138.5483432390608
 31
0.0
  0
LINE
  5
4BD
  8
0
  6
CONTINUOUS
 62
   253
 10
-304.0678315372498
 20
138.6023016335042
 30
0.0
 11
-304.0858592424688
 21
138.5876358289421
 31
0.0
  0
LINE
  5
4BE
  8
0
  6
CONTINUOUS
 62
   253
 10
-304.2775681558444
 20
138.4935093659281
 30
0.0
 11
-304.3012099821837
 21
138.487715998551
 31
0.0
  0
LINE
  5
4BF
  8
0
  6
CONTINUOUS
 62
   253
 10
-258.03429108405
 20
212.8159590291485
 30
0.0
 11
-258.0188582428316
 21
212.7992225957594
 31
0.0
  0
LINE
  5
4C0
  8
0
  6
CONTINUOUS
 62
   253
 10
-289.6136119275069
 20
138.5483432390608
 30
0.0
 11
-289.6338485676354
 21
138.560624455778
 31
0.0
  0
LINE
  5
4C1
  8
0
  6
CONTINUOUS
 62
   253
 10
-258.1444516066063
 20
212.9013946528818
 30
0.0
 11
-258.1242149664778
 21
212.8891134361646
 31
0.0
  0
LINE
  5
4C2
  8
0
  6
CONTINUOUS
 62
   253
 10
-258.3012099821838
 20
212.9620218933916
 30
0.0
 11
-258.2775681558444
 21
212.9562285260145
 31
0.0
  0
LINE
  5
4C3
  8
0
  6
CONTINUOUS
 62
   253
 10
-289.6338485676354
 20
138.560624455778
 30
0.0
 11
-289.6533948780552
 21
138.5737323951884
 31
0.0
  0
LINE
  5
4C4
  8
0
  6
CONTINUOUS
 62
   253
 10
-258.0043667331386
 20
212.7818735955798
 30
0.0
 11
-257.9908510795378
 21
212.763953360861
 31
0.0
  0
LINE
  5
4C5
  8
0
  6
CONTINUOUS
 62
   253
 10
-258.2088138572047
 20
138.5167422514292
 30
0.0
 11
-258.2313149966008
 21
138.5080398010186
 31
0.0
  0
LINE
  5
4C6
  8
0
  6
CONTINUOUS
 62
   253
 10
-257.9259592035468
 20
138.8234892724585
 30
0.0
 11
-257.9318813976407
 21
138.8028288428127
 31
0.0
  0
LINE
  5
4C7
  8
0
  6
CONTINUOUS
 62
   253
 10
-304.03429108405
 20
138.6337788627941
 30
0.0
 11
-304.050628489599
 21
138.6176948690676
 31
0.0
  0
LINE
  5
4C8
  8
0
  6
CONTINUOUS
 62
   253
 10
-304.2088138572047
 20
138.5167422514292
 30
0.0
 11
-304.2313149966007
 21
138.5080398010186
 31
0.0
  0
LINE
  5
4C9
  8
0
  6
CONTINUOUS
 62
   253
 10
-303.9389521368616
 20
138.782418108224
 30
0.0
 11
-303.9471545758832
 21
138.7623056952184
 31
0.0
  0
LINE
  5
4CA
  8
0
  6
CONTINUOUS
 62
   253
 10
-257.9176141169644
 20
138.8653618537153
 30
0.0
 11
-257.9211996636126
 21
138.844350175762
 31
0.0
  0
LINE
  5
4CB
  8
0
  6
CONTINUOUS
 62
   253
 10
-243.3845444934325
 20
138.4763816793188
 30
0.0
 11
-243.4088208930175
 21
138.4791419418317
 31
0.0
  0
LINE
  5
4CC
  8
0
  6
CONTINUOUS
 62
   253
 10
-243.360171706067
 20
138.4746488394565
 30
0.0
 11
-243.3845444934325
 21
138.4763816793188
 31
0.0
  0
LINE
  5
4CD
  8
0
  6
CONTINUOUS
 62
   253
 10
-303.9257331529344
 20
219.8290401371943
 30
0.0
 11
-303.9719386463642
 21
219.9154771685644
 31
0.0
  0
LINE
  5
4CE
  8
0
  6
CONTINUOUS
 62
   253
 10
-258.1653303646798
 20
212.9128198881401
 30
0.0
 11
-258.1444516066063
 21
212.9013946528818
 31
0.0
  0
LINE
  5
4CF
  8
0
  6
CONTINUOUS
 62
   253
 10
-257.9259592035468
 20
212.6262486194841
 30
0.0
 11
-257.9211996636126
 21
212.6053877161806
 31
0.0
  0
LINE
  5
4D0
  8
0
  6
CONTINUOUS
 62
   253
 10
-257.915211105807
 20
212.5632636438374
 30
0.0
 11
-257.9139963550733
 21
212.542100831171
 31
0.0
  0
LINE
  5
4D1
  8
0
  6
CONTINUOUS
 62
   253
 10
-258.2775681558444
 20
212.9562285260145
 30
0.0
 11
-258.2542513106358
 21
212.9494485409807
 31
0.0
  0
LINE
  5
4D2
  8
0
  6
CONTINUOUS
 62
   253
 10
-243.4804953782688
 20
138.4935093659281
 30
0.0
 11
-243.5038122234774
 21
138.5002893509619
 31
0.0
  0
LINE
  5
4D3
  8
0
  6
CONTINUOUS
 62
   253
 10
-243.5492496769085
 20
138.5167422514292
 30
0.0
 11
-243.5712620349598
 21
138.5263759694792
 31
0.0
  0
LINE
  5
4D4
  8
0
  6
CONTINUOUS
 62
   253
 10
-289.8015943608954
 20
138.7425395196006
 30
0.0
 11
-289.81090895823
 21
138.7623056952184
 31
0.0
  0
LINE
  5
4D5
  8
0
  6
CONTINUOUS
 62
   253
 10
-335.5617447683964
 20
220.0996257499766
 30
0.0
 11
-335.6481817997665
 21
220.0534202565469
 31
0.0
  0
LINE
  5
4D6
  8
0
  6
CONTINUOUS
 62
   253
 10
-197.6481817997665
 20
131.3963176353957
 30
0.0
 11
-197.5617447683965
 21
131.350112141966
 31
0.0
  0
LINE
  5
4D7
  8
0
  6
CONTINUOUS
 62
   253
 10
-258.3492426410957
 20
138.4791419418317
 30
0.0
 11
-258.3735190406807
 21
138.4763816793188
 31
0.0
  0
LINE
  5
4D8
  8
0
  6
CONTINUOUS
 62
   253
 10
-289.7536968009746
 20
138.6678642963628
 30
0.0
 11
-289.7672124545754
 21
138.6857845310817
 31
0.0
  0
LINE
  5
4D9
  8
0
  6
CONTINUOUS
 62
   253
 10
-258.104668656058
 20
212.8760054967543
 30
0.0
 11
-258.0858592424688
 21
212.8621020630005
 31
0.0
  0
LINE
  5
4DA
  8
0
  6
CONTINUOUS
 62
   253
 10
-289.7392052912815
 20
138.6505152961832
 30
0.0
 11
-289.7536968009746
 21
138.6678642963628
 31
0.0
  0
LINE
  5
4DB
  8
0
  6
CONTINUOUS
 62
   253
 10
-289.7672124545754
 20
138.6857845310817
 30
0.0
 11
-289.779720052396
 21
138.7042333071796
 31
0.0
  0
LINE
  5
4DC
  8
0
  6
CONTINUOUS
 62
   253
 10
-243.5267485375125
 20
138.5080398010186
 30
0.0
 11
-243.5492496769085
 21
138.5167422514292
 31
0.0
  0
LINE
  5
4DD
  8
0
  6
CONTINUOUS
 62
   253
 10
-258.3012099821838
 20
138.487715998551
 30
0.0
 11
-258.3251204653761
 21
138.4829230509467
 31
0.0
  0
LINE
  5
4DE
  8
0
  6
CONTINUOUS
 62
   253
 10
-243.6338485676353
 20
138.560624455778
 30
0.0
 11
-243.6533948780553
 21
138.5737323951884
 31
0.0
  0
LINE
  5
4DF
  8
0
  6
CONTINUOUS
 62
   253
 10
-258.2313149966008
 20
212.941698090924
 30
0.0
 11
-258.2088138572047
 21
212.9329956405134
 31
0.0
  0
LINE
  5
4E0
  8
0
  6
CONTINUOUS
 62
   253
 10
-289.779720052396
 20
138.7042333071796
 30
0.0
 11
-289.7911897963406
 21
138.7231666722998
 31
0.0
  0
LINE
  5
4E1
  8
0
  6
CONTINUOUS
 62
   253
 10
-289.7237724500632
 20
138.6337788627941
 30
0.0
 11
-289.7392052912815
 21
138.6505152961832
 31
0.0
  0
LINE
  5
4E2
  8
0
  6
CONTINUOUS
 62
   253
 10
-303.9719386463642
 20
219.9154771685644
 30
0.0
 11
-304.0341179349185
 21
219.9912409679925
 31
0.0
  0
LINE
  5
4E3
  8
0
  6
CONTINUOUS
 62
   253
 10
-350.1963187657167
 20
131.350112141966
 30
0.0
 11
-350.1098817343466
 21
131.3963176353957
 31
0.0
  0
LINE
  5
4E4
  8
0
  6
CONTINUOUS
 62
   253
 10
-289.7911897963406
 20
138.7231666722998
 30
0.0
 11
-289.8015943608954
 21
138.7425395196006
 31
0.0
  0
LINE
  5
4E5
  8
0
  6
CONTINUOUS
 62
   253
 10
-243.6533948780553
 20
138.5737323951884
 30
0.0
 11
-243.6722042916444
 21
138.5876358289421
 31
0.0
  0
LINE
  5
4E6
  8
0
  6
CONTINUOUS
 62
   253
 10
-289.8404494171488
 20
138.8653618537153
 30
0.0
 11
-289.8428524283062
 21
138.8864742481052
 31
0.0
  0
LINE
  5
4E7
  8
0
  6
CONTINUOUS
 62
   253
 10
-257.9176141169644
 20
212.5843760382273
 30
0.0
 11
-257.915211105807
 21
212.5632636438374
 31
0.0
  0
LINE
  5
4E8
  8
0
  6
CONTINUOUS
 62
   253
 10
-257.9389521368616
 20
212.6673197837186
 30
0.0
 11
-257.9318813976407
 21
212.6469090491299
 31
0.0
  0
LINE
  5
4E9
  8
0
  6
CONTINUOUS
 62
   253
 10
-258.0858592424688
 20
212.8621020630005
 30
0.0
 11
-258.0678315372498
 21
212.8474362584384
 31
0.0
  0
LINE
  5
4EA
  8
0
  6
CONTINUOUS
 62
   253
 10
-258.2542513106358
 20
212.9494485409807
 30
0.0
 11
-258.2313149966008
 21
212.941698090924
 31
0.0
  0
LINE
  5
4EB
  8
0
  6
CONTINUOUS
 62
   253
 10
-257.9783434817171
 20
212.745504584763
 30
0.0
 11
-257.9668737377726
 21
212.7265712196428
 31
0.0
  0
LINE
  5
4EC
  8
0
  6
CONTINUOUS
 62
   253
 10
-289.7074350445142
 20
138.6176948690676
 30
0.0
 11
-289.7237724500632
 21
138.6337788627941
 31
0.0
  0
LINE
  5
4ED
  8
0
  6
CONTINUOUS
 62
   253
 10
-243.6902319968633
 20
138.6023016335042
 30
0.0
 11
-243.7074350445142
 21
138.6176948690676
 31
0.0
  0
LINE
  5
4EE
  8
0
  6
CONTINUOUS
 62
   253
 10
-289.8191113972516
 20
138.782418108224
 30
0.0
 11
-289.8261821364725
 21
138.8028288428127
 31
0.0
  0
LINE
  5
4EF
  8
0
  6
CONTINUOUS
 62
   253
 10
-289.8368638705006
 20
138.844350175762
 30
0.0
 11
-289.8404494171488
 21
138.8653618537153
 31
0.0
  0
LINE
  5
4F0
  8
0
  6
CONTINUOUS
 62
   253
 10
-243.6136119275069
 20
138.5483432390608
 30
0.0
 11
-243.6338485676353
 21
138.560624455778
 31
0.0
  0
LINE
  5
4F1
  8
0
  6
CONTINUOUS
 62
   253
 10
-289.4804953782688
 20
138.4935093659281
 30
0.0
 11
-289.5038122234774
 21
138.5002893509619
 31
0.0
  0
LINE
  5
4F2
  8
0
  6
CONTINUOUS
 62
   253
 10
-289.81090895823
 20
138.7623056952184
 30
0.0
 11
-289.8191113972516
 21
138.782418108224
 31
0.0
  0
LINE
  5
4F3
  8
0
  6
CONTINUOUS
 62
   253
 10
-257.9908510795378
 20
212.763953360861
 30
0.0
 11
-257.9783434817171
 21
212.745504584763
 31
0.0
  0
LINE
  5
4F4
  8
0
  6
CONTINUOUS
 62
   253
 10
-289.8321043305664
 20
138.8234892724585
 30
0.0
 11
-289.8368638705006
 21
138.844350175762
 31
0.0
  0
LINE
  5
4F5
  8
0
  6
CONTINUOUS
 62
   253
 10
-243.4568535519294
 20
138.487715998551
 30
0.0
 11
-243.4804953782688
 21
138.4935093659281
 31
0.0
  0
LINE
  5
4F6
  8
0
  6
CONTINUOUS
 62
   253
 10
-258.0678315372498
 20
212.8474362584384
 30
0.0
 11
-258.050628489599
 21
212.832043022875
 31
0.0
  0
LINE
  5
4F7
  8
0
  6
CONTINUOUS
 62
   253
 10
-258.3978918280463
 20
212.9750890524861
 30
0.0
 11
-258.3735190406807
 21
212.9733562126237
 31
0.0
  0
LINE
  5
4F8
  8
0
  6
CONTINUOUS
 62
   253
 10
-258.3251204653761
 20
212.9668148409959
 30
0.0
 11
-258.3012099821838
 21
212.9620218933916
 31
0.0
  0
LINE
  5
4F9
  8
0
  6
CONTINUOUS
 62
   253
 10
-289.5927331694334
 20
138.5369180038026
 30
0.0
 11
-289.6136119275069
 21
138.5483432390608
 31
0.0
  0
LINE
  5
4FA
  8
0
  6
CONTINUOUS
 62
   253
 10
-243.5038122234774
 20
138.5002893509619
 30
0.0
 11
-243.5267485375125
 21
138.5080398010186
 31
0.0
  0
LINE
  5
4FB
  8
0
  6
CONTINUOUS
 62
   253
 10
-258.3492426410957
 20
212.9705959501109
 30
0.0
 11
-258.3251204653761
 21
212.9668148409959
 31
0.0
  0
LINE
  5
4FC
  8
0
  6
CONTINUOUS
 62
   253
 10
-289.5712620349599
 20
138.5263759694792
 30
0.0
 11
-289.5927331694334
 21
138.5369180038026
 31
0.0
  0
LINE
  5
4FD
  8
0
  6
CONTINUOUS
 62
   253
 10
-243.4088208930175
 20
138.4791419418317
 30
0.0
 11
-243.4329430687371
 21
138.4829230509467
 31
0.0
  0
LINE
  5
4FE
  8
0
  6
CONTINUOUS
 62
   253
 10
-289.6902319968634
 20
138.6023016335042
 30
0.0
 11
-289.7074350445142
 21
138.6176948690676
 31
0.0
  0
LINE
  5
4FF
  8
0
  6
CONTINUOUS
 62
   253
 10
-243.7074350445142
 20
138.6176948690676
 30
0.0
 11
-243.7237724500631
 21
138.6337788627941
 31
0.0
  0
LINE
  5
500
  8
0
  6
CONTINUOUS
 62
   253
 10
-243.5712620349598
 20
138.5263759694792
 30
0.0
 11
-243.5927331694334
 21
138.5369180038026
 31
0.0
  0
LINE
  5
501
  8
0
  6
CONTINUOUS
 62
   253
 10
-258.3735190406807
 20
138.4763816793188
 30
0.0
 11
-258.3978918280463
 21
138.4746488394565
 31
0.0
  0
LINE
  5
502
  8
0
  6
CONTINUOUS
 62
   253
 10
-289.8261821364725
 20
138.8028288428127
 30
0.0
 11
-289.8321043305664
 21
138.8234892724585
 31
0.0
  0
LINE
  5
503
  8
0
  6
CONTINUOUS
 62
   253
 10
-257.9471545758831
 20
212.6874321967242
 30
0.0
 11
-257.9389521368616
 21
212.6673197837186
 31
0.0
  0
LINE
  5
504
  8
0
  6
CONTINUOUS
 62
   253
 10
-243.6722042916444
 20
138.5876358289421
 30
0.0
 11
-243.6902319968633
 21
138.6023016335042
 31
0.0
  0
LINE
  5
505
  8
0
  6
CONTINUOUS
 62
   253
 10
-289.5267485375124
 20
138.5080398010186
 30
0.0
 11
-289.5492496769085
 21
138.5167422514292
 31
0.0
  0
LINE
  5
506
  8
0
  6
CONTINUOUS
 62
   253
 10
-289.5492496769085
 20
138.5167422514292
 30
0.0
 11
-289.5712620349599
 21
138.5263759694792
 31
0.0
  0
LINE
  5
507
  8
0
  6
CONTINUOUS
 62
   253
 10
-289.3601717060669
 20
138.4746488394565
 30
0.0
 11
-289.3845444934325
 21
138.4763816793188
 31
0.0
  0
LINE
  5
508
  8
0
  6
CONTINUOUS
 62
   253
 10
-289.8428524283062
 20
138.8864742481052
 30
0.0
 11
-289.8440671790399
 21
138.9076370607717
 31
0.0
  0
LINE
  5
509
  8
0
  6
CONTINUOUS
 62
   253
 10
-243.4329430687371
 20
138.4829230509467
 30
0.0
 11
-243.4568535519294
 21
138.487715998551
 31
0.0
  0
LINE
  5
50A
  8
0
  6
CONTINUOUS
 62
   253
 10
-243.5927331694334
 20
138.5369180038026
 30
0.0
 11
-243.6136119275069
 21
138.5483432390608
 31
0.0
  0
LINE
  5
50B
  8
0
  6
CONTINUOUS
 62
   253
 10
-212.2088138572047
 20
138.5167422514292
 30
0.0
 11
-212.2313149966008
 21
138.5080398010186
 31
0.0
  0
LINE
  5
50C
  8
0
  6
CONTINUOUS
 62
   253
 10
-212.3251204653761
 20
138.4829230509467
 30
0.0
 11
-212.3492426410957
 21
138.4791419418317
 31
0.0
  0
LINE
  5
50D
  8
0
  6
CONTINUOUS
 62
   253
 10
-212.0506284895989
 20
138.6176948690676
 30
0.0
 11
-212.0678315372498
 21
138.6023016335042
 31
0.0
  0
LINE
  5
50E
  8
0
  6
CONTINUOUS
 62
   253
 10
-198.3149378059792
 20
140.100550677432
 30
0.0
 11
-198.4877856523628
 21
140.1928872604734
 31
0.0
  0
LINE
  5
50F
  8
0
  6
CONTINUOUS
 62
   253
 10
-335.8896824461955
 20
211.9848056980467
 30
0.0
 11
-335.8704000930553
 21
212.1796412887435
 31
0.0
  0
LINE
  5
510
  8
0
  6
CONTINUOUS
 62
   253
 10
-199.3703429776516
 20
140.2462648779563
 30
0.0
 11
-210.3877205564616
 21
140.2462648779563
 31
0.0
  0
LINE
  5
511
  8
0
  6
CONTINUOUS
 62
   253
 10
-257.811430927886
 20
211.7974537234372
 30
0.0
 11
-257.7190004110706
 21
211.6247815360362
 31
0.0
  0
LINE
  5
512
  8
0
  6
CONTINUOUS
 62
   253
 10
-336.0390631230425
 20
211.6247815360362
 30
0.0
 11
-335.9466326062271
 21
211.7974537234372
 31
0.0
  0
LINE
  5
513
  8
0
  6
CONTINUOUS
 62
   253
 10
-335.6338485676353
 20
212.8891134361646
 30
0.0
 11
-335.613611927507
 21
212.9013946528818
 31
0.0
  0
LINE
  5
514
  8
0
  6
CONTINUOUS
 62
   253
 10
-335.5038122234774
 20
212.9494485409807
 30
0.0
 11
-335.4804953782688
 21
212.9562285260145
 31
0.0
  0
LINE
  5
515
  8
0
  6
CONTINUOUS
 62
   253
 10
-244.4877856523629
 20
211.2568506314693
 30
0.0
 11
-244.3149378059792
 21
211.3491872145107
 31
0.0
  0
LINE
  5
516
  8
0
  6
CONTINUOUS
 62
   253
 10
-212.2775681558444
 20
138.4935093659281
 30
0.0
 11
-212.3012099821838
 21
138.487715998551
 31
0.0
  0
LINE
  5
517
  8
0
  6
CONTINUOUS
 62
   253
 10
-335.5712620349598
 20
212.9233619224634
 30
0.0
 11
-335.5492496769085
 21
212.9329956405134
 31
0.0
  0
LINE
  5
518
  8
0
  6
CONTINUOUS
 62
   253
 10
-257.8876634410578
 20
212.1796412887435
 30
0.0
 11
-257.8683810879176
 21
211.9848056980467
 31
0.0
  0
LINE
  5
519
  8
0
  6
CONTINUOUS
 62
   253
 10
-335.613611927507
 20
212.9013946528818
 30
0.0
 11
-335.5927331694334
 21
212.9128198881401
 31
0.0
  0
LINE
  5
51A
  8
0
  6
CONTINUOUS
 62
   253
 10
-212.0188582428317
 20
138.6505152961832
 30
0.0
 11
-212.0342910840501
 21
138.6337788627941
 31
0.0
  0
LINE
  5
51B
  8
0
  6
CONTINUOUS
 62
   253
 10
-335.5492496769085
 20
212.9329956405134
 30
0.0
 11
-335.5267485375124
 21
212.941698090924
 31
0.0
  0
LINE
  5
51C
  8
0
  6
CONTINUOUS
 62
   253
 10
-335.5267485375124
 20
212.941698090924
 30
0.0
 11
-335.5038122234774
 21
212.9494485409807
 31
0.0
  0
LINE
  5
51D
  8
0
  6
CONTINUOUS
 62
   253
 10
-211.9259592035468
 20
138.8234892724585
 30
0.0
 11
-211.9318813976407
 21
138.8028288428127
 31
0.0
  0
LINE
  5
51E
  8
0
  6
CONTINUOUS
 62
   253
 10
-211.9668737377726
 20
138.7231666722998
 30
0.0
 11
-211.9783434817171
 21
138.7042333071796
 31
0.0
  0
LINE
  5
51F
  8
0
  6
CONTINUOUS
 62
   253
 10
-256.8877015179937
 20
211.1806955906292
 30
0.0
 11
-256.3877205564616
 21
211.2034730139863
 31
0.0
  0
LINE
  5
520
  8
0
  6
CONTINUOUS
 62
   253
 10
-335.7392052912815
 20
212.7992225957594
 30
0.0
 11
-335.7237724500631
 21
212.8159590291485
 31
0.0
  0
LINE
  5
521
  8
0
  6
CONTINUOUS
 62
   253
 10
-335.7672124545754
 20
212.763953360861
 30
0.0
 11
-335.7536968009746
 21
212.7818735955798
 31
0.0
  0
LINE
  5
522
  8
0
  6
CONTINUOUS
 62
   253
 10
-335.7237724500631
 20
212.8159590291485
 30
0.0
 11
-335.7074350445142
 21
212.832043022875
 31
0.0
  0
LINE
  5
523
  8
0
  6
CONTINUOUS
 62
   253
 10
-212.0043667331386
 20
138.6678642963628
 30
0.0
 11
-212.0188582428317
 21
138.6505152961832
 31
0.0
  0
LINE
  5
524
  8
0
  6
CONTINUOUS
 62
   253
 10
-212.1046686560579
 20
138.5737323951884
 30
0.0
 11
-212.1242149664779
 21
138.560624455778
 31
0.0
  0
LINE
  5
525
  8
0
  6
CONTINUOUS
 62
   253
 10
-211.8876634410579
 20
219.6377145003211
 30
0.0
 11
-211.8876634410579
 21
212.1796412887435
 31
0.0
  0
LINE
  5
526
  8
0
  6
CONTINUOUS
 62
   253
 10
-244.3149378059792
 20
211.3491872145107
 30
0.0
 11
-244.1634237494816
 21
211.4734214577661
 31
0.0
  0
LINE
  5
527
  8
0
  6
CONTINUOUS
 62
   253
 10
-211.9564691732178
 20
138.7425395196006
 30
0.0
 11
-211.9668737377726
 21
138.7231666722998
 31
0.0
  0
LINE
  5
528
  8
0
  6
CONTINUOUS
 62
   253
 10
-211.9176141169644
 20
138.8653618537153
 30
0.0
 11
-211.9211996636127
 21
138.844350175762
 31
0.0
  0
LINE
  5
529
  8
0
  6
CONTINUOUS
 62
   253
 10
-212.3735190406807
 20
138.4763816793188
 30
0.0
 11
-212.3978918280463
 21
138.4746488394565
 31
0.0
  0
LINE
  5
52A
  8
0
  6
CONTINUOUS
 62
   253
 10
-212.0678315372498
 20
138.6023016335042
 30
0.0
 11
-212.0858592424688
 21
138.5876358289421
 31
0.0
  0
LINE
  5
52B
  8
0
  6
CONTINUOUS
 62
   253
 10
-335.9466326062271
 20
211.7974537234372
 30
0.0
 11
-335.8896824461955
 21
211.9848056980467
 31
0.0
  0
LINE
  5
52C
  8
0
  6
CONTINUOUS
 62
   253
 10
-303.9139963550733
 20
138.9076370607717
 30
0.0
 11
-303.915211105807
 21
138.8864742481052
 31
0.0
  0
LINE
  5
52D
  8
0
  6
CONTINUOUS
 62
   253
 10
-211.9389521368616
 20
138.782418108224
 30
0.0
 11
-211.9471545758831
 21
138.7623056952184
 31
0.0
  0
LINE
  5
52E
  8
0
  6
CONTINUOUS
 62
   253
 10
-336.3149378059792
 20
211.3491872145106
 30
0.0
 11
-336.1634237494816
 21
211.4734214577661
 31
0.0
  0
LINE
  5
52F
  8
0
  6
CONTINUOUS
 62
   253
 10
-257.8683810879176
 20
211.9848056980467
 30
0.0
 11
-257.811430927886
 21
211.7974537234372
 31
0.0
  0
LINE
  5
530
  8
0
  6
CONTINUOUS
 62
   253
 10
-336.4877856523628
 20
211.2568506314692
 30
0.0
 11
-336.3149378059792
 21
211.3491872145106
 31
0.0
  0
LINE
  5
531
  8
0
  6
CONTINUOUS
 62
   253
 10
-197.9466326062271
 20
139.6522841685054
 30
0.0
 11
-198.0390631230425
 21
139.8249563559065
 31
0.0
  0
LINE
  5
532
  8
0
  6
CONTINUOUS
 62
   253
 10
-198.1634237494816
 20
139.9763164341765
 30
0.0
 11
-198.3149378059792
 21
140.100550677432
 31
0.0
  0
LINE
  5
533
  8
0
  6
CONTINUOUS
 62
   253
 10
-198.4877856523628
 20
140.1928872604734
 30
0.0
 11
-198.6753282196656
 21
140.2497795441276
 31
0.0
  0
LINE
  5
534
  8
0
  6
CONTINUOUS
 62
   253
 10
-244.8703620161195
 20
211.1806955906293
 30
0.0
 11
-244.6753282196656
 21
211.199958347815
 31
0.0
  0
LINE
  5
535
  8
0
  6
CONTINUOUS
 62
   253
 10
-211.9471545758831
 20
138.7623056952184
 30
0.0
 11
-211.9564691732178
 21
138.7425395196006
 31
0.0
  0
LINE
  5
536
  8
0
  6
CONTINUOUS
 62
   253
 10
-212.2542513106358
 20
138.5002893509619
 30
0.0
 11
-212.2775681558444
 21
138.4935093659281
 31
0.0
  0
LINE
  5
537
  8
0
  6
CONTINUOUS
 62
   253
 10
-212.3012099821838
 20
138.487715998551
 30
0.0
 11
-212.3251204653761
 21
138.4829230509467
 31
0.0
  0
LINE
  5
538
  8
0
  6
CONTINUOUS
 62
   253
 10
-335.6902319968634
 20
212.8474362584384
 30
0.0
 11
-335.6722042916444
 21
212.8621020630005
 31
0.0
  0
LINE
  5
539
  8
0
  6
CONTINUOUS
 62
   253
 10
-335.4568535519294
 20
212.9620218933916
 30
0.0
 11
-335.4329430687371
 21
212.9668148409959
 31
0.0
  0
LINE
  5
53A
  8
0
  6
CONTINUOUS
 62
   253
 10
-211.9139963550733
 20
138.9076370607717
 30
0.0
 11
-211.915211105807
 21
138.8864742481052
 31
0.0
  0
LINE
  5
53B
  8
0
  6
CONTINUOUS
 62
   253
 10
-335.4329430687371
 20
212.9668148409959
 30
0.0
 11
-335.4088208930175
 21
212.9705959501109
 31
0.0
  0
LINE
  5
53C
  8
0
  6
CONTINUOUS
 62
   253
 10
-336.8703620161195
 20
211.1806955906293
 30
0.0
 11
-336.6753282196656
 21
211.199958347815
 31
0.0
  0
LINE
  5
53D
  8
0
  6
CONTINUOUS
 62
   253
 10
-211.9211996636127
 20
138.844350175762
 30
0.0
 11
-211.9259592035468
 21
138.8234892724585
 31
0.0
  0
LINE
  5
53E
  8
0
  6
CONTINUOUS
 62
   253
 10
-337.3703429776515
 20
211.2034730139863
 30
0.0
 11
-336.8703620161195
 21
211.1806955906292
 31
0.0
  0
LINE
  5
53F
  8
0
  6
CONTINUOUS
 62
   253
 10
-244.6753282196656
 20
211.199958347815
 30
0.0
 11
-244.4877856523629
 21
211.2568506314693
 31
0.0
  0
LINE
  5
540
  8
0
  6
CONTINUOUS
 62
   253
 10
-212.0858592424688
 20
138.5876358289421
 30
0.0
 11
-212.1046686560579
 21
138.5737323951884
 31
0.0
  0
LINE
  5
541
  8
0
  6
CONTINUOUS
 62
   253
 10
-257.0827353144475
 20
211.199958347815
 30
0.0
 11
-256.8877015179937
 21
211.1806955906293
 31
0.0
  0
LINE
  5
542
  8
0
  6
CONTINUOUS
 62
   253
 10
-198.0390631230425
 20
139.8249563559065
 30
0.0
 11
-198.1634237494816
 21
139.9763164341765
 31
0.0
  0
LINE
  5
543
  8
0
  6
CONTINUOUS
 62
   253
 10
-257.7190004110706
 20
211.6247815360362
 30
0.0
 11
-257.5946397846315
 21
211.4734214577661
 31
0.0
  0
LINE
  5
544
  8
0
  6
CONTINUOUS
 62
   253
 10
-335.4088208930175
 20
212.9705959501109
 30
0.0
 11
-335.3845444934325
 21
212.9733562126237
 31
0.0
  0
LINE
  5
545
  8
0
  6
CONTINUOUS
 62
   253
 10
-257.2702778817504
 20
211.2568506314693
 30
0.0
 11
-257.0827353144475
 21
211.199958347815
 31
0.0
  0
LINE
  5
546
  8
0
  6
CONTINUOUS
 62
   253
 10
-198.6753282196656
 20
140.2497795441276
 30
0.0
 11
-198.8703620161195
 21
140.2690423013134
 31
0.0
  0
LINE
  5
547
  8
0
  6
CONTINUOUS
 62
   253
 10
-212.1444516066063
 20
138.5483432390608
 30
0.0
 11
-212.1653303646798
 21
138.5369180038026
 31
0.0
  0
LINE
  5
548
  8
0
  6
CONTINUOUS
 62
   253
 10
-212.3492426410957
 20
138.4791419418317
 30
0.0
 11
-212.3735190406807
 21
138.4763816793188
 31
0.0
  0
LINE
  5
549
  8
0
  6
CONTINUOUS
 62
   253
 10
-212.1242149664779
 20
138.560624455778
 30
0.0
 11
-212.1444516066063
 21
138.5483432390608
 31
0.0
  0
LINE
  5
54A
  8
0
  6
CONTINUOUS
 62
   253
 10
-211.9908510795378
 20
138.6857845310817
 30
0.0
 11
-212.0043667331386
 21
138.6678642963628
 31
0.0
  0
LINE
  5
54B
  8
0
  6
CONTINUOUS
 62
   253
 10
-258.0188582428316
 20
138.6505152961832
 30
0.0
 11
-258.03429108405
 21
138.6337788627941
 31
0.0
  0
LINE
  5
54C
  8
0
  6
CONTINUOUS
 62
   253
 10
-335.4804953782688
 20
212.9562285260145
 30
0.0
 11
-335.4568535519294
 21
212.9620218933916
 31
0.0
  0
LINE
  5
54D
  8
0
  6
CONTINUOUS
 62
   253
 10
-257.9908510795378
 20
138.6857845310817
 30
0.0
 11
-258.0043667331386
 21
138.6678642963628
 31
0.0
  0
LINE
  5
54E
  8
0
  6
CONTINUOUS
 62
   253
 10
-212.0342910840501
 20
138.6337788627941
 30
0.0
 11
-212.0506284895989
 21
138.6176948690676
 31
0.0
  0
LINE
  5
54F
  8
0
  6
CONTINUOUS
 62
   253
 10
-335.5927331694334
 20
212.9128198881401
 30
0.0
 11
-335.5712620349598
 21
212.9233619224634
 31
0.0
  0
LINE
  5
550
  8
0
  6
CONTINUOUS
 62
   253
 10
-211.9783434817171
 20
138.7042333071796
 30
0.0
 11
-211.9908510795378
 21
138.6857845310817
 31
0.0
  0
LINE
  5
551
  8
0
  6
CONTINUOUS
 62
   253
 10
-257.9318813976407
 20
138.8028288428127
 30
0.0
 11
-257.9389521368616
 21
138.782418108224
 31
0.0
  0
LINE
  5
552
  8
0
  6
CONTINUOUS
 62
   253
 10
-335.6722042916444
 20
212.8621020630005
 30
0.0
 11
-335.6533948780552
 21
212.8760054967543
 31
0.0
  0
LINE
  5
553
  8
0
  6
CONTINUOUS
 62
   253
 10
-335.6533948780552
 20
212.8760054967543
 30
0.0
 11
-335.6338485676353
 21
212.8891134361646
 31
0.0
  0
LINE
  5
554
  8
0
  6
CONTINUOUS
 62
   253
 10
-258.1653303646798
 20
138.5369180038026
 30
0.0
 11
-258.1868014991533
 21
138.5263759694792
 31
0.0
  0
LINE
  5
555
  8
0
  6
CONTINUOUS
 62
   253
 10
-303.9471545758832
 20
138.7623056952184
 30
0.0
 11
-303.9564691732178
 21
138.7425395196006
 31
0.0
  0
LINE
  5
556
  8
0
  6
CONTINUOUS
 62
   253
 10
-303.9908510795378
 20
138.6857845310817
 30
0.0
 11
-304.0043667331386
 21
138.6678642963628
 31
0.0
  0
LINE
  5
557
  8
0
  6
CONTINUOUS
 62
   253
 10
-303.9259592035468
 20
138.8234892724585
 30
0.0
 11
-303.9318813976407
 21
138.8028288428127
 31
0.0
  0
LINE
  5
558
  8
0
  6
CONTINUOUS
 62
   253
 10
-303.9564691732178
 20
138.7425395196006
 30
0.0
 11
-303.9668737377726
 21
138.7231666722998
 31
0.0
  0
LINE
  5
559
  8
0
  6
CONTINUOUS
 62
   253
 10
-212.1653303646798
 20
138.5369180038026
 30
0.0
 11
-212.1868014991534
 21
138.5263759694792
 31
0.0
  0
LINE
  5
55A
  8
0
  6
CONTINUOUS
 62
   253
 10
-212.1868014991534
 20
138.5263759694792
 30
0.0
 11
-212.2088138572047
 21
138.5167422514292
 31
0.0
  0
LINE
  5
55B
  8
0
  6
CONTINUOUS
 62
   253
 10
-335.7074350445142
 20
212.832043022875
 30
0.0
 11
-335.6902319968634
 21
212.8474362584384
 31
0.0
  0
LINE
  5
55C
  8
0
  6
CONTINUOUS
 62
   253
 10
-212.2313149966008
 20
138.5080398010186
 30
0.0
 11
-212.2542513106358
 21
138.5002893509619
 31
0.0
  0
LINE
  5
55D
  8
0
  6
CONTINUOUS
 62
   253
 10
-211.9318813976407
 20
138.8028288428127
 30
0.0
 11
-211.9389521368616
 21
138.782418108224
 31
0.0
  0
LINE
  5
55E
  8
0
  6
CONTINUOUS
 62
   253
 10
-303.9211996636126
 20
138.844350175762
 30
0.0
 11
-303.9259592035468
 21
138.8234892724585
 31
0.0
  0
LINE
  5
55F
  8
0
  6
CONTINUOUS
 62
   253
 10
-257.9668737377726
 20
138.7231666722998
 30
0.0
 11
-257.9783434817171
 21
138.7042333071796
 31
0.0
  0
LINE
  5
560
  8
0
  6
CONTINUOUS
 62
   253
 10
-335.3845444934325
 20
212.9733562126237
 30
0.0
 11
-335.3601717060669
 21
212.9750890524861
 31
0.0
  0
LINE
  5
561
  8
0
  6
CONTINUOUS
 62
   253
 10
-303.915211105807
 20
138.8864742481052
 30
0.0
 11
-303.9176141169644
 21
138.8653618537153
 31
0.0
  0
LINE
  5
562
  8
0
  6
CONTINUOUS
 62
   253
 10
-335.7536968009746
 20
212.7818735955798
 30
0.0
 11
-335.7392052912815
 21
212.7992225957594
 31
0.0
  0
LINE
  5
563
  8
0
  6
CONTINUOUS
 62
   253
 10
-211.915211105807
 20
138.8864742481052
 30
0.0
 11
-211.9176141169644
 21
138.8653618537153
 31
0.0
  0
LINE
  5
564
  8
0
  6
CONTINUOUS
 62
   253
 10
-304.3735190406807
 20
138.4763816793188
 30
0.0
 11
-304.3978918280463
 21
138.4746488394565
 31
0.0
  0
LINE
  5
565
  8
0
  6
CONTINUOUS
 62
   253
 10
-257.9139963550733
 20
138.9076370607717
 30
0.0
 11
-257.915211105807
 21
138.8864742481052
 31
0.0
  0
LINE
  5
566
  8
0
  6
CONTINUOUS
 62
   253
 10
-257.9783434817171
 20
138.7042333071796
 30
0.0
 11
-257.9908510795378
 21
138.6857845310817
 31
0.0
  0
LINE
  5
567
  8
0
  6
CONTINUOUS
 62
   253
 10
-304.2313149966007
 20
138.5080398010186
 30
0.0
 11
-304.2542513106358
 21
138.5002893509619
 31
0.0
  0
LINE
  5
568
  8
0
  6
CONTINUOUS
 62
   253
 10
-304.3492426410957
 20
138.4791419418317
 30
0.0
 11
-304.3735190406807
 21
138.4763816793188
 31
0.0
  0
LINE
  5
569
  8
0
  6
CONTINUOUS
 62
   253
 10
-257.915211105807
 20
138.8864742481052
 30
0.0
 11
-257.9176141169644
 21
138.8653618537153
 31
0.0
  0
LINE
  5
56A
  8
0
  6
CONTINUOUS
 62
   253
 10
-304.2542513106358
 20
138.5002893509619
 30
0.0
 11
-304.2775681558444
 21
138.4935093659281
 31
0.0
  0
LINE
  5
56B
  8
0
  6
CONTINUOUS
 62
   253
 10
-304.1868014991533
 20
138.5263759694792
 30
0.0
 11
-304.2088138572047
 21
138.5167422514292
 31
0.0
  0
LINE
  5
56C
  8
0
  6
CONTINUOUS
 62
   253
 10
-257.9389521368616
 20
138.782418108224
 30
0.0
 11
-257.9471545758831
 21
138.7623056952184
 31
0.0
  0
TEXT
  5
56D
  8
0
  6
CONTINUOUS
 62
     7
 10
-132.0228127552952
 20
62.42442715162802
 30
0.0
 40
5.0
  1
SB-4UADM
  0
LINE
  5
56E
  8
0
  6
CONTINUOUS
 62
   253
 10
-243.8368638705005
 20
138.844350175762
 30
0.0
 11
-243.8404494171487
 21
138.8653618537153
 31
0.0
  0
LINE
  5
56F
  8
0
  6
CONTINUOUS
 62
   253
 10
-243.8404494171487
 20
138.8653618537153
 30
0.0
 11
-243.8428524283062
 21
138.8864742481052
 31
0.0
  0
LINE
  5
570
  8
0
  6
CONTINUOUS
 62
   253
 10
-350.1653303646798
 20
212.9128198881401
 30
0.0
 11
-350.1444516066063
 21
212.9013946528818
 31
0.0
  0
LINE
  5
571
  8
0
  6
CONTINUOUS
 62
   253
 10
-243.7237724500631
 20
138.6337788627941
 30
0.0
 11
-243.7392052912815
 21
138.6505152961832
 31
0.0
  0
LINE
  5
572
  8
0
  6
CONTINUOUS
 62
   253
 10
-349.9471545758831
 20
212.6874321967242
 30
0.0
 11
-349.9389521368616
 21
212.6673197837186
 31
0.0
  0
LINE
  5
573
  8
0
  6
CONTINUOUS
 62
   253
 10
-350.2775681558444
 20
212.9562285260145
 30
0.0
 11
-350.2542513106358
 21
212.9494485409807
 31
0.0
  0
LINE
  5
574
  8
0
  6
CONTINUOUS
 62
   253
 10
-350.2313149966008
 20
212.941698090924
 30
0.0
 11
-350.2088138572047
 21
212.9329956405134
 31
0.0
  0
LINE
  5
575
  8
0
  6
CONTINUOUS
 62
   253
 10
-350.050628489599
 20
212.832043022875
 30
0.0
 11
-350.03429108405
 21
212.8159590291485
 31
0.0
  0
LINE
  5
576
  8
0
  6
CONTINUOUS
 62
   253
 10
-197.6136119275069
 20
138.5483432390608
 30
0.0
 11
-197.6338485676353
 21
138.5606244557781
 31
0.0
  0
LINE
  5
577
  8
0
  6
CONTINUOUS
 62
   253
 10
-197.6722042916444
 20
138.5876358289421
 30
0.0
 11
-197.6902319968634
 21
138.6023016335042
 31
0.0
  0
LINE
  5
578
  8
0
  6
CONTINUOUS
 62
   253
 10
-243.7911897963405
 20
138.7231666722998
 30
0.0
 11
-243.8015943608953
 21
138.7425395196006
 31
0.0
  0
LINE
  5
579
  8
0
  6
CONTINUOUS
 62
   253
 10
-350.03429108405
 20
212.8159590291485
 30
0.0
 11
-350.0188582428317
 21
212.7992225957594
 31
0.0
  0
LINE
  5
57A
  8
0
  6
CONTINUOUS
 62
   253
 10
-197.4329430687371
 20
138.4829230509467
 30
0.0
 11
-197.4568535519294
 21
138.487715998551
 31
0.0
  0
LINE
  5
57B
  8
0
  6
CONTINUOUS
 62
   253
 10
-349.915211105807
 20
212.5632636438374
 30
0.0
 11
-349.9139963550733
 21
212.542100831171
 31
0.0
  0
LINE
  5
57C
  8
0
  6
CONTINUOUS
 62
   253
 10
-243.7392052912815
 20
138.6505152961832
 30
0.0
 11
-243.7536968009746
 21
138.6678642963628
 31
0.0
  0
LINE
  5
57D
  8
0
  6
CONTINUOUS
 62
   253
 10
-350.3492426410957
 20
212.9705959501109
 30
0.0
 11
-350.3251204653761
 21
212.9668148409959
 31
0.0
  0
LINE
  5
57E
  8
0
  6
CONTINUOUS
 62
   253
 10
-243.7797200523961
 20
138.7042333071796
 30
0.0
 11
-243.7911897963405
 21
138.7231666722998
 31
0.0
  0
LINE
  5
57F
  8
0
  6
CONTINUOUS
 62
   253
 10
-243.8321043305664
 20
138.8234892724585
 30
0.0
 11
-243.8368638705005
 21
138.844350175762
 31
0.0
  0
LINE
  5
580
  8
0
  6
CONTINUOUS
 62
   253
 10
-197.6533948780553
 20
138.5737323951884
 30
0.0
 11
-197.6722042916444
 21
138.5876358289421
 31
0.0
  0
LINE
  5
581
  8
0
  6
CONTINUOUS
 62
   253
 10
-350.2542513106358
 20
212.9494485409807
 30
0.0
 11
-350.2313149966008
 21
212.941698090924
 31
0.0
  0
LINE
  5
582
  8
0
  6
CONTINUOUS
 62
   253
 10
-243.7536968009746
 20
138.6678642963628
 30
0.0
 11
-243.7672124545754
 21
138.6857845310817
 31
0.0
  0
LINE
  5
583
  8
0
  6
CONTINUOUS
 62
   253
 10
-350.1868014991534
 20
212.9233619224634
 30
0.0
 11
-350.1653303646798
 21
212.9128198881401
 31
0.0
  0
LINE
  5
584
  8
0
  6
CONTINUOUS
 62
   253
 10
-350.2088138572047
 20
212.9329956405134
 30
0.0
 11
-350.1868014991534
 21
212.9233619224634
 31
0.0
  0
LINE
  5
585
  8
0
  6
CONTINUOUS
 62
   253
 10
-349.9783434817171
 20
212.745504584763
 30
0.0
 11
-349.9668737377727
 21
212.7265712196428
 31
0.0
  0
LINE
  5
586
  8
0
  6
CONTINUOUS
 62
   253
 10
-197.5267485375124
 20
138.5080398010186
 30
0.0
 11
-197.5492496769085
 21
138.5167422514292
 31
0.0
  0
LINE
  5
587
  8
0
  6
CONTINUOUS
 62
   253
 10
-243.7672124545754
 20
138.6857845310817
 30
0.0
 11
-243.7797200523961
 21
138.7042333071796
 31
0.0
  0
LINE
  5
588
  8
0
  6
CONTINUOUS
 62
   253
 10
-350.3978918280462
 20
212.9750890524861
 30
0.0
 11
-350.3735190406807
 21
212.9733562126237
 31
0.0
  0
LINE
  5
589
  8
0
  6
CONTINUOUS
 62
   253
 10
-243.8015943608953
 20
138.7425395196006
 30
0.0
 11
-243.81090895823
 21
138.7623056952184
 31
0.0
  0
LINE
  5
58A
  8
0
  6
CONTINUOUS
 62
   253
 10
-350.3735190406807
 20
212.9733562126237
 30
0.0
 11
-350.3492426410957
 21
212.9705959501109
 31
0.0
  0
LINE
  5
58B
  8
0
  6
CONTINUOUS
 62
   253
 10
-349.9908510795378
 20
212.763953360861
 30
0.0
 11
-349.9783434817171
 21
212.745504584763
 31
0.0
  0
LINE
  5
58C
  8
0
  6
CONTINUOUS
 62
   253
 10
-350.3251204653761
 20
212.9668148409959
 30
0.0
 11
-350.3012099821837
 21
212.9620218933916
 31
0.0
  0
LINE
  5
58D
  8
0
  6
CONTINUOUS
 62
   253
 10
-197.6902319968634
 20
138.6023016335042
 30
0.0
 11
-197.7074350445142
 21
138.6176948690676
 31
0.0
  0
LINE
  5
58E
  8
0
  6
CONTINUOUS
 62
   253
 10
-349.9176141169645
 20
212.5843760382273
 30
0.0
 11
-349.915211105807
 21
212.5632636438374
 31
0.0
  0
LINE
  5
58F
  8
0
  6
CONTINUOUS
 62
   253
 10
-349.9318813976407
 20
212.6469090491299
 30
0.0
 11
-349.9259592035468
 21
212.6262486194841
 31
0.0
  0
LINE
  5
590
  8
0
  6
CONTINUOUS
 62
   253
 10
-197.4568535519294
 20
138.487715998551
 30
0.0
 11
-197.4804953782688
 21
138.4935093659281
 31
0.0
  0
LINE
  5
591
  8
0
  6
CONTINUOUS
 62
   253
 10
-350.0678315372498
 20
212.8474362584384
 30
0.0
 11
-350.050628489599
 21
212.832043022875
 31
0.0
  0
LINE
  5
592
  8
0
  6
CONTINUOUS
 62
   253
 10
-243.8428524283062
 20
138.8864742481052
 30
0.0
 11
-243.8440671790399
 21
138.9076370607717
 31
0.0
  0
LINE
  5
593
  8
0
  6
CONTINUOUS
 62
   253
 10
-350.0043667331386
 20
212.7818735955798
 30
0.0
 11
-349.9908510795378
 21
212.763953360861
 31
0.0
  0
LINE
  5
594
  8
0
  6
CONTINUOUS
 62
   253
 10
-197.3845444934325
 20
138.4763816793188
 30
0.0
 11
-197.4088208930175
 21
138.4791419418317
 31
0.0
  0
LINE
  5
595
  8
0
  6
CONTINUOUS
 62
   253
 10
-350.1046686560579
 20
212.8760054967543
 30
0.0
 11
-350.0858592424688
 21
212.8621020630005
 31
0.0
  0
LINE
  5
596
  8
0
  6
CONTINUOUS
 62
   253
 10
-197.4804953782688
 20
138.4935093659281
 30
0.0
 11
-197.5038122234774
 21
138.5002893509619
 31
0.0
  0
LINE
  5
597
  8
0
  6
CONTINUOUS
 62
   253
 10
-350.3012099821837
 20
212.9620218933916
 30
0.0
 11
-350.2775681558444
 21
212.9562285260145
 31
0.0
  0
LINE
  5
598
  8
0
  6
CONTINUOUS
 62
   253
 10
-349.9211996636127
 20
212.6053877161806
 30
0.0
 11
-349.9176141169645
 21
212.5843760382273
 31
0.0
  0
LINE
  5
599
  8
0
  6
CONTINUOUS
 62
   253
 10
-197.5492496769085
 20
138.5167422514292
 30
0.0
 11
-197.5712620349598
 21
138.5263759694792
 31
0.0
  0
LINE
  5
59A
  8
0
  6
CONTINUOUS
 62
   253
 10
-197.5712620349598
 20
138.5263759694792
 30
0.0
 11
-197.5927331694334
 21
138.5369180038026
 31
0.0
  0
LINE
  5
59B
  8
0
  6
CONTINUOUS
 62
   253
 10
-197.6338485676353
 20
138.5606244557781
 30
0.0
 11
-197.6533948780553
 21
138.5737323951884
 31
0.0
  0
LINE
  5
59C
  8
0
  6
CONTINUOUS
 62
   253
 10
-197.360171706067
 20
138.4746488394565
 30
0.0
 11
-197.3845444934325
 21
138.4763816793188
 31
0.0
  0
LINE
  5
59D
  8
0
  6
CONTINUOUS
 62
   253
 10
-197.5038122234774
 20
138.5002893509619
 30
0.0
 11
-197.5267485375124
 21
138.5080398010186
 31
0.0
  0
LINE
  5
59E
  8
0
  6
CONTINUOUS
 62
   253
 10
-350.0188582428317
 20
212.7992225957594
 30
0.0
 11
-350.0043667331386
 21
212.7818735955798
 31
0.0
  0
LINE
  5
59F
  8
0
  6
CONTINUOUS
 62
   253
 10
-350.1242149664779
 20
212.8891134361646
 30
0.0
 11
-350.1046686560579
 21
212.8760054967543
 31
0.0
  0
LINE
  5
5A0
  8
0
  6
CONTINUOUS
 62
   253
 10
-197.5927331694334
 20
138.5369180038026
 30
0.0
 11
-197.6136119275069
 21
138.5483432390608
 31
0.0
  0
LINE
  5
5A1
  8
0
  6
CONTINUOUS
 62
   253
 10
-350.0858592424688
 20
212.8621020630005
 30
0.0
 11
-350.0678315372498
 21
212.8474362584384
 31
0.0
  0
LINE
  5
5A2
  8
0
  6
CONTINUOUS
 62
   253
 10
-197.4088208930175
 20
138.4791419418317
 30
0.0
 11
-197.4329430687371
 21
138.4829230509467
 31
0.0
  0
LINE
  5
5A3
  8
0
  6
CONTINUOUS
 62
   253
 10
-243.81090895823
 20
138.7623056952184
 30
0.0
 11
-243.8191113972516
 21
138.782418108224
 31
0.0
  0
LINE
  5
5A4
  8
0
  6
CONTINUOUS
 62
   253
 10
-350.1444516066063
 20
212.9013946528818
 30
0.0
 11
-350.1242149664779
 21
212.8891134361646
 31
0.0
  0
LINE
  5
5A5
  8
0
  6
CONTINUOUS
 62
   253
 10
-349.9389521368616
 20
212.6673197837186
 30
0.0
 11
-349.9318813976407
 21
212.6469090491299
 31
0.0
  0
LINE
  5
5A6
  8
0
  6
CONTINUOUS
 62
   253
 10
-212.1242149664779
 20
212.8891134361646
 30
0.0
 11
-212.1046686560579
 21
212.8760054967543
 31
0.0
  0
LINE
  5
5A7
  8
0
  6
CONTINUOUS
 62
   253
 10
-211.9564691732178
 20
212.707198372342
 30
0.0
 11
-211.9471545758831
 21
212.6874321967242
 31
0.0
  0
LINE
  5
5A8
  8
0
  6
CONTINUOUS
 62
   253
 10
-212.1046686560579
 20
212.8760054967543
 30
0.0
 11
-212.0858592424688
 21
212.8621020630005
 31
0.0
  0
LINE
  5
5A9
  8
0
  6
CONTINUOUS
 62
   253
 10
-212.1868014991534
 20
212.9233619224634
 30
0.0
 11
-212.1653303646798
 21
212.9128198881401
 31
0.0
  0
LINE
  5
5AA
  8
0
  6
CONTINUOUS
 62
   253
 10
-212.0678315372498
 20
212.8474362584384
 30
0.0
 11
-212.0506284895989
 21
212.832043022875
 31
0.0
  0
LINE
  5
5AB
  8
0
  6
CONTINUOUS
 62
   253
 10
-212.0188582428317
 20
212.7992225957594
 30
0.0
 11
-212.0043667331386
 21
212.7818735955798
 31
0.0
  0
LINE
  5
5AC
  8
0
  6
CONTINUOUS
 62
   253
 10
-212.2542513106358
 20
212.9494485409807
 30
0.0
 11
-212.2313149966008
 21
212.941698090924
 31
0.0
  0
LINE
  5
5AD
  8
0
  6
CONTINUOUS
 62
   253
 10
-304.3978918280463
 20
212.9750890524861
 30
0.0
 11
-304.3735190406807
 21
212.9733562126237
 31
0.0
  0
LINE
  5
5AE
  8
0
  6
CONTINUOUS
 62
   253
 10
-211.9176141169644
 20
212.5843760382273
 30
0.0
 11
-211.915211105807
 21
212.5632636438374
 31
0.0
  0
LINE
  5
5AF
  8
0
  6
CONTINUOUS
 62
   253
 10
-304.3012099821837
 20
212.9620218933916
 30
0.0
 11
-304.2775681558444
 21
212.9562285260145
 31
0.0
  0
LINE
  5
5B0
  8
0
  6
CONTINUOUS
 62
   253
 10
-304.2542513106358
 20
212.9494485409807
 30
0.0
 11
-304.2313149966007
 21
212.941698090924
 31
0.0
  0
LINE
  5
5B1
  8
0
  6
CONTINUOUS
 62
   253
 10
-304.2088138572047
 20
212.9329956405134
 30
0.0
 11
-304.1868014991533
 21
212.9233619224634
 31
0.0
  0
LINE
  5
5B2
  8
0
  6
CONTINUOUS
 62
   253
 10
-304.1868014991533
 20
212.9233619224634
 30
0.0
 11
-304.1653303646798
 21
212.9128198881401
 31
0.0
  0
LINE
  5
5B3
  8
0
  6
CONTINUOUS
 62
   253
 10
-197.8191113972516
 20
138.782418108224
 30
0.0
 11
-197.8261821364725
 21
138.8028288428127
 31
0.0
  0
LINE
  5
5B4
  8
0
  6
CONTINUOUS
 62
   253
 10
-211.9259592035468
 20
212.6262486194841
 30
0.0
 11
-211.9211996636127
 21
212.6053877161806
 31
0.0
  0
LINE
  5
5B5
  8
0
  6
CONTINUOUS
 62
   253
 10
-211.9908510795378
 20
212.763953360861
 30
0.0
 11
-211.9783434817171
 21
212.745504584763
 31
0.0
  0
LINE
  5
5B6
  8
0
  6
CONTINUOUS
 62
   253
 10
-304.2775681558444
 20
212.9562285260145
 30
0.0
 11
-304.2542513106358
 21
212.9494485409807
 31
0.0
  0
LINE
  5
5B7
  8
0
  6
CONTINUOUS
 62
   253
 10
-211.915211105807
 20
212.5632636438374
 30
0.0
 11
-211.9139963550733
 21
212.542100831171
 31
0.0
  0
LINE
  5
5B8
  8
0
  6
CONTINUOUS
 62
   253
 10
-197.7672124545754
 20
138.6857845310817
 30
0.0
 11
-197.7797200523961
 21
138.7042333071796
 31
0.0
  0
LINE
  5
5B9
  8
0
  6
CONTINUOUS
 62
     7
 10
-318.3330544610906
 20
55.68055649699727
 30
0.0
 11
-319.1131587695226
 21
78.22557100830265
 31
0.0
  0
LINE
  5
5BA
  8
0
  6
CONTINUOUS
 62
     7
 10
-272.3330544611634
 20
55.68055649699474
 30
0.0
 11
-273.1131587695124
 21
78.22557100830302
 31
0.0
  0
LINE
  5
5BB
  8
0
  6
CONTINUOUS
 62
     7
 10
-171.3790317670565
 20
88.98430063732738
 30
0.0
 11
-376.3790317670565
 21
88.98430063732738
 31
0.0
  0
LINE
  5
5BC
  8
0
  6
CONTINUOUS
 62
     7
 10
-274.6449047646008
 20
78.22557100830302
 30
0.0
 11
-275.4250090729498
 21
55.68055649699475
 31
0.0
  0
LINE
  5
5BD
  8
0
  6
CONTINUOUS
 62
   253
 10
-212.3492426410957
 20
212.9705959501109
 30
0.0
 11
-212.3251204653761
 21
212.9668148409959
 31
0.0
  0
LINE
  5
5BE
  8
0
  6
CONTINUOUS
 62
   253
 10
-211.9668737377726
 20
212.7265712196428
 30
0.0
 11
-211.9564691732178
 21
212.707198372342
 31
0.0
  0
LINE
  5
5BF
  8
0
  6
CONTINUOUS
 62
   253
 10
-212.1444516066063
 20
212.9013946528818
 30
0.0
 11
-212.1242149664779
 21
212.8891134361646
 31
0.0
  0
LINE
  5
5C0
  8
0
  6
CONTINUOUS
 62
   253
 10
-197.7237724500631
 20
138.6337788627941
 30
0.0
 11
-197.7392052912815
 21
138.6505152961832
 31
0.0
  0
LINE
  5
5C1
  8
0
  6
CONTINUOUS
 62
   253
 10
-304.3492426410957
 20
212.9705959501109
 30
0.0
 11
-304.3251204653761
 21
212.9668148409959
 31
0.0
  0
LINE
  5
5C2
  8
0
  6
CONTINUOUS
 62
     7
 10
-350.4139773166054
 20
74.98430063732738
 30
0.0
 11
-366.5071433174164
 21
74.98430063732738
 31
0.0
  0
LINE
  5
5C3
  8
0
  6
CONTINUOUS
 62
     7
 10
-171.3790317670565
 20
89.48430063732738
 30
0.0
 11
-376.3790317670566
 21
89.48430063732738
 31
0.0
  0
LINE
  5
5C4
  8
0
  6
CONTINUOUS
 62
   253
 10
-212.2088138572047
 20
212.9329956405134
 30
0.0
 11
-212.1868014991534
 21
212.9233619224634
 31
0.0
  0
LINE
  5
5C5
  8
0
  6
CONTINUOUS
 62
   253
 10
-197.8015943608953
 20
138.7425395196006
 30
0.0
 11
-197.81090895823
 21
138.7623056952184
 31
0.0
  0
LINE
  5
5C6
  8
0
  6
CONTINUOUS
 62
   253
 10
-211.9211996636127
 20
212.6053877161806
 30
0.0
 11
-211.9176141169644
 21
212.5843760382273
 31
0.0
  0
LINE
  5
5C7
  8
0
  6
CONTINUOUS
 62
   253
 10
-197.81090895823
 20
138.7623056952184
 30
0.0
 11
-197.8191113972516
 21
138.782418108224
 31
0.0
  0
LINE
  5
5C8
  8
0
  6
CONTINUOUS
 62
     7
 10
-181.2509202166967
 20
74.98430063732738
 30
0.0
 11
-197.3440862175078
 21
74.98430063732738
 31
0.0
  0
LINE
  5
5C9
  8
0
  6
CONTINUOUS
 62
   253
 10
-212.3012099821838
 20
212.9620218933916
 30
0.0
 11
-212.2775681558444
 21
212.9562285260145
 31
0.0
  0
LINE
  5
5CA
  8
0
  6
CONTINUOUS
 62
   253
 10
-197.8404494171487
 20
138.8653618537153
 30
0.0
 11
-197.8428524283061
 21
138.8864742481052
 31
0.0
  0
LINE
  5
5CB
  8
0
  6
CONTINUOUS
 62
   253
 10
-212.0858592424688
 20
212.8621020630005
 30
0.0
 11
-212.0678315372498
 21
212.8474362584384
 31
0.0
  0
LINE
  5
5CC
  8
0
  6
CONTINUOUS
 62
   253
 10
-197.8321043305664
 20
138.8234892724585
 30
0.0
 11
-197.8368638705005
 21
138.844350175762
 31
0.0
  0
LINE
  5
5CD
  8
0
  6
CONTINUOUS
 62
   253
 10
-197.8428524283061
 20
138.8864742481052
 30
0.0
 11
-197.8440671790399
 21
138.9076370607717
 31
0.0
  0
LINE
  5
5CE
  8
0
  6
CONTINUOUS
 62
   253
 10
-212.3735190406807
 20
212.9733562126237
 30
0.0
 11
-212.3492426410957
 21
212.9705959501109
 31
0.0
  0
LINE
  5
5CF
  8
0
  6
CONTINUOUS
 62
   253
 10
-212.2313149966008
 20
212.941698090924
 30
0.0
 11
-212.2088138572047
 21
212.9329956405134
 31
0.0
  0
LINE
  5
5D0
  8
0
  6
CONTINUOUS
 62
   253
 10
-212.0506284895989
 20
212.832043022875
 30
0.0
 11
-212.0342910840501
 21
212.8159590291485
 31
0.0
  0
LINE
  5
5D1
  8
0
  6
CONTINUOUS
 62
   253
 10
-212.0342910840501
 20
212.8159590291485
 30
0.0
 11
-212.0188582428317
 21
212.7992225957594
 31
0.0
  0
LINE
  5
5D2
  8
0
  6
CONTINUOUS
 62
   253
 10
-197.8261821364725
 20
138.8028288428127
 30
0.0
 11
-197.8321043305664
 21
138.8234892724585
 31
0.0
  0
LINE
  5
5D3
  8
0
  6
CONTINUOUS
 62
   253
 10
-212.2775681558444
 20
212.9562285260145
 30
0.0
 11
-212.2542513106358
 21
212.9494485409807
 31
0.0
  0
LINE
  5
5D4
  8
0
  6
CONTINUOUS
 62
   253
 10
-212.3251204653761
 20
212.9668148409959
 30
0.0
 11
-212.3012099821838
 21
212.9620218933916
 31
0.0
  0
LINE
  5
5D5
  8
0
  6
CONTINUOUS
 62
   253
 10
-304.2313149966007
 20
212.941698090924
 30
0.0
 11
-304.2088138572047
 21
212.9329956405134
 31
0.0
  0
LINE
  5
5D6
  8
0
  6
CONTINUOUS
 62
   253
 10
-212.0043667331386
 20
212.7818735955798
 30
0.0
 11
-211.9908510795378
 21
212.763953360861
 31
0.0
  0
LINE
  5
5D7
  8
0
  6
CONTINUOUS
 62
   253
 10
-197.8368638705005
 20
138.844350175762
 30
0.0
 11
-197.8404494171487
 21
138.8653618537153
 31
0.0
  0
LINE
  5
5D8
  8
0
  6
CONTINUOUS
 62
   253
 10
-211.9318813976407
 20
212.6469090491299
 30
0.0
 11
-211.9259592035468
 21
212.6262486194841
 31
0.0
  0
LINE
  5
5D9
  8
0
  6
CONTINUOUS
 62
   253
 10
-304.3735190406807
 20
212.9733562126237
 30
0.0
 11
-304.3492426410957
 21
212.9705959501109
 31
0.0
  0
LINE
  5
5DA
  8
0
  6
CONTINUOUS
 62
     7
 10
-320.6449047646008
 20
78.22557100830302
 30
0.0
 11
-321.4250090729497
 21
55.68055649699473
 31
0.0
  0
LINE
  5
5DB
  8
0
  6
CONTINUOUS
 62
   253
 10
-304.1653303646798
 20
212.9128198881401
 30
0.0
 11
-304.1444516066063
 21
212.9013946528818
 31
0.0
  0
LINE
  5
5DC
  8
0
  6
CONTINUOUS
 62
   253
 10
-211.9783434817171
 20
212.745504584763
 30
0.0
 11
-211.9668737377726
 21
212.7265712196428
 31
0.0
  0
LINE
  5
5DD
  8
0
  6
CONTINUOUS
 62
   253
 10
-304.3251204653761
 20
212.9668148409959
 30
0.0
 11
-304.3012099821837
 21
212.9620218933916
 31
0.0
  0
LINE
  5
5DE
  8
0
  6
CONTINUOUS
 62
   253
 10
-211.9389521368616
 20
212.6673197837186
 30
0.0
 11
-211.9318813976407
 21
212.6469090491299
 31
0.0
  0
LINE
  5
5DF
  8
0
  6
CONTINUOUS
 62
   253
 10
-211.9471545758831
 20
212.6874321967242
 30
0.0
 11
-211.9389521368616
 21
212.6673197837186
 31
0.0
  0
LINE
  5
5E0
  8
0
  6
CONTINUOUS
 62
   253
 10
-197.7911897963405
 20
138.7231666722998
 30
0.0
 11
-197.8015943608953
 21
138.7425395196006
 31
0.0
  0
LINE
  5
5E1
  8
0
  6
CONTINUOUS
 62
   253
 10
-197.7392052912815
 20
138.6505152961832
 30
0.0
 11
-197.7536968009746
 21
138.6678642963628
 31
0.0
  0
LINE
  5
5E2
  8
0
  6
CONTINUOUS
 62
   253
 10
-212.1653303646798
 20
212.9128198881401
 30
0.0
 11
-212.1444516066063
 21
212.9013946528818
 31
0.0
  0
LINE
  5
5E3
  8
0
  6
CONTINUOUS
 62
   253
 10
-197.7074350445142
 20
138.6176948690676
 30
0.0
 11
-197.7237724500631
 21
138.6337788627941
 31
0.0
  0
LINE
  5
5E4
  8
0
  6
CONTINUOUS
 62
   253
 10
-197.7536968009746
 20
138.6678642963628
 30
0.0
 11
-197.7672124545754
 21
138.6857845310817
 31
0.0
  0
LINE
  5
5E5
  8
0
  6
CONTINUOUS
 62
   253
 10
-197.7797200523961
 20
138.7042333071796
 30
0.0
 11
-197.7911897963405
 21
138.7231666722998
 31
0.0
  0
LINE
  5
5E6
  8
0
  6
CONTINUOUS
 62
   253
 10
-212.3978918280463
 20
212.9750890524861
 30
0.0
 11
-212.3735190406807
 21
212.9733562126237
 31
0.0
  0
LINE
  5
5E7
  8
0
  6
CONTINUOUS
 62
   253
 10
-321.6935348500359
 20
139.5837346923992
 30
0.0
 11
-321.4629827666043
 21
140.0159370223728
 31
0.0
  0
LINE
  5
5E8
  8
0
  6
CONTINUOUS
 62
   253
 10
-322.0039597187352
 20
139.2050314392791
 30
0.0
 11
-321.6935348500359
 21
139.5837346923992
 31
0.0
  0
LINE
  5
5E9
  8
0
  6
CONTINUOUS
 62
   253
 10
-272.4369179208142
 20
140.4850625841556
 30
0.0
 11
-272.2950807675086
 21
140.0159370223728
 31
0.0
  0
LINE
  5
5EA
  8
0
  6
CONTINUOUS
 62
   253
 10
-271.7541038153778
 20
139.2050314392791
 30
0.0
 11
-271.3757115912629
 21
138.8943513088271
 31
0.0
  0
LINE
  5
5EB
  8
0
  6
CONTINUOUS
 62
   253
 10
-272.2950807675086
 20
140.0159370223728
 30
0.0
 11
-272.0645286840771
 21
139.5837346923992
 31
0.0
  0
LINE
  5
5EC
  8
0
  6
CONTINUOUS
 62
   253
 10
-272.2950807675086
 20
211.4338008695698
 30
0.0
 11
-272.4369179208142
 21
210.964675307787
 31
0.0
  0
LINE
  5
5ED
  8
0
  6
CONTINUOUS
 62
   253
 10
-365.7296547619284
 20
212.245807055043
 30
0.0
 11
-366.04007908646
 21
211.8674777560803
 31
0.0
  0
LINE
  5
5EE
  8
0
  6
CONTINUOUS
 62
   253
 10
-366.4123281666548
 20
140.4828970331062
 30
0.0
 11
-366.270581037474
 21
140.0140979685148
 31
0.0
  0
LINE
  5
5EF
  8
0
  6
CONTINUOUS
 62
   253
 10
-321.2734631356082
 20
210.4766184408446
 30
0.0
 11
-321.3211456132988
 21
210.964675307787
 31
0.0
  0
LINE
  5
5F0
  8
0
  6
CONTINUOUS
 62
   253
 10
-363.9623203182534
 20
212.9758044314445
 30
0.0
 11
-364.4502747516341
 21
212.9282592314141
 31
0.0
  0
LINE
  5
5F1
  8
0
  6
CONTINUOUS
 62
   253
 10
-323.7705961815584
 20
138.4739334604981
 30
0.0
 11
-323.2829398705394
 21
138.5216554953397
 31
0.0
  0
LINE
  5
5F2
  8
0
  6
CONTINUOUS
 62
   253
 10
-323.2829398705394
 20
212.9280823966029
 30
0.0
 11
-323.7705961815584
 21
212.9758044314445
 31
0.0
  0
LINE
  5
5F3
  8
0
  6
CONTINUOUS
 62
   253
 10
-270.4751236635735
 20
212.9280823966029
 30
0.0
 11
-270.9438641289473
 21
212.786128371236
 31
0.0
  0
LINE
  5
5F4
  8
0
  6
CONTINUOUS
 62
   253
 10
-270.9438641289473
 20
138.6636095207066
 30
0.0
 11
-270.4751236635735
 21
138.5216554953397
 31
0.0
  0
LINE
  5
5F5
  8
0
  6
CONTINUOUS
 62
   253
 10
-321.4629827666043
 20
211.4338008695697
 30
0.0
 11
-321.6935348500359
 21
211.8660031995434
 31
0.0
  0
LINE
  5
5F6
  8
0
  6
CONTINUOUS
 62
   253
 10
-322.8141994051657
 20
138.6636095207067
 30
0.0
 11
-322.3823519428501
 21
138.894351308827
 31
0.0
  0
LINE
  5
5F7
  8
0
  6
CONTINUOUS
 62
   253
 10
-366.04007908646
 20
139.5822601358623
 30
0.0
 11
-365.7296547619284
 21
139.2039308368996
 31
0.0
  0
LINE
  5
5F8
  8
0
  6
CONTINUOUS
 62
   253
 10
-318.4369179208142
 20
140.4850625841556
 30
0.0
 11
-318.2950807675087
 21
140.0159370223728
 31
0.0
  0
LINE
  5
5F9
  8
0
  6
CONTINUOUS
 62
   253
 10
-321.4629827666043
 20
140.0159370223728
 30
0.0
 11
-321.3211456132988
 21
140.4850625841556
 31
0.0
  0
LINE
  5
5FA
  8
0
  6
CONTINUOUS
 62
   253
 10
-271.3757115912629
 20
138.8943513088271
 30
0.0
 11
-270.9438641289473
 21
138.6636095207066
 31
0.0
  0
LINE
  5
5FB
  8
0
  6
CONTINUOUS
 62
   253
 10
-317.7541038153778
 20
139.2050314392791
 30
0.0
 11
-317.375711591263
 21
138.894351308827
 31
0.0
  0
LINE
  5
5FC
  8
0
  6
CONTINUOUS
 62
   253
 10
-269.9874673525546
 20
212.9758044314445
 30
0.0
 11
-270.4751236635735
 21
212.9280823966029
 31
0.0
  0
LINE
  5
5FD
  8
0
  6
CONTINUOUS
 62
   253
 10
-272.0645286840771
 20
211.8660031995435
 30
0.0
 11
-272.2950807675086
 21
211.4338008695698
 31
0.0
  0
LINE
  5
5FE
  8
0
  6
CONTINUOUS
 62
   253
 10
-322.8141994051657
 20
212.7861283712359
 30
0.0
 11
-323.2829398705394
 21
212.9280823966029
 31
0.0
  0
LINE
  5
5FF
  8
0
  6
CONTINUOUS
 62
   253
 10
-322.3823519428501
 20
138.894351308827
 30
0.0
 11
-322.0039597187352
 21
139.2050314392791
 31
0.0
  0
LINE
  5
600
  8
0
  6
CONTINUOUS
 62
   253
 10
-271.7541038153777
 20
212.2447064526635
 30
0.0
 11
-272.0645286840771
 21
211.8660031995435
 31
0.0
  0
LINE
  5
601
  8
0
  6
CONTINUOUS
 62
   253
 10
-323.2829398705394
 20
138.5216554953397
 30
0.0
 11
-322.8141994051657
 21
138.6636095207067
 31
0.0
  0
LINE
  5
602
  8
0
  6
CONTINUOUS
 62
   253
 10
-321.3211456132988
 20
210.964675307787
 30
0.0
 11
-321.4629827666043
 21
211.4338008695697
 31
0.0
  0
LINE
  5
603
  8
0
  6
CONTINUOUS
 62
   253
 10
-364.9192254482262
 20
212.786558130009
 30
0.0
 11
-365.3512030035542
 21
212.5561308758664
 31
0.0
  0
LINE
  5
604
  8
0
  6
CONTINUOUS
 62
   253
 10
-181.3457353674583
 20
210.9668408588364
 30
0.0
 11
-181.487482496639
 21
211.4356399234278
 31
0.0
  0
LINE
  5
605
  8
0
  6
CONTINUOUS
 62
   253
 10
-322.3823519428501
 20
212.5553865831156
 30
0.0
 11
-322.8141994051657
 21
212.7861283712359
 31
0.0
  0
LINE
  5
606
  8
0
  6
CONTINUOUS
 62
   253
 10
-364.4502747516341
 20
138.5214786605285
 30
0.0
 11
-363.9623203182535
 21
138.4739334604981
 31
0.0
  0
LINE
  5
607
  8
0
  6
CONTINUOUS
 62
   253
 10
-317.375711591263
 20
138.894351308827
 30
0.0
 11
-316.9438641289473
 21
138.6636095207067
 31
0.0
  0
LINE
  5
608
  8
0
  6
CONTINUOUS
 62
   253
 10
-364.4502747516341
 20
212.9282592314141
 30
0.0
 11
-364.9192254482262
 21
212.786558130009
 31
0.0
  0
LINE
  5
609
  8
0
  6
CONTINUOUS
 62
   253
 10
-271.3757115912629
 20
212.5553865831156
 30
0.0
 11
-271.7541038153777
 21
212.2447064526635
 31
0.0
  0
LINE
  5
60A
  8
0
  6
CONTINUOUS
 62
   253
 10
-181.717984447653
 20
211.8674777560803
 30
0.0
 11
-182.0284087721847
 21
212.245807055043
 31
0.0
  0
LINE
  5
60B
  8
0
  6
CONTINUOUS
 62
   253
 10
-272.0645286840771
 20
139.5837346923992
 30
0.0
 11
-271.7541038153778
 21
139.2050314392791
 31
0.0
  0
LINE
  5
60C
  8
0
  6
CONTINUOUS
 62
   253
 10
-316.4751236635736
 20
138.5216554953397
 30
0.0
 11
-315.9874673525546
 21
138.4739334604981
 31
0.0
  0
LINE
  5
60D
  8
0
  6
CONTINUOUS
 62
   253
 10
-272.4846003985048
 20
140.973119451098
 30
0.0
 11
-272.4369179208142
 21
140.4850625841556
 31
0.0
  0
LINE
  5
60E
  8
0
  6
CONTINUOUS
 62
   253
 10
-318.4846003985048
 20
140.973119451098
 30
0.0
 11
-318.4369179208142
 21
140.4850625841556
 31
0.0
  0
LINE
  5
60F
  8
0
  6
CONTINUOUS
 62
   253
 10
-365.3512030035542
 20
212.5561308758664
 30
0.0
 11
-365.7296547619284
 21
212.245807055043
 31
0.0
  0
LINE
  5
610
  8
0
  6
CONTINUOUS
 62
   253
 10
-322.0039597187352
 20
212.2447064526635
 30
0.0
 11
-322.3823519428501
 21
212.5553865831156
 31
0.0
  0
LINE
  5
611
  8
0
  6
CONTINUOUS
 62
   253
 10
-181.2981745724552
 20
210.4790441564977
 30
0.0
 11
-181.3457353674583
 21
210.9668408588364
 31
0.0
  0
LINE
  5
612
  8
0
  6
CONTINUOUS
 62
   253
 10
-275.3211456132989
 20
140.4850625841556
 30
0.0
 11
-275.2734631356083
 21
140.973119451098
 31
0.0
  0
LINE
  5
613
  8
0
  6
CONTINUOUS
 62
   253
 10
-366.04007908646
 20
211.8674777560803
 30
0.0
 11
-366.270581037474
 21
211.4356399234278
 31
0.0
  0
LINE
  5
614
  8
0
  6
CONTINUOUS
 62
   253
 10
-365.7296547619284
 20
139.2039308368996
 30
0.0
 11
-365.3512030035542
 21
138.8936070160762
 31
0.0
  0
LINE
  5
615
  8
0
  6
CONTINUOUS
 62
   253
 10
-321.6935348500359
 20
211.8660031995434
 30
0.0
 11
-322.0039597187352
 21
212.2447064526635
 31
0.0
  0
LINE
  5
616
  8
0
  6
CONTINUOUS
 62
   253
 10
-272.4369179208142
 20
210.964675307787
 30
0.0
 11
-272.4846003985048
 21
210.4766184408446
 31
0.0
  0
LINE
  5
617
  8
0
  6
CONTINUOUS
 62
   253
 10
-366.4598889616579
 20
140.970693735445
 30
0.0
 11
-366.4123281666548
 21
140.4828970331062
 31
0.0
  0
LINE
  5
618
  8
0
  6
CONTINUOUS
 62
   253
 10
-318.0645286840772
 20
139.5837346923992
 30
0.0
 11
-317.7541038153778
 21
139.2050314392791
 31
0.0
  0
LINE
  5
619
  8
0
  6
CONTINUOUS
 62
   253
 10
-270.9438641289473
 20
212.786128371236
 30
0.0
 11
-271.3757115912629
 21
212.5553865831156
 31
0.0
  0
LINE
  5
61A
  8
0
  6
CONTINUOUS
 62
   253
 10
-316.9438641289473
 20
138.6636095207067
 30
0.0
 11
-316.4751236635736
 21
138.5216554953397
 31
0.0
  0
LINE
  5
61B
  8
0
  6
CONTINUOUS
 62
   253
 10
-318.2950807675087
 20
140.0159370223728
 30
0.0
 11
-318.0645286840772
 21
139.5837346923992
 31
0.0
  0
LINE
  5
61C
  8
0
  6
CONTINUOUS
 62
   253
 10
-365.3512030035542
 20
138.8936070160762
 30
0.0
 11
-364.9192254482263
 21
138.6631797619336
 31
0.0
  0
LINE
  5
61D
  8
0
  6
CONTINUOUS
 62
   253
 10
-270.4751236635735
 20
138.5216554953397
 30
0.0
 11
-269.9874673525546
 21
138.4739334604981
 31
0.0
  0
LINE
  5
61E
  8
0
  6
CONTINUOUS
 62
   253
 10
-181.487482496639
 20
211.4356399234278
 30
0.0
 11
-181.717984447653
 21
211.8674777560803
 31
0.0
  0
LINE
  5
61F
  8
0
  6
CONTINUOUS
 62
   253
 10
-366.4123281666548
 20
210.9668408588364
 30
0.0
 11
-366.4598889616579
 21
210.4790441564977
 31
0.0
  0
LINE
  5
620
  8
0
  6
CONTINUOUS
 62
   253
 10
-366.270581037474
 20
140.0140979685148
 30
0.0
 11
-366.04007908646
 21
139.5822601358623
 31
0.0
  0
LINE
  5
621
  8
0
  6
CONTINUOUS
 62
   253
 10
-321.3211456132988
 20
140.4850625841556
 30
0.0
 11
-321.2734631356082
 21
140.973119451098
 31
0.0
  0
LINE
  5
622
  8
0
  6
CONTINUOUS
 62
   253
 10
-364.9192254482263
 20
138.6631797619336
 30
0.0
 11
-364.4502747516341
 21
138.5214786605285
 31
0.0
  0
LINE
  5
623
  8
0
  6
CONTINUOUS
 62
   253
 10
-182.0284087721847
 20
139.2039308368996
 30
0.0
 11
-181.717984447653
 21
139.5822601358623
 31
0.0
  0
LINE
  5
624
  8
0
  6
CONTINUOUS
 62
     7
 10
-135.5686457180492
 20
117.2248689459713
 30
0.0
 11
-135.5686457180492
 21
234.2248689459713
 31
0.0
  0
LINE
  5
625
  8
0
  6
CONTINUOUS
 62
   253
 10
-181.3457353674583
 20
140.4828970331062
 30
0.0
 11
-181.2981745724552
 21
140.970693735445
 31
0.0
  0
LINE
  5
626
  8
0
  6
CONTINUOUS
 62
     7
 10
-336.155626383014
 20
54.38457924826734
 30
0.0
 11
-336.3703810545873
 21
78.99302717282575
 31
0.0
  0
LINE
  5
627
  8
0
  6
CONTINUOUS
 62
     7
 10
-135.0686457180492
 20
234.2248689459713
 30
0.0
 11
-135.0686457180492
 21
117.2248689459713
 31
0.0
  0
LINE
  5
628
  8
0
  6
CONTINUOUS
 62
   253
 10
-350.4264666761704
 20
137.4749877623839
 30
0.0
 11
-350.4139773166054
 21
137.4750398090809
 31
0.0
  0
LINE
  5
629
  8
0
  6
CONTINUOUS
 62
     7
 10
-257.3876824795269
 20
78.99302717282578
 30
0.0
 11
-257.6024371510992
 21
54.38457924826734
 31
0.0
  0
LINE
  5
62A
  8
0
  6
CONTINUOUS
 62
   253
 10
-289.3440862175078
 20
137.4750398090809
 30
0.0
 11
-289.3315968579429
 21
137.4749877623839
 31
0.0
  0
LINE
  5
62B
  8
0
  6
CONTINUOUS
 62
   253
 10
-304.3978918280463
 20
138.4739334604981
 30
0.0
 11
-315.9874673525546
 21
138.4739334604981
 31
0.0
  0
LINE
  5
62C
  8
0
  6
CONTINUOUS
 62
     7
 10
-121.0686457180492
 20
138.5725848282885
 30
0.0
 11
-121.0686457180492
 21
131.3427007003394
 31
0.0
  0
LINE
  5
62D
  8
0
  6
CONTINUOUS
 62
   253
 10
-350.3978918280462
 20
138.4739334604981
 30
0.0
 11
-363.9623203182535
 21
138.4739334604981
 31
0.0
  0
LINE
  5
62E
  8
0
  6
CONTINUOUS
 62
   253
 10
-315.9874673525546
 20
212.9758044314445
 30
0.0
 11
-304.3978918280463
 21
212.9758044314445
 31
0.0
  0
LINE
  5
62F
  8
0
  6
CONTINUOUS
 62
   253
 10
-258.3978918280463
 20
138.4739334604981
 30
0.0
 11
-269.9874673525546
 21
138.4739334604981
 31
0.0
  0
LINE
  5
630
  8
0
  6
CONTINUOUS
 62
     7
 10
-121.0686457180492
 20
220.1070371916032
 30
0.0
 11
-121.0686457180492
 21
212.8771530636541
 31
0.0
  0
LINE
  5
631
  8
0
  6
CONTINUOUS
 62
     7
 10
-349.3876824795269
 20
78.99302717282578
 30
0.0
 11
-349.6024371510992
 21
54.38457924826735
 31
0.0
  0
LINE
  5
632
  8
0
  6
CONTINUOUS
 62
     7
 10
-244.155626383014
 20
54.38457924826735
 30
0.0
 11
-244.3703810545868
 21
78.99302717282575
 31
0.0
  0
LINE
  5
633
  8
0
  6
CONTINUOUS
 62
   253
 10
-183.7957432158596
 20
138.4739334604981
 30
0.0
 11
-197.360171706067
 21
138.4739334604981
 31
0.0
  0
LINE
  5
634
  8
0
  6
CONTINUOUS
 62
     7
 10
-303.3876824795269
 20
78.99302717282578
 30
0.0
 11
-303.6024371510992
 21
54.38457924826734
 31
0.0
  0
LINE
  5
635
  8
0
  6
CONTINUOUS
 62
   253
 10
-182.8388380858868
 20
138.6631797619336
 30
0.0
 11
-182.4068605305589
 21
138.8936070160763
 31
0.0
  0
LINE
  5
636
  8
0
  6
CONTINUOUS
 62
     7
 10
-198.155626383014
 20
54.38457924826735
 30
0.0
 11
-198.3703810545873
 21
78.99302717282575
 31
0.0
  0
LINE
  5
637
  8
0
  6
CONTINUOUS
 62
   253
 10
-277.7705961815584
 20
138.4739334604981
 30
0.0
 11
-289.3601717060669
 21
138.4739334604981
 31
0.0
  0
LINE
  5
638
  8
0
  6
CONTINUOUS
 62
     7
 10
-290.155626383014
 20
54.38457924826734
 30
0.0
 11
-290.3703810545863
 21
78.99302717282576
 31
0.0
  0
LINE
  5
639
  8
0
  6
CONTINUOUS
 62
   253
 10
-363.9623203182534
 20
212.9758044314445
 30
0.0
 11
-350.3978918280462
 21
212.9758044314445
 31
0.0
  0
LINE
  5
63A
  8
0
  6
CONTINUOUS
 62
   253
 10
-197.3601717060669
 20
212.9758044314445
 30
0.0
 11
-183.7957432158596
 21
212.9758044314445
 31
0.0
  0
LINE
  5
63B
  8
0
  6
CONTINUOUS
 62
   253
 10
-323.7705961815585
 20
138.4739334604981
 30
0.0
 11
-335.3601717060669
 21
138.4739334604981
 31
0.0
  0
LINE
  5
63C
  8
0
  6
CONTINUOUS
 62
   253
 10
-183.7957432158596
 20
138.4739334604982
 30
0.0
 11
-183.307788782479
 21
138.5214786605285
 31
0.0
  0
LINE
  5
63D
  8
0
  6
CONTINUOUS
 62
     7
 10
-366.0207948344211
 20
55.63531343475346
 30
0.0
 11
-367.6790317669958
 21
88.98430063733039
 31
0.0
  0
LINE
  5
63E
  8
0
  6
CONTINUOUS
 62
     7
 10
-180.0790317670567
 20
88.9843006373274
 30
0.0
 11
-181.7372686997806
 21
55.63531343475814
 31
0.0
  0
LINE
  5
63F
  8
0
  6
CONTINUOUS
 62
   253
 10
-181.717984447653
 20
139.5822601358623
 30
0.0
 11
-181.487482496639
 21
140.0140979685148
 31
0.0
  0
LINE
  5
640
  8
0
  6
CONTINUOUS
 62
     7
 10
-211.3876824795248
 20
78.99302717282575
 30
0.0
 11
-211.6024371510992
 21
54.38457924826735
 31
0.0
  0
LINE
  5
641
  8
0
  6
CONTINUOUS
 62
   253
 10
-350.4139773166054
 20
213.9746980828617
 30
0.0
 11
-350.4264666761704
 21
213.9747501295587
 31
0.0
  0
LINE
  5
642
  8
0
  6
CONTINUOUS
 62
   253
 10
-258.4264666761703
 20
137.4749877623839
 30
0.0
 11
-258.4139773166053
 21
137.4750398090809
 31
0.0
  0
LINE
  5
643
  8
0
  6
CONTINUOUS
 62
   253
 10
-366.270581037474
 20
211.4356399234278
 30
0.0
 11
-366.4123281666548
 21
210.9668408588364
 31
0.0
  0
LINE
  5
644
  8
0
  6
CONTINUOUS
 62
   253
 10
-289.3315968579428
 20
212.9758044314445
 30
0.0
 11
-277.7705961815585
 21
212.9758044314445
 31
0.0
  0
LINE
  5
645
  8
0
  6
CONTINUOUS
 62
   253
 10
-212.3978918280463
 20
138.4739334604981
 30
0.0
 11
-243.360171706067
 21
138.4739334604981
 31
0.0
  0
LINE
  5
646
  8
0
  6
CONTINUOUS
 62
   253
 10
-183.307788782479
 20
138.5214786605285
 30
0.0
 11
-182.8388380858868
 21
138.6631797619336
 31
0.0
  0
LINE
  5
647
  8
0
  6
CONTINUOUS
 62
   253
 10
-212.4139773166054
 20
213.9746980828617
 30
0.0
 11
-212.4264666761703
 21
213.9747501295587
 31
0.0
  0
LINE
  5
648
  8
0
  6
CONTINUOUS
 62
   253
 10
-181.487482496639
 20
140.0140979685148
 30
0.0
 11
-181.3457353674583
 21
140.4828970331062
 31
0.0
  0
LINE
  5
649
  8
0
  6
CONTINUOUS
 62
   253
 10
-269.9874673525546
 20
212.9758044314445
 30
0.0
 11
-258.3978918280463
 21
212.9758044314445
 31
0.0
  0
LINE
  5
64A
  8
0
  6
CONTINUOUS
 62
   253
 10
-182.4068605305589
 20
138.8936070160763
 30
0.0
 11
-182.0284087721847
 21
139.2039308368996
 31
0.0
  0
LINE
  5
64B
  8
0
  6
CONTINUOUS
 62
   253
 10
-183.307788782479
 20
212.9282592314141
 30
0.0
 11
-183.7957432158596
 21
212.9758044314445
 31
0.0
  0
LINE
  5
64C
  8
0
  6
CONTINUOUS
 62
   253
 10
-243.360171706067
 20
212.9758044314445
 30
0.0
 11
-212.3978918280463
 21
212.9758044314445
 31
0.0
  0
LINE
  5
64D
  8
0
  6
CONTINUOUS
 62
   253
 10
-182.8388380858868
 20
212.786558130009
 30
0.0
 11
-183.307788782479
 21
212.9282592314141
 31
0.0
  0
LINE
  5
64E
  8
0
  6
CONTINUOUS
 62
   253
 10
-335.3601717060669
 20
212.9758044314445
 30
0.0
 11
-323.7705961815585
 21
212.9758044314445
 31
0.0
  0
LINE
  5
64F
  8
0
  6
CONTINUOUS
 62
   253
 10
-182.4068605305589
 20
212.5561308758664
 30
0.0
 11
-182.8388380858868
 21
212.786558130009
 31
0.0
  0
LINE
  5
650
  8
0
  6
CONTINUOUS
 62
   253
 10
-182.0284087721847
 20
212.245807055043
 30
0.0
 11
-182.4068605305589
 21
212.5561308758664
 31
0.0
  0
LINE
  5
651
  8
0
  6
CONTINUOUS
 62
   253
 10
-243.3440862175079
 20
137.4750398090809
 30
0.0
 11
-243.3315968579428
 21
137.4749877623839
 31
0.0
  0
ENDSEC
  0
EOF
