  0
SECTION
  2
HEADER
  9
$ACADVER
  1
AC1006
  9
$DWGCODEPAGE
  3
ansi_932
  9
$INSBASE
 10
0.0
 20
0.0
 30
0.0
  9
$EXTMIN
 10
103.6286796564403
 20
27.01897586594971
  9
$EXTMAX
 10
341.0125359509815
 20
222.5000000000001
  9
$LIMMIN
 10
0.0
 20
0.0
  9
$LIMMAX
 10
12.0
 20
9.0
  9
$ORTHOMODE
 70
     0
  9
$REGENMODE
 70
     1
  9
$FILLMODE
 70
     1
  9
$QTEXTMODE
 70
     0
  9
$MIRRTEXT
 70
     1
  9
$DRAGMODE
 70
     2
  9
$LTSCALE
 40
1.0
  9
$OSMODE
 70
    37
  9
$ATTMODE
 70
     1
  9
$TEXTSIZE
 40
0.2
  9
$TRACEWID
 40
0.05
  9
$TEXTSTYLE
  7
STANDARD
  9
$CLAYER
  8
0
  9
$CELTYPE
  6
BYLAYER
  9
$CECOLOR
 62
   256
  9
$DIMSCALE
 40
1.0
  9
$DIMASZ
 40
3.0
  9
$DIMEXO
 40
0.0625
  9
$DIMDLI
 40
0.38
  9
$DIMRND
 40
0.0
  9
$DIMDLE
 40
0.0
  9
$DIMEXE
 40
1.5
  9
$DIMTP
 40
0.0
  9
$DIMTM
 40
0.0
  9
$DIMTXT
 40
3.0
  9
$DIMCEN
 40
0.09
  9
$DIMTSZ
 40
0.0
  9
$DIMTOL
 70
     0
  9
$DIMLIM
 70
     0
  9
$DIMTIH
 70
     1
  9
$DIMTOH
 70
     1
  9
$DIMSE1
 70
     0
  9
$DIMSE2
 70
     0
  9
$DIMTAD
 70
     1
  9
$DIMZIN
 70
     0
  9
$DIMBLK
  1

  9
$DIMASO
 70
     1
  9
$DIMSHO
 70
     1
  9
$DIMPOST
  1

  9
$DIMAPOST
  1

  9
$DIMALT
 70
     0
  9
$DIMALTD
 70
     2
  9
$DIMALTF
 40
25.4
  9
$DIMLFAC
 40
1.0
  9
$DIMTOFL
 70
     0
  9
$DIMTVP
 40
0.0
  9
$DIMTIX
 70
     0
  9
$DIMSOXD
 70
     0
  9
$DIMSAH
 70
     0
  9
$DIMBLK1
  1

  9
$DIMBLK2
  1

  9
$LUNITS
 70
     2
  9
$LUPREC
 70
     4
  9
$SKETCHINC
 40
0.1
  9
$FILLETRAD
 40
0.5
  9
$AUNITS
 70
     0
  9
$AUPREC
 70
     0
  9
$MENU
  1
.
  9
$ELEVATION
 40
0.0
  9
$THICKNESS
 40
0.0
  9
$LIMCHECK
 70
     0
  9
$CHAMFERA
 40
0.0
  9
$CHAMFERB
 40
0.0
  9
$SKPOLY
 70
     0
  9
$TDCREATE
 40
2460454.468846227
  9
$TDUPDATE
 40
2460454.468846424
  9
$TDINDWG
 40
0.0000000116
  9
$TDUSRTIMER
 40
0.0000000116
  9
$USRTIMER
 70
     1
  9
$ANGBASE
 50
0.0
  9
$ANGDIR
 70
     0
  9
$PDMODE
 70
     0
  9
$PDSIZE
 40
0.0
  9
$PLINEWID
 40
0.0
  9
$COORDS
 70
     1
  9
$SPLFRAME
 70
     0
  9
$SPLINETYPE
 70
     6
  9
$SPLINESEGS
 70
     8
  9
$ATTDIA
 70
     0
  9
$ATTREQ
 70
     1
  9
$HANDLING
 70
     1
  9
$HANDSEED
  5
11B
  9
$SURFTAB1
 70
     6
  9
$SURFTAB2
 70
     6
  9
$SURFTYPE
 70
     6
  9
$SURFU
 70
     6
  9
$SURFV
 70
     6
  9
$UCSNAME
  2

  9
$UCSORG
 10
0.0
 20
0.0
 30
0.0
  9
$UCSXDIR
 10
1.0
 20
0.0
 30
0.0
  9
$UCSYDIR
 10
0.0
 20
1.0
 30
0.0
  9
$USERI1
 70
     0
  9
$USERI2
 70
     0
  9
$USERI3
 70
     0
  9
$USERI4
 70
     0
  9
$USERI5
 70
     0
  9
$USERR1
 40
0.0
  9
$USERR2
 40
0.0
  9
$USERR3
 40
0.0
  9
$USERR4
 40
0.0
  9
$USERR5
 40
0.0
  9
$WORLDVIEW
 70
     1
  0
ENDSEC
  0
SECTION
  2
TABLES
  0
TABLE
  2
VPORT
 70
     1
  0
VPORT
  2
*ACTIVE
 70
     0
 10
0.0
 20
0.0
 11
1.0
 21
1.0
 12
222.3206078037109
 22
124.7594879329749
 13
0.0
 23
0.0
 14
0.5
 24
0.5
 15
0.5
 25
0.5
 16
0.0
 26
0.0
 36
1.0
 17
0.0
 27
0.0
 37
0.0
 40
195.4810241340504
 41
1.6
 42
50.0
 43
0.0
 44
0.0
 50
0.0
 51
0.0
 71
     0
 72
   100
 73
     1
 74
     3
 75
     0
 76
     0
 77
     0
 78
     0
  0
ENDTAB
  0
TABLE
  2
LTYPE
 70
     2
  0
LTYPE
  2
CONTINUOUS
 70
     0
  3
Solid line
 72
    65
 73
     0
 40
0.0
  0
LTYPE
  2
CENTER
 70
     0
  3

 72
    65
 73
     0
 40
0.0
  0
ENDTAB
  0
TABLE
  2
LAYER
 70
     2
  0
LAYER
  2
0
 70
     0
 62
     7
  6
CONTINUOUS
  0
LAYER
  2
1
 70
     0
 62
     7
  6
CONTINUOUS
  0
ENDTAB
  0
TABLE
  2
STYLE
 70
     2
  0
STYLE
  2
STANDARD
 70
     0
 40
0.0
 41
1.0
 50
0.0
 71
     0
 42
0.2
  3
txt
  4

  0
STYLE
  2
ＭＳ_ゴシック
 70
     0
 40
0.0
 41
1.0
 50
0.0
 71
     0
 42
0.2
  3
ＭＳ ゴシック.shx
  4

  0
ENDTAB
  0
TABLE
  2
VIEW
 70
     0
  0
ENDTAB
  0
TABLE
  2
UCS
 70
     0
  0
ENDTAB
  0
ENDSEC
  0
SECTION
  2
BLOCKS
  0
ENDSEC
  0
SECTION
  2
ENTITIES
  0
TEXT
  5
70
  8
1
  6
CONTINUOUS
 62
     7
 10
289.0477991746904
 20
25.87886082280852
 30
0.0
 40
10.0
  1
SB-K1FY-K
  0
LINE
  5
71
  8
1
  6
CONTINUOUS
 62
     7
 10
265.9999999999999
 20
77.2
 30
0.0
 11
294.0
 21
77.2
 31
0.0
  0
LINE
  5
72
  8
1
  6
CONTINUOUS
 62
     7
 10
265.9999999999999
 20
77.5
 30
0.0
 11
294.0
 21
77.5
 31
0.0
  0
LINE
  5
73
  8
1
  6
CONTINUOUS
 62
     7
 10
269.9999999999999
 20
81.5
 30
0.0
 11
290.0
 21
81.5
 31
0.0
  0
LINE
  5
74
  8
1
  6
CONTINUOUS
 62
     7
 10
267.0
 20
75.8
 30
0.0
 11
292.9999999999999
 21
75.8
 31
0.0
  0
LINE
  5
75
  8
1
  6
CONTINUOUS
 62
     7
 10
266.9999999999999
 20
76.0
 30
0.0
 11
293.0
 21
76.0
 31
0.0
  0
LINE
  5
76
  8
1
  6
CONTINUOUS
 62
     7
 10
269.3
 20
73.5
 30
0.0
 11
290.6999999999999
 21
73.5
 31
0.0
  0
LINE
  5
77
  8
1
  6
CONTINUOUS
 62
     7
 10
265.9999999999999
 20
77.5
 30
0.0
 11
265.9999999999999
 21
77.2
 31
0.0
  0
LINE
  5
78
  8
1
  6
CONTINUOUS
 62
     7
 10
294.0
 20
77.2
 30
0.0
 11
294.0
 21
77.5
 31
0.0
  0
ARC
  5
79
  8
1
  6
CONTINUOUS
 62
     7
 10
269.9999999999999
 20
77.5
 30
0.0
 40
4.000000000000004
 50
90.00000000000004
 51
180.0000000000001
  0
ARC
  5
7A
  8
1
  6
CONTINUOUS
 62
     7
 10
290.0
 20
77.5
 30
0.0
 40
4.000000000000004
 50
359.9999999999998
 51
90.0
  0
LINE
  5
7B
  8
1
  6
CONTINUOUS
 62
     7
 10
266.9999999999999
 20
76.0
 30
0.0
 11
266.9999999999999
 21
75.8
 31
0.0
  0
LINE
  5
7C
  8
1
  6
CONTINUOUS
 62
     7
 10
293.0
 20
75.8
 30
0.0
 11
293.0
 21
76.0
 31
0.0
  0
ARC
  5
7D
  8
1
  6
CONTINUOUS
 62
     7
 10
269.3
 20
75.8
 30
0.0
 40
2.299999999999969
 50
180.0000000000001
 51
270.0000000000002
  0
ARC
  5
7E
  8
1
  6
CONTINUOUS
 62
     7
 10
290.6999999999999
 20
75.8
 30
0.0
 40
2.299999999999996
 50
269.9999999999998
 51
359.9999999999998
  0
LINE
  5
7F
  8
1
  6
CONTINUOUS
 62
     7
 10
269.4999999999999
 20
77.2
 30
0.0
 11
269.4999999999999
 21
76.0
 31
0.0
  0
LINE
  5
80
  8
1
  6
CONTINUOUS
 62
     7
 10
290.5
 20
76.0
 30
0.0
 11
290.5
 21
77.2
 31
0.0
  0
CIRCLE
  5
81
  8
1
  6
CONTINUOUS
 62
     7
 10
279.9999999999999
 20
107.5
 30
0.0
 40
10.0
  0
CIRCLE
  5
82
  8
1
  6
CONTINUOUS
 62
     7
 10
279.9999999999999
 20
107.5
 30
0.0
 40
9.499999999999998
  0
CIRCLE
  5
83
  8
1
  6
CONTINUOUS
 62
     7
 10
279.9999999999999
 20
107.5
 30
0.0
 40
14.0
  0
ARC
  5
84
  8
1
  6
CONTINUOUS
 62
     7
 10
279.9999999999999
 20
107.5
 30
0.0
 40
8.499999999999993
 50
180.0
 51
0.0
  0
ARC
  5
85
  8
1
  6
CONTINUOUS
 62
     7
 10
279.9999999999999
 20
107.5
 30
0.0
 40
8.499999999999993
 50
0.0
 51
180.0
  0
CIRCLE
  5
86
  8
1
  6
CONTINUOUS
 62
     7
 10
279.9999999999999
 20
107.5
 30
0.0
 40
1.5
  0
LINE
  5
87
  8
1
  6
CONTINUOUS
 62
     7
 10
253.5479563742184
 20
152.5
 30
0.0
 11
253.0479563742184
 21
152.5
 31
0.0
  0
LINE
  5
88
  8
1
  6
CONTINUOUS
 62
     7
 10
253.0479563742184
 20
152.5
 30
0.0
 11
253.0479563742184
 21
162.5
 31
0.0
  0
LINE
  5
89
  8
1
  6
CONTINUOUS
 62
     7
 10
253.5479563742184
 20
162.5
 30
0.0
 11
253.5479563742184
 21
152.5
 31
0.0
  0
LINE
  5
8A
  8
1
  6
CONTINUOUS
 62
     7
 10
253.5479563742185
 20
179.5
 30
0.0
 11
253.5479563742185
 21
181.0
 31
0.0
  0
LINE
  5
8B
  8
1
  6
CONTINUOUS
 62
     7
 10
253.0479563742184
 20
179.5
 30
0.0
 11
253.0479563742185
 21
181.0
 31
0.0
  0
LINE
  5
8C
  8
1
  6
CONTINUOUS
 62
     7
 10
253.0479563742185
 20
182.5
 30
0.0
 11
253.0479563742185
 21
212.5
 31
0.0
  0
LINE
  5
8D
  8
1
  6
CONTINUOUS
 62
     7
 10
253.5479563742185
 20
182.5
 30
0.0
 11
253.5479563742184
 21
212.5
 31
0.0
  0
LINE
  5
8E
  8
1
  6
CONTINUOUS
 62
     7
 10
253.0479563742184
 20
212.5
 30
0.0
 11
253.0479563742184
 21
222.5
 31
0.0
  0
LINE
  5
8F
  8
1
  6
CONTINUOUS
 62
     7
 10
253.0479563742184
 20
222.5
 30
0.0
 11
253.5479563742184
 21
222.5
 31
0.0
  0
LINE
  5
90
  8
1
  6
CONTINUOUS
 62
     7
 10
253.5479563742184
 20
222.5
 30
0.0
 11
253.5479563742184
 21
212.5
 31
0.0
  0
LINE
  5
91
  8
1
  6
CONTINUOUS
 62
     7
 10
253.5479563742184
 20
162.5
 30
0.0
 11
253.5479563742184
 21
179.5
 31
0.0
  0
LINE
  5
92
  8
1
  6
CONTINUOUS
 62
     7
 10
253.0479563742184
 20
162.5
 30
0.0
 11
253.0479563742184
 21
179.5
 31
0.0
  0
LINE
  5
93
  8
1
  6
CONTINUOUS
 62
     7
 10
253.5479563742185
 20
181.0
 30
0.0
 11
253.5479563742185
 21
182.5
 31
0.0
  0
LINE
  5
94
  8
1
  6
CONTINUOUS
 62
     7
 10
253.0479563742185
 20
181.0
 30
0.0
 11
253.0479563742185
 21
182.5
 31
0.0
  0
LINE
  5
95
  8
1
  6
CONTINUOUS
 62
     7
 10
253.5479563742184
 20
214.0
 30
0.0
 11
296.1003135935303
 21
213.2572458418882
 31
0.0
  0
LINE
  5
96
  8
1
  6
CONTINUOUS
 62
     7
 10
299.0479563742184
 20
210.2148266763173
 30
0.0
 11
299.0479563742184
 21
164.7851733236828
 31
0.0
  0
ARC
  5
97
  8
1
  6
CONTINUOUS
 62
     7
 10
296.0479563742184
 20
210.257702756419
 30
0.0
 40
3.000000000000007
 50
0.0
 51
89.00000000000001
  0
ARC
  5
98
  8
1
  6
CONTINUOUS
 62
     7
 10
296.0479563742184
 20
164.742297243581
 30
0.0
 40
3.000000000000009
 50
271.0000000000003
 51
316.7520719602783
  0
ARC
  5
99
  8
1
  6
CONTINUOUS
 62
     7
 10
296.0344798711239
 20
164.7400481028253
 30
0.0
 40
3.004084422754334
 50
316.6357114338965
 51
0.0113501709633965
  0
LINE
  5
9A
  8
1
  6
CONTINUOUS
 62
     7
 10
173.75
 20
160.9
 30
0.0
 11
173.75
 21
161.0
 31
0.0
  0
LINE
  5
9B
  8
1
  6
CONTINUOUS
 62
     7
 10
192.75
 20
161.5
 30
0.0
 11
156.5
 21
161.5
 31
0.0
  0
LINE
  5
9C
  8
1
  6
CONTINUOUS
 62
     7
 10
156.5
 20
161.5
 30
0.0
 11
155.0
 21
163.0
 31
0.0
  0
LINE
  5
9D
  8
1
  6
CONTINUOUS
 62
     7
 10
155.0
 20
163.0
 30
0.0
 11
153.5
 21
161.5
 31
0.0
  0
LINE
  5
9E
  8
1
  6
CONTINUOUS
 62
     7
 10
153.5
 20
161.5
 30
0.0
 11
114.7500000000001
 21
161.5
 31
0.0
  0
ARC
  5
9F
  8
1
  6
CONTINUOUS
 62
     7
 10
114.75
 20
164.0
 30
0.0
 40
2.500000000000002
 50
180.0
 51
270.0000000000032
  0
LINE
  5
A0
  8
1
  6
CONTINUOUS
 62
     7
 10
112.25
 20
164.0
 30
0.0
 11
112.25
 21
167.0
 31
0.0
  0
ARC
  5
A1
  8
1
  6
CONTINUOUS
 62
     7
 10
114.75
 20
197.9999999999999
 30
0.0
 40
2.500000000000002
 50
90.0
 51
180.0000000000005
  0
LINE
  5
A2
  8
1
  6
CONTINUOUS
 62
     7
 10
114.75
 20
200.4999999999999
 30
0.0
 11
153.5
 21
200.5
 31
0.0
  0
LINE
  5
A3
  8
1
  6
CONTINUOUS
 62
     7
 10
153.5
 20
200.5
 30
0.0
 11
155.0
 21
199.0
 31
0.0
  0
LINE
  5
A4
  8
1
  6
CONTINUOUS
 62
     7
 10
155.0
 20
199.0
 30
0.0
 11
156.4999999999999
 21
200.5
 31
0.0
  0
LINE
  5
A5
  8
1
  6
CONTINUOUS
 62
     7
 10
156.5
 20
200.5
 30
0.0
 11
192.7499999999998
 21
200.5
 31
0.0
  0
LINE
  5
A6
  8
1
  6
CONTINUOUS
 62
     7
 10
119.9000000000001
 20
194.85
 30
0.0
 11
119.9000000000001
 21
167.1499999999999
 31
0.0
  0
LINE
  5
A7
  8
1
  6
CONTINUOUS
 62
     7
 10
190.1000000000002
 20
167.1499999999999
 30
0.0
 11
190.1000000000002
 21
194.85
 31
0.0
  0
LINE
  5
A8
  8
1
  6
CONTINUOUS
 62
     7
 10
193.75
 20
200.4999999999999
 30
0.0
 11
192.75
 21
200.4999999999999
 31
0.0
  0
LINE
  5
A9
  8
1
  6
CONTINUOUS
 62
     7
 10
192.75
 20
161.5
 30
0.0
 11
193.75
 21
161.5
 31
0.0
  0
ARC
  5
AA
  8
1
  6
CONTINUOUS
 62
     7
 10
195.2499999999999
 20
197.9999999999999
 30
0.0
 40
2.500000000000002
 50
0.0
 51
90.00000000000304
  0
LINE
  5
AB
  8
1
  6
CONTINUOUS
 62
     7
 10
193.75
 20
200.4999999999999
 30
0.0
 11
195.2499999999997
 21
200.4999999999999
 31
0.0
  0
LINE
  5
AC
  8
1
  6
CONTINUOUS
 62
     7
 10
195.2499999999999
 20
161.5
 30
0.0
 11
193.75
 21
161.5
 31
0.0
  0
LINE
  5
AD
  8
1
  6
CONTINUOUS
 62
     7
 10
197.7499999999999
 20
197.9999999999999
 30
0.0
 11
197.7499999999999
 21
164.0
 31
0.0
  0
ARC
  5
AE
  8
1
  6
CONTINUOUS
 62
     7
 10
195.2499999999999
 20
164.0
 30
0.0
 40
2.500000000000002
 50
270.0
 51
0.0000000000003411
  0
ARC
  5
AF
  8
1
  6
CONTINUOUS
 62
     7
 10
187.25
 20
181.0
 30
0.0
 40
5.000000000000004
 50
90.0
 51
270.0
  0
LINE
  5
B0
  8
1
  6
CONTINUOUS
 62
     7
 10
187.25
 20
186.0
 30
0.0
 11
190.0127313220926
 21
186.0
 31
0.0
  0
LINE
  5
B1
  8
1
  6
CONTINUOUS
 62
     7
 10
190.0127313220926
 20
176.0
 30
0.0
 11
187.25
 21
176.0
 31
0.0
  0
LINE
  5
B2
  8
1
  6
CONTINUOUS
 62
     7
 10
122.75
 20
186.0
 30
0.0
 11
119.9872686779077
 21
186.0
 31
0.0
  0
LINE
  5
B3
  8
1
  6
CONTINUOUS
 62
     7
 10
119.9872686779077
 20
176.0
 30
0.0
 11
122.75
 21
176.0
 31
0.0
  0
ARC
  5
B4
  8
1
  6
CONTINUOUS
 62
     7
 10
122.75
 20
181.0
 30
0.0
 40
5.000000000000004
 50
270.0
 51
90.0
  0
ARC
  5
B5
  8
1
  6
CONTINUOUS
 62
     7
 10
122.75
 20
181.0
 30
0.0
 40
2.099999999999991
 50
270.0000000000015
 51
90.0000000000004
  0
ARC
  5
B6
  8
1
  6
CONTINUOUS
 62
     7
 10
187.25
 20
181.0
 30
0.0
 40
2.099999999999991
 50
90.0
 51
269.9999999999989
  0
ARC
  5
B7
  8
1
  6
CONTINUOUS
 62
     7
 10
122.75
 20
181.0
 30
0.0
 40
2.099999999999991
 50
90.0
 51
270.0000000000011
  0
ARC
  5
B8
  8
1
  6
CONTINUOUS
 62
     7
 10
187.25
 20
181.0
 30
0.0
 40
2.099999999999991
 50
269.9999999999985
 51
89.99999999999962
  0
LINE
  5
B9
  8
1
  6
CONTINUOUS
 62
     7
 10
111.2586513684422
 20
164.0081944539114
 30
0.0
 11
111.2586513684421
 21
210.9918055460887
 31
0.0
  0
LINE
  5
BA
  8
1
  6
CONTINUOUS
 62
     7
 10
107.75
 20
181.0
 30
0.0
 11
106.25
 21
179.5
 31
0.0
  0
LINE
  5
BB
  8
1
  6
CONTINUOUS
 62
     7
 10
106.25
 20
182.5
 30
0.0
 11
107.75
 21
181.0
 31
0.0
  0
LINE
  5
BC
  8
1
  6
CONTINUOUS
 62
     7
 10
106.25
 20
212.5
 30
0.0
 11
106.25
 21
182.5
 31
0.0
  0
ARC
  5
BD
  8
1
  6
CONTINUOUS
 62
     7
 10
116.25
 20
212.5
 30
0.0
 40
10.00000000000001
 50
90.0
 51
179.9999999999998
  0
LINE
  5
BE
  8
1
  6
CONTINUOUS
 62
     7
 10
153.5
 20
222.5
 30
0.0
 11
116.2499999999999
 21
222.5
 31
0.0
  0
LINE
  5
BF
  8
1
  6
CONTINUOUS
 62
     7
 10
155.0
 20
221.0000000000001
 30
0.0
 11
153.5
 21
222.5000000000001
 31
0.0
  0
LINE
  5
C0
  8
1
  6
CONTINUOUS
 62
     7
 10
156.5
 20
222.5
 30
0.0
 11
155.0
 21
221.0
 31
0.0
  0
LINE
  5
C1
  8
1
  6
CONTINUOUS
 62
     7
 10
193.75
 20
222.5
 30
0.0
 11
156.5
 21
222.5000000000001
 31
0.0
  0
ARC
  5
C2
  8
1
  6
CONTINUOUS
 62
     7
 10
193.75
 20
212.5
 30
0.0
 40
10.00000000000001
 50
359.9999999999998
 51
89.99999999999994
  0
LINE
  5
C3
  8
1
  6
CONTINUOUS
 62
     7
 10
203.75
 20
182.5
 30
0.0
 11
203.75
 21
212.5
 31
0.0
  0
LINE
  5
C4
  8
1
  6
CONTINUOUS
 62
     7
 10
202.25
 20
181.0
 30
0.0
 11
203.75
 21
182.5
 31
0.0
  0
LINE
  5
C5
  8
1
  6
CONTINUOUS
 62
     7
 10
203.75
 20
162.5
 30
0.0
 11
203.75
 21
179.5
 31
0.0
  0
ARC
  5
C6
  8
1
  6
CONTINUOUS
 62
     7
 10
193.75
 20
162.5
 30
0.0
 40
10.00000000000001
 50
270.0000000000002
 51
0.0000000000001705
  0
LINE
  5
C7
  8
1
  6
CONTINUOUS
 62
     7
 10
156.5
 20
152.5
 30
0.0
 11
193.75
 21
152.5000000000001
 31
0.0
  0
LINE
  5
C8
  8
1
  6
CONTINUOUS
 62
     7
 10
155.0
 20
153.9999999999999
 30
0.0
 11
156.5
 21
152.4999999999999
 31
0.0
  0
LINE
  5
C9
  8
1
  6
CONTINUOUS
 62
     7
 10
153.5000000000001
 20
152.5000000000001
 30
0.0
 11
155.0
 21
154.0
 31
0.0
  0
LINE
  5
CA
  8
1
  6
CONTINUOUS
 62
     7
 10
116.25
 20
152.5000000000001
 30
0.0
 11
153.5000000000001
 21
152.5000000000001
 31
0.0
  0
ARC
  5
CB
  8
1
  6
CONTINUOUS
 62
     7
 10
116.25
 20
162.5
 30
0.0
 40
10.00000000000001
 50
179.9999999999998
 51
269.9999999999999
  0
LINE
  5
CC
  8
1
  6
CONTINUOUS
 62
     7
 10
106.25
 20
179.5
 30
0.0
 11
106.25
 21
162.5
 31
0.0
  0
LINE
  5
CD
  8
1
  6
CONTINUOUS
 62
     7
 10
195.7418055460887
 20
161.0086513684422
 30
0.0
 11
114.2581944539113
 21
161.0086513684422
 31
0.0
  0
LINE
  5
CE
  8
1
  6
CONTINUOUS
 62
     7
 10
195.7418055460887
 20
161.0086513684422
 30
0.0
 11
196.3270360419314
 21
161.066282023589
 31
0.0
  0
LINE
  5
CF
  8
1
  6
CONTINUOUS
 62
     7
 10
196.3270360419314
 20
161.066282023589
 30
0.0
 11
196.8897500440237
 21
161.2369601313202
 31
0.0
  0
LINE
  5
D0
  8
1
  6
CONTINUOUS
 62
     7
 10
196.8897500440237
 20
161.2369601313202
 30
0.0
 11
197.4083311274192
 21
161.5141291629338
 31
0.0
  0
LINE
  5
D1
  8
1
  6
CONTINUOUS
 62
     7
 10
197.4083311274192
 20
161.5141291629338
 30
0.0
 11
197.8628582149349
 21
161.8871417850652
 31
0.0
  0
LINE
  5
D2
  8
1
  6
CONTINUOUS
 62
     7
 10
197.8628582149349
 20
161.8871417850652
 30
0.0
 11
198.2358708370662
 21
162.3416688725808
 31
0.0
  0
LINE
  5
D3
  8
1
  6
CONTINUOUS
 62
     7
 10
198.2358708370662
 20
162.3416688725808
 30
0.0
 11
198.5130398686799
 21
162.8602499559764
 31
0.0
  0
LINE
  5
D4
  8
1
  6
CONTINUOUS
 62
     7
 10
198.5130398686799
 20
162.8602499559764
 30
0.0
 11
198.6837179764111
 21
163.4229639580686
 31
0.0
  0
LINE
  5
D5
  8
1
  6
CONTINUOUS
 62
     7
 10
198.6837179764111
 20
163.4229639580686
 30
0.0
 11
198.7413486315578
 21
164.0081944539113
 31
0.0
  0
LINE
  5
D6
  8
1
  6
CONTINUOUS
 62
     7
 10
198.7413486315579
 20
210.9918055460887
 30
0.0
 11
198.7413486315579
 21
164.0081944539114
 31
0.0
  0
LINE
  5
D7
  8
1
  6
CONTINUOUS
 62
     7
 10
198.7413486315578
 20
210.9918055460887
 30
0.0
 11
198.683717976411
 21
211.5770360419314
 31
0.0
  0
LINE
  5
D8
  8
1
  6
CONTINUOUS
 62
     7
 10
198.683717976411
 20
211.5770360419314
 30
0.0
 11
198.5130398686798
 21
212.1397500440236
 31
0.0
  0
LINE
  5
D9
  8
1
  6
CONTINUOUS
 62
     7
 10
198.5130398686798
 20
212.1397500440236
 30
0.0
 11
198.2358708370662
 21
212.6583311274192
 31
0.0
  0
LINE
  5
DA
  8
1
  6
CONTINUOUS
 62
     7
 10
198.2358708370662
 20
212.6583311274192
 30
0.0
 11
197.8628582149349
 21
213.1128582149348
 31
0.0
  0
LINE
  5
DB
  8
1
  6
CONTINUOUS
 62
     7
 10
197.8628582149349
 20
213.1128582149348
 30
0.0
 11
197.4083311274192
 21
213.4858708370662
 31
0.0
  0
LINE
  5
DC
  8
1
  6
CONTINUOUS
 62
     7
 10
197.4083311274192
 20
213.4858708370662
 30
0.0
 11
196.8897500440237
 21
213.7630398686798
 31
0.0
  0
LINE
  5
DD
  8
1
  6
CONTINUOUS
 62
     7
 10
196.8897500440237
 20
213.7630398686798
 30
0.0
 11
196.3270360419314
 21
213.933717976411
 31
0.0
  0
LINE
  5
DE
  8
1
  6
CONTINUOUS
 62
     7
 10
196.3270360419314
 20
213.933717976411
 30
0.0
 11
195.7418055460887
 21
213.9913486315578
 31
0.0
  0
LINE
  5
DF
  8
1
  6
CONTINUOUS
 62
     7
 10
114.2581944539113
 20
213.9913486315579
 30
0.0
 11
195.7418055460887
 21
213.9913486315579
 31
0.0
  0
LINE
  5
E0
  8
1
  6
CONTINUOUS
 62
     7
 10
114.2581944539113
 20
213.9913486315578
 30
0.0
 11
113.6729639580686
 21
213.933717976411
 31
0.0
  0
LINE
  5
E1
  8
1
  6
CONTINUOUS
 62
     7
 10
113.6729639580686
 20
213.933717976411
 30
0.0
 11
113.1102499559764
 21
213.7630398686798
 31
0.0
  0
LINE
  5
E2
  8
1
  6
CONTINUOUS
 62
     7
 10
113.1102499559764
 20
213.7630398686798
 30
0.0
 11
112.5916688725808
 21
213.4858708370662
 31
0.0
  0
LINE
  5
E3
  8
1
  6
CONTINUOUS
 62
     7
 10
112.5916688725808
 20
213.4858708370662
 30
0.0
 11
112.1371417850651
 21
213.1128582149348
 31
0.0
  0
LINE
  5
E4
  8
1
  6
CONTINUOUS
 62
     7
 10
112.1371417850651
 20
213.1128582149348
 30
0.0
 11
111.7641291629338
 21
212.6583311274192
 31
0.0
  0
LINE
  5
E5
  8
1
  6
CONTINUOUS
 62
     7
 10
111.7641291629338
 20
212.6583311274192
 30
0.0
 11
111.4869601313202
 21
212.1397500440236
 31
0.0
  0
LINE
  5
E6
  8
1
  6
CONTINUOUS
 62
     7
 10
111.4869601313202
 20
212.1397500440236
 30
0.0
 11
111.316282023589
 21
211.5770360419314
 31
0.0
  0
LINE
  5
E7
  8
1
  6
CONTINUOUS
 62
     7
 10
111.316282023589
 20
211.5770360419314
 30
0.0
 11
111.2586513684422
 21
210.9918055460887
 31
0.0
  0
LINE
  5
E8
  8
1
  6
CONTINUOUS
 62
     7
 10
111.2586513684422
 20
164.0081944539114
 30
0.0
 11
111.316282023589
 21
163.4229639580686
 31
0.0
  0
LINE
  5
E9
  8
1
  6
CONTINUOUS
 62
     7
 10
111.316282023589
 20
163.4229639580686
 30
0.0
 11
111.4869601313202
 21
162.8602499559764
 31
0.0
  0
LINE
  5
EA
  8
1
  6
CONTINUOUS
 62
     7
 10
111.4869601313202
 20
162.8602499559764
 30
0.0
 11
111.7641291629338
 21
162.3416688725808
 31
0.0
  0
LINE
  5
EB
  8
1
  6
CONTINUOUS
 62
     7
 10
111.7641291629338
 20
162.3416688725808
 30
0.0
 11
112.1371417850651
 21
161.8871417850652
 31
0.0
  0
LINE
  5
EC
  8
1
  6
CONTINUOUS
 62
     7
 10
112.1371417850651
 20
161.8871417850652
 30
0.0
 11
112.5916688725808
 21
161.5141291629338
 31
0.0
  0
LINE
  5
ED
  8
1
  6
CONTINUOUS
 62
     7
 10
112.5916688725808
 20
161.5141291629338
 30
0.0
 11
113.1102499559763
 21
161.2369601313202
 31
0.0
  0
LINE
  5
EE
  8
1
  6
CONTINUOUS
 62
     7
 10
113.1102499559763
 20
161.2369601313202
 30
0.0
 11
113.6729639580686
 21
161.066282023589
 31
0.0
  0
LINE
  5
EF
  8
1
  6
CONTINUOUS
 62
     7
 10
113.6729639580686
 20
161.066282023589
 30
0.0
 11
114.2581944539113
 21
161.0086513684422
 31
0.0
  0
LINE
  5
F0
  8
1
  6
CONTINUOUS
 62
     7
 10
203.75
 20
179.5
 30
0.0
 11
202.25
 21
181.0
 31
0.0
  0
LINE
  5
F1
  8
1
  6
CONTINUOUS
 62
     7
 10
155.0
 20
111.4520436257814
 30
0.0
 11
156.4999999999999
 21
111.4520436257813
 31
0.0
  0
LINE
  5
F2
  8
1
  6
CONTINUOUS
 62
     7
 10
155.0
 20
111.9520436257814
 30
0.0
 11
156.4999999999999
 21
111.9520436257813
 31
0.0
  0
LINE
  5
F3
  8
1
  6
CONTINUOUS
 62
     7
 10
153.5
 20
111.4520436257814
 30
0.0
 11
155.0
 21
111.4520436257814
 31
0.0
  0
LINE
  5
F4
  8
1
  6
CONTINUOUS
 62
     7
 10
153.5000000000001
 20
111.9520436257815
 30
0.0
 11
155.0
 21
111.9520436257814
 31
0.0
  0
LINE
  5
F5
  8
1
  6
CONTINUOUS
 62
     7
 10
116.25
 20
111.4520436257815
 30
0.0
 11
153.5
 21
111.4520436257814
 31
0.0
  0
LINE
  5
F6
  8
1
  6
CONTINUOUS
 62
     7
 10
116.25
 20
111.9520436257815
 30
0.0
 11
153.5000000000001
 21
111.9520436257815
 31
0.0
  0
LINE
  5
F7
  8
1
  6
CONTINUOUS
 62
     7
 10
156.5
 20
111.4520436257813
 30
0.0
 11
193.75
 21
111.4520436257815
 31
0.0
  0
LINE
  5
F8
  8
1
  6
CONTINUOUS
 62
     7
 10
156.5
 20
111.9520436257813
 30
0.0
 11
193.75
 21
111.9520436257815
 31
0.0
  0
LINE
  5
F9
  8
1
  6
CONTINUOUS
 62
     7
 10
203.75
 20
111.9520436257815
 30
0.0
 11
203.75
 21
111.4520436257815
 31
0.0
  0
LINE
  5
FA
  8
1
  6
CONTINUOUS
 62
     7
 10
203.75
 20
111.4520436257815
 30
0.0
 11
193.75
 21
111.4520436257815
 31
0.0
  0
LINE
  5
FB
  8
1
  6
CONTINUOUS
 62
     7
 10
193.75
 20
111.9520436257815
 30
0.0
 11
203.75
 21
111.9520436257815
 31
0.0
  0
LINE
  5
FC
  8
1
  6
CONTINUOUS
 62
     7
 10
106.25
 20
111.4520436257815
 30
0.0
 11
106.25
 21
111.9520436257815
 31
0.0
  0
LINE
  5
FD
  8
1
  6
CONTINUOUS
 62
     7
 10
116.25
 20
111.4520436257815
 30
0.0
 11
106.25
 21
111.4520436257815
 31
0.0
  0
LINE
  5
FE
  8
1
  6
CONTINUOUS
 62
     7
 10
106.25
 20
111.9520436257815
 30
0.0
 11
116.25
 21
111.9520436257815
 31
0.0
  0
LINE
  5
FF
  8
1
  6
CONTINUOUS
 62
     7
 10
197.4640782695747
 20
65.95204362578153
 30
0.0
 11
112.5359217304251
 21
65.95204362578153
 31
0.0
  0
ARC
  5
100
  8
1
  6
CONTINUOUS
 62
     7
 10
197.4644459142083
 20
66.45204362578153
 30
0.0
 40
0.4999999999999921
 50
270.0000000000007
 51
358.9999999999989
  0
ARC
  5
101
  8
1
  6
CONTINUOUS
 62
     7
 10
112.5355540857918
 20
66.45204362578153
 30
0.0
 40
0.5000000000000004
 50
181.000000000001
 51
270.0
  0
CIRCLE
  5
102
  8
1
  6
CONTINUOUS
 62
     7
 10
155.0
 20
181.0
 30
0.0
 40
8.2
  0
LINE
  5
103
  8
1
  6
CENTER
 62
     1
 10
263.9999999999999
 20
107.5
 30
0.0
 11
296.0
 21
107.5
 31
0.0
  0
LINE
  5
105
  8
1
  6
CENTER
 62
     1
 10
109.75
 20
181.0
 30
0.0
 11
103.6286796564403
 21
181.0
 31
0.0
  0
LINE
  5
106
  8
1
  6
CONTINUOUS
 62
     7
 10
112.0356302382136
 20
66.44331742256288
 30
0.0
 11
111.25
 21
111.4520436257815
 31
0.0
  0
LINE
  5
107
  8
1
  6
CENTER
 62
     1
 10
203.75
 20
187.5
 30
0.0
 11
106.25
 21
187.5
 31
0.0
  0
LINE
  5
108
  8
1
  6
CONTINUOUS
 62
     7
 10
112.25
 20
164.0
 30
0.0
 11
112.25
 21
197.9999999999999
 31
0.0
  0
LINE
  5
109
  8
1
  6
CENTER
 62
     1
 10
279.9999999999999
 20
91.5
 30
0.0
 11
279.9999999999999
 21
123.5
 31
0.0
  0
LINE
  5
10A
  8
1
  6
CONTINUOUS
 62
     7
 10
296.1003135935303
 20
161.7427541581119
 30
0.0
 11
253.5479563742184
 21
161.0000000000001
 31
0.0
  0
LINE
  5
10B
  8
1
  6
CONTINUOUS
 62
     7
 10
119.9000000000001
 20
167.1499999999999
 30
0.0
 11
190.1000000000002
 21
167.1499999999999
 31
0.0
  0
LINE
  5
10C
  8
1
  6
CONTINUOUS
 62
     7
 10
190.1000000000002
 20
194.85
 30
0.0
 11
119.9000000000001
 21
194.85
 31
0.0
  0
LINE
  5
10D
  8
1
  6
CENTER
 62
     1
 10
253.0479563742184
 20
181.0
 30
0.0
 11
299.0479563742184
 21
181.0
 31
0.0
  0
LINE
  5
10E
  8
1
  6
CENTER
 62
     1
 10
112.7500000000001
 20
181.0000000000001
 30
0.0
 11
194.7499999999998
 21
181.0
 31
0.0
  0
LINE
  5
10F
  8
1
  6
CENTER
 62
     1
 10
253.0479563742185
 20
187.5
 30
0.0
 11
299.0479563742184
 21
187.5
 31
0.0
  0
LINE
  5
110
  8
1
  6
CENTER
 62
     1
 10
155.0
 20
65.95204362578153
 30
0.0
 11
155.0
 21
111.9520436257815
 31
0.0
  0
LINE
  5
111
  8
1
  6
CENTER
 62
     1
 10
155.0
 20
222.5000000000001
 30
0.0
 11
155.0
 21
152.5
 31
0.0
  0
LINE
  5
112
  8
1
  6
CENTER
 62
     1
 10
279.9999999999999
 20
81.5
 30
0.0
 11
279.9999999999999
 21
73.5
 31
0.0
  0
LINE
  5
113
  8
1
  6
CONTINUOUS
 62
     7
 10
198.7500000000001
 20
111.4520436257815
 30
0.0
 11
197.9643697617865
 21
66.44331742256287
 31
0.0
  0
ENDSEC
  0
EOF
