  0
SECTION
  2
HEADER
  9
$ACADVER
  1
AC1004
  9
$INSBASE
 10
0.0
 20
0.0
  9
$EXTMIN
 10
0.0
 20
0.0
  9
$EXTMAX
 10
280.0681818181818
 20
496.5636363636364
  9
$LIMMIN
 10
0.0
 20
0.0
  9
$LIMMAX
 10
12.0
 20
9.0
  9
$ORTHOMODE
 70
     0
  9
$REGENMODE
 70
     1
  9
$FILLMODE
 70
     1
  9
$QTEXTMODE
 70
     0
  9
$DRAGMODE
 70
     2
  9
$LTSCALE
 40
1.0
  9
$OSMODE
 70
    37
  9
$ATTMODE
 70
     1
  9
$TEXTSIZE
 40
0.2
  9
$TRACEWID
 40
0.05
  9
$TEXTSTYLE
  7
STANDARD
  9
$CLAYER
  8
0
  9
$CELTYPE
  6
BYLAYER
  9
$CECOLOR
 62
   256
  9
$DIMSCALE
 40
1.0
  9
$DIMASZ
 40
3.0
  9
$DIMEXO
 40
0.0625
  9
$DIMDLI
 40
0.38
  9
$DIMRND
 40
0.0
  9
$DIMDLE
 40
0.0
  9
$DIMEXE
 40
1.5
  9
$DIMTP
 40
0.0
  9
$DIMTM
 40
0.0
  9
$DIMTXT
 40
3.0
  9
$DIMCEN
 40
0.09
  9
$DIMTSZ
 40
0.0
  9
$DIMTOL
 70
     0
  9
$DIMLIM
 70
     0
  9
$DIMTIH
 70
     1
  9
$DIMTOH
 70
     1
  9
$DIMSE1
 70
     0
  9
$DIMSE2
 70
     0
  9
$DIMTAD
 70
     1
  9
$DIMZIN
 70
     0
  9
$DIMBLK
  1

  9
$DIMASO
 70
     1
  9
$DIMSHO
 70
     1
  9
$DIMPOST
  1

  9
$DIMAPOST
  1

  9
$DIMALT
 70
     0
  9
$DIMALTD
 70
     2
  9
$DIMALTF
 40
25.4
  9
$DIMLFAC
 40
1.0
  9
$DIMTOFL
 70
     0
  9
$DIMTVP
 40
0.0
  9
$DIMTIX
 70
     0
  9
$DIMSOXD
 70
     0
  9
$DIMSAH
 70
     0
  9
$DIMBLK1
  1

  9
$DIMBLK2
  1

  9
$LUNITS
 70
     2
  9
$LUPREC
 70
     4
  9
$SKETCHINC
 40
0.1
  9
$FILLETRAD
 40
0.5
  9
$AUNITS
 70
     0
  9
$AUPREC
 70
     0
  9
$MENU
  1
.
  9
$ELEVATION
 40
0.0
  9
$THICKNESS
 40
0.0
  9
$LIMCHECK
 70
     0
  9
$CHAMFERA
 40
0.0
  9
$CHAMFERB
 40
0.0
  9
$SKPOLY
 70
     0
  9
$TDCREATE
 40
2460053.377808033
  9
$TDUPDATE
 40
2460053.377812986
  9
$TDINDWG
 40
0.0000000116
  9
$TDUSRTIMER
 40
0.0000000116
  9
$USRTIMER
 70
     1
  9
$ANGBASE
 50
0.0
  9
$ANGDIR
 70
     0
  9
$PDMODE
 70
     0
  9
$PDSIZE
 40
0.0
  9
$PLINEWID
 40
0.0
  9
$COORDS
 70
     1
  9
$SPLFRAME
 70
     0
  9
$SPLINETYPE
 70
     6
  9
$SPLINESEGS
 70
     8
  9
$ATTDIA
 70
     0
  9
$ATTREQ
 70
     1
  9
$SURFTAB1
 70
     6
  9
$SURFTAB2
 70
     6
  9
$SURFTYPE
 70
     6
  9
$SURFU
 70
     6
  9
$SURFV
 70
     6
  9
$UCSNAME
  2

  9
$UCSORG
 10
0.0
 20
0.0
 30
0.0
  9
$UCSXDIR
 10
1.0
 20
0.0
 30
0.0
  9
$UCSYDIR
 10
0.0
 20
1.0
 30
0.0
  9
$USERI1
 70
     0
  9
$USERI2
 70
     0
  9
$USERI3
 70
     0
  9
$USERI4
 70
     0
  9
$USERI5
 70
     0
  9
$USERR1
 40
0.0
  9
$USERR2
 40
0.0
  9
$USERR3
 40
0.0
  9
$USERR4
 40
0.0
  9
$USERR5
 40
0.0
  9
$WORLDVIEW
 70
     1
  0
ENDSEC
  0
SECTION
  2
TABLES
  0
TABLE
  2
LTYPE
 70
     2
  0
LTYPE
  2
CONTINUOUS
 70
     0
  3
Solid line
 72
    65
 73
     0
 40
0.0
  0
LTYPE
  2
CENTER
 70
     0
  3

 72
    65
 73
     0
 40
0.0
  0
ENDTAB
  0
TABLE
  2
LAYER
 70
     3
  0
LAYER
  2
0
 70
     0
 62
     7
  6
CONTINUOUS
  0
LAYER
  2
図面枠
 70
     0
 62
     7
  6
CONTINUOUS
  0
LAYER
  2
1
 70
     0
 62
     7
  6
CONTINUOUS
  0
ENDTAB
  0
TABLE
  2
STYLE
 70
     2
  0
STYLE
  2
STANDARD
 70
     0
 40
0.0
 41
1.0
 50
0.0
 71
     0
 42
0.2
  3
txt
  4

  0
STYLE
  2
ＭＳ_ゴシック
 70
     0
 40
0.0
 41
1.0
 50
0.0
 71
     0
 42
0.2
  3
ＭＳ ゴシック.shx
  4

  0
ENDTAB
  0
TABLE
  2
VIEW
 70
     0
  0
ENDTAB
  0
ENDSEC
  0
SECTION
  2
BLOCKS
  0
BLOCK
  8
0
  2
D_FRAME_DRAWING_17
 70
     0
 10
0.0
 20
0.0
  0
LINE
  8
図面枠
  6
CONTINUOUS
 62
     7
 10
0.0
 20
0.0
 11
297.0
 21
0.0
  0
LINE
  8
図面枠
  6
CONTINUOUS
 62
     7
 10
297.0
 20
0.0
 11
297.0
 21
210.0
  0
LINE
  8
図面枠
  6
CONTINUOUS
 62
     7
 10
297.0
 20
210.0
 11
0.0
 21
210.0
  0
LINE
  8
図面枠
  6
CONTINUOUS
 62
     7
 10
0.0
 20
210.0
 11
0.0
 21
0.0
  0
ENDBLK
  8
0
  0
BLOCK
  8
0
  2
D_FRAME_VIEW_3741
 70
     0
 10
0.0
 20
0.0
  0
LINE
  8
1
  6
CONTINUOUS
 62
     7
 10
202.1499999999999
 20
397.4
 11
202.1499999999999
 21
394.4
  0
LINE
  8
1
  6
CONTINUOUS
 62
     7
 10
197.15
 20
394.4
 11
196.7921222652574
 21
353.3912734645016
  0
ARC
  8
1
  6
CONTINUOUS
 62
     7
 10
136.9
 20
367.9
 40
2.5
 50
90.0
 51
180.0
  0
ARC
  8
1
  6
CONTINUOUS
 62
     7
 10
181.8999999999999
 20
367.9
 40
2.5
 50
0.0
 51
90.0
  0
LINE
  8
1
  6
CONTINUOUS
 62
     7
 10
151.9
 20
370.4
 11
136.9
 21
370.4
  0
ARC
  8
1
  6
CONTINUOUS
 62
     7
 10
166.8999999999999
 20
367.9
 40
2.5
 50
90.0
 51
180.0
  0
ARC
  8
1
  6
CONTINUOUS
 62
     7
 10
151.9
 20
367.9
 40
2.5
 50
0.0
 51
90.0
  0
LINE
  8
1
  6
CONTINUOUS
 62
     7
 10
181.8999999999999
 20
370.4
 11
166.8999999999999
 21
370.4
  0
LINE
  8
1
  6
CONTINUOUS
 62
     7
 10
164.3999999999999
 20
367.9
 11
164.3999999999999
 21
353.4
  0
LINE
  8
1
  6
CONTINUOUS
 62
     7
 10
134.4
 20
367.9
 11
134.4
 21
353.4
  0
LINE
  8
1
  6
CONTINUOUS
 62
     7
 10
184.3999999999999
 20
353.4
 11
184.3999999999999
 21
367.9
  0
LINE
  8
1
  6
CONTINUOUS
 62
     7
 10
154.4
 20
353.4
 11
154.4
 21
367.9
  0
ARC
  8
1
  6
CONTINUOUS
 62
     7
 10
185.3999999999999
 20
353.4
 40
1.000000000000001
 50
180.0
 51
269.9999999999998
  0
ARC
  8
1
  6
CONTINUOUS
 62
     7
 10
195.7921603421932
 20
353.4
 40
1.000000000000001
 50
270.0
 51
359.4999999999999
  0
ARC
  8
1
  6
CONTINUOUS
 62
     7
 10
163.3999999999999
 20
353.4
 40
1.000000000000001
 50
269.9999999999996
 51
0.0
  0
ARC
  8
1
  6
CONTINUOUS
 62
     7
 10
155.4
 20
353.4
 40
1.000000000000001
 50
180.0
 51
269.9999999999999
  0
ARC
  8
1
  6
CONTINUOUS
 62
     7
 10
133.4
 20
353.4
 40
1.000000000000001
 50
270.0
 51
0.0
  0
ENDBLK
  8
0
  0
BLOCK
  8
0
  2
D_FRAME_VIEW_3566
 70
     0
 10
0.0
 20
0.0
  0
LINE
  8
1
  6
CONTINUOUS
 62
     7
 10
44.15000000000042
 20
432.3096521561604
 11
45.15000000000043
 21
432.3183790239511
  0
LINE
  8
1
  6
CONTINUOUS
 62
     7
 10
44.15000000000042
 20
430.0165284472118
 11
44.15000000000042
 21
432.3096521561604
  0
LINE
  8
1
  6
CONTINUOUS
 62
     7
 10
45.15000000000043
 20
455.9816209760488
 11
44.15000000000042
 21
455.9903478438396
  0
LINE
  8
1
  6
CONTINUOUS
 62
     7
 10
44.15000000000042
 20
458.2834715527881
 11
44.15000000000042
 21
455.9903478438396
  0
ARC
  8
1
  6
CONTINUOUS
 62
     7
 10
81.14999999999985
 20
434.6326224211899
 40
2.000000000000002
 50
270.5000000000001
 51
0.0000000000013074
  0
ARC
  8
1
  6
CONTINUOUS
 62
     7
 10
81.14999999999985
 20
453.66737757881
 40
2.000000000000006
 50
359.9999999999987
 51
89.5
  0
LINE
  8
1
  6
CONTINUOUS
 62
     7
 10
45.15000000000043
 20
432.3183790239511
 11
81.1674530709966
 21
432.6326985750616
  0
LINE
  8
1
  6
CONTINUOUS
 62
     7
 10
45.15000000000043
 20
455.9816209760488
 11
81.1674530709966
 21
455.6673014249384
  0
LINE
  8
1
  6
CONTINUOUS
 62
     7
 10
86.15000000000002
 20
463.6499999999999
 11
89.15000000000002
 21
463.6499999999999
  0
LINE
  8
1
  6
CONTINUOUS
 62
     7
 10
89.15000000000002
 20
424.65
 11
86.15000000000002
 21
424.65
  0
LINE
  8
1
  6
CONTINUOUS
 62
     7
 10
44.15000000000003
 20
448.65
 11
44.15000000000002
 21
451.3096521561604
  0
LINE
  8
1
  6
CONTINUOUS
 62
     7
 10
81.1674530709966
 20
451.6326985750616
 11
44.15000000000002
 21
451.3096521561604
  0
ARC
  8
1
  6
CONTINUOUS
 62
     7
 10
81.14999999999986
 20
453.6326224211899
 40
1.999999999999995
 50
270.5000000000001
 51
0.0
  0
ARC
  8
1
  6
CONTINUOUS
 62
     7
 10
81.14999999999986
 20
434.66737757881
 40
2.000000000000006
 50
0.0
 51
89.5
  0
LINE
  8
1
  6
CONTINUOUS
 62
     7
 10
44.15000000000002
 20
436.9903478438396
 11
81.1674530709966
 21
436.6673014249384
  0
LINE
  8
1
  6
CONTINUOUS
 62
     7
 10
44.15000000000003
 20
439.65
 11
44.15000000000002
 21
436.9903478438396
  0
LINE
  8
1
  6
CONTINUOUS
 62
     7
 10
44.15000000000003
 20
439.65
 11
44.15000000000003
 21
448.65
  0
LINE
  8
1
  6
CONTINUOUS
 62
     7
 10
86.15000000000002
 20
427.65
 11
45.14127346450166
 21
428.0078777347427
  0
LINE
  8
1
  6
CONTINUOUS
 62
     7
 10
45.14127346450166
 20
460.2921222652573
 11
86.15000000000003
 21
460.65
  0
LINE
  8
1
  6
CONTINUOUS
 62
     7
 10
44.15000000000003
 20
429.0078396578069
 11
44.15000000000003
 21
429.65
  0
ARC
  8
1
  6
CONTINUOUS
 62
     7
 10
45.15000000000003
 20
459.2921603421931
 40
1.000000000000001
 50
90.50000000000011
 51
179.9999999999998
  0
ARC
  8
1
  6
CONTINUOUS
 62
     7
 10
45.15000000000003
 20
429.0078396578069
 40
1.000000000000001
 50
180.0
 51
269.4999999999999
  0
LINE
  8
1
  6
CONTINUOUS
 62
     7
 10
44.15000000000003
 20
458.65
 11
44.15000000000003
 21
459.2921603421931
  0
LINE
  8
1
  6
CONTINUOUS
 62
     7
 10
44.15000000000006
 20
458.2834715527881
 11
44.15000000000005
 21
458.6499999999999
  0
LINE
  8
1
  6
CONTINUOUS
 62
     7
 10
44.15000000000005
 20
429.65
 11
44.15000000000007
 21
430.0165284472118
  0
LINE
  8
1
  6
CONTINUOUS
 62
     7
 10
44.15000000000011
 20
432.3096521561604
 11
44.15000000000011
 21
436.9903478438396
  0
LINE
  8
1
  6
CONTINUOUS
 62
     7
 10
44.15000000000011
 20
451.3096521561604
 11
44.15000000000011
 21
455.9903478438396
  0
ARC
  8
1
  6
CONTINUOUS
 62
     7
 10
48.15000000000005
 20
425.65
 40
1.0
 50
180.0
 51
270.0
  0
LINE
  8
1
  6
CONTINUOUS
 62
     7
 10
47.15000000000004
 20
427.9903478438396
 11
47.15000000000004
 21
425.65
  0
LINE
  8
1
  6
CONTINUOUS
 62
     7
 10
86.15000000000002
 20
424.65
 11
48.15000000000006
 21
424.65
  0
LINE
  8
1
  6
CONTINUOUS
 62
     7
 10
47.15000000000004
 20
460.3096521561604
 11
47.15000000000004
 21
462.6499999999999
  0
ARC
  8
1
  6
CONTINUOUS
 62
     7
 10
48.15000000000004
 20
462.6499999999999
 40
1.0
 50
90.0
 51
180.0
  0
LINE
  8
1
  6
CONTINUOUS
 62
     7
 10
86.15000000000002
 20
463.6499999999999
 11
48.15000000000004
 21
463.6499999999999
  0
ARC
  8
1
  6
CONTINUOUS
 62
     7
 10
81.14999999999999
 20
453.65
 40
2.0
 50
313.5311521673719
 51
0.0
  0
ARC
  8
1
  6
CONTINUOUS
 62
     7
 10
81.14999999999998
 20
453.65
 40
1.999999999999998
 50
0.0
 51
46.46884783262761
  0
ARC
  8
1
  6
CONTINUOUS
 62
     7
 10
81.14999999999998
 20
434.65
 40
1.999999999999998
 50
313.5311521673723
 51
0.0
  0
ARC
  8
1
  6
CONTINUOUS
 62
     7
 10
81.14999999999999
 20
434.65
 40
2.0
 50
0.0
 51
46.46884783262803
  0
ENDBLK
  8
0
  0
BLOCK
  8
0
  2
D_FRAME_VIEW_2751
 70
     0
 10
0.0
 20
0.0
  0
ARC
  8
1
  6
CONTINUOUS
 62
     7
 10
119.1499999999999
 20
427.15
 40
2.500000000000002
 50
180.0
 51
270.0000000000032
  0
LINE
  8
1
  6
CONTINUOUS
 62
     7
 10
116.6499999999999
 20
427.15
 11
116.6499999999999
 21
430.15
  0
ARC
  8
1
  6
CONTINUOUS
 62
     7
 10
119.1499999999999
 20
461.1499999999999
 40
2.499999999999999
 50
90.0
 51
180.0000000000004
  0
LINE
  8
1
  6
CONTINUOUS
 62
     7
 10
124.3000000000001
 20
457.9999999999999
 11
124.3000000000001
 21
430.3
  0
LINE
  8
1
  6
CONTINUOUS
 62
     7
 10
194.5000000000002
 20
430.3
 11
194.5000000000002
 21
457.9999999999999
  0
ARC
  8
1
  6
CONTINUOUS
 62
     7
 10
199.6499999999999
 20
461.1499999999999
 40
2.500000000000002
 50
0.0
 51
90.00000000000304
  0
LINE
  8
1
  6
CONTINUOUS
 62
     7
 10
202.1499999999999
 20
461.1499999999999
 11
202.1499999999999
 21
427.15
  0
ARC
  8
1
  6
CONTINUOUS
 62
     7
 10
199.6499999999999
 20
427.15
 40
2.499999999999999
 50
270.0
 51
0.0000000000003411
  0
ARC
  8
1
  6
CONTINUOUS
 62
     7
 10
127.15
 20
444.15
 40
5.000000000000004
 50
270.0
 51
90.0
  0
LINE
  8
1
  6
CONTINUOUS
 62
     7
 10
127.15
 20
449.15
 11
124.3872686779076
 21
449.15
  0
LINE
  8
1
  6
CONTINUOUS
 62
     7
 10
124.3872686779076
 20
439.15
 11
127.15
 21
439.15
  0
LINE
  8
1
  6
CONTINUOUS
 62
     7
 10
191.6499999999999
 20
449.15
 11
194.4127313220926
 21
449.15
  0
LINE
  8
1
  6
CONTINUOUS
 62
     7
 10
194.4127313220926
 20
439.15
 11
191.6499999999999
 21
439.15
  0
ARC
  8
1
  6
CONTINUOUS
 62
     7
 10
191.6499999999999
 20
444.15
 40
5.000000000000004
 50
90.0
 51
270.0
  0
ARC
  8
1
  6
CONTINUOUS
 62
     7
 10
191.6499999999999
 20
444.15
 40
2.100000000000001
 50
90.0
 51
269.9999999999989
  0
ARC
  8
1
  6
CONTINUOUS
 62
     7
 10
127.15
 20
444.15
 40
2.100000000000001
 50
270.0000000000011
 51
90.0
  0
ARC
  8
1
  6
CONTINUOUS
 62
     7
 10
191.6499999999999
 20
444.15
 40
2.100000000000001
 50
269.9999999999989
 51
90.0
  0
ARC
  8
1
  6
CONTINUOUS
 62
     7
 10
127.15
 20
444.15
 40
2.100000000000001
 50
90.0
 51
270.0000000000011
  0
ENDBLK
  8
0
  0
ENDSEC
  0
SECTION
  2
ENTITIES
  0
LINE
  8
1
  6
CENTER
 62
     1
 10
159.4
 20
352.4
 11
159.4
 21
397.4
  0
LINE
  8
1
  6
CENTER
 62
     1
 10
159.4
 20
424.65
 11
159.4
 21
463.65
  0
LINE
  8
1
  6
CENTER
 62
     1
 10
116.6500000000001
 20
444.15
 11
202.1499999999999
 21
444.15
  0
LINE
  8
1
  6
CENTER
 62
     1
 10
89.15000000000002
 20
444.1499999999999
 11
44.15000000000003
 21
444.1499999999999
  0
INSERT
  8
図面枠
 62
     7
  2
D_FRAME_DRAWING_17
 10
0.0
 20
0.0
 30
0.0
  0
CIRCLE
  8
1
  6
CONTINUOUS
 62
     7
 10
159.4
 20
444.15
 40
8.2
  0
TEXT
  8
1
  6
CONTINUOUS
 62
     7
 10
106.8718144304114
 20
491.1090909090909
 40
6.0
  1
ＳＢ－Ｋ１Ｙ
  0
LINE
  8
1
  6
CONTINUOUS
 62
     7
 10
116.6499999999999
 20
427.15
 11
116.6499999999999
 21
461.1499999999999
  0
LINE
  8
1
  6
CONTINUOUS
 62
     7
 10
119.1499999999999
 20
463.6499999999999
 11
199.6499999999999
 21
463.65
  0
LINE
  8
1
  6
CONTINUOUS
 62
     7
 10
86.15000000000002
 20
424.65
 11
86.15000000000002
 21
463.6499999999999
  0
LINE
  8
1
  6
CONTINUOUS
 62
     7
 10
89.15000000000002
 20
463.6499999999999
 11
89.15000000000002
 21
424.65
  0
LINE
  8
1
  6
CONTINUOUS
 62
     7
 10
202.1499999999999
 20
397.4
 11
116.6499999999999
 21
397.4
  0
LINE
  8
1
  6
CONTINUOUS
 62
     7
 10
199.6499999999999
 20
424.65
 11
119.1499999999999
 21
424.65
  0
LINE
  8
1
  6
CONTINUOUS
 62
     7
 10
202.1499999999999
 20
394.4
 11
116.6499999999999
 21
394.4
  0
LINE
  8
1
  6
CONTINUOUS
 62
     7
 10
195.7921603421932
 20
352.4
 11
116.6499999999999
 21
352.4
  0
LINE
  8
1
  6
CONTINUOUS
 62
     7
 10
116.6499999999999
 20
352.4
 11
116.6499999999999
 21
397.4
  0
LINE
  8
1
  6
CONTINUOUS
 62
     7
 10
194.5000000000002
 20
457.9999999999999
 11
124.3000000000001
 21
457.9999999999999
  0
LINE
  8
1
  6
CONTINUOUS
 62
     7
 10
124.3000000000001
 20
430.3
 11
194.5000000000002
 21
430.3
  0
INSERT
  8
1
  6
CONTINUOUS
 62
     7
  2
D_FRAME_VIEW_3741
 10
0.0
 20
0.0
 30
0.0
  0
INSERT
  8
1
  6
CONTINUOUS
 62
     7
  2
D_FRAME_VIEW_3566
 10
0.0
 20
0.0
 30
0.0
  0
INSERT
  8
1
  6
CONTINUOUS
 62
     7
  2
D_FRAME_VIEW_2751
 10
0.0
 20
0.0
 30
0.0
  0
ENDSEC
  0
EOF
