  0
SECTION
  2
HEADER
  9
$ACADVER
  1
AC1006
  9
$DWGCODEPAGE
  3
ansi_932
  9
$INSBASE
 10
0.0
 20
0.0
 30
0.0
  9
$EXTMIN
 10
-679.7499999999999
 20
-1277.534090909091
  9
$EXTMAX
 10
-447.4999999999999
 20
-1020.0
  9
$LIMMIN
 10
0.0
 20
0.0
  9
$LIMMAX
 10
12.0
 20
9.0
  9
$ORTHOMODE
 70
     0
  9
$REGENMODE
 70
     1
  9
$FILLMODE
 70
     1
  9
$QTEXTMODE
 70
     0
  9
$MIRRTEXT
 70
     1
  9
$DRAGMODE
 70
     2
  9
$LTSCALE
 40
1.0
  9
$OSMODE
 70
    37
  9
$ATTMODE
 70
     1
  9
$TEXTSIZE
 40
0.2
  9
$TRACEWID
 40
0.05
  9
$TEXTSTYLE
  7
STANDARD
  9
$CLAYER
  8
0
  9
$CELTYPE
  6
BYLAYER
  9
$CECOLOR
 62
   256
  9
$DIMSCALE
 40
1.0
  9
$DIMASZ
 40
3.0
  9
$DIMEXO
 40
0.0625
  9
$DIMDLI
 40
0.38
  9
$DIMRND
 40
0.0
  9
$DIMDLE
 40
0.0
  9
$DIMEXE
 40
1.5
  9
$DIMTP
 40
0.0
  9
$DIMTM
 40
0.0
  9
$DIMTXT
 40
3.0
  9
$DIMCEN
 40
0.09
  9
$DIMTSZ
 40
0.0
  9
$DIMTOL
 70
     0
  9
$DIMLIM
 70
     0
  9
$DIMTIH
 70
     1
  9
$DIMTOH
 70
     1
  9
$DIMSE1
 70
     0
  9
$DIMSE2
 70
     0
  9
$DIMTAD
 70
     1
  9
$DIMZIN
 70
     0
  9
$DIMBLK
  1

  9
$DIMASO
 70
     1
  9
$DIMSHO
 70
     1
  9
$DIMPOST
  1

  9
$DIMAPOST
  1

  9
$DIMALT
 70
     0
  9
$DIMALTD
 70
     2
  9
$DIMALTF
 40
25.4
  9
$DIMLFAC
 40
1.0
  9
$DIMTOFL
 70
     0
  9
$DIMTVP
 40
0.0
  9
$DIMTIX
 70
     0
  9
$DIMSOXD
 70
     0
  9
$DIMSAH
 70
     0
  9
$DIMBLK1
  1

  9
$DIMBLK2
  1

  9
$LUNITS
 70
     2
  9
$LUPREC
 70
     4
  9
$SKETCHINC
 40
0.1
  9
$FILLETRAD
 40
0.5
  9
$AUNITS
 70
     0
  9
$AUPREC
 70
     0
  9
$MENU
  1
.
  9
$ELEVATION
 40
0.0
  9
$THICKNESS
 40
0.0
  9
$LIMCHECK
 70
     0
  9
$CHAMFERA
 40
0.0
  9
$CHAMFERB
 40
0.0
  9
$SKPOLY
 70
     0
  9
$TDCREATE
 40
2460427.588725486
  9
$TDUPDATE
 40
2460427.588725683
  9
$TDINDWG
 40
0.0000000116
  9
$TDUSRTIMER
 40
0.0000000116
  9
$USRTIMER
 70
     1
  9
$ANGBASE
 50
0.0
  9
$ANGDIR
 70
     0
  9
$PDMODE
 70
     0
  9
$PDSIZE
 40
0.0
  9
$PLINEWID
 40
0.0
  9
$COORDS
 70
     1
  9
$SPLFRAME
 70
     0
  9
$SPLINETYPE
 70
     6
  9
$SPLINESEGS
 70
     8
  9
$ATTDIA
 70
     0
  9
$ATTREQ
 70
     1
  9
$HANDLING
 70
     1
  9
$HANDSEED
  5
111
  9
$SURFTAB1
 70
     6
  9
$SURFTAB2
 70
     6
  9
$SURFTYPE
 70
     6
  9
$SURFU
 70
     6
  9
$SURFV
 70
     6
  9
$UCSNAME
  2

  9
$UCSORG
 10
0.0
 20
0.0
 30
0.0
  9
$UCSXDIR
 10
1.0
 20
0.0
 30
0.0
  9
$UCSYDIR
 10
0.0
 20
1.0
 30
0.0
  9
$USERI1
 70
     0
  9
$USERI2
 70
     0
  9
$USERI3
 70
     0
  9
$USERI4
 70
     0
  9
$USERI5
 70
     0
  9
$USERR1
 40
0.0
  9
$USERR2
 40
0.0
  9
$USERR3
 40
0.0
  9
$USERR4
 40
0.0
  9
$USERR5
 40
0.0
  9
$WORLDVIEW
 70
     1
  0
ENDSEC
  0
SECTION
  2
TABLES
  0
TABLE
  2
VPORT
 70
     1
  0
VPORT
  2
*ACTIVE
 70
     0
 10
0.0
 20
0.0
 11
1.0
 21
1.0
 12
-563.6249999999999
 22
-1148.767045454545
 13
0.0
 23
0.0
 14
0.5
 24
0.5
 15
0.5
 25
0.5
 16
0.0
 26
0.0
 36
1.0
 17
0.0
 27
0.0
 37
0.0
 40
257.534090909091
 41
1.6
 42
50.0
 43
0.0
 44
0.0
 50
0.0
 51
0.0
 71
     0
 72
   100
 73
     1
 74
     3
 75
     0
 76
     0
 77
     0
 78
     0
  0
ENDTAB
  0
TABLE
  2
LTYPE
 70
     2
  0
LTYPE
  2
CONTINUOUS
 70
     0
  3
Solid line
 72
    65
 73
     0
 40
0.0
  0
LTYPE
  2
CENTER
 70
     0
  3

 72
    65
 73
     0
 40
0.0
  0
ENDTAB
  0
TABLE
  2
LAYER
 70
     2
  0
LAYER
  2
0
 70
     0
 62
     7
  6
CONTINUOUS
  0
LAYER
  2
1
 70
     0
 62
     7
  6
CONTINUOUS
  0
ENDTAB
  0
TABLE
  2
STYLE
 70
     2
  0
STYLE
  2
STANDARD
 70
     0
 40
0.0
 41
1.0
 50
0.0
 71
     0
 42
0.2
  3
txt
  4

  0
STYLE
  2
ＭＳ_ゴシック
 70
     0
 40
0.0
 41
1.0
 50
0.0
 71
     0
 42
0.2
  3
ＭＳ ゴシック.shx
  4

  0
ENDTAB
  0
TABLE
  2
VIEW
 70
     0
  0
ENDTAB
  0
TABLE
  2
UCS
 70
     0
  0
ENDTAB
  0
ENDSEC
  0
SECTION
  2
BLOCKS
  0
ENDSEC
  0
SECTION
  2
ENTITIES
  0
TEXT
  5
70
  8
1
  6
CONTINUOUS
 62
     7
 10
-593.2931880705262
 20
-1278.056818181818
 30
0.0
 40
5.0
  1
ＳＢ－Ｋ１ＹＳＡ－Ｎ
  0
POINT
  5
71
  8
0
 62
     1
 10
-557.2499999999999
 20
-1184.946706074379
 30
0.0
  0
LINE
  5
72
  8
0
  6
CENTER
 62
     1
 10
-602.4999999999999
 20
-1090.0
 30
0.0
 11
-602.4999999999999
 21
-1020.0
 31
0.0
  0
LINE
  5
74
  8
0
  6
CENTER
 62
     1
 10
-602.4999999999999
 20
-1251.5
 30
0.0
 11
-602.4999999999999
 21
-1118.5
 31
0.0
  0
LINE
  5
75
  8
0
  6
CENTER
 62
     1
 10
-517.4999999999998
 20
-1184.946706074379
 30
0.0
 11
-447.4999999999999
 21
-1184.946706074379
 31
0.0
  0
LINE
  5
76
  8
0
  6
CENTER
 62
     1
 10
-679.7499999999999
 20
-1184.946706074379
 30
0.0
 11
-525.2499999999999
 21
-1184.946706074379
 31
0.0
  0
LINE
  5
77
  8
1
  6
CONTINUOUS
 62
     7
 10
-669.7499999999999
 20
-1080.0
 30
0.0
 11
-669.7499999999999
 21
-1079.5
 31
0.0
  0
LINE
  5
78
  8
1
  6
CONTINUOUS
 62
     7
 10
-669.7499999999999
 20
-1079.5
 30
0.0
 11
-659.7499999999999
 21
-1079.5
 31
0.0
  0
LINE
  5
79
  8
1
  6
CONTINUOUS
 62
     7
 10
-659.7499999999999
 20
-1080.0
 30
0.0
 11
-669.7499999999999
 21
-1080.0
 31
0.0
  0
LINE
  5
7A
  8
1
  6
CONTINUOUS
 62
     7
 10
-659.7499999999999
 20
-1079.5
 30
0.0
 11
-545.2499999999999
 21
-1079.5
 31
0.0
  0
LINE
  5
7B
  8
1
  6
CONTINUOUS
 62
     7
 10
-659.7499999999999
 20
-1080.0
 30
0.0
 11
-545.2499999999999
 21
-1080.0
 31
0.0
  0
LINE
  5
7C
  8
1
  6
CONTINUOUS
 62
     7
 10
-535.2499999999999
 20
-1079.5
 30
0.0
 11
-535.2499999999999
 21
-1080.0
 31
0.0
  0
LINE
  5
7D
  8
1
  6
CONTINUOUS
 62
     7
 10
-545.2499999999999
 20
-1079.5
 30
0.0
 11
-535.25
 21
-1079.5
 31
0.0
  0
LINE
  5
7E
  8
1
  6
CONTINUOUS
 62
     7
 10
-535.25
 20
-1080.0
 30
0.0
 11
-545.2499999999999
 21
-1080.0
 31
0.0
  0
CIRCLE
  5
7F
  8
1
  6
CONTINUOUS
 62
   253
 10
-587.4982282635583
 20
-1050.490814055057
 30
0.0
 40
11.0372398176035
  0
LINE
  5
80
  8
1
  6
CONTINUOUS
 62
     7
 10
-643.2499999999999
 20
-1064.5
 30
0.0
 11
-643.250761524218
 21
-1064.5
 31
0.0
  0
CIRCLE
  5
81
  8
1
  6
CONTINUOUS
 62
   253
 10
-617.4982282635557
 20
-1050.490814055059
 30
0.0
 40
11.03723981760128
  0
ARC
  5
82
  8
1
  6
CONTINUOUS
 62
     7
 10
-556.2499999999999
 20
-1079.0
 30
0.0
 40
0.4999999999999449
 50
180.0
 51
270.0000000000007
  0
ARC
  5
83
  8
1
  6
CONTINUOUS
 62
     7
 10
-648.7499999999999
 20
-1079.0
 30
0.0
 40
0.4999999999999449
 50
270.0
 51
0.0000000000000568
  0
LINE
  5
84
  8
1
  6
CONTINUOUS
 62
     7
 10
-557.2664475798199
 20
-1034.912737967814
 30
0.0
 11
-556.7499999999999
 21
-1064.5
 31
0.0
  0
LINE
  5
85
  8
1
  6
CONTINUOUS
 62
     7
 10
-648.2499999999999
 20
-1079.0
 30
0.0
 11
-648.2499999999999
 21
-1064.5
 31
0.0
  0
LINE
  5
86
  8
1
  6
CONTINUOUS
 62
     7
 10
-556.7499999999999
 20
-1064.5
 30
0.0
 11
-556.7499999999999
 21
-1079.0
 31
0.0
  0
LINE
  5
87
  8
1
  6
CONTINUOUS
 62
     7
 10
-648.2499999999999
 20
-1064.5
 30
0.0
 11
-647.7335524201799
 21
-1034.912737967814
 31
0.0
  0
ARC
  5
88
  8
1
  6
CONTINUOUS
 62
     7
 10
-642.734313944398
 20
-1035.0
 30
0.0
 40
5.000000000000028
 50
90.0
 51
178.9999999999999
  0
ARC
  5
89
  8
1
  6
CONTINUOUS
 62
     7
 10
-562.2656860556019
 20
-1035.0
 30
0.0
 40
5.000000000000028
 50
1.000000000000082
 51
90.00000000000009
  0
LINE
  5
8A
  8
1
  6
CONTINUOUS
 62
     7
 10
-642.734313944398
 20
-1030.0
 30
0.0
 11
-562.2656860556019
 21
-1030.0
 31
0.0
  0
LINE
  5
8B
  8
1
  6
CONTINUOUS
 62
   253
 10
-590.058790569048
 20
-1053.554281612873
 30
0.0
 11
-584.9412094309519
 21
-1053.554281612873
 31
0.0
  0
LINE
  5
8C
  8
1
  6
CONTINUOUS
 62
   253
 10
-614.9412094309517
 20
-1053.554281612873
 30
0.0
 11
-614.5513015110896
 21
-1053.516173384553
 31
0.0
  0
LINE
  5
8D
  8
1
  6
CONTINUOUS
 62
   253
 10
-614.5513015110896
 20
-1053.516173384553
 30
0.0
 11
-614.1766577859923
 21
-1053.402774558298
 31
0.0
  0
LINE
  5
8E
  8
1
  6
CONTINUOUS
 62
   253
 10
-614.1766577859923
 20
-1053.402774558298
 30
0.0
 11
-613.8316089721415
 21
-1053.218422819004
 31
0.0
  0
LINE
  5
8F
  8
1
  6
CONTINUOUS
 62
   253
 10
-613.8316089721415
 20
-1053.218422819004
 30
0.0
 11
-613.5293537337402
 21
-1052.970169912989
 31
0.0
  0
LINE
  5
90
  8
1
  6
CONTINUOUS
 62
   253
 10
-613.5293537337402
 20
-1052.970169912989
 30
0.0
 11
-613.281453812882
 21
-1052.667511907511
 31
0.0
  0
LINE
  5
91
  8
1
  6
CONTINUOUS
 62
   253
 10
-613.281453812882
 20
-1052.667511907511
 30
0.0
 11
-613.0973917745839
 21
-1052.322025951144
 31
0.0
  0
LINE
  5
92
  8
1
  6
CONTINUOUS
 62
   253
 10
-613.0973917745839
 20
-1052.322025951144
 30
0.0
 11
-612.9842082836409
 21
-1051.946927429484
 31
0.0
  0
LINE
  5
93
  8
1
  6
CONTINUOUS
 62
   253
 10
-612.9842082836409
 20
-1051.946927429484
 30
0.0
 11
-612.9462327880332
 21
-1051.556564455704
 31
0.0
  0
LINE
  5
94
  8
1
  6
CONTINUOUS
 62
   253
 10
-622.0537672119667
 20
-1051.556564455704
 30
0.0
 11
-622.015791716359
 21
-1051.946927429484
 31
0.0
  0
LINE
  5
95
  8
1
  6
CONTINUOUS
 62
   253
 10
-622.015791716359
 20
-1051.946927429484
 30
0.0
 11
-621.9026082254159
 21
-1052.322025951144
 31
0.0
  0
LINE
  5
96
  8
1
  6
CONTINUOUS
 62
   253
 10
-621.9026082254159
 20
-1052.322025951144
 30
0.0
 11
-621.7185461871179
 21
-1052.667511907511
 31
0.0
  0
LINE
  5
97
  8
1
  6
CONTINUOUS
 62
   253
 10
-621.7185461871179
 20
-1052.667511907511
 30
0.0
 11
-621.4706462662597
 21
-1052.970169912989
 31
0.0
  0
LINE
  5
98
  8
1
  6
CONTINUOUS
 62
   253
 10
-621.4706462662597
 20
-1052.970169912989
 30
0.0
 11
-621.1683910278584
 21
-1053.218422819004
 31
0.0
  0
LINE
  5
99
  8
1
  6
CONTINUOUS
 62
   253
 10
-621.1683910278584
 20
-1053.218422819004
 30
0.0
 11
-620.8233422140075
 21
-1053.402774558298
 31
0.0
  0
LINE
  5
9A
  8
1
  6
CONTINUOUS
 62
   253
 10
-620.8233422140075
 20
-1053.402774558298
 30
0.0
 11
-620.4486984889104
 21
-1053.516173384553
 31
0.0
  0
LINE
  5
9B
  8
1
  6
CONTINUOUS
 62
   253
 10
-620.4486984889104
 20
-1053.516173384553
 30
0.0
 11
-620.0587905690481
 21
-1053.554281612873
 31
0.0
  0
LINE
  5
9C
  8
1
  6
CONTINUOUS
 62
   253
 10
-584.9412094309517
 20
-1053.554281612873
 30
0.0
 11
-584.5513015110896
 21
-1053.516173384553
 31
0.0
  0
LINE
  5
9D
  8
1
  6
CONTINUOUS
 62
   253
 10
-584.5513015110896
 20
-1053.516173384553
 30
0.0
 11
-584.1766577859923
 21
-1053.402774558298
 31
0.0
  0
LINE
  5
9E
  8
1
  6
CONTINUOUS
 62
   253
 10
-584.1766577859923
 20
-1053.402774558298
 30
0.0
 11
-583.8316089721415
 21
-1053.218422819004
 31
0.0
  0
LINE
  5
9F
  8
1
  6
CONTINUOUS
 62
   253
 10
-583.8316089721415
 20
-1053.218422819004
 30
0.0
 11
-583.5293537337402
 21
-1052.970169912989
 31
0.0
  0
LINE
  5
A0
  8
1
  6
CONTINUOUS
 62
   253
 10
-583.5293537337402
 20
-1052.970169912989
 30
0.0
 11
-583.281453812882
 21
-1052.667511907511
 31
0.0
  0
LINE
  5
A1
  8
1
  6
CONTINUOUS
 62
   253
 10
-583.281453812882
 20
-1052.667511907511
 30
0.0
 11
-583.097391774584
 21
-1052.322025951144
 31
0.0
  0
LINE
  5
A2
  8
1
  6
CONTINUOUS
 62
   253
 10
-583.097391774584
 20
-1052.322025951144
 30
0.0
 11
-582.9842082836409
 21
-1051.946927429484
 31
0.0
  0
LINE
  5
A3
  8
1
  6
CONTINUOUS
 62
   253
 10
-582.9842082836409
 20
-1051.946927429484
 30
0.0
 11
-582.9462327880332
 21
-1051.556564455704
 31
0.0
  0
LINE
  5
A4
  8
1
  6
CONTINUOUS
 62
   253
 10
-592.0537672119666
 20
-1051.556564455704
 30
0.0
 11
-592.0157917163589
 21
-1051.946927429484
 31
0.0
  0
LINE
  5
A5
  8
1
  6
CONTINUOUS
 62
   253
 10
-592.0157917163589
 20
-1051.946927429484
 30
0.0
 11
-591.9026082254157
 21
-1052.322025951144
 31
0.0
  0
LINE
  5
A6
  8
1
  6
CONTINUOUS
 62
   253
 10
-591.9026082254157
 20
-1052.322025951144
 30
0.0
 11
-591.7185461871178
 21
-1052.667511907511
 31
0.0
  0
LINE
  5
A7
  8
1
  6
CONTINUOUS
 62
   253
 10
-591.7185461871178
 20
-1052.667511907511
 30
0.0
 11
-591.4706462662596
 21
-1052.970169912989
 31
0.0
  0
LINE
  5
A8
  8
1
  6
CONTINUOUS
 62
   253
 10
-591.4706462662596
 20
-1052.970169912989
 30
0.0
 11
-591.1683910278583
 21
-1053.218422819004
 31
0.0
  0
LINE
  5
A9
  8
1
  6
CONTINUOUS
 62
   253
 10
-591.1683910278583
 20
-1053.218422819004
 30
0.0
 11
-590.8233422140074
 21
-1053.402774558298
 31
0.0
  0
LINE
  5
AA
  8
1
  6
CONTINUOUS
 62
   253
 10
-590.8233422140074
 20
-1053.402774558298
 30
0.0
 11
-590.4486984889103
 21
-1053.516173384553
 31
0.0
  0
LINE
  5
AB
  8
1
  6
CONTINUOUS
 62
   253
 10
-590.4486984889103
 20
-1053.516173384553
 30
0.0
 11
-590.058790569048
 21
-1053.554281612873
 31
0.0
  0
LINE
  5
AC
  8
1
  6
CONTINUOUS
 62
   253
 10
-620.058790569048
 20
-1053.554281612873
 30
0.0
 11
-614.9412094309517
 21
-1053.554281612873
 31
0.0
  0
LINE
  5
AD
  8
1
  6
CONTINUOUS
 62
   253
 10
-622.0537672119667
 20
-1049.425290740821
 30
0.0
 11
-622.0537672119667
 21
-1051.556564455704
 31
0.0
  0
LINE
  5
AE
  8
1
  6
CONTINUOUS
 62
   253
 10
-592.0537672119667
 20
-1049.425290740821
 30
0.0
 11
-592.0537672119667
 21
-1051.556564455704
 31
0.0
  0
LINE
  5
AF
  8
1
  6
CONTINUOUS
 62
   253
 10
-582.9462327880332
 20
-1051.556564455704
 30
0.0
 11
-582.9462327880332
 21
-1049.425290740821
 31
0.0
  0
LINE
  5
B0
  8
1
  6
CONTINUOUS
 62
   253
 10
-612.9462327880332
 20
-1051.556564455704
 30
0.0
 11
-612.9462327880332
 21
-1049.425290740821
 31
0.0
  0
LINE
  5
B1
  8
1
  6
CONTINUOUS
 62
   253
 10
-590.0565081424575
 20
-1047.428335863542
 30
0.0
 11
-590.4466852938575
 21
-1047.466358525707
 31
0.0
  0
LINE
  5
B2
  8
1
  6
CONTINUOUS
 62
   253
 10
-590.4466852938575
 20
-1047.466358525707
 30
0.0
 11
-590.8216576388695
 21
-1047.579680430239
 31
0.0
  0
LINE
  5
B3
  8
1
  6
CONTINUOUS
 62
   253
 10
-590.8216576388695
 20
-1047.579680430239
 30
0.0
 11
-591.1670652503105
 21
-1047.763961805635
 31
0.0
  0
LINE
  5
B4
  8
1
  6
CONTINUOUS
 62
   253
 10
-591.1670652503105
 20
-1047.763961805635
 30
0.0
 11
-591.4696804109512
 21
-1048.012145419095
 31
0.0
  0
LINE
  5
B5
  8
1
  6
CONTINUOUS
 62
   253
 10
-591.4696804109512
 20
-1048.012145419095
 30
0.0
 11
-591.7179141816898
 21
-1048.314726840054
 31
0.0
  0
LINE
  5
B6
  8
1
  6
CONTINUOUS
 62
   253
 10
-591.7179141816898
 20
-1048.314726840054
 30
0.0
 11
-591.9022602111392
 21
-1048.660118421503
 31
0.0
  0
LINE
  5
B7
  8
1
  6
CONTINUOUS
 62
   253
 10
-591.9022602111392
 20
-1048.660118421503
 30
0.0
 11
-592.0156587905115
 21
-1049.035093060098
 31
0.0
  0
LINE
  5
B8
  8
1
  6
CONTINUOUS
 62
   253
 10
-592.0156587905115
 20
-1049.035093060098
 30
0.0
 11
-592.0537672119666
 21
-1049.425290740821
 31
0.0
  0
LINE
  5
B9
  8
1
  6
CONTINUOUS
 62
   253
 10
-612.9462327880332
 20
-1049.425290740821
 30
0.0
 11
-612.9843412094883
 21
-1049.035093060098
 31
0.0
  0
LINE
  5
BA
  8
1
  6
CONTINUOUS
 62
   253
 10
-612.9843412094883
 20
-1049.035093060098
 30
0.0
 11
-613.0977397888606
 21
-1048.660118421503
 31
0.0
  0
LINE
  5
BB
  8
1
  6
CONTINUOUS
 62
   253
 10
-613.0977397888606
 20
-1048.660118421503
 30
0.0
 11
-613.28208581831
 21
-1048.314726840054
 31
0.0
  0
LINE
  5
BC
  8
1
  6
CONTINUOUS
 62
   253
 10
-613.28208581831
 20
-1048.314726840054
 30
0.0
 11
-613.5303195890485
 21
-1048.012145419095
 31
0.0
  0
LINE
  5
BD
  8
1
  6
CONTINUOUS
 62
   253
 10
-613.5303195890485
 20
-1048.012145419095
 30
0.0
 11
-613.8329347496892
 21
-1047.763961805635
 31
0.0
  0
LINE
  5
BE
  8
1
  6
CONTINUOUS
 62
   253
 10
-613.8329347496892
 20
-1047.763961805635
 30
0.0
 11
-614.1783423611303
 21
-1047.579680430239
 31
0.0
  0
LINE
  5
BF
  8
1
  6
CONTINUOUS
 62
   253
 10
-614.1783423611303
 20
-1047.579680430239
 30
0.0
 11
-614.5533147061423
 21
-1047.466358525707
 31
0.0
  0
LINE
  5
C0
  8
1
  6
CONTINUOUS
 62
   253
 10
-614.5533147061423
 20
-1047.466358525707
 30
0.0
 11
-614.9434918575423
 21
-1047.428335863542
 31
0.0
  0
LINE
  5
C1
  8
1
  6
CONTINUOUS
 62
   253
 10
-582.9462327880332
 20
-1049.425290740821
 30
0.0
 11
-582.9843412094883
 21
-1049.035093060098
 31
0.0
  0
LINE
  5
C2
  8
1
  6
CONTINUOUS
 62
   253
 10
-582.9843412094883
 20
-1049.035093060098
 30
0.0
 11
-583.0977397888606
 21
-1048.660118421503
 31
0.0
  0
LINE
  5
C3
  8
1
  6
CONTINUOUS
 62
   253
 10
-583.0977397888606
 20
-1048.660118421503
 30
0.0
 11
-583.28208581831
 21
-1048.314726840054
 31
0.0
  0
LINE
  5
C4
  8
1
  6
CONTINUOUS
 62
   253
 10
-583.28208581831
 20
-1048.314726840054
 30
0.0
 11
-583.5303195890485
 21
-1048.012145419095
 31
0.0
  0
LINE
  5
C5
  8
1
  6
CONTINUOUS
 62
   253
 10
-583.5303195890485
 20
-1048.012145419095
 30
0.0
 11
-583.8329347496892
 21
-1047.763961805635
 31
0.0
  0
LINE
  5
C6
  8
1
  6
CONTINUOUS
 62
   253
 10
-583.8329347496892
 20
-1047.763961805635
 30
0.0
 11
-584.1783423611303
 21
-1047.579680430239
 31
0.0
  0
LINE
  5
C7
  8
1
  6
CONTINUOUS
 62
   253
 10
-584.1783423611303
 20
-1047.579680430239
 30
0.0
 11
-584.5533147061423
 21
-1047.466358525707
 31
0.0
  0
LINE
  5
C8
  8
1
  6
CONTINUOUS
 62
   253
 10
-584.5533147061423
 20
-1047.466358525707
 30
0.0
 11
-584.9434918575423
 21
-1047.428335863542
 31
0.0
  0
LINE
  5
C9
  8
1
  6
CONTINUOUS
 62
   253
 10
-620.0565081424576
 20
-1047.428335863542
 30
0.0
 11
-620.4466852938576
 21
-1047.466358525707
 31
0.0
  0
LINE
  5
CA
  8
1
  6
CONTINUOUS
 62
   253
 10
-620.4466852938576
 20
-1047.466358525707
 30
0.0
 11
-620.8216576388696
 21
-1047.579680430239
 31
0.0
  0
LINE
  5
CB
  8
1
  6
CONTINUOUS
 62
   253
 10
-620.8216576388696
 20
-1047.579680430239
 30
0.0
 11
-621.1670652503107
 21
-1047.763961805635
 31
0.0
  0
LINE
  5
CC
  8
1
  6
CONTINUOUS
 62
   253
 10
-621.1670652503107
 20
-1047.763961805635
 30
0.0
 11
-621.4696804109514
 21
-1048.012145419095
 31
0.0
  0
LINE
  5
CD
  8
1
  6
CONTINUOUS
 62
   253
 10
-621.4696804109514
 20
-1048.012145419095
 30
0.0
 11
-621.7179141816899
 21
-1048.314726840054
 31
0.0
  0
LINE
  5
CE
  8
1
  6
CONTINUOUS
 62
   253
 10
-621.7179141816899
 20
-1048.314726840054
 30
0.0
 11
-621.9022602111393
 21
-1048.660118421503
 31
0.0
  0
LINE
  5
CF
  8
1
  6
CONTINUOUS
 62
   253
 10
-621.9022602111393
 20
-1048.660118421503
 30
0.0
 11
-622.0156587905116
 21
-1049.035093060098
 31
0.0
  0
LINE
  5
D0
  8
1
  6
CONTINUOUS
 62
   253
 10
-622.0156587905116
 20
-1049.035093060098
 30
0.0
 11
-622.0537672119667
 21
-1049.425290740821
 31
0.0
  0
LINE
  5
D1
  8
1
  6
CONTINUOUS
 62
   253
 10
-614.9434918575422
 20
-1047.428335863542
 30
0.0
 11
-620.0565081424576
 21
-1047.428335863542
 31
0.0
  0
LINE
  5
D2
  8
1
  6
CONTINUOUS
 62
   253
 10
-584.9434918575422
 20
-1047.428335863542
 30
0.0
 11
-590.0565081424576
 21
-1047.428335863542
 31
0.0
  0
ARC
  5
D3
  8
1
  6
CONTINUOUS
 62
     7
 10
-561.7499999999999
 20
-1155.0
 30
0.0
 40
4.499999999999948
 50
0.0
 51
90.0
  0
LINE
  5
D4
  8
1
  6
CONTINUOUS
 62
   253
 10
-561.75
 20
-1219.418226557154
 30
0.0
 11
-643.2499999999999
 21
-1219.418226557154
 31
0.0
  0
LINE
  5
D5
  8
1
  6
CONTINUOUS
 62
     7
 10
-643.2499999999999
 20
-1150.5
 30
0.0
 11
-561.75
 21
-1150.5
 31
0.0
  0
LINE
  5
D6
  8
1
  6
CONTINUOUS
 62
   253
 10
-647.7499999999999
 20
-1214.893412148757
 30
0.0
 11
-647.6635337618144
 21
-1215.776159648755
 31
0.0
  0
LINE
  5
D7
  8
1
  6
CONTINUOUS
 62
   253
 10
-647.6635337618144
 20
-1215.776159648755
 30
0.0
 11
-647.4074578963007
 21
-1216.624983657377
 31
0.0
  0
LINE
  5
D8
  8
1
  6
CONTINUOUS
 62
   253
 10
-647.4074578963007
 20
-1216.624983657377
 30
0.0
 11
-646.9916132553614
 21
-1217.407264344001
 31
0.0
  0
LINE
  5
D9
  8
1
  6
CONTINUOUS
 62
   253
 10
-646.9916132553614
 20
-1217.407264344001
 30
0.0
 11
-646.4319805153393
 21
-1218.092939100545
 31
0.0
  0
LINE
  5
DA
  8
1
  6
CONTINUOUS
 62
   253
 10
-646.4319805153393
 20
-1218.092939100545
 30
0.0
 11
-645.7500660485881
 21
-1218.655657830648
 31
0.0
  0
LINE
  5
DB
  8
1
  6
CONTINUOUS
 62
   253
 10
-645.7500660485881
 20
-1218.655657830648
 30
0.0
 11
-644.9720754456428
 21
-1219.073795569087
 31
0.0
  0
LINE
  5
DC
  8
1
  6
CONTINUOUS
 62
   253
 10
-644.9720754456428
 20
-1219.073795569087
 30
0.0
 11
-644.1279064490725
 21
-1219.331283517069
 31
0.0
  0
LINE
  5
DD
  8
1
  6
CONTINUOUS
 62
   253
 10
-644.1279064490725
 20
-1219.331283517069
 30
0.0
 11
-643.2499999999999
 21
-1219.418226557154
 31
0.0
  0
ARC
  5
DE
  8
1
  6
CONTINUOUS
 62
     7
 10
-643.2499999999999
 20
-1155.0
 30
0.0
 40
4.50000000000006
 50
90.0
 51
180.0
  0
LINE
  5
DF
  8
1
  6
CONTINUOUS
 62
     7
 10
-647.7499999999999
 20
-1214.893412148757
 30
0.0
 11
-647.7499999999999
 21
-1155.0
 31
0.0
  0
ARC
  5
E0
  8
1
  6
CONTINUOUS
 62
     7
 10
-545.2499999999999
 20
-1138.5
 30
0.0
 40
9.999999999999897
 50
0.0
 51
90.0
  0
LINE
  5
E1
  8
1
  6
CONTINUOUS
 62
     7
 10
-535.2499999999999
 20
-1138.5
 30
0.0
 11
-535.2499999999999
 21
-1231.5
 31
0.0
  0
ARC
  5
E2
  8
1
  6
CONTINUOUS
 62
     7
 10
-545.2499999999999
 20
-1231.5
 30
0.0
 40
10.00000000000001
 50
270.0
 51
0.0
  0
LINE
  5
E3
  8
1
  6
CONTINUOUS
 62
     7
 10
-545.2499999999999
 20
-1241.5
 30
0.0
 11
-659.7499999999999
 21
-1241.5
 31
0.0
  0
ARC
  5
E4
  8
1
  6
CONTINUOUS
 62
     7
 10
-659.7499999999999
 20
-1231.5
 30
0.0
 40
10.00000000000001
 50
180.0
 51
270.0
  0
LINE
  5
E5
  8
1
  6
CONTINUOUS
 62
     7
 10
-669.7499999999999
 20
-1231.5
 30
0.0
 11
-669.7499999999999
 21
-1138.5
 31
0.0
  0
ARC
  5
E6
  8
1
  6
CONTINUOUS
 62
     7
 10
-659.7499999999999
 20
-1138.5
 30
0.0
 40
10.00000000000001
 50
90.0
 51
180.0
  0
LINE
  5
E7
  8
1
  6
CONTINUOUS
 62
     7
 10
-659.7499999999999
 20
-1128.5
 30
0.0
 11
-545.2499999999999
 21
-1128.5
 31
0.0
  0
LINE
  5
E8
  8
1
  6
CONTINUOUS
 62
     7
 10
-557.2499999999999
 20
-1155.0
 30
0.0
 11
-557.2499999999999
 21
-1214.893412148757
 31
0.0
  0
LINE
  5
E9
  8
1
  6
CONTINUOUS
 62
   253
 10
-561.75
 20
-1219.418226557154
 30
0.0
 11
-560.8720935509274
 21
-1219.331283517069
 31
0.0
  0
LINE
  5
EA
  8
1
  6
CONTINUOUS
 62
   253
 10
-560.8720935509274
 20
-1219.331283517069
 30
0.0
 11
-560.0279245543571
 21
-1219.073795569087
 31
0.0
  0
LINE
  5
EB
  8
1
  6
CONTINUOUS
 62
   253
 10
-560.0279245543571
 20
-1219.073795569087
 30
0.0
 11
-559.2499339514118
 21
-1218.655657830648
 31
0.0
  0
LINE
  5
EC
  8
1
  6
CONTINUOUS
 62
   253
 10
-559.2499339514118
 20
-1218.655657830648
 30
0.0
 11
-558.5680194846606
 21
-1218.092939100545
 31
0.0
  0
LINE
  5
ED
  8
1
  6
CONTINUOUS
 62
   253
 10
-558.5680194846606
 20
-1218.092939100545
 30
0.0
 11
-558.0083867446385
 21
-1217.407264344001
 31
0.0
  0
LINE
  5
EE
  8
1
  6
CONTINUOUS
 62
   253
 10
-558.0083867446385
 20
-1217.407264344001
 30
0.0
 11
-557.5925421036992
 21
-1216.624983657377
 31
0.0
  0
LINE
  5
EF
  8
1
  6
CONTINUOUS
 62
   253
 10
-557.5925421036992
 20
-1216.624983657377
 30
0.0
 11
-557.3364662381855
 21
-1215.776159648755
 31
0.0
  0
LINE
  5
F0
  8
1
  6
CONTINUOUS
 62
   253
 10
-557.3364662381855
 20
-1215.776159648755
 30
0.0
 11
-557.25
 21
-1214.893412148757
 31
0.0
  0
LINE
  5
F1
  8
1
  6
CONTINUOUS
 62
     7
 10
-575.9638351368313
 20
-1150.744847162274
 30
0.0
 11
-576.0989771676954
 21
-1150.713940305969
 31
0.0
  0
ARC
  5
F2
  8
1
  6
CONTINUOUS
 62
     7
 10
-585.2492585089149
 20
-1381.037135550218
 30
0.0
 40
230.5048847988778
 50
87.72494932494348
 51
90.55937925990627
  0
LINE
  5
F3
  8
1
  6
CONTINUOUS
 62
     7
 10
-605.9638351368313
 20
-1150.744847162274
 30
0.0
 11
-606.0989771677546
 21
-1150.713940305962
 31
0.0
  0
ARC
  5
F4
  8
1
  6
CONTINUOUS
 62
     7
 10
-615.249258509103
 20
-1381.037135568712
 30
0.0
 40
230.5048848173693
 50
87.72494932509402
 51
90.55937925981262
  0
LINE
  5
F5
  8
1
  6
CONTINUOUS
 62
     7
 10
-507.4999999999997
 20
-1128.5
 30
0.0
 11
-506.9999999999999
 21
-1128.5
 31
0.0
  0
LINE
  5
F6
  8
1
  6
CONTINUOUS
 62
     7
 10
-506.9999999999999
 20
-1128.5
 30
0.0
 11
-506.9999999999999
 21
-1138.5
 31
0.0
  0
LINE
  5
F7
  8
1
  6
CONTINUOUS
 62
     7
 10
-507.4999999999997
 20
-1138.5
 30
0.0
 11
-507.4999999999997
 21
-1128.5
 31
0.0
  0
LINE
  5
F8
  8
1
  6
CONTINUOUS
 62
     7
 10
-506.9999999999999
 20
-1138.5
 30
0.0
 11
-506.9999999999999
 21
-1231.5
 31
0.0
  0
LINE
  5
F9
  8
1
  6
CONTINUOUS
 62
     7
 10
-507.4999999999997
 20
-1138.5
 30
0.0
 11
-507.4999999999997
 21
-1231.5
 31
0.0
  0
LINE
  5
FA
  8
1
  6
CONTINUOUS
 62
     7
 10
-506.9999999999999
 20
-1241.5
 30
0.0
 11
-507.4999999999997
 21
-1241.5
 31
0.0
  0
LINE
  5
FB
  8
1
  6
CONTINUOUS
 62
     7
 10
-506.9999999999999
 20
-1231.5
 30
0.0
 11
-506.9999999999999
 21
-1241.5
 31
0.0
  0
LINE
  5
FC
  8
1
  6
CONTINUOUS
 62
     7
 10
-507.4999999999997
 20
-1241.5
 30
0.0
 11
-507.4999999999997
 21
-1231.5
 31
0.0
  0
ARC
  5
FD
  8
1
  6
CONTINUOUS
 62
     7
 10
-506.4999999999997
 20
-1149.5
 30
0.0
 40
0.500000000000056
 50
180.0
 51
270.0000000000001
  0
ARC
  5
FE
  8
1
  6
CONTINUOUS
 62
     7
 10
-506.4999999999997
 20
-1220.414421255246
 30
0.0
 40
0.5000000000001759
 50
94.99999999999994
 51
180.0000000000008
  0
LINE
  5
FF
  8
1
  6
CONTINUOUS
 62
     7
 10
-506.4999999999997
 20
-1150.0
 30
0.0
 11
-491.9999999999999
 21
-1150.0
 31
0.0
  0
LINE
  5
100
  8
1
  6
CONTINUOUS
 62
     7
 10
-491.6078556252154
 20
-1218.609617528089
 30
0.0
 11
-506.5435778713737
 21
-1219.9163239062
 31
0.0
  0
LINE
  5
101
  8
1
  6
CONTINUOUS
 62
     7
 10
-491.9999999999999
 20
-1150.0
 30
0.0
 11
-462.4127379678134
 21
-1150.51644757982
 31
0.0
  0
LINE
  5
102
  8
1
  6
CONTINUOUS
 62
     7
 10
-462.0642212862616
 20
-1216.024884444075
 30
0.0
 11
-491.6078556252154
 21
-1218.609617528089
 31
0.0
  0
ARC
  5
103
  8
1
  6
CONTINUOUS
 62
     7
 10
-462.4999999999999
 20
-1211.043910953617
 30
0.0
 40
5.000000000000004
 50
275.0
 51
0.0
  0
ARC
  5
104
  8
1
  6
CONTINUOUS
 62
     7
 10
-462.4999999999999
 20
-1155.515686055602
 30
0.0
 40
5.000000000000031
 50
0.0
 51
88.99999999999994
  0
LINE
  5
105
  8
1
  6
CONTINUOUS
 62
     7
 10
-457.4999999999999
 20
-1155.515686055602
 30
0.0
 11
-457.4999999999999
 21
-1211.043910953617
 31
0.0
  0
LINE
  5
106
  8
0
  6
CENTER
 62
     1
 10
-617.4982282635557
 20
-1063.52805387266
 30
0.0
 11
-617.4982282635557
 21
-1037.453574237458
 31
0.0
  0
LINE
  5
107
  8
0
  6
CENTER
 62
     1
 10
-630.535468081157
 20
-1050.490814055059
 30
0.0
 11
-604.4609884459544
 21
-1050.490814055059
 31
0.0
  0
LINE
  5
108
  8
0
  6
CENTER
 62
     1
 10
-587.4982282635583
 20
-1063.528053872661
 30
0.0
 11
-587.4982282635583
 21
-1037.453574237453
 31
0.0
  0
LINE
  5
109
  8
0
  6
CENTER
 62
     1
 10
-600.5354680811619
 20
-1050.490814055057
 30
0.0
 11
-574.4609884459549
 21
-1050.490814055057
 31
0.0
  0
ENDSEC
  0
EOF
