  0
SECTION
  2
HEADER
  9
$ACADVER
  1
AC1006
  9
$DWGCODEPAGE
  3
ansi_932
  9
$INSBASE
 10
0.0
 20
0.0
 30
0.0
  9
$EXTMIN
 10
-679.7499999999999
 20
-1277.534090909091
  9
$EXTMAX
 10
-447.4199999983505
 20
-1019.91999999835
  9
$LIMMIN
 10
0.0
 20
0.0
  9
$LIMMAX
 10
12.0
 20
9.0
  9
$ORTHOMODE
 70
     0
  9
$REGENMODE
 70
     1
  9
$FILLMODE
 70
     1
  9
$QTEXTMODE
 70
     0
  9
$MIRRTEXT
 70
     1
  9
$DRAGMODE
 70
     2
  9
$LTSCALE
 40
1.0
  9
$OSMODE
 70
    37
  9
$ATTMODE
 70
     1
  9
$TEXTSIZE
 40
0.2
  9
$TRACEWID
 40
0.05
  9
$TEXTSTYLE
  7
STANDARD
  9
$CLAYER
  8
0
  9
$CELTYPE
  6
BYLAYER
  9
$CECOLOR
 62
   256
  9
$DIMSCALE
 40
1.0
  9
$DIMASZ
 40
3.0
  9
$DIMEXO
 40
0.0625
  9
$DIMDLI
 40
0.38
  9
$DIMRND
 40
0.0
  9
$DIMDLE
 40
0.0
  9
$DIMEXE
 40
1.5
  9
$DIMTP
 40
0.0
  9
$DIMTM
 40
0.0
  9
$DIMTXT
 40
3.0
  9
$DIMCEN
 40
0.09
  9
$DIMTSZ
 40
0.0
  9
$DIMTOL
 70
     0
  9
$DIMLIM
 70
     0
  9
$DIMTIH
 70
     1
  9
$DIMTOH
 70
     1
  9
$DIMSE1
 70
     0
  9
$DIMSE2
 70
     0
  9
$DIMTAD
 70
     1
  9
$DIMZIN
 70
     0
  9
$DIMBLK
  1

  9
$DIMASO
 70
     1
  9
$DIMSHO
 70
     1
  9
$DIMPOST
  1

  9
$DIMAPOST
  1

  9
$DIMALT
 70
     0
  9
$DIMALTD
 70
     2
  9
$DIMALTF
 40
25.4
  9
$DIMLFAC
 40
1.0
  9
$DIMTOFL
 70
     0
  9
$DIMTVP
 40
0.0
  9
$DIMTIX
 70
     0
  9
$DIMSOXD
 70
     0
  9
$DIMSAH
 70
     0
  9
$DIMBLK1
  1

  9
$DIMBLK2
  1

  9
$LUNITS
 70
     2
  9
$LUPREC
 70
     4
  9
$SKETCHINC
 40
0.1
  9
$FILLETRAD
 40
0.5
  9
$AUNITS
 70
     0
  9
$AUPREC
 70
     0
  9
$MENU
  1
.
  9
$ELEVATION
 40
0.0
  9
$THICKNESS
 40
0.0
  9
$LIMCHECK
 70
     0
  9
$CHAMFERA
 40
0.0
  9
$CHAMFERB
 40
0.0
  9
$SKPOLY
 70
     0
  9
$TDCREATE
 40
2460427.586457268
  9
$TDUPDATE
 40
2460427.586457454
  9
$TDINDWG
 40
0.0000000116
  9
$TDUSRTIMER
 40
0.0000000116
  9
$USRTIMER
 70
     1
  9
$ANGBASE
 50
0.0
  9
$ANGDIR
 70
     0
  9
$PDMODE
 70
     0
  9
$PDSIZE
 40
0.0
  9
$PLINEWID
 40
0.0
  9
$COORDS
 70
     1
  9
$SPLFRAME
 70
     0
  9
$SPLINETYPE
 70
     6
  9
$SPLINESEGS
 70
     8
  9
$ATTDIA
 70
     0
  9
$ATTREQ
 70
     1
  9
$HANDLING
 70
     1
  9
$HANDSEED
  5
133
  9
$SURFTAB1
 70
     6
  9
$SURFTAB2
 70
     6
  9
$SURFTYPE
 70
     6
  9
$SURFU
 70
     6
  9
$SURFV
 70
     6
  9
$UCSNAME
  2

  9
$UCSORG
 10
0.0
 20
0.0
 30
0.0
  9
$UCSXDIR
 10
1.0
 20
0.0
 30
0.0
  9
$UCSYDIR
 10
0.0
 20
1.0
 30
0.0
  9
$USERI1
 70
     0
  9
$USERI2
 70
     0
  9
$USERI3
 70
     0
  9
$USERI4
 70
     0
  9
$USERI5
 70
     0
  9
$USERR1
 40
0.0
  9
$USERR2
 40
0.0
  9
$USERR3
 40
0.0
  9
$USERR4
 40
0.0
  9
$USERR5
 40
0.0
  9
$WORLDVIEW
 70
     1
  0
ENDSEC
  0
SECTION
  2
TABLES
  0
TABLE
  2
VPORT
 70
     1
  0
VPORT
  2
*ACTIVE
 70
     0
 10
0.0
 20
0.0
 11
1.0
 21
1.0
 12
-563.5849999991751
 22
-1148.72704545372
 13
0.0
 23
0.0
 14
0.5
 24
0.5
 15
0.5
 25
0.5
 16
0.0
 26
0.0
 36
1.0
 17
0.0
 27
0.0
 37
0.0
 40
257.6140909107411
 41
1.6
 42
50.0
 43
0.0
 44
0.0
 50
0.0
 51
0.0
 71
     0
 72
   100
 73
     1
 74
     3
 75
     0
 76
     0
 77
     0
 78
     0
  0
ENDTAB
  0
TABLE
  2
LTYPE
 70
     2
  0
LTYPE
  2
CONTINUOUS
 70
     0
  3
Solid line
 72
    65
 73
     0
 40
0.0
  0
LTYPE
  2
CENTER
 70
     0
  3

 72
    65
 73
     0
 40
0.0
  0
ENDTAB
  0
TABLE
  2
LAYER
 70
     2
  0
LAYER
  2
0
 70
     0
 62
     7
  6
CONTINUOUS
  0
LAYER
  2
1
 70
     0
 62
     7
  6
CONTINUOUS
  0
ENDTAB
  0
TABLE
  2
STYLE
 70
     2
  0
STYLE
  2
STANDARD
 70
     0
 40
0.0
 41
1.0
 50
0.0
 71
     0
 42
0.2
  3
txt
  4

  0
STYLE
  2
ＭＳ_ゴシック
 70
     0
 40
0.0
 41
1.0
 50
0.0
 71
     0
 42
0.2
  3
ＭＳ ゴシック.shx
  4

  0
ENDTAB
  0
TABLE
  2
VIEW
 70
     0
  0
ENDTAB
  0
TABLE
  2
UCS
 70
     0
  0
ENDTAB
  0
ENDSEC
  0
SECTION
  2
BLOCKS
  0
ENDSEC
  0
SECTION
  2
ENTITIES
  0
TEXT
  5
70
  8
1
  6
CONTINUOUS
 62
     7
 10
-587.6227335250717
 20
-1278.056818181818
 30
0.0
 40
5.0
  1
ＳＢ－Ｋ１ＹＳＡ
  0
LINE
  5
71
  8
0
  6
CENTER
 62
     1
 10
-517.579999998347
 20
-1192.446706074382
 30
0.0
 11
-447.4199999983505
 21
-1192.446706074382
 31
0.0
  0
LINE
  5
73
  8
0
  6
CENTER
 62
     1
 10
-602.4999999999998
 20
-1259.000000000003
 30
0.0
 11
-602.4999999999998
 21
-1126.000000000003
 31
0.0
  0
LINE
  5
74
  8
0
  6
CENTER
 62
     1
 10
-679.7499999999999
 20
-1192.446706074382
 30
0.0
 11
-525.2499999999999
 21
-1192.446706074382
 31
0.0
  0
LINE
  5
75
  8
0
  6
CENTER
 62
     1
 10
-602.4999999999998
 20
-1090.079999995051
 30
0.0
 11
-602.4999999999998
 21
-1019.91999999835
 31
0.0
  0
LINE
  5
76
  8
1
  6
CONTINUOUS
 62
     7
 10
-545.25
 20
-1079.91999999409
 30
0.0
 11
-540.250000000001
 21
-1079.91999999409
 31
0.0
  0
LINE
  5
77
  8
1
  6
CONTINUOUS
 62
     7
 10
-540.25
 20
-1079.91999999409
 30
0.0
 11
-540.25
 21
-1080.07999999409
 31
0.0
  0
LINE
  5
78
  8
1
  6
CONTINUOUS
 62
     7
 10
-540.2500000000007
 20
-1080.07999999409
 30
0.0
 11
-545.25
 21
-1080.07999999409
 31
0.0
  0
LINE
  5
79
  8
1
  6
CONTINUOUS
 62
     7
 10
-560.2499999999999
 20
-1080.07999999409
 30
0.0
 11
-560.2499999999999
 21
-1079.91999999409
 31
0.0
  0
LINE
  5
7A
  8
1
  6
CONTINUOUS
 62
     7
 10
-560.2499999999992
 20
-1079.91999999409
 30
0.0
 11
-555.25
 21
-1079.91999999409
 31
0.0
  0
LINE
  5
7B
  8
1
  6
CONTINUOUS
 62
     7
 10
-555.25
 20
-1080.07999999409
 30
0.0
 11
-560.2499999999989
 21
-1080.07999999409
 31
0.0
  0
LINE
  5
7C
  8
1
  6
CONTINUOUS
 62
     7
 10
-555.25
 20
-1079.91999999377
 30
0.0
 11
-545.25
 21
-1079.91999999377
 31
0.0
  0
LINE
  5
7D
  8
1
  6
CONTINUOUS
 62
     7
 10
-555.25
 20
-1080.07999999377
 30
0.0
 11
-545.25
 21
-1080.07999999377
 31
0.0
  0
LINE
  5
7E
  8
1
  6
CONTINUOUS
 62
     7
 10
-565.2499999999999
 20
-1080.079999994731
 30
0.0
 11
-560.2500000000007
 21
-1080.079999994731
 31
0.0
  0
LINE
  5
7F
  8
1
  6
CONTINUOUS
 62
     7
 10
-664.7499999999998
 20
-1080.079999995371
 30
0.0
 11
-664.7499999999998
 21
-1079.919999995371
 31
0.0
  0
LINE
  5
80
  8
1
  6
CONTINUOUS
 62
     7
 10
-659.7499999999998
 20
-1080.079999995371
 30
0.0
 11
-664.7499999999989
 21
-1080.079999995371
 31
0.0
  0
LINE
  5
81
  8
1
  6
CONTINUOUS
 62
     7
 10
-659.7499999999998
 20
-1080.079999995051
 30
0.0
 11
-565.2499999999999
 21
-1080.079999995051
 31
0.0
  0
LINE
  5
82
  8
1
  6
CONTINUOUS
 62
     7
 10
-669.7499999999999
 20
-1079.91999999835
 30
0.0
 11
-669.7499999999999
 21
-1079.41999999835
 31
0.0
  0
LINE
  5
83
  8
1
  6
CONTINUOUS
 62
     7
 10
-669.7499999999999
 20
-1079.41999999835
 30
0.0
 11
-659.7499999999999
 21
-1079.41999999835
 31
0.0
  0
LINE
  5
84
  8
1
  6
CONTINUOUS
 62
     7
 10
-659.7499999999999
 20
-1079.91999999835
 30
0.0
 11
-669.7499999999999
 21
-1079.91999999835
 31
0.0
  0
LINE
  5
85
  8
1
  6
CONTINUOUS
 62
     7
 10
-535.2499999999999
 20
-1079.41999999835
 30
0.0
 11
-535.2499999999999
 21
-1079.91999999835
 31
0.0
  0
LINE
  5
86
  8
1
  6
CONTINUOUS
 62
     7
 10
-545.2499999999999
 20
-1079.41999999835
 30
0.0
 11
-535.25
 21
-1079.41999999835
 31
0.0
  0
LINE
  5
87
  8
1
  6
CONTINUOUS
 62
     7
 10
-535.25
 20
-1079.91999999835
 30
0.0
 11
-540.25
 21
-1079.91999999835
 31
0.0
  0
LINE
  5
88
  8
1
  6
CONTINUOUS
 62
     7
 10
-659.7499999999999
 20
-1079.41999999835
 30
0.0
 11
-545.2499999999999
 21
-1079.41999999835
 31
0.0
  0
LINE
  5
89
  8
1
  6
CONTINUOUS
 62
     7
 10
-659.7499999999999
 20
-1079.91999999835
 30
0.0
 11
-560.25
 21
-1079.919999996541
 31
0.0
  0
CIRCLE
  5
8A
  8
1
  6
CONTINUOUS
 62
   253
 10
-587.4983691707405
 20
-1050.410951020024
 30
0.0
 40
11.0371028292687
  0
LINE
  5
8B
  8
1
  6
CONTINUOUS
 62
     7
 10
-643.2499999999999
 20
-1064.41999999835
 30
0.0
 11
-643.250761524218
 21
-1064.41999999835
 31
0.0
  0
CIRCLE
  5
8C
  8
1
  6
CONTINUOUS
 62
   253
 10
-617.4983691707367
 20
-1050.410951020028
 30
0.0
 40
11.03710282926526
  0
ARC
  5
8D
  8
1
  6
CONTINUOUS
 62
     7
 10
-556.2499999999999
 20
-1078.91999999835
 30
0.0
 40
0.500000000000056
 50
180.0
 51
270.0000000000007
  0
ARC
  5
8E
  8
1
  6
CONTINUOUS
 62
     7
 10
-648.7499999999999
 20
-1078.91999999835
 30
0.0
 40
0.500000000000056
 50
270.0
 51
0.0000000000000568
  0
LINE
  5
8F
  8
1
  6
CONTINUOUS
 62
     7
 10
-557.2664475798199
 20
-1034.832737966164
 30
0.0
 11
-556.7499999999999
 21
-1064.41999999835
 31
0.0
  0
LINE
  5
90
  8
1
  6
CONTINUOUS
 62
     7
 10
-648.2499999999999
 20
-1064.41999999835
 30
0.0
 11
-647.7335524201799
 21
-1034.832737966164
 31
0.0
  0
LINE
  5
91
  8
1
  6
CONTINUOUS
 62
     7
 10
-556.7499999999999
 20
-1064.41999999835
 30
0.0
 11
-556.7499999999999
 21
-1078.91999999835
 31
0.0
  0
LINE
  5
92
  8
1
  6
CONTINUOUS
 62
     7
 10
-648.2499999999999
 20
-1078.91999999835
 30
0.0
 11
-648.2499999999999
 21
-1064.41999999835
 31
0.0
  0
ARC
  5
93
  8
1
  6
CONTINUOUS
 62
     7
 10
-642.734313944398
 20
-1034.91999999835
 30
0.0
 40
5.000000000000031
 50
90.0
 51
178.9999999999999
  0
LINE
  5
94
  8
1
  6
CONTINUOUS
 62
     7
 10
-642.734313944398
 20
-1029.91999999835
 30
0.0
 11
-562.2656860556019
 21
-1029.91999999835
 31
0.0
  0
ARC
  5
95
  8
1
  6
CONTINUOUS
 62
     7
 10
-562.2656860556019
 20
-1034.91999999835
 30
0.0
 40
5.000000000000031
 50
1.000000000000082
 51
90.00000000000009
  0
LINE
  5
96
  8
1
  6
CONTINUOUS
 62
   253
 10
-592.0537672119666
 20
-1051.476564454054
 30
0.0
 11
-592.0157917163589
 21
-1051.866927427835
 31
0.0
  0
LINE
  5
97
  8
1
  6
CONTINUOUS
 62
   253
 10
-592.0157917163589
 20
-1051.866927427835
 30
0.0
 11
-591.9026082254157
 21
-1052.242025949494
 31
0.0
  0
LINE
  5
98
  8
1
  6
CONTINUOUS
 62
   253
 10
-591.9026082254157
 20
-1052.242025949494
 30
0.0
 11
-591.7185461871178
 21
-1052.587511905861
 31
0.0
  0
LINE
  5
99
  8
1
  6
CONTINUOUS
 62
   253
 10
-591.7185461871178
 20
-1052.587511905861
 30
0.0
 11
-591.4706462662596
 21
-1052.890169911339
 31
0.0
  0
LINE
  5
9A
  8
1
  6
CONTINUOUS
 62
   253
 10
-591.4706462662596
 20
-1052.890169911339
 30
0.0
 11
-591.1683910278583
 21
-1053.138422817355
 31
0.0
  0
LINE
  5
9B
  8
1
  6
CONTINUOUS
 62
   253
 10
-591.1683910278583
 20
-1053.138422817355
 30
0.0
 11
-590.8233422140074
 21
-1053.322774556648
 31
0.0
  0
LINE
  5
9C
  8
1
  6
CONTINUOUS
 62
   253
 10
-590.8233422140074
 20
-1053.322774556648
 30
0.0
 11
-590.4486984889103
 21
-1053.436173382904
 31
0.0
  0
LINE
  5
9D
  8
1
  6
CONTINUOUS
 62
   253
 10
-590.4486984889103
 20
-1053.436173382904
 30
0.0
 11
-590.058790569048
 21
-1053.474281611223
 31
0.0
  0
LINE
  5
9E
  8
1
  6
CONTINUOUS
 62
   253
 10
-620.058790569048
 20
-1053.474281611223
 30
0.0
 11
-614.9412094309517
 21
-1053.474281611223
 31
0.0
  0
LINE
  5
9F
  8
1
  6
CONTINUOUS
 62
   253
 10
-614.9412094309517
 20
-1053.474281611223
 30
0.0
 11
-614.5513015110896
 21
-1053.436173382904
 31
0.0
  0
LINE
  5
A0
  8
1
  6
CONTINUOUS
 62
   253
 10
-614.5513015110896
 20
-1053.436173382904
 30
0.0
 11
-614.1766577859923
 21
-1053.322774556648
 31
0.0
  0
LINE
  5
A1
  8
1
  6
CONTINUOUS
 62
   253
 10
-614.1766577859923
 20
-1053.322774556648
 30
0.0
 11
-613.8316089721415
 21
-1053.138422817354
 31
0.0
  0
LINE
  5
A2
  8
1
  6
CONTINUOUS
 62
   253
 10
-613.8316089721415
 20
-1053.138422817354
 30
0.0
 11
-613.5293537337402
 21
-1052.890169911339
 31
0.0
  0
LINE
  5
A3
  8
1
  6
CONTINUOUS
 62
   253
 10
-613.5293537337402
 20
-1052.890169911339
 30
0.0
 11
-613.281453812882
 21
-1052.587511905861
 31
0.0
  0
LINE
  5
A4
  8
1
  6
CONTINUOUS
 62
   253
 10
-613.281453812882
 20
-1052.587511905861
 30
0.0
 11
-613.0973917745839
 21
-1052.242025949494
 31
0.0
  0
LINE
  5
A5
  8
1
  6
CONTINUOUS
 62
   253
 10
-613.0973917745839
 20
-1052.242025949494
 30
0.0
 11
-612.9842082836409
 21
-1051.866927427835
 31
0.0
  0
LINE
  5
A6
  8
1
  6
CONTINUOUS
 62
   253
 10
-612.9842082836409
 20
-1051.866927427835
 30
0.0
 11
-612.9462327880332
 21
-1051.476564454054
 31
0.0
  0
LINE
  5
A7
  8
1
  6
CONTINUOUS
 62
   253
 10
-584.9412094309517
 20
-1053.474281611223
 30
0.0
 11
-584.5513015110896
 21
-1053.436173382904
 31
0.0
  0
LINE
  5
A8
  8
1
  6
CONTINUOUS
 62
   253
 10
-584.5513015110896
 20
-1053.436173382904
 30
0.0
 11
-584.1766577859923
 21
-1053.322774556648
 31
0.0
  0
LINE
  5
A9
  8
1
  6
CONTINUOUS
 62
   253
 10
-584.1766577859923
 20
-1053.322774556648
 30
0.0
 11
-583.8316089721415
 21
-1053.138422817354
 31
0.0
  0
LINE
  5
AA
  8
1
  6
CONTINUOUS
 62
   253
 10
-583.8316089721415
 20
-1053.138422817354
 30
0.0
 11
-583.5293537337402
 21
-1052.890169911339
 31
0.0
  0
LINE
  5
AB
  8
1
  6
CONTINUOUS
 62
   253
 10
-583.5293537337402
 20
-1052.890169911339
 30
0.0
 11
-583.281453812882
 21
-1052.587511905861
 31
0.0
  0
LINE
  5
AC
  8
1
  6
CONTINUOUS
 62
   253
 10
-583.281453812882
 20
-1052.587511905861
 30
0.0
 11
-583.097391774584
 21
-1052.242025949494
 31
0.0
  0
LINE
  5
AD
  8
1
  6
CONTINUOUS
 62
   253
 10
-583.097391774584
 20
-1052.242025949494
 30
0.0
 11
-582.9842082836409
 21
-1051.866927427835
 31
0.0
  0
LINE
  5
AE
  8
1
  6
CONTINUOUS
 62
   253
 10
-582.9842082836409
 20
-1051.866927427835
 30
0.0
 11
-582.9462327880332
 21
-1051.476564454054
 31
0.0
  0
LINE
  5
AF
  8
1
  6
CONTINUOUS
 62
   253
 10
-590.058790569048
 20
-1053.474281611223
 30
0.0
 11
-584.9412094309519
 21
-1053.474281611223
 31
0.0
  0
LINE
  5
B0
  8
1
  6
CONTINUOUS
 62
   253
 10
-622.0537672119667
 20
-1051.476564454054
 30
0.0
 11
-622.015791716359
 21
-1051.866927427835
 31
0.0
  0
LINE
  5
B1
  8
1
  6
CONTINUOUS
 62
   253
 10
-622.015791716359
 20
-1051.866927427835
 30
0.0
 11
-621.9026082254159
 21
-1052.242025949494
 31
0.0
  0
LINE
  5
B2
  8
1
  6
CONTINUOUS
 62
   253
 10
-621.9026082254159
 20
-1052.242025949494
 30
0.0
 11
-621.7185461871179
 21
-1052.587511905861
 31
0.0
  0
LINE
  5
B3
  8
1
  6
CONTINUOUS
 62
   253
 10
-621.7185461871179
 20
-1052.587511905861
 30
0.0
 11
-621.4706462662597
 21
-1052.890169911339
 31
0.0
  0
LINE
  5
B4
  8
1
  6
CONTINUOUS
 62
   253
 10
-621.4706462662597
 20
-1052.890169911339
 30
0.0
 11
-621.1683910278584
 21
-1053.138422817354
 31
0.0
  0
LINE
  5
B5
  8
1
  6
CONTINUOUS
 62
   253
 10
-621.1683910278584
 20
-1053.138422817354
 30
0.0
 11
-620.8233422140075
 21
-1053.322774556648
 31
0.0
  0
LINE
  5
B6
  8
1
  6
CONTINUOUS
 62
   253
 10
-620.8233422140075
 20
-1053.322774556648
 30
0.0
 11
-620.4486984889104
 21
-1053.436173382904
 31
0.0
  0
LINE
  5
B7
  8
1
  6
CONTINUOUS
 62
   253
 10
-620.4486984889104
 20
-1053.436173382904
 30
0.0
 11
-620.0587905690481
 21
-1053.474281611223
 31
0.0
  0
LINE
  5
B8
  8
1
  6
CONTINUOUS
 62
   253
 10
-592.0537672119667
 20
-1049.345290739171
 30
0.0
 11
-592.0537672119667
 21
-1051.476564454054
 31
0.0
  0
LINE
  5
B9
  8
1
  6
CONTINUOUS
 62
   253
 10
-622.0537672119667
 20
-1049.345290739171
 30
0.0
 11
-622.0537672119667
 21
-1051.476564454054
 31
0.0
  0
LINE
  5
BA
  8
1
  6
CONTINUOUS
 62
   253
 10
-582.9462327880332
 20
-1051.476564454054
 30
0.0
 11
-582.9462327880332
 21
-1049.345290739171
 31
0.0
  0
LINE
  5
BB
  8
1
  6
CONTINUOUS
 62
   253
 10
-612.9462327880332
 20
-1051.476564454054
 30
0.0
 11
-612.9462327880332
 21
-1049.345290739171
 31
0.0
  0
LINE
  5
BC
  8
1
  6
CONTINUOUS
 62
   253
 10
-590.0565081424575
 20
-1047.348335861892
 30
0.0
 11
-590.4466852938575
 21
-1047.386358524058
 31
0.0
  0
LINE
  5
BD
  8
1
  6
CONTINUOUS
 62
   253
 10
-590.4466852938575
 20
-1047.386358524058
 30
0.0
 11
-590.8216576388695
 21
-1047.49968042859
 31
0.0
  0
LINE
  5
BE
  8
1
  6
CONTINUOUS
 62
   253
 10
-590.8216576388695
 20
-1047.49968042859
 30
0.0
 11
-591.1670652503105
 21
-1047.683961803985
 31
0.0
  0
LINE
  5
BF
  8
1
  6
CONTINUOUS
 62
   253
 10
-591.1670652503105
 20
-1047.683961803985
 30
0.0
 11
-591.4696804109512
 21
-1047.932145417445
 31
0.0
  0
LINE
  5
C0
  8
1
  6
CONTINUOUS
 62
   253
 10
-591.4696804109512
 20
-1047.932145417445
 30
0.0
 11
-591.7179141816898
 21
-1048.234726838404
 31
0.0
  0
LINE
  5
C1
  8
1
  6
CONTINUOUS
 62
   253
 10
-591.7179141816898
 20
-1048.234726838404
 30
0.0
 11
-591.9022602111392
 21
-1048.580118419854
 31
0.0
  0
LINE
  5
C2
  8
1
  6
CONTINUOUS
 62
   253
 10
-591.9022602111392
 20
-1048.580118419854
 30
0.0
 11
-592.0156587905115
 21
-1048.955093058449
 31
0.0
  0
LINE
  5
C3
  8
1
  6
CONTINUOUS
 62
   253
 10
-592.0156587905115
 20
-1048.955093058449
 30
0.0
 11
-592.0537672119666
 21
-1049.345290739171
 31
0.0
  0
LINE
  5
C4
  8
1
  6
CONTINUOUS
 62
   253
 10
-582.9462327880332
 20
-1049.345290739171
 30
0.0
 11
-582.9843412094883
 21
-1048.955093058449
 31
0.0
  0
LINE
  5
C5
  8
1
  6
CONTINUOUS
 62
   253
 10
-582.9843412094883
 20
-1048.955093058449
 30
0.0
 11
-583.0977397888606
 21
-1048.580118419854
 31
0.0
  0
LINE
  5
C6
  8
1
  6
CONTINUOUS
 62
   253
 10
-583.0977397888606
 20
-1048.580118419854
 30
0.0
 11
-583.28208581831
 21
-1048.234726838404
 31
0.0
  0
LINE
  5
C7
  8
1
  6
CONTINUOUS
 62
   253
 10
-583.28208581831
 20
-1048.234726838404
 30
0.0
 11
-583.5303195890485
 21
-1047.932145417445
 31
0.0
  0
LINE
  5
C8
  8
1
  6
CONTINUOUS
 62
   253
 10
-583.5303195890485
 20
-1047.932145417445
 30
0.0
 11
-583.8329347496892
 21
-1047.683961803985
 31
0.0
  0
LINE
  5
C9
  8
1
  6
CONTINUOUS
 62
   253
 10
-583.8329347496892
 20
-1047.683961803985
 30
0.0
 11
-584.1783423611303
 21
-1047.49968042859
 31
0.0
  0
LINE
  5
CA
  8
1
  6
CONTINUOUS
 62
   253
 10
-584.1783423611303
 20
-1047.49968042859
 30
0.0
 11
-584.5533147061423
 21
-1047.386358524058
 31
0.0
  0
LINE
  5
CB
  8
1
  6
CONTINUOUS
 62
   253
 10
-584.5533147061423
 20
-1047.386358524058
 30
0.0
 11
-584.9434918575423
 21
-1047.348335861892
 31
0.0
  0
LINE
  5
CC
  8
1
  6
CONTINUOUS
 62
   253
 10
-620.0565081424576
 20
-1047.348335861892
 30
0.0
 11
-620.4466852938576
 21
-1047.386358524058
 31
0.0
  0
LINE
  5
CD
  8
1
  6
CONTINUOUS
 62
   253
 10
-620.4466852938576
 20
-1047.386358524058
 30
0.0
 11
-620.8216576388696
 21
-1047.49968042859
 31
0.0
  0
LINE
  5
CE
  8
1
  6
CONTINUOUS
 62
   253
 10
-620.8216576388696
 20
-1047.49968042859
 30
0.0
 11
-621.1670652503107
 21
-1047.683961803985
 31
0.0
  0
LINE
  5
CF
  8
1
  6
CONTINUOUS
 62
   253
 10
-621.1670652503107
 20
-1047.683961803985
 30
0.0
 11
-621.4696804109514
 21
-1047.932145417445
 31
0.0
  0
LINE
  5
D0
  8
1
  6
CONTINUOUS
 62
   253
 10
-621.4696804109514
 20
-1047.932145417445
 30
0.0
 11
-621.7179141816899
 21
-1048.234726838404
 31
0.0
  0
LINE
  5
D1
  8
1
  6
CONTINUOUS
 62
   253
 10
-621.7179141816899
 20
-1048.234726838404
 30
0.0
 11
-621.9022602111393
 21
-1048.580118419854
 31
0.0
  0
LINE
  5
D2
  8
1
  6
CONTINUOUS
 62
   253
 10
-621.9022602111393
 20
-1048.580118419854
 30
0.0
 11
-622.0156587905116
 21
-1048.955093058449
 31
0.0
  0
LINE
  5
D3
  8
1
  6
CONTINUOUS
 62
   253
 10
-622.0156587905116
 20
-1048.955093058449
 30
0.0
 11
-622.0537672119667
 21
-1049.345290739171
 31
0.0
  0
LINE
  5
D4
  8
1
  6
CONTINUOUS
 62
   253
 10
-612.9462327880332
 20
-1049.345290739171
 30
0.0
 11
-612.9843412094883
 21
-1048.955093058449
 31
0.0
  0
LINE
  5
D5
  8
1
  6
CONTINUOUS
 62
   253
 10
-612.9843412094883
 20
-1048.955093058449
 30
0.0
 11
-613.0977397888606
 21
-1048.580118419854
 31
0.0
  0
LINE
  5
D6
  8
1
  6
CONTINUOUS
 62
   253
 10
-613.0977397888606
 20
-1048.580118419854
 30
0.0
 11
-613.28208581831
 21
-1048.234726838404
 31
0.0
  0
LINE
  5
D7
  8
1
  6
CONTINUOUS
 62
   253
 10
-613.28208581831
 20
-1048.234726838404
 30
0.0
 11
-613.5303195890485
 21
-1047.932145417445
 31
0.0
  0
LINE
  5
D8
  8
1
  6
CONTINUOUS
 62
   253
 10
-613.5303195890485
 20
-1047.932145417445
 30
0.0
 11
-613.8329347496892
 21
-1047.683961803985
 31
0.0
  0
LINE
  5
D9
  8
1
  6
CONTINUOUS
 62
   253
 10
-613.8329347496892
 20
-1047.683961803985
 30
0.0
 11
-614.1783423611303
 21
-1047.49968042859
 31
0.0
  0
LINE
  5
DA
  8
1
  6
CONTINUOUS
 62
   253
 10
-614.1783423611303
 20
-1047.49968042859
 30
0.0
 11
-614.5533147061423
 21
-1047.386358524058
 31
0.0
  0
LINE
  5
DB
  8
1
  6
CONTINUOUS
 62
   253
 10
-614.5533147061423
 20
-1047.386358524058
 30
0.0
 11
-614.9434918575423
 21
-1047.348335861892
 31
0.0
  0
LINE
  5
DC
  8
1
  6
CONTINUOUS
 62
   253
 10
-584.9434918575422
 20
-1047.348335861892
 30
0.0
 11
-590.0565081424576
 21
-1047.348335861892
 31
0.0
  0
LINE
  5
DD
  8
1
  6
CONTINUOUS
 62
   253
 10
-614.9434918575422
 20
-1047.348335861892
 30
0.0
 11
-620.0565081424576
 21
-1047.348335861892
 31
0.0
  0
LINE
  5
DE
  8
1
  6
CONTINUOUS
 62
     7
 10
-507.5799999940902
 20
-1125.999999999997
 30
0.0
 11
-507.5800000013293
 21
-1238.999999999989
 31
0.0
  0
LINE
  5
DF
  8
1
  6
CONTINUOUS
 62
     7
 10
-507.4199999940901
 20
-1126.000000000007
 30
0.0
 11
-507.4199999977956
 21
-1137.339745962159
 31
0.0
  0
LINE
  5
E0
  8
1
  6
CONTINUOUS
 62
     7
 10
-507.5799999937699
 20
-1120.999999999997
 30
0.0
 11
-507.41999999377
 21
-1121.000000000007
 31
0.0
  0
LINE
  5
E1
  8
1
  6
CONTINUOUS
 62
     7
 10
-507.41999999377
 20
-1121.000000000008
 30
0.0
 11
-507.4199999940901
 21
-1126.000000000007
 31
0.0
  0
LINE
  5
E2
  8
1
  6
CONTINUOUS
 62
     7
 10
-507.5799999940902
 20
-1125.999999999997
 30
0.0
 11
-507.5799999937699
 21
-1120.999999999997
 31
0.0
  0
LINE
  5
E3
  8
1
  6
CONTINUOUS
 62
     7
 10
-507.4200000016497
 20
-1243.999999999999
 30
0.0
 11
-507.5800000016495
 21
-1243.999999999989
 31
0.0
  0
LINE
  5
E4
  8
1
  6
CONTINUOUS
 62
     7
 10
-507.5800000016495
 20
-1243.999999999988
 30
0.0
 11
-507.5800000013292
 21
-1238.999999999989
 31
0.0
  0
LINE
  5
E5
  8
1
  6
CONTINUOUS
 62
     7
 10
-506.9199999983505
 20
-1239.000000000003
 30
0.0
 11
-506.9199999983505
 21
-1249.000000000003
 31
0.0
  0
LINE
  5
E6
  8
1
  6
CONTINUOUS
 62
     7
 10
-506.9199999983505
 20
-1249.000000000003
 30
0.0
 11
-507.4199999983504
 21
-1249.000000000003
 31
0.0
  0
LINE
  5
E7
  8
1
  6
CONTINUOUS
 62
     7
 10
-507.4199999983504
 20
-1249.000000000003
 30
0.0
 11
-507.4199999983504
 21
-1239.000000000003
 31
0.0
  0
LINE
  5
E8
  8
1
  6
CONTINUOUS
 62
     7
 10
-507.4199999983504
 20
-1146.000000000003
 30
0.0
 11
-507.4199999983504
 21
-1239.000000000003
 31
0.0
  0
LINE
  5
E9
  8
1
  6
CONTINUOUS
 62
     7
 10
-506.9199999983505
 20
-1146.000000000003
 30
0.0
 11
-506.9199999983505
 21
-1239.000000000003
 31
0.0
  0
LINE
  5
EA
  8
1
  6
CONTINUOUS
 62
     7
 10
-507.4199999983504
 20
-1136.000000000003
 30
0.0
 11
-506.9199999983505
 21
-1136.000000000003
 31
0.0
  0
LINE
  5
EB
  8
1
  6
CONTINUOUS
 62
     7
 10
-506.9199999983505
 20
-1136.000000000003
 30
0.0
 11
-506.9199999983505
 21
-1146.000000000003
 31
0.0
  0
LINE
  5
EC
  8
1
  6
CONTINUOUS
 62
     7
 10
-507.4199999983504
 20
-1146.000000000003
 30
0.0
 11
-507.4199999983504
 21
-1137.339745962158
 31
0.0
  0
ARC
  5
ED
  8
1
  6
CONTINUOUS
 62
     7
 10
-506.4199999983503
 20
-1157.000000000003
 30
0.0
 40
0.5000000000000004
 50
180.0
 51
270.0000000000001
  0
ARC
  5
EE
  8
1
  6
CONTINUOUS
 62
     7
 10
-506.4199999983503
 20
-1227.914421255249
 30
0.0
 40
0.500000000000171
 50
94.99999999999994
 51
180.0000000000008
  0
LINE
  5
EF
  8
1
  6
CONTINUOUS
 62
     7
 10
-506.4199999983503
 20
-1157.500000000003
 30
0.0
 11
-491.9199999983502
 21
-1157.500000000003
 31
0.0
  0
LINE
  5
F0
  8
1
  6
CONTINUOUS
 62
     7
 10
-491.5278556235659
 20
-1226.109617528092
 30
0.0
 11
-506.4635778697242
 21
-1227.416323906203
 31
0.0
  0
LINE
  5
F1
  8
1
  6
CONTINUOUS
 62
     7
 10
-491.9199999983503
 20
-1157.500000000003
 30
0.0
 11
-462.3327379661639
 21
-1158.016447579823
 31
0.0
  0
LINE
  5
F2
  8
1
  6
CONTINUOUS
 62
     7
 10
-461.9842212846121
 20
-1223.524884444078
 30
0.0
 11
-491.5278556235659
 21
-1226.109617528092
 31
0.0
  0
ARC
  5
F3
  8
1
  6
CONTINUOUS
 62
     7
 10
-462.4199999983504
 20
-1163.015686055605
 30
0.0
 40
5.000000000000031
 50
0.0
 51
88.99999999999994
  0
ARC
  5
F4
  8
1
  6
CONTINUOUS
 62
     7
 10
-462.4199999983504
 20
-1218.54391095362
 30
0.0
 40
5.000000000000004
 50
275.0
 51
0.0
  0
LINE
  5
F5
  8
1
  6
CONTINUOUS
 62
     7
 10
-457.4199999983504
 20
-1163.015686055605
 30
0.0
 11
-457.4199999983504
 21
-1218.54391095362
 31
0.0
  0
ARC
  5
F6
  8
1
  6
CONTINUOUS
 62
     7
 10
-545.25
 20
-1238.999999999989
 30
0.0
 40
4.999999999999997
 50
270.0
 51
0.0
  0
LINE
  5
F7
  8
1
  6
CONTINUOUS
 62
     7
 10
-545.25
 20
-1243.999999999989
 30
0.0
 11
-659.7499999999998
 21
-1243.999999999989
 31
0.0
  0
ARC
  5
F8
  8
1
  6
CONTINUOUS
 62
     7
 10
-659.7499999999998
 20
-1238.999999999989
 30
0.0
 40
4.999999999999997
 50
180.0
 51
270.0
  0
LINE
  5
F9
  8
1
  6
CONTINUOUS
 62
     7
 10
-664.7499999999998
 20
-1238.999999999989
 30
0.0
 11
-664.7499999999998
 21
-1145.999999999995
 31
0.0
  0
ARC
  5
FA
  8
1
  6
CONTINUOUS
 62
     7
 10
-659.7499999999998
 20
-1145.999999999995
 30
0.0
 40
4.999999999999997
 50
90.0
 51
180.0
  0
LINE
  5
FB
  8
1
  6
CONTINUOUS
 62
     7
 10
-659.7499999999998
 20
-1140.999999999995
 30
0.0
 11
-565.2499999999999
 21
-1140.999999999995
 31
0.0
  0
ARC
  5
FC
  8
1
  6
CONTINUOUS
 62
     7
 10
-565.2499999999999
 20
-1135.999999999996
 30
0.0
 40
4.999999999999997
 50
270.0
 51
0.0
  0
LINE
  5
FD
  8
1
  6
CONTINUOUS
 62
     7
 10
-560.2499999999999
 20
-1135.999999999996
 30
0.0
 11
-560.2499999999999
 21
-1125.999999999997
 31
0.0
  0
ARC
  5
FE
  8
1
  6
CONTINUOUS
 62
     7
 10
-555.25
 20
-1125.999999999997
 30
0.0
 40
5.000000000000004
 50
90.0
 51
180.0
  0
LINE
  5
FF
  8
1
  6
CONTINUOUS
 62
     7
 10
-555.25
 20
-1120.999999999997
 30
0.0
 11
-545.25
 21
-1120.999999999997
 31
0.0
  0
ARC
  5
100
  8
1
  6
CONTINUOUS
 62
     7
 10
-545.25
 20
-1125.999999999997
 30
0.0
 40
4.999999999999997
 50
0.0
 51
90.0
  0
LINE
  5
101
  8
1
  6
CONTINUOUS
 62
     7
 10
-540.25
 20
-1125.999999999997
 30
0.0
 11
-540.25
 21
-1238.999999999989
 31
0.0
  0
ARC
  5
102
  8
1
  6
CONTINUOUS
 62
     7
 10
-556.2499999999999
 20
-1158.499999999995
 30
0.0
 40
2.000000000000002
 50
0.0
 51
89.99999999999982
  0
LINE
  5
103
  8
1
  6
CONTINUOUS
 62
     7
 10
-648.7499999999998
 20
-1156.499999999995
 30
0.0
 11
-556.2499999999999
 21
-1156.499999999995
 31
0.0
  0
ARC
  5
104
  8
1
  6
CONTINUOUS
 62
     7
 10
-648.7499999999998
 20
-1158.499999999995
 30
0.0
 40
2.000000000000002
 50
90.0
 51
180.0
  0
LINE
  5
105
  8
1
  6
CONTINUOUS
 62
     7
 10
-650.7499999999998
 20
-1226.49999999999
 30
0.0
 11
-650.7499999999998
 21
-1158.499999999995
 31
0.0
  0
ARC
  5
106
  8
1
  6
CONTINUOUS
 62
     7
 10
-648.7499999999998
 20
-1226.49999999999
 30
0.0
 40
2.000000000000002
 50
180.0
 51
270.0
  0
LINE
  5
107
  8
1
  6
CONTINUOUS
 62
     7
 10
-556.2499999999999
 20
-1228.49999999999
 30
0.0
 11
-648.7499999999998
 21
-1228.49999999999
 31
0.0
  0
ARC
  5
108
  8
1
  6
CONTINUOUS
 62
     7
 10
-556.2499999999999
 20
-1226.49999999999
 30
0.0
 40
2.000000000000002
 50
270.0000000000002
 51
0.0
  0
LINE
  5
109
  8
1
  6
CONTINUOUS
 62
     7
 10
-554.2499999999999
 20
-1158.499999999995
 30
0.0
 11
-554.2499999999999
 21
-1226.49999999999
 31
0.0
  0
ARC
  5
10A
  8
1
  6
CONTINUOUS
 62
     7
 10
-545.2499999999999
 20
-1146.000000000003
 30
0.0
 40
9.999999999999988
 50
0.0
 51
60.00000000000028
  0
LINE
  5
10B
  8
1
  6
CONTINUOUS
 62
     7
 10
-535.2499999999999
 20
-1146.000000000003
 30
0.0
 11
-535.2499999999999
 21
-1239.000000000003
 31
0.0
  0
ARC
  5
10C
  8
1
  6
CONTINUOUS
 62
     7
 10
-545.2499999999999
 20
-1239.000000000003
 30
0.0
 40
10.00000000000001
 50
270.0
 51
0.0
  0
LINE
  5
10D
  8
1
  6
CONTINUOUS
 62
     7
 10
-545.2499999999999
 20
-1249.000000000003
 30
0.0
 11
-659.7499999999998
 21
-1249.000000000003
 31
0.0
  0
ARC
  5
10E
  8
1
  6
CONTINUOUS
 62
     7
 10
-659.7499999999999
 20
-1239.000000000003
 30
0.0
 40
10.0
 50
180.0
 51
270.0
  0
LINE
  5
10F
  8
1
  6
CONTINUOUS
 62
     7
 10
-669.7499999999999
 20
-1239.000000000003
 30
0.0
 11
-669.7499999999999
 21
-1146.000000000003
 31
0.0
  0
ARC
  5
110
  8
1
  6
CONTINUOUS
 62
     7
 10
-659.7499999999999
 20
-1146.000000000003
 30
0.0
 40
10.0
 50
90.0
 51
180.0
  0
LINE
  5
111
  8
1
  6
CONTINUOUS
 62
     7
 10
-659.7499999999999
 20
-1136.000000000003
 30
0.0
 11
-560.2500000000007
 21
-1136.000000000003
 31
0.0
  0
LINE
  5
112
  8
1
  6
CONTINUOUS
 62
     7
 10
-643.2499999999999
 20
-1158.000000000003
 30
0.0
 11
-561.7499999999999
 21
-1158.000000000003
 31
0.0
  0
LINE
  5
113
  8
1
  6
CONTINUOUS
 62
   253
 10
-647.7499999999999
 20
-1222.39341214876
 30
0.0
 11
-647.6635337618144
 21
-1223.276159648758
 31
0.0
  0
LINE
  5
114
  8
1
  6
CONTINUOUS
 62
   253
 10
-647.6635337618144
 20
-1223.276159648758
 30
0.0
 11
-647.4074578963007
 21
-1224.124983657381
 31
0.0
  0
LINE
  5
115
  8
1
  6
CONTINUOUS
 62
   253
 10
-647.4074578963007
 20
-1224.124983657381
 30
0.0
 11
-646.9916132553614
 21
-1224.907264344004
 31
0.0
  0
LINE
  5
116
  8
1
  6
CONTINUOUS
 62
   253
 10
-646.9916132553614
 20
-1224.907264344004
 30
0.0
 11
-646.4319805153393
 21
-1225.592939100548
 31
0.0
  0
LINE
  5
117
  8
1
  6
CONTINUOUS
 62
   253
 10
-646.4319805153393
 20
-1225.592939100548
 30
0.0
 11
-645.7500660485881
 21
-1226.155657830651
 31
0.0
  0
LINE
  5
118
  8
1
  6
CONTINUOUS
 62
   253
 10
-645.7500660485881
 20
-1226.155657830651
 30
0.0
 11
-644.9720754456428
 21
-1226.57379556909
 31
0.0
  0
LINE
  5
119
  8
1
  6
CONTINUOUS
 62
   253
 10
-644.9720754456428
 20
-1226.57379556909
 30
0.0
 11
-644.1279064490725
 21
-1226.831283517072
 31
0.0
  0
LINE
  5
11A
  8
1
  6
CONTINUOUS
 62
   253
 10
-644.1279064490725
 20
-1226.831283517072
 30
0.0
 11
-643.2499999999999
 21
-1226.918226557157
 31
0.0
  0
ARC
  5
11B
  8
1
  6
CONTINUOUS
 62
     7
 10
-643.2499999999999
 20
-1162.500000000003
 30
0.0
 40
4.500000000000004
 50
90.0
 51
180.0
  0
ARC
  5
11C
  8
1
  6
CONTINUOUS
 62
     7
 10
-561.7499999999999
 20
-1162.500000000003
 30
0.0
 40
4.5
 50
0.0
 51
90.0
  0
LINE
  5
11D
  8
1
  6
CONTINUOUS
 62
   253
 10
-561.7499999999999
 20
-1226.918226557157
 30
0.0
 11
-643.2499999999999
 21
-1226.918226557157
 31
0.0
  0
LINE
  5
11E
  8
1
  6
CONTINUOUS
 62
   253
 10
-561.7499999999999
 20
-1226.918226557157
 30
0.0
 11
-560.8720935509273
 21
-1226.831283517072
 31
0.0
  0
LINE
  5
11F
  8
1
  6
CONTINUOUS
 62
   253
 10
-560.8720935509273
 20
-1226.831283517072
 30
0.0
 11
-560.027924554357
 21
-1226.57379556909
 31
0.0
  0
LINE
  5
120
  8
1
  6
CONTINUOUS
 62
   253
 10
-560.027924554357
 20
-1226.57379556909
 30
0.0
 11
-559.2499339514117
 21
-1226.155657830651
 31
0.0
  0
LINE
  5
121
  8
1
  6
CONTINUOUS
 62
   253
 10
-559.2499339514117
 20
-1226.155657830651
 30
0.0
 11
-558.5680194846605
 21
-1225.592939100548
 31
0.0
  0
LINE
  5
122
  8
1
  6
CONTINUOUS
 62
   253
 10
-558.5680194846605
 20
-1225.592939100548
 30
0.0
 11
-558.0083867446384
 21
-1224.907264344004
 31
0.0
  0
LINE
  5
123
  8
1
  6
CONTINUOUS
 62
   253
 10
-558.0083867446384
 20
-1224.907264344004
 30
0.0
 11
-557.5925421036991
 21
-1224.124983657381
 31
0.0
  0
LINE
  5
124
  8
1
  6
CONTINUOUS
 62
   253
 10
-557.5925421036991
 20
-1224.124983657381
 30
0.0
 11
-557.3364662381854
 21
-1223.276159648758
 31
0.0
  0
LINE
  5
125
  8
1
  6
CONTINUOUS
 62
   253
 10
-557.3364662381854
 20
-1223.276159648758
 30
0.0
 11
-557.2499999999999
 21
-1222.39341214876
 31
0.0
  0
LINE
  5
126
  8
1
  6
CONTINUOUS
 62
     7
 10
-647.7499999999999
 20
-1222.39341214876
 30
0.0
 11
-647.7499999999999
 21
-1162.500000000003
 31
0.0
  0
LINE
  5
127
  8
1
  6
CONTINUOUS
 62
     7
 10
-557.2499999999999
 20
-1162.500000000003
 30
0.0
 11
-557.2499999999999
 21
-1222.39341214876
 31
0.0
  0
LINE
  5
128
  8
0
  6
CENTER
 62
     1
 10
-617.4983691707367
 20
-1063.448053849294
 30
0.0
 11
-617.4983691707367
 21
-1037.373848190763
 31
0.0
  0
LINE
  5
129
  8
0
  6
CENTER
 62
     1
 10
-600.5354720000092
 20
-1050.410951020024
 30
0.0
 11
-574.4612663414717
 21
-1050.410951020024
 31
0.0
  0
LINE
  5
12A
  8
0
  6
CENTER
 62
     1
 10
-630.5354720000021
 20
-1050.410951020028
 30
0.0
 11
-604.4612663414714
 21
-1050.410951020028
 31
0.0
  0
LINE
  5
12B
  8
0
  6
CENTER
 62
     1
 10
-587.4983691707405
 20
-1063.448053849293
 30
0.0
 11
-587.4983691707405
 21
-1037.373848190755
 31
0.0
  0
ENDSEC
  0
EOF
