  0
SECTION
  2
HEADER
  9
$ACADVER
  1
AC1004
  9
$INSBASE
 10
0.0
 20
0.0
  9
$EXTMIN
 10
0.0
 20
-238.5
  9
$EXTMAX
 10
835.5000000000001
 20
164.0727272728273
  9
$LIMMIN
 10
0.0
 20
0.0
  9
$LIMMAX
 10
12.0
 20
9.0
  9
$ORTHOMODE
 70
     0
  9
$REGENMODE
 70
     1
  9
$FILLMODE
 70
     1
  9
$QTEXTMODE
 70
     0
  9
$DRAGMODE
 70
     2
  9
$LTSCALE
 40
1.0
  9
$OSMODE
 70
    37
  9
$ATTMODE
 70
     1
  9
$TEXTSIZE
 40
0.2
  9
$TRACEWID
 40
0.05
  9
$TEXTSTYLE
  7
STANDARD
  9
$CLAYER
  8
0
  9
$CELTYPE
  6
BYLAYER
  9
$CECOLOR
 62
   256
  9
$DIMSCALE
 40
1.0
  9
$DIMASZ
 40
3.0
  9
$DIMEXO
 40
0.0625
  9
$DIMDLI
 40
0.38
  9
$DIMRND
 40
0.0
  9
$DIMDLE
 40
0.0
  9
$DIMEXE
 40
1.5
  9
$DIMTP
 40
0.0
  9
$DIMTM
 40
0.0
  9
$DIMTXT
 40
3.0
  9
$DIMCEN
 40
0.09
  9
$DIMTSZ
 40
0.0
  9
$DIMTOL
 70
     0
  9
$DIMLIM
 70
     0
  9
$DIMTIH
 70
     1
  9
$DIMTOH
 70
     1
  9
$DIMSE1
 70
     0
  9
$DIMSE2
 70
     0
  9
$DIMTAD
 70
     1
  9
$DIMZIN
 70
     0
  9
$DIMBLK
  1

  9
$DIMASO
 70
     1
  9
$DIMSHO
 70
     1
  9
$DIMPOST
  1

  9
$DIMAPOST
  1

  9
$DIMALT
 70
     0
  9
$DIMALTD
 70
     2
  9
$DIMALTF
 40
25.4
  9
$DIMLFAC
 40
1.0
  9
$DIMTOFL
 70
     0
  9
$DIMTVP
 40
0.0
  9
$DIMTIX
 70
     0
  9
$DIMSOXD
 70
     0
  9
$DIMSAH
 70
     0
  9
$DIMBLK1
  1

  9
$DIMBLK2
  1

  9
$LUNITS
 70
     2
  9
$LUPREC
 70
     4
  9
$SKETCHINC
 40
0.1
  9
$FILLETRAD
 40
0.5
  9
$AUNITS
 70
     0
  9
$AUPREC
 70
     0
  9
$MENU
  1
.
  9
$ELEVATION
 40
0.0
  9
$THICKNESS
 40
0.0
  9
$LIMCHECK
 70
     0
  9
$CHAMFERA
 40
0.0
  9
$CHAMFERB
 40
0.0
  9
$SKPOLY
 70
     0
  9
$TDCREATE
 40
2460062.408969734
  9
$TDUPDATE
 40
2460062.40897537
  9
$TDINDWG
 40
0.0000000116
  9
$TDUSRTIMER
 40
0.0000000116
  9
$USRTIMER
 70
     1
  9
$ANGBASE
 50
0.0
  9
$ANGDIR
 70
     0
  9
$PDMODE
 70
     0
  9
$PDSIZE
 40
0.0
  9
$PLINEWID
 40
0.0
  9
$COORDS
 70
     1
  9
$SPLFRAME
 70
     0
  9
$SPLINETYPE
 70
     6
  9
$SPLINESEGS
 70
     8
  9
$ATTDIA
 70
     0
  9
$ATTREQ
 70
     1
  9
$SURFTAB1
 70
     6
  9
$SURFTAB2
 70
     6
  9
$SURFTYPE
 70
     6
  9
$SURFU
 70
     6
  9
$SURFV
 70
     6
  9
$UCSNAME
  2

  9
$UCSORG
 10
0.0
 20
0.0
 30
0.0
  9
$UCSXDIR
 10
1.0
 20
0.0
 30
0.0
  9
$UCSYDIR
 10
0.0
 20
1.0
 30
0.0
  9
$USERI1
 70
     0
  9
$USERI2
 70
     0
  9
$USERI3
 70
     0
  9
$USERI4
 70
     0
  9
$USERI5
 70
     0
  9
$USERR1
 40
0.0
  9
$USERR2
 40
0.0
  9
$USERR3
 40
0.0
  9
$USERR4
 40
0.0
  9
$USERR5
 40
0.0
  9
$WORLDVIEW
 70
     1
  0
ENDSEC
  0
SECTION
  2
TABLES
  0
TABLE
  2
LTYPE
 70
     2
  0
LTYPE
  2
CONTINUOUS
 70
     0
  3
Solid line
 72
    65
 73
     0
 40
0.0
  0
LTYPE
  2
CENTER
 70
     0
  3

 72
    65
 73
     0
 40
0.0
  0
ENDTAB
  0
TABLE
  2
LAYER
 70
     2
  0
LAYER
  2
0
 70
     0
 62
     7
  6
CONTINUOUS
  0
LAYER
  2
1
 70
     0
 62
     7
  6
CONTINUOUS
  0
ENDTAB
  0
TABLE
  2
STYLE
 70
     2
  0
STYLE
  2
STANDARD
 70
     0
 40
0.0
 41
1.0
 50
0.0
 71
     0
 42
0.2
  3
txt
  4

  0
STYLE
  2
ＭＳ_ゴシック
 70
     0
 40
0.0
 41
1.0
 50
0.0
 71
     0
 42
0.2
  3
ＭＳ ゴシック.shx
  4

  0
ENDTAB
  0
TABLE
  2
VIEW
 70
     0
  0
ENDTAB
  0
ENDSEC
  0
SECTION
  2
BLOCKS
  0
BLOCK
  8
0
  2
D_FRAME_DRAWING_17
 70
     0
 10
0.0
 20
0.0
  0
LINE
  8
0
  6
CONTINUOUS
 62
     7
 10
0.0
 20
0.0
 11
420.0
 21
0.0
  0
LINE
  8
0
  6
CONTINUOUS
 62
     7
 10
420.0
 20
0.0
 11
420.0
 21
297.0
  0
LINE
  8
0
  6
CONTINUOUS
 62
     7
 10
420.0
 20
297.0
 11
0.0
 21
297.0
  0
LINE
  8
0
  6
CONTINUOUS
 62
     7
 10
0.0
 20
297.0
 11
0.0
 21
0.0
  0
ENDBLK
  8
0
  0
BLOCK
  8
0
  2
D_FRAME_VIEW_3359
 70
     0
 10
0.0
 20
0.0
  0
ARC
  8
1
  6
CONTINUOUS
 62
     7
 10
393.5
 20
-167.0173775788101
 40
2.000000000000002
 50
270.5000000000001
 51
0.0
  0
ARC
  8
1
  6
CONTINUOUS
 62
     7
 10
393.5
 20
-147.9826224211899
 40
2.000000000000006
 50
0.0
 51
89.5
  0
ARC
  8
1
  6
CONTINUOUS
 62
     7
 10
393.5
 20
-166.98262242119
 40
2.000000000000006
 50
0.0
 51
89.50000000000006
  0
ARC
  8
1
  6
CONTINUOUS
 62
     7
 10
393.5
 20
-148.01737757881
 40
2.000000000000002
 50
270.5000000000001
 51
0.0
  0
ENDBLK
  8
0
  0
BLOCK
  8
0
  2
D_FRAME_VIEW_3552
 70
     0
 10
0.0
 20
0.0
  0
ARC
  8
1
  6
CONTINUOUS
 62
     7
 10
483.0
 20
-224.5
 40
2.5
 50
0.0
 51
90.0
  0
ARC
  8
1
  6
CONTINUOUS
 62
     7
 10
528.0
 20
-224.5
 40
2.5
 50
0.0
 51
90.0
  0
ARC
  8
1
  6
CONTINUOUS
 62
     7
 10
467.9999999999999
 20
-224.5
 40
2.5
 50
90.0
 51
180.0
  0
ARC
  8
1
  6
CONTINUOUS
 62
     7
 10
513.0
 20
-224.5
 40
2.5
 50
90.0
 51
180.0
  0
LINE
  8
1
  6
CONTINUOUS
 62
     7
 10
528.0
 20
-222.0
 11
513.0
 21
-222.0
  0
LINE
  8
1
  6
CONTINUOUS
 62
     7
 10
483.0
 20
-222.0
 11
467.9999999999999
 21
-222.0
  0
LINE
  8
1
  6
CONTINUOUS
 62
     7
 10
465.5
 20
-224.5
 11
465.5
 21
-236.5
  0
LINE
  8
1
  6
CONTINUOUS
 62
     7
 10
510.4999999999999
 20
-224.5
 11
510.4999999999999
 21
-236.5
  0
LINE
  8
1
  6
CONTINUOUS
 62
     7
 10
530.5
 20
-236.5
 11
530.5
 21
-224.5
  0
LINE
  8
1
  6
CONTINUOUS
 62
     7
 10
485.5
 20
-236.5
 11
485.5
 21
-224.5
  0
LINE
  8
1
  6
CONTINUOUS
 62
     7
 10
465.4999619230642
 20
-236.5
 11
439.2094829053639
 21
-236.5
  0
ENDBLK
  8
0
  0
BLOCK
  8
0
  2
D_FRAME_VIEW_2449
 70
     0
 10
0.0
 20
0.0
  0
ENDBLK
  8
0
  0
BLOCK
  8
0
  2
D_FRAME_VIEW_4501
 70
     0
 10
0.0
 20
0.0
  0
ENDBLK
  8
0
  0
BLOCK
  8
0
  2
D_FRAME_VIEW_4728
 70
     0
 10
0.0
 20
0.0
  0
ENDBLK
  8
0
  0
BLOCK
  8
0
  2
D_FRAME_VIEW_2297
 70
     0
 10
0.0
 20
0.0
  0
ENDBLK
  8
0
  0
BLOCK
  8
0
  2
D_FRAME_VIEW_1444
 70
     0
 10
0.0
 20
0.0
  0
ENDBLK
  8
0
  0
BLOCK
  8
0
  2
D_FRAME_VIEW_2451
 70
     0
 10
0.0
 20
0.0
  0
LINE
  8
1
  6
CONTINUOUS
 62
     7
 10
443.5
 20
-162.5
 11
440.7372686779076
 21
-162.5
  0
LINE
  8
1
  6
CONTINUOUS
 62
     7
 10
440.7372686779076
 20
-152.5
 11
443.5
 21
-152.5
  0
ARC
  8
1
  6
CONTINUOUS
 62
     7
 10
443.5
 20
-157.5
 40
4.999999999999997
 50
270.0
 51
90.0
  0
LINE
  8
1
  6
CONTINUOUS
 62
     7
 10
552.5
 20
-162.5
 11
555.2627313220923
 21
-162.5
  0
ARC
  8
1
  6
CONTINUOUS
 62
     7
 10
552.5
 20
-157.5
 40
2.099999999999998
 50
90.0
 51
269.9999999999998
  0
LINE
  8
1
  6
CONTINUOUS
 62
     7
 10
555.2627313220925
 20
-152.5
 11
552.5
 21
-152.5
  0
ARC
  8
1
  6
CONTINUOUS
 62
     7
 10
443.5
 20
-157.5
 40
2.099999999999998
 50
270.0000000000002
 51
89.99999999999977
  0
ARC
  8
1
  6
CONTINUOUS
 62
     7
 10
552.5
 20
-157.5
 40
4.999999999999997
 50
90.0
 51
270.0
  0
ARC
  8
1
  6
CONTINUOUS
 62
     7
 10
552.5
 20
-157.5
 40
2.099999999999998
 50
269.9999999999998
 51
90.0
  0
ARC
  8
1
  6
CONTINUOUS
 62
     7
 10
443.5
 20
-157.5
 40
2.099999999999998
 50
89.99999999999982
 51
270.0000000000002
  0
ENDBLK
  8
0
  0
BLOCK
  8
0
  2
D_FRAME_VIEW_3554
 70
     0
 10
0.0
 20
0.0
  0
ENDBLK
  8
0
  0
ENDSEC
  0
SECTION
  2
ENTITIES
  0
INSERT
  8
0
 62
     7
  2
D_FRAME_DRAWING_17
 10
0.0
 20
0.0
 30
0.0
  0
LINE
  8
1
  6
CONTINUOUS
 62
     7
 10
393.5
 20
-169.0173775788101
 11
373.5000000000001
 21
-169.0173775788101
  0
CIRCLE
  8
1
  6
CONTINUOUS
 62
     7
 10
498.0
 20
-157.5
 40
8.0
  0
INSERT
  8
1
  6
CONTINUOUS
 62
     7
  2
D_FRAME_VIEW_3359
 10
0.0
 20
0.0
 30
0.0
  0
INSERT
  8
1
  6
CONTINUOUS
 62
     7
  2
D_FRAME_VIEW_3552
 10
0.0
 20
0.0
 30
0.0
  0
INSERT
  8
1
  6
CONTINUOUS
 62
     7
  2
D_FRAME_VIEW_2449
 10
0.0
 20
0.0
 30
0.0
  0
INSERT
  8
1
  6
CONTINUOUS
 62
     7
  2
D_FRAME_VIEW_4501
 10
0.0
 20
0.0
 30
0.0
  0
INSERT
  8
1
  6
CONTINUOUS
 62
     7
  2
D_FRAME_VIEW_4728
 10
0.0
 20
0.0
 30
0.0
  0
INSERT
  8
1
  6
CONTINUOUS
 62
     7
  2
D_FRAME_VIEW_2297
 10
0.0
 20
0.0
 30
0.0
  0
INSERT
  8
1
  6
CONTINUOUS
 62
     7
  2
D_FRAME_VIEW_1444
 10
0.0
 20
0.0
 30
0.0
  0
LINE
  8
1
  6
CENTER
 62
     1
 10
498.0
 20
-206.5
 11
498.0
 21
-238.5
  0
LINE
  8
1
  6
CENTER
 62
     1
 10
403.5
 20
-157.5
 11
371.5000000000001
 21
-157.5
  0
INSERT
  8
1
  6
CONTINUOUS
 62
     7
  2
D_FRAME_VIEW_2451
 10
0.0
 20
0.0
 30
0.0
  0
INSERT
  8
1
  6
CONTINUOUS
 62
     7
  2
D_FRAME_VIEW_3554
 10
0.0
 20
0.0
 30
0.0
  0
LINE
  8
1
  6
CONTINUOUS
 62
     7
 10
440.65
 20
-171.35
 11
440.65
 21
-143.65
  0
LINE
  8
1
  6
CONTINUOUS
 62
     7
 10
373.5000000000001
 20
-145.8080089086033
 11
393.5174530709968
 21
-145.9826985750616
  0
LINE
  8
1
  6
CONTINUOUS
 62
     7
 10
562.9999999999999
 20
-236.5
 11
433.0
 21
-236.5
  0
LINE
  8
1
  6
CONTINUOUS
 62
     7
 10
393.5174530709968
 20
-150.0173014249384
 11
373.5000000000001
 21
-150.1919910913967
  0
LINE
  8
1
  6
CONTINUOUS
 62
     7
 10
562.9999999999999
 20
-177.0
 11
562.9999999999999
 21
-138.0
  0
LINE
  8
1
  6
CONTINUOUS
 62
     7
 10
555.35
 20
-171.35
 11
440.65
 21
-171.35
  0
LINE
  8
1
  6
CONTINUOUS
 62
     7
 10
433.0
 20
-138.0
 11
433.0
 21
-177.0
  0
LINE
  8
1
  6
CONTINUOUS
 62
     7
 10
440.65
 20
-143.65
 11
555.35
 21
-143.65
  0
LINE
  8
1
  6
CONTINUOUS
 62
     7
 10
562.9999999999999
 20
-138.0
 11
433.0
 21
-138.0
  0
LINE
  8
1
  6
CONTINUOUS
 62
     7
 10
401.5
 20
-138.0
 11
401.5
 21
-177.0
  0
LINE
  8
1
  6
CONTINUOUS
 62
     7
 10
373.5000000000001
 20
-177.0
 11
373.5000000000001
 21
-138.0
  0
LINE
  8
1
  6
CONTINUOUS
 62
     7
 10
401.5
 20
-177.0
 11
373.5000000000001
 21
-177.0
  0
LINE
  8
1
  6
CONTINUOUS
 62
     7
 10
433.0
 20
-177.0
 11
562.9999999999999
 21
-177.0
  0
LINE
  8
1
  6
CONTINUOUS
 62
     7
 10
373.5000000000001
 20
-164.8080089086033
 11
393.5174530709968
 21
-164.9826985750616
  0
LINE
  8
1
  6
CONTINUOUS
 62
     7
 10
401.5
 20
-138.0
 11
373.5000000000001
 21
-138.0
  0
LINE
  8
1
  6
CONTINUOUS
 62
     7
 10
433.0
 20
-236.5
 11
433.0
 21
-208.5
  0
LINE
  8
1
  6
CONTINUOUS
 62
     7
 10
555.35
 20
-143.65
 11
555.35
 21
-171.35
  0
LINE
  8
1
  6
CONTINUOUS
 62
     7
 10
562.9999999999999
 20
-208.5
 11
562.9999999999999
 21
-236.5
  0
LINE
  8
1
  6
CONTINUOUS
 62
     7
 10
433.0
 20
-208.5
 11
562.9999999999999
 21
-208.5
  0
LINE
  8
1
  6
CENTER
 62
     1
 10
498.0
 20
-177.0
 11
498.0
 21
-138.0
  0
LINE
  8
1
  6
CENTER
 62
     1
 10
433.0
 20
-157.5
 11
562.9999999999999
 21
-157.5
  0
TEXT
  8
1
  6
CONTINUOUS
 62
     7
 10
479.1399962485933
 20
-130.5409090909091
 40
6.0
  1
ＳＢ－Ｋ２
  0
ENDSEC
  0
EOF
