  0
SECTION
  2
HEADER
  9
$ACADVER
  1
AC1006
  9
$DWGCODEPAGE
  3
ansi_932
  9
$INSBASE
 10
0.0
 20
0.0
 30
0.0
  9
$EXTMIN
 10
104.0
 20
34.51897586594971
  9
$EXTMAX
 10
371.0125359509817
 20
235.0000000000001
  9
$LIMMIN
 10
0.0
 20
0.0
  9
$LIMMAX
 10
12.0
 20
9.0
  9
$ORTHOMODE
 70
     0
  9
$REGENMODE
 70
     1
  9
$FILLMODE
 70
     1
  9
$QTEXTMODE
 70
     0
  9
$MIRRTEXT
 70
     1
  9
$DRAGMODE
 70
     2
  9
$LTSCALE
 40
1.0
  9
$OSMODE
 70
    37
  9
$ATTMODE
 70
     1
  9
$TEXTSIZE
 40
0.2
  9
$TRACEWID
 40
0.05
  9
$TEXTSTYLE
  7
STANDARD
  9
$CLAYER
  8
0
  9
$CELTYPE
  6
BYLAYER
  9
$CECOLOR
 62
   256
  9
$DIMSCALE
 40
1.0
  9
$DIMASZ
 40
3.0
  9
$DIMEXO
 40
0.0625
  9
$DIMDLI
 40
0.38
  9
$DIMRND
 40
0.0
  9
$DIMDLE
 40
0.0
  9
$DIMEXE
 40
1.5
  9
$DIMTP
 40
0.0
  9
$DIMTM
 40
0.0
  9
$DIMTXT
 40
3.0
  9
$DIMCEN
 40
0.09
  9
$DIMTSZ
 40
0.0
  9
$DIMTOL
 70
     0
  9
$DIMLIM
 70
     0
  9
$DIMTIH
 70
     1
  9
$DIMTOH
 70
     1
  9
$DIMSE1
 70
     0
  9
$DIMSE2
 70
     0
  9
$DIMTAD
 70
     1
  9
$DIMZIN
 70
     0
  9
$DIMBLK
  1

  9
$DIMASO
 70
     1
  9
$DIMSHO
 70
     1
  9
$DIMPOST
  1

  9
$DIMAPOST
  1

  9
$DIMALT
 70
     0
  9
$DIMALTD
 70
     2
  9
$DIMALTF
 40
25.4
  9
$DIMLFAC
 40
1.0
  9
$DIMTOFL
 70
     0
  9
$DIMTVP
 40
0.0
  9
$DIMTIX
 70
     0
  9
$DIMSOXD
 70
     0
  9
$DIMSAH
 70
     0
  9
$DIMBLK1
  1

  9
$DIMBLK2
  1

  9
$LUNITS
 70
     2
  9
$LUPREC
 70
     4
  9
$SKETCHINC
 40
0.1
  9
$FILLETRAD
 40
0.5
  9
$AUNITS
 70
     0
  9
$AUPREC
 70
     0
  9
$MENU
  1
.
  9
$ELEVATION
 40
0.0
  9
$THICKNESS
 40
0.0
  9
$LIMCHECK
 70
     0
  9
$CHAMFERA
 40
0.0
  9
$CHAMFERB
 40
0.0
  9
$SKPOLY
 70
     0
  9
$TDCREATE
 40
2460454.469169225
  9
$TDUPDATE
 40
2460454.469169444
  9
$TDINDWG
 40
0.0000000116
  9
$TDUSRTIMER
 40
0.0000000116
  9
$USRTIMER
 70
     1
  9
$ANGBASE
 50
0.0
  9
$ANGDIR
 70
     0
  9
$PDMODE
 70
     0
  9
$PDSIZE
 40
0.0
  9
$PLINEWID
 40
0.0
  9
$COORDS
 70
     1
  9
$SPLFRAME
 70
     0
  9
$SPLINETYPE
 70
     6
  9
$SPLINESEGS
 70
     8
  9
$ATTDIA
 70
     0
  9
$ATTREQ
 70
     1
  9
$HANDLING
 70
     1
  9
$HANDSEED
  5
15A
  9
$SURFTAB1
 70
     6
  9
$SURFTAB2
 70
     6
  9
$SURFTYPE
 70
     6
  9
$SURFU
 70
     6
  9
$SURFV
 70
     6
  9
$UCSNAME
  2

  9
$UCSORG
 10
0.0
 20
0.0
 30
0.0
  9
$UCSXDIR
 10
1.0
 20
0.0
 30
0.0
  9
$UCSYDIR
 10
0.0
 20
1.0
 30
0.0
  9
$USERI1
 70
     0
  9
$USERI2
 70
     0
  9
$USERI3
 70
     0
  9
$USERI4
 70
     0
  9
$USERI5
 70
     0
  9
$USERR1
 40
0.0
  9
$USERR2
 40
0.0
  9
$USERR3
 40
0.0
  9
$USERR4
 40
0.0
  9
$USERR5
 40
0.0
  9
$WORLDVIEW
 70
     1
  0
ENDSEC
  0
SECTION
  2
TABLES
  0
TABLE
  2
VPORT
 70
     1
  0
VPORT
  2
*ACTIVE
 70
     0
 10
0.0
 20
0.0
 11
1.0
 21
1.0
 12
237.5062679754908
 22
134.7594879329749
 13
0.0
 23
0.0
 14
0.5
 24
0.5
 15
0.5
 25
0.5
 16
0.0
 26
0.0
 36
1.0
 17
0.0
 27
0.0
 37
0.0
 40
200.4810241340504
 41
1.6
 42
50.0
 43
0.0
 44
0.0
 50
0.0
 51
0.0
 71
     0
 72
   100
 73
     1
 74
     3
 75
     0
 76
     0
 77
     0
 78
     0
  0
ENDTAB
  0
TABLE
  2
LTYPE
 70
     2
  0
LTYPE
  2
CONTINUOUS
 70
     0
  3
Solid line
 72
    65
 73
     0
 40
0.0
  0
LTYPE
  2
CENTER
 70
     0
  3

 72
    65
 73
     0
 40
0.0
  0
ENDTAB
  0
TABLE
  2
LAYER
 70
     2
  0
LAYER
  2
0
 70
     0
 62
     7
  6
CONTINUOUS
  0
LAYER
  2
1
 70
     0
 62
     7
  6
CONTINUOUS
  0
ENDTAB
  0
TABLE
  2
STYLE
 70
     2
  0
STYLE
  2
STANDARD
 70
     0
 40
0.0
 41
1.0
 50
0.0
 71
     0
 42
0.2
  3
txt
  4

  0
STYLE
  2
ＭＳ_ゴシック
 70
     0
 40
0.0
 41
1.0
 50
0.0
 71
     0
 42
0.2
  3
ＭＳ ゴシック.shx
  4

  0
ENDTAB
  0
TABLE
  2
VIEW
 70
     0
  0
ENDTAB
  0
TABLE
  2
UCS
 70
     0
  0
ENDTAB
  0
ENDSEC
  0
SECTION
  2
BLOCKS
  0
ENDSEC
  0
SECTION
  2
ENTITIES
  0
LINE
  5
70
  8
1
  6
CONTINUOUS
 62
     7
 10
298.5729563742186
 20
165.0
 30
0.0
 11
298.0729563742186
 21
165.0
 31
0.0
  0
LINE
  5
71
  8
1
  6
CONTINUOUS
 62
     7
 10
298.0729563742185
 20
165.0
 30
0.0
 11
298.0729563742185
 21
175.0
 31
0.0
  0
LINE
  5
72
  8
1
  6
CONTINUOUS
 62
     7
 10
298.5729563742186
 20
175.0
 30
0.0
 11
298.5729563742186
 21
165.0
 31
0.0
  0
LINE
  5
73
  8
1
  6
CONTINUOUS
 62
     7
 10
298.5729563742186
 20
192.0
 30
0.0
 11
298.5729563742186
 21
193.5
 31
0.0
  0
LINE
  5
74
  8
1
  6
CONTINUOUS
 62
     7
 10
298.0729563742185
 20
192.0
 30
0.0
 11
298.0729563742185
 21
193.5
 31
0.0
  0
LINE
  5
75
  8
1
  6
CONTINUOUS
 62
     7
 10
298.0729563742185
 20
235.0
 30
0.0
 11
298.5729563742185
 21
235.0
 31
0.0
  0
LINE
  5
76
  8
1
  6
CONTINUOUS
 62
     7
 10
298.5729563742186
 20
235.0
 30
0.0
 11
298.5729563742186
 21
225.0
 31
0.0
  0
LINE
  5
77
  8
1
  6
CONTINUOUS
 62
     7
 10
298.0729563742185
 20
225.0
 30
0.0
 11
298.0729563742185
 21
235.0
 31
0.0
  0
LINE
  5
78
  8
1
  6
CONTINUOUS
 62
     7
 10
298.5729563742186
 20
175.0
 30
0.0
 11
298.5729563742186
 21
192.0
 31
0.0
  0
LINE
  5
79
  8
1
  6
CONTINUOUS
 62
     7
 10
298.0729563742185
 20
175.0
 30
0.0
 11
298.0729563742185
 21
192.0
 31
0.0
  0
LINE
  5
7A
  8
1
  6
CONTINUOUS
 62
     7
 10
298.5729563742186
 20
195.0
 30
0.0
 11
298.5729563742186
 21
225.0
 31
0.0
  0
LINE
  5
7B
  8
1
  6
CONTINUOUS
 62
     7
 10
298.0729563742185
 20
195.0
 30
0.0
 11
298.0729563742185
 21
225.0
 31
0.0
  0
LINE
  5
7C
  8
1
  6
CONTINUOUS
 62
     7
 10
298.5729563742186
 20
193.5
 30
0.0
 11
298.5729563742186
 21
195.0
 31
0.0
  0
LINE
  5
7D
  8
1
  6
CONTINUOUS
 62
     7
 10
298.0729563742185
 20
193.5
 30
0.0
 11
298.0729563742185
 21
195.0
 31
0.0
  0
LINE
  5
7E
  8
1
  6
CONTINUOUS
 62
     7
 10
298.5729563742186
 20
226.5
 30
0.0
 11
341.1253135935304
 21
225.7572458418882
 31
0.0
  0
LINE
  5
7F
  8
1
  6
CONTINUOUS
 62
     7
 10
344.0729563742185
 20
222.757702756419
 30
0.0
 11
344.0729563742185
 21
222.7148266763173
 31
0.0
  0
LINE
  5
80
  8
1
  6
CONTINUOUS
 62
     7
 10
344.0729563742185
 20
222.7148266763173
 30
0.0
 11
344.0729563742185
 21
177.2851733236827
 31
0.0
  0
ARC
  5
81
  8
1
  6
CONTINUOUS
 62
     7
 10
341.0729563742185
 20
177.242297243581
 30
0.0
 40
3.000000000000011
 50
271.0
 51
316.7520719602799
  0
ARC
  5
82
  8
1
  6
CONTINUOUS
 62
     7
 10
341.0729563742185
 20
222.757702756419
 30
0.0
 40
3.000000000000007
 50
0.0
 51
89.00000000000001
  0
ARC
  5
83
  8
1
  6
CONTINUOUS
 62
     7
 10
341.0594798711239
 20
177.2400481028252
 30
0.0
 40
3.004084422754374
 50
316.6357114338971
 51
0.0113501709640786
  0
LINE
  5
84
  8
1
  6
CONTINUOUS
 62
     7
 10
306.0
 20
69.70000000000002
 30
0.0
 11
334.0
 21
69.70000000000002
 31
0.0
  0
LINE
  5
85
  8
1
  6
CONTINUOUS
 62
     7
 10
306.0
 20
70.0
 30
0.0
 11
334.0
 21
70.0
 31
0.0
  0
LINE
  5
86
  8
1
  6
CONTINUOUS
 62
     7
 10
310.0
 20
74.00000000000001
 30
0.0
 11
330.0
 21
74.00000000000001
 31
0.0
  0
LINE
  5
87
  8
1
  6
CONTINUOUS
 62
     7
 10
307.0000000000001
 20
68.3
 30
0.0
 11
332.9999999999999
 21
68.3
 31
0.0
  0
LINE
  5
88
  8
1
  6
CONTINUOUS
 62
     7
 10
307.0
 20
68.5
 30
0.0
 11
333.0
 21
68.5
 31
0.0
  0
LINE
  5
89
  8
1
  6
CONTINUOUS
 62
     7
 10
309.3
 20
66.0
 30
0.0
 11
330.7
 21
66.0
 31
0.0
  0
LINE
  5
8A
  8
1
  6
CONTINUOUS
 62
     7
 10
306.0
 20
70.0
 30
0.0
 11
306.0
 21
69.70000000000002
 31
0.0
  0
LINE
  5
8B
  8
1
  6
CONTINUOUS
 62
     7
 10
334.0
 20
69.70000000000002
 30
0.0
 11
334.0
 21
70.0
 31
0.0
  0
ARC
  5
8C
  8
1
  6
CONTINUOUS
 62
     7
 10
310.0
 20
70.0
 30
0.0
 40
4.000000000000004
 50
90.00000000000004
 51
180.0000000000001
  0
ARC
  5
8D
  8
1
  6
CONTINUOUS
 62
     7
 10
330.0
 20
70.0
 30
0.0
 40
4.000000000000004
 50
359.9999999999998
 51
90.0
  0
LINE
  5
8E
  8
1
  6
CONTINUOUS
 62
     7
 10
307.0
 20
68.5
 30
0.0
 11
307.0
 21
68.3
 31
0.0
  0
LINE
  5
8F
  8
1
  6
CONTINUOUS
 62
     7
 10
333.0
 20
68.3
 30
0.0
 11
333.0
 21
68.5
 31
0.0
  0
ARC
  5
90
  8
1
  6
CONTINUOUS
 62
     7
 10
309.3
 20
68.3
 30
0.0
 40
2.299999999999969
 50
180.0000000000001
 51
270.0000000000002
  0
ARC
  5
91
  8
1
  6
CONTINUOUS
 62
     7
 10
330.7
 20
68.3
 30
0.0
 40
2.299999999999996
 50
269.9999999999998
 51
359.9999999999998
  0
LINE
  5
92
  8
1
  6
CONTINUOUS
 62
     7
 10
309.5
 20
69.70000000000002
 30
0.0
 11
309.5
 21
68.5
 31
0.0
  0
LINE
  5
93
  8
1
  6
CONTINUOUS
 62
     7
 10
330.5
 20
68.5
 30
0.0
 11
330.5
 21
69.70000000000002
 31
0.0
  0
LINE
  5
94
  8
1
  6
CONTINUOUS
 62
     7
 10
173.5
 20
118.9270436257814
 30
0.0
 11
175.0
 21
118.9270436257814
 31
0.0
  0
LINE
  5
95
  8
1
  6
CONTINUOUS
 62
     7
 10
173.5
 20
119.4270436257815
 30
0.0
 11
175.0
 21
119.4270436257814
 31
0.0
  0
LINE
  5
96
  8
1
  6
CONTINUOUS
 62
     7
 10
114.0
 20
118.9270436257815
 30
0.0
 11
173.5
 21
118.9270436257814
 31
0.0
  0
LINE
  5
97
  8
1
  6
CONTINUOUS
 62
     7
 10
114.0
 20
119.4270436257815
 30
0.0
 11
173.5
 21
119.4270436257815
 31
0.0
  0
LINE
  5
98
  8
1
  6
CONTINUOUS
 62
     7
 10
176.5
 20
119.4270436257812
 30
0.0
 11
236.0
 21
119.4270436257815
 31
0.0
  0
LINE
  5
99
  8
1
  6
CONTINUOUS
 62
     7
 10
176.5
 20
118.9270436257812
 30
0.0
 11
236.0
 21
118.9270436257815
 31
0.0
  0
LINE
  5
9A
  8
1
  6
CONTINUOUS
 62
     7
 10
175.0
 20
119.4270436257814
 30
0.0
 11
176.5
 21
119.4270436257812
 31
0.0
  0
LINE
  5
9B
  8
1
  6
CONTINUOUS
 62
     7
 10
175.0
 20
118.9270436257814
 30
0.0
 11
176.5
 21
118.9270436257812
 31
0.0
  0
LINE
  5
9C
  8
1
  6
CONTINUOUS
 62
     7
 10
246.0
 20
119.4270436257815
 30
0.0
 11
246.0
 21
118.9270436257815
 31
0.0
  0
LINE
  5
9D
  8
1
  6
CONTINUOUS
 62
     7
 10
236.0
 20
119.4270436257815
 30
0.0
 11
246.0
 21
119.4270436257815
 31
0.0
  0
LINE
  5
9E
  8
1
  6
CONTINUOUS
 62
     7
 10
246.0
 20
118.9270436257815
 30
0.0
 11
236.0
 21
118.9270436257815
 31
0.0
  0
LINE
  5
9F
  8
1
  6
CONTINUOUS
 62
     7
 10
104.0
 20
118.9270436257815
 30
0.0
 11
104.0
 21
119.4270436257815
 31
0.0
  0
LINE
  5
A0
  8
1
  6
CONTINUOUS
 62
     7
 10
104.0
 20
119.4270436257815
 30
0.0
 11
114.0
 21
119.4270436257815
 31
0.0
  0
LINE
  5
A1
  8
1
  6
CONTINUOUS
 62
     7
 10
114.0
 20
118.9270436257815
 30
0.0
 11
104.0
 21
118.9270436257815
 31
0.0
  0
LINE
  5
A2
  8
1
  6
CONTINUOUS
 62
     7
 10
239.7140782695747
 20
73.42704362578154
 30
0.0
 11
110.2859217304253
 21
73.42704362578154
 31
0.0
  0
ARC
  5
A3
  8
1
  6
CONTINUOUS
 62
     7
 10
239.7144459142082
 20
73.92704362578154
 30
0.0
 40
0.5000000000000476
 50
270.0
 51
358.9999999999991
  0
ARC
  5
A4
  8
1
  6
CONTINUOUS
 62
     7
 10
110.2855540857918
 20
73.92704362578154
 30
0.0
 40
0.5000000000000004
 50
181.000000000001
 51
270.0
  0
LINE
  5
A5
  8
1
  6
CONTINUOUS
 62
     7
 10
216.0
 20
173.4
 30
0.0
 11
216.0
 21
173.5
 31
0.0
  0
LINE
  5
A6
  8
1
  6
CONTINUOUS
 62
     7
 10
235.0
 20
174.0
 30
0.0
 11
176.5
 21
174.0
 31
0.0
  0
LINE
  5
A7
  8
1
  6
CONTINUOUS
 62
     7
 10
175.0
 20
175.5
 30
0.0
 11
173.5
 21
174.0
 31
0.0
  0
LINE
  5
A8
  8
1
  6
CONTINUOUS
 62
     7
 10
173.5
 20
174.0
 30
0.0
 11
112.5
 21
174.0
 31
0.0
  0
ARC
  5
A9
  8
1
  6
CONTINUOUS
 62
     7
 10
112.5
 20
176.5
 30
0.0
 40
2.500000000000002
 50
180.0
 51
270.0
  0
ARC
  5
AA
  8
1
  6
CONTINUOUS
 62
     7
 10
112.5
 20
210.5
 30
0.0
 40
2.500000000000002
 50
90.0
 51
180.0
  0
LINE
  5
AB
  8
1
  6
CONTINUOUS
 62
     7
 10
112.5
 20
213.0
 30
0.0
 11
173.5
 21
213.0
 31
0.0
  0
LINE
  5
AC
  8
1
  6
CONTINUOUS
 62
     7
 10
173.5
 20
213.0
 30
0.0
 11
175.0
 21
211.5
 31
0.0
  0
LINE
  5
AD
  8
1
  6
CONTINUOUS
 62
     7
 10
175.0
 20
211.5
 30
0.0
 11
176.5
 21
213.0
 31
0.0
  0
LINE
  5
AE
  8
1
  6
CONTINUOUS
 62
     7
 10
176.5
 20
213.0
 30
0.0
 11
235.0
 21
213.0
 31
0.0
  0
LINE
  5
AF
  8
1
  6
CONTINUOUS
 62
     7
 10
232.35
 20
179.65
 30
0.0
 11
232.35
 21
207.35
 31
0.0
  0
LINE
  5
B0
  8
1
  6
CONTINUOUS
 62
     7
 10
117.65
 20
207.35
 30
0.0
 11
117.65
 21
179.65
 31
0.0
  0
LINE
  5
B1
  8
1
  6
CONTINUOUS
 62
     7
 10
176.5
 20
174.0
 30
0.0
 11
175.0
 21
175.5
 31
0.0
  0
LINE
  5
B2
  8
1
  6
CONTINUOUS
 62
     7
 10
236.0
 20
213.0
 30
0.0
 11
237.5
 21
213.0
 31
0.0
  0
ARC
  5
B3
  8
1
  6
CONTINUOUS
 62
     7
 10
237.5
 20
210.5
 30
0.0
 40
2.500000000000002
 50
0.0
 51
90.0
  0
LINE
  5
B4
  8
1
  6
CONTINUOUS
 62
     7
 10
240.0
 20
210.5
 30
0.0
 11
240.0
 21
176.5
 31
0.0
  0
ARC
  5
B5
  8
1
  6
CONTINUOUS
 62
     7
 10
237.5
 20
176.5
 30
0.0
 40
2.500000000000002
 50
270.0
 51
0.0000000000001137
  0
LINE
  5
B6
  8
1
  6
CONTINUOUS
 62
     7
 10
237.5
 20
174.0
 30
0.0
 11
236.0
 21
174.0
 31
0.0
  0
LINE
  5
B7
  8
1
  6
CONTINUOUS
 62
     7
 10
236.0
 20
213.0
 30
0.0
 11
235.0
 21
213.0
 31
0.0
  0
LINE
  5
B8
  8
1
  6
CONTINUOUS
 62
     7
 10
235.0
 20
174.0
 30
0.0
 11
236.0
 21
174.0
 31
0.0
  0
ARC
  5
B9
  8
1
  6
CONTINUOUS
 62
     7
 10
120.5
 20
193.5
 30
0.0
 40
2.099999999999991
 50
270.0
 51
89.99999999999926
  0
LINE
  5
BA
  8
1
  6
CONTINUOUS
 62
     7
 10
117.7372686779076
 20
198.5
 30
0.0
 11
120.5
 21
198.5
 31
0.0
  0
LINE
  5
BB
  8
1
  6
CONTINUOUS
 62
     7
 10
120.5
 20
188.5
 30
0.0
 11
117.7372686779076
 21
188.5
 31
0.0
  0
ARC
  5
BC
  8
1
  6
CONTINUOUS
 62
     7
 10
120.5
 20
193.5
 30
0.0
 40
5.000000000000004
 50
270.0000000000001
 51
90.0
  0
LINE
  5
BD
  8
1
  6
CONTINUOUS
 62
     7
 10
229.5
 20
188.5
 30
0.0
 11
232.2627313220924
 21
188.5
 31
0.0
  0
ARC
  5
BE
  8
1
  6
CONTINUOUS
 62
     7
 10
229.5
 20
193.5
 30
0.0
 40
5.000000000000004
 50
90.0
 51
269.9999999999999
  0
LINE
  5
BF
  8
1
  6
CONTINUOUS
 62
     7
 10
232.2627313220924
 20
198.5
 30
0.0
 11
229.5
 21
198.5
 31
0.0
  0
ARC
  5
C0
  8
1
  6
CONTINUOUS
 62
     7
 10
229.5
 20
193.5
 30
0.0
 40
2.099999999999991
 50
90.0000000000008
 51
270.0
  0
ARC
  5
C1
  8
1
  6
CONTINUOUS
 62
     7
 10
120.5
 20
193.5
 30
0.0
 40
2.099999999999991
 50
89.9999999999992
 51
270.0
  0
ARC
  5
C2
  8
1
  6
CONTINUOUS
 62
     7
 10
229.5
 20
193.5
 30
0.0
 40
2.099999999999991
 50
269.9999999999992
 51
90.0
  0
ARC
  5
C3
  8
1
  6
CONTINUOUS
 62
     7
 10
155.0
 20
192.9
 30
0.0
 40
0.5000000000000004
 50
270.0
 51
0.0
  0
LINE
  5
C4
  8
1
  6
CONTINUOUS
 62
     7
 10
155.5
 20
192.9
 30
0.0
 11
155.5
 21
194.1
 31
0.0
  0
ARC
  5
C5
  8
1
  6
CONTINUOUS
 62
     7
 10
155.0
 20
194.1
 30
0.0
 40
0.5000000000000004
 50
0.0
 51
90.00000000000009
  0
LINE
  5
C6
  8
1
  6
CONTINUOUS
 62
     7
 10
155.0
 20
194.6
 30
0.0
 11
148.0
 21
194.6
 31
0.0
  0
ARC
  5
C7
  8
1
  6
CONTINUOUS
 62
     7
 10
148.0
 20
194.1
 30
0.0
 40
0.5000000000000004
 50
90.0
 51
179.9999999999996
  0
LINE
  5
C8
  8
1
  6
CONTINUOUS
 62
     7
 10
147.5
 20
194.1
 30
0.0
 11
147.5
 21
192.9
 31
0.0
  0
ARC
  5
C9
  8
1
  6
CONTINUOUS
 62
     7
 10
148.0
 20
192.9
 30
0.0
 40
0.5000000000000004
 50
180.0
 51
270.0
  0
LINE
  5
CA
  8
1
  6
CONTINUOUS
 62
     7
 10
148.0
 20
192.4
 30
0.0
 11
155.0
 21
192.4
 31
0.0
  0
ARC
  5
CB
  8
1
  6
CONTINUOUS
 62
     7
 10
151.5
 20
193.5
 30
0.0
 40
10.00000000000001
 50
187.1180687170459
 51
216.869897645844
  0
LINE
  5
CC
  8
1
  6
CONTINUOUS
 62
     7
 10
141.5770709024726
 20
192.2608558899614
 30
0.0
 11
141.0577780142347
 21
192.4
 31
0.0
  0
ARC
  5
CD
  8
1
  6
CONTINUOUS
 62
     7
 10
151.5
 20
193.5
 30
0.0
 40
10.49999999999998
 50
186.0134490528181
 51
216.8698976458439
  0
ARC
  5
CE
  8
1
  6
CONTINUOUS
 62
     7
 10
145.5
 20
189.0
 30
0.0
 40
2.999999999999986
 50
216.8698976458441
 51
270.0000000000001
  0
LINE
  5
CF
  8
1
  6
CONTINUOUS
 62
     7
 10
145.5
 20
186.0
 30
0.0
 11
157.5
 21
186.0
 31
0.0
  0
ARC
  5
D0
  8
1
  6
CONTINUOUS
 62
     7
 10
157.5
 20
189.0
 30
0.0
 40
3.000000000000003
 50
270.0
 51
323.130102354156
  0
ARC
  5
D1
  8
1
  6
CONTINUOUS
 62
     7
 10
151.5
 20
193.5
 30
0.0
 40
10.49999999999999
 50
323.130102354156
 51
353.9865509471819
  0
LINE
  5
D2
  8
1
  6
CONTINUOUS
 62
     7
 10
161.9422219857653
 20
192.4
 30
0.0
 11
161.4229290975275
 21
192.2608558899614
 31
0.0
  0
ARC
  5
D3
  8
1
  6
CONTINUOUS
 62
     7
 10
151.5
 20
193.5
 30
0.0
 40
9.999999999999988
 50
323.130102354156
 51
352.8819312829539
  0
ARC
  5
D4
  8
1
  6
CONTINUOUS
 62
     7
 10
157.5
 20
189.0
 30
0.0
 40
2.500000000000002
 50
270.0
 51
323.130102354156
  0
LINE
  5
D5
  8
1
  6
CONTINUOUS
 62
     7
 10
157.5
 20
186.5
 30
0.0
 11
145.5
 21
186.5
 31
0.0
  0
ARC
  5
D6
  8
1
  6
CONTINUOUS
 62
     7
 10
145.5
 20
189.0
 30
0.0
 40
2.500000000000002
 50
216.8698976458439
 51
270.0
  0
ARC
  5
D7
  8
1
  6
CONTINUOUS
 62
     7
 10
157.5
 20
198.0
 30
0.0
 40
2.500000000000002
 50
36.86989764584388
 51
90.0
  0
ARC
  5
D8
  8
1
  6
CONTINUOUS
 62
     7
 10
151.5
 20
193.5
 30
0.0
 40
10.00000000000001
 50
7.118068717045957
 51
36.86989764584399
  0
LINE
  5
D9
  8
1
  6
CONTINUOUS
 62
     7
 10
161.4229290975275
 20
194.7391441100386
 30
0.0
 11
161.9422219857653
 21
194.6
 31
0.0
  0
ARC
  5
DA
  8
1
  6
CONTINUOUS
 62
     7
 10
151.5
 20
193.5
 30
0.0
 40
10.49999999999998
 50
6.013449052818065
 51
36.86989764584395
  0
ARC
  5
DB
  8
1
  6
CONTINUOUS
 62
     7
 10
157.5
 20
198.0
 30
0.0
 40
3.000000000000008
 50
36.86989764584382
 51
89.99999999999987
  0
LINE
  5
DC
  8
1
  6
CONTINUOUS
 62
     7
 10
157.5
 20
201.0
 30
0.0
 11
145.5
 21
201.0
 31
0.0
  0
ARC
  5
DD
  8
1
  6
CONTINUOUS
 62
     7
 10
145.5
 20
198.0
 30
0.0
 40
3.000000000000003
 50
90.0
 51
143.1301023541561
  0
ARC
  5
DE
  8
1
  6
CONTINUOUS
 62
     7
 10
151.5
 20
193.5
 30
0.0
 40
10.49999999999999
 50
143.130102354156
 51
173.9865509471818
  0
LINE
  5
DF
  8
1
  6
CONTINUOUS
 62
     7
 10
141.0577780142347
 20
194.6
 30
0.0
 11
141.5770709024726
 21
194.7391441100386
 31
0.0
  0
ARC
  5
E0
  8
1
  6
CONTINUOUS
 62
     7
 10
151.5
 20
193.5
 30
0.0
 40
10.00000000000001
 50
143.130102354156
 51
172.8819312829541
  0
ARC
  5
E1
  8
1
  6
CONTINUOUS
 62
     7
 10
145.5
 20
198.0
 30
0.0
 40
2.500000000000002
 50
90.00000000000011
 51
143.130102354156
  0
LINE
  5
E2
  8
1
  6
CONTINUOUS
 62
     7
 10
145.5
 20
200.5
 30
0.0
 11
157.5
 21
200.5
 31
0.0
  0
ARC
  5
E3
  8
1
  6
CONTINUOUS
 62
     7
 10
202.0
 20
192.9
 30
0.0
 40
0.5000000000000004
 50
270.0
 51
0.0
  0
LINE
  5
E4
  8
1
  6
CONTINUOUS
 62
     7
 10
202.5
 20
192.9
 30
0.0
 11
202.5
 21
194.1
 31
0.0
  0
ARC
  5
E5
  8
1
  6
CONTINUOUS
 62
     7
 10
202.0
 20
194.1
 30
0.0
 40
0.5000000000000004
 50
0.0
 51
90.00000000000009
  0
LINE
  5
E6
  8
1
  6
CONTINUOUS
 62
     7
 10
202.0
 20
194.6
 30
0.0
 11
195.0
 21
194.6
 31
0.0
  0
ARC
  5
E7
  8
1
  6
CONTINUOUS
 62
     7
 10
195.0
 20
194.1
 30
0.0
 40
0.5000000000000004
 50
90.0
 51
179.9999999999996
  0
LINE
  5
E8
  8
1
  6
CONTINUOUS
 62
     7
 10
194.5
 20
194.1
 30
0.0
 11
194.5
 21
192.9
 31
0.0
  0
ARC
  5
E9
  8
1
  6
CONTINUOUS
 62
     7
 10
195.0
 20
192.9
 30
0.0
 40
0.5000000000000004
 50
180.0
 51
270.0
  0
LINE
  5
EA
  8
1
  6
CONTINUOUS
 62
     7
 10
195.0
 20
192.4
 30
0.0
 11
202.0
 21
192.4
 31
0.0
  0
ARC
  5
EB
  8
1
  6
CONTINUOUS
 62
     7
 10
198.5
 20
193.5
 30
0.0
 40
10.00000000000001
 50
187.1180687170459
 51
216.869897645844
  0
LINE
  5
EC
  8
1
  6
CONTINUOUS
 62
     7
 10
188.5770709024726
 20
192.2608558899614
 30
0.0
 11
188.0577780142347
 21
192.4
 31
0.0
  0
ARC
  5
ED
  8
1
  6
CONTINUOUS
 62
     7
 10
198.5
 20
193.5
 30
0.0
 40
10.49999999999998
 50
186.0134490528181
 51
216.8698976458439
  0
ARC
  5
EE
  8
1
  6
CONTINUOUS
 62
     7
 10
192.5
 20
189.0
 30
0.0
 40
2.999999999999986
 50
216.8698976458441
 51
270.0000000000001
  0
LINE
  5
EF
  8
1
  6
CONTINUOUS
 62
     7
 10
192.5
 20
186.0
 30
0.0
 11
204.5
 21
186.0
 31
0.0
  0
ARC
  5
F0
  8
1
  6
CONTINUOUS
 62
     7
 10
204.5
 20
189.0
 30
0.0
 40
3.000000000000003
 50
270.0
 51
323.130102354156
  0
ARC
  5
F1
  8
1
  6
CONTINUOUS
 62
     7
 10
198.5
 20
193.5
 30
0.0
 40
10.49999999999999
 50
323.130102354156
 51
353.9865509471819
  0
LINE
  5
F2
  8
1
  6
CONTINUOUS
 62
     7
 10
208.9422219857653
 20
192.4
 30
0.0
 11
208.4229290975275
 21
192.2608558899614
 31
0.0
  0
ARC
  5
F3
  8
1
  6
CONTINUOUS
 62
     7
 10
198.5
 20
193.5
 30
0.0
 40
9.999999999999988
 50
323.130102354156
 51
352.8819312829539
  0
ARC
  5
F4
  8
1
  6
CONTINUOUS
 62
     7
 10
204.5
 20
189.0
 30
0.0
 40
2.500000000000002
 50
270.0
 51
323.130102354156
  0
LINE
  5
F5
  8
1
  6
CONTINUOUS
 62
     7
 10
204.5
 20
186.5
 30
0.0
 11
192.5
 21
186.5
 31
0.0
  0
ARC
  5
F6
  8
1
  6
CONTINUOUS
 62
     7
 10
192.5
 20
189.0
 30
0.0
 40
2.500000000000002
 50
216.8698976458439
 51
270.0
  0
ARC
  5
F7
  8
1
  6
CONTINUOUS
 62
     7
 10
204.5
 20
198.0
 30
0.0
 40
2.500000000000002
 50
36.86989764584388
 51
90.0
  0
ARC
  5
F8
  8
1
  6
CONTINUOUS
 62
     7
 10
198.5
 20
193.5
 30
0.0
 40
10.00000000000001
 50
7.118068717045957
 51
36.86989764584399
  0
LINE
  5
F9
  8
1
  6
CONTINUOUS
 62
     7
 10
208.4229290975275
 20
194.7391441100386
 30
0.0
 11
208.9422219857653
 21
194.6
 31
0.0
  0
ARC
  5
FA
  8
1
  6
CONTINUOUS
 62
     7
 10
198.5
 20
193.5
 30
0.0
 40
10.50000000000001
 50
6.013449052818004
 51
36.86989764584389
  0
ARC
  5
FB
  8
1
  6
CONTINUOUS
 62
     7
 10
204.5
 20
198.0
 30
0.0
 40
3.000000000000008
 50
36.86989764584382
 51
89.99999999999987
  0
LINE
  5
FC
  8
1
  6
CONTINUOUS
 62
     7
 10
204.5
 20
201.0
 30
0.0
 11
192.5
 21
201.0
 31
0.0
  0
ARC
  5
FD
  8
1
  6
CONTINUOUS
 62
     7
 10
192.5
 20
198.0
 30
0.0
 40
3.000000000000003
 50
90.0
 51
143.1301023541561
  0
ARC
  5
FE
  8
1
  6
CONTINUOUS
 62
     7
 10
198.5
 20
193.5
 30
0.0
 40
10.49999999999999
 50
143.130102354156
 51
173.9865509471818
  0
LINE
  5
FF
  8
1
  6
CONTINUOUS
 62
     7
 10
188.0577780142347
 20
194.6
 30
0.0
 11
188.5770709024726
 21
194.7391441100386
 31
0.0
  0
ARC
  5
100
  8
1
  6
CONTINUOUS
 62
     7
 10
198.5
 20
193.5
 30
0.0
 40
9.999999999999988
 50
143.1301023541559
 51
172.8819312829539
  0
ARC
  5
101
  8
1
  6
CONTINUOUS
 62
     7
 10
192.5
 20
198.0
 30
0.0
 40
2.500000000000002
 50
90.00000000000011
 51
143.130102354156
  0
LINE
  5
102
  8
1
  6
CONTINUOUS
 62
     7
 10
192.5
 20
200.5
 30
0.0
 11
204.5
 21
200.5
 31
0.0
  0
LINE
  5
103
  8
1
  6
CONTINUOUS
 62
     7
 10
105.5
 20
193.5
 30
0.0
 11
104.0
 21
192.0
 31
0.0
  0
LINE
  5
104
  8
1
  6
CONTINUOUS
 62
     7
 10
104.0
 20
195.0
 30
0.0
 11
105.5
 21
193.5
 31
0.0
  0
LINE
  5
105
  8
1
  6
CONTINUOUS
 62
     7
 10
104.0
 20
225.0
 30
0.0
 11
104.0
 21
195.0
 31
0.0
  0
ARC
  5
106
  8
1
  6
CONTINUOUS
 62
     7
 10
114.0
 20
225.0
 30
0.0
 40
10.00000000000001
 50
90.0
 51
180.0
  0
LINE
  5
107
  8
1
  6
CONTINUOUS
 62
     7
 10
173.5
 20
235.0000000000001
 30
0.0
 11
114.0
 21
235.0
 31
0.0
  0
LINE
  5
108
  8
1
  6
CONTINUOUS
 62
     7
 10
175.0
 20
233.5000000000001
 30
0.0
 11
173.5
 21
235.0000000000001
 31
0.0
  0
LINE
  5
109
  8
1
  6
CONTINUOUS
 62
     7
 10
176.5
 20
235.0000000000001
 30
0.0
 11
175.0
 21
233.5000000000001
 31
0.0
  0
LINE
  5
10A
  8
1
  6
CONTINUOUS
 62
     7
 10
236.0
 20
235.0
 30
0.0
 11
176.5
 21
235.0000000000001
 31
0.0
  0
ARC
  5
10B
  8
1
  6
CONTINUOUS
 62
     7
 10
236.0
 20
225.0
 30
0.0
 40
10.00000000000001
 50
0.0
 51
89.99999999999999
  0
LINE
  5
10C
  8
1
  6
CONTINUOUS
 62
     7
 10
246.0
 20
192.0
 30
0.0
 11
244.5000000000001
 21
193.5
 31
0.0
  0
LINE
  5
10D
  8
1
  6
CONTINUOUS
 62
     7
 10
246.0
 20
175.0
 30
0.0
 11
246.0
 21
192.0
 31
0.0
  0
ARC
  5
10E
  8
1
  6
CONTINUOUS
 62
     7
 10
236.0
 20
175.0
 30
0.0
 40
10.00000000000001
 50
270.0
 51
0.0
  0
LINE
  5
10F
  8
1
  6
CONTINUOUS
 62
     7
 10
176.5
 20
164.9999999999999
 30
0.0
 11
236.0
 21
165.0
 31
0.0
  0
LINE
  5
110
  8
1
  6
CONTINUOUS
 62
     7
 10
175.0
 20
166.4999999999999
 30
0.0
 11
176.5
 21
164.9999999999999
 31
0.0
  0
LINE
  5
111
  8
1
  6
CONTINUOUS
 62
     7
 10
173.5
 20
165.0
 30
0.0
 11
175.0
 21
166.4999999999999
 31
0.0
  0
LINE
  5
112
  8
1
  6
CONTINUOUS
 62
     7
 10
114.0
 20
165.0
 30
0.0
 11
173.5000000000001
 21
165.0
 31
0.0
  0
ARC
  5
113
  8
1
  6
CONTINUOUS
 62
     7
 10
114.0
 20
175.0
 30
0.0
 40
10.00000000000001
 50
180.0
 51
270.0
  0
LINE
  5
114
  8
1
  6
CONTINUOUS
 62
     7
 10
104.0
 20
192.0
 30
0.0
 11
104.0
 21
175.0
 31
0.0
  0
LINE
  5
115
  8
1
  6
CONTINUOUS
 62
     7
 10
109.0086513684422
 20
176.5081944539113
 30
0.0
 11
109.0086513684422
 21
223.4918055460887
 31
0.0
  0
LINE
  5
116
  8
1
  6
CONTINUOUS
 62
     7
 10
109.0086513684422
 20
176.5081944539113
 30
0.0
 11
109.066282023589
 21
175.9229639580686
 31
0.0
  0
LINE
  5
117
  8
1
  6
CONTINUOUS
 62
     7
 10
109.066282023589
 20
175.9229639580686
 30
0.0
 11
109.2369601313202
 21
175.3602499559764
 31
0.0
  0
LINE
  5
118
  8
1
  6
CONTINUOUS
 62
     7
 10
109.2369601313202
 20
175.3602499559764
 30
0.0
 11
109.5141291629338
 21
174.8416688725808
 31
0.0
  0
LINE
  5
119
  8
1
  6
CONTINUOUS
 62
     7
 10
109.5141291629338
 20
174.8416688725808
 30
0.0
 11
109.8871417850652
 21
174.3871417850652
 31
0.0
  0
LINE
  5
11A
  8
1
  6
CONTINUOUS
 62
     7
 10
109.8871417850652
 20
174.3871417850652
 30
0.0
 11
110.3416688725809
 21
174.0141291629338
 31
0.0
  0
LINE
  5
11B
  8
1
  6
CONTINUOUS
 62
     7
 10
110.3416688725809
 20
174.0141291629338
 30
0.0
 11
110.8602499559764
 21
173.7369601313202
 31
0.0
  0
LINE
  5
11C
  8
1
  6
CONTINUOUS
 62
     7
 10
110.8602499559764
 20
173.7369601313202
 30
0.0
 11
111.4229639580686
 21
173.566282023589
 31
0.0
  0
LINE
  5
11D
  8
1
  6
CONTINUOUS
 62
     7
 10
111.4229639580686
 20
173.566282023589
 30
0.0
 11
112.0081944539113
 21
173.5086513684422
 31
0.0
  0
LINE
  5
11E
  8
1
  6
CONTINUOUS
 62
     7
 10
237.9918055460887
 20
173.5086513684421
 30
0.0
 11
112.0081944539114
 21
173.5086513684421
 31
0.0
  0
LINE
  5
11F
  8
1
  6
CONTINUOUS
 62
     7
 10
237.9918055460887
 20
173.5086513684422
 30
0.0
 11
238.5770360419314
 21
173.566282023589
 31
0.0
  0
LINE
  5
120
  8
1
  6
CONTINUOUS
 62
     7
 10
238.5770360419314
 20
173.566282023589
 30
0.0
 11
239.1397500440236
 21
173.7369601313202
 31
0.0
  0
LINE
  5
121
  8
1
  6
CONTINUOUS
 62
     7
 10
239.1397500440236
 20
173.7369601313202
 30
0.0
 11
239.6583311274192
 21
174.0141291629338
 31
0.0
  0
LINE
  5
122
  8
1
  6
CONTINUOUS
 62
     7
 10
239.6583311274192
 20
174.0141291629338
 30
0.0
 11
240.1128582149348
 21
174.3871417850652
 31
0.0
  0
LINE
  5
123
  8
1
  6
CONTINUOUS
 62
     7
 10
240.1128582149348
 20
174.3871417850652
 30
0.0
 11
240.4858708370662
 21
174.8416688725808
 31
0.0
  0
LINE
  5
124
  8
1
  6
CONTINUOUS
 62
     7
 10
240.4858708370662
 20
174.8416688725808
 30
0.0
 11
240.7630398686798
 21
175.3602499559764
 31
0.0
  0
LINE
  5
125
  8
1
  6
CONTINUOUS
 62
     7
 10
240.7630398686798
 20
175.3602499559764
 30
0.0
 11
240.933717976411
 21
175.9229639580686
 31
0.0
  0
LINE
  5
126
  8
1
  6
CONTINUOUS
 62
     7
 10
240.933717976411
 20
175.9229639580686
 30
0.0
 11
240.9913486315578
 21
176.5081944539113
 31
0.0
  0
LINE
  5
127
  8
1
  6
CONTINUOUS
 62
     7
 10
240.9913486315579
 20
223.4918055460887
 30
0.0
 11
240.9913486315579
 21
176.5081944539113
 31
0.0
  0
LINE
  5
128
  8
1
  6
CONTINUOUS
 62
     7
 10
240.9913486315579
 20
223.4918055460887
 30
0.0
 11
240.9337179764111
 21
224.0770360419314
 31
0.0
  0
LINE
  5
129
  8
1
  6
CONTINUOUS
 62
     7
 10
240.9337179764111
 20
224.0770360419314
 30
0.0
 11
240.7630398686799
 21
224.6397500440237
 31
0.0
  0
LINE
  5
12A
  8
1
  6
CONTINUOUS
 62
     7
 10
240.7630398686799
 20
224.6397500440237
 30
0.0
 11
240.4858708370663
 21
225.1583311274192
 31
0.0
  0
LINE
  5
12B
  8
1
  6
CONTINUOUS
 62
     7
 10
240.4858708370663
 20
225.1583311274192
 30
0.0
 11
240.1128582149349
 21
225.6128582149349
 31
0.0
  0
LINE
  5
12C
  8
1
  6
CONTINUOUS
 62
     7
 10
240.1128582149349
 20
225.6128582149349
 30
0.0
 11
239.6583311274192
 21
225.9858708370662
 31
0.0
  0
LINE
  5
12D
  8
1
  6
CONTINUOUS
 62
     7
 10
239.6583311274192
 20
225.9858708370662
 30
0.0
 11
239.1397500440237
 21
226.2630398686798
 31
0.0
  0
LINE
  5
12E
  8
1
  6
CONTINUOUS
 62
     7
 10
239.1397500440237
 20
226.2630398686798
 30
0.0
 11
238.5770360419314
 21
226.4337179764111
 31
0.0
  0
LINE
  5
12F
  8
1
  6
CONTINUOUS
 62
     7
 10
238.5770360419314
 20
226.4337179764111
 30
0.0
 11
237.9918055460887
 21
226.4913486315579
 31
0.0
  0
LINE
  5
130
  8
1
  6
CONTINUOUS
 62
     7
 10
112.0081944539114
 20
226.4913486315579
 30
0.0
 11
237.9918055460887
 21
226.4913486315578
 31
0.0
  0
LINE
  5
131
  8
1
  6
CONTINUOUS
 62
     7
 10
112.0081944539114
 20
226.4913486315579
 30
0.0
 11
111.4229639580686
 21
226.4337179764111
 31
0.0
  0
LINE
  5
132
  8
1
  6
CONTINUOUS
 62
     7
 10
111.4229639580686
 20
226.4337179764111
 30
0.0
 11
110.8602499559764
 21
226.2630398686799
 31
0.0
  0
LINE
  5
133
  8
1
  6
CONTINUOUS
 62
     7
 10
110.8602499559764
 20
226.2630398686799
 30
0.0
 11
110.3416688725809
 21
225.9858708370662
 31
0.0
  0
LINE
  5
134
  8
1
  6
CONTINUOUS
 62
     7
 10
110.3416688725809
 20
225.9858708370662
 30
0.0
 11
109.8871417850652
 21
225.6128582149349
 31
0.0
  0
LINE
  5
135
  8
1
  6
CONTINUOUS
 62
     7
 10
109.8871417850652
 20
225.6128582149349
 30
0.0
 11
109.5141291629338
 21
225.1583311274192
 31
0.0
  0
LINE
  5
136
  8
1
  6
CONTINUOUS
 62
     7
 10
109.5141291629338
 20
225.1583311274192
 30
0.0
 11
109.2369601313202
 21
224.6397500440237
 31
0.0
  0
LINE
  5
137
  8
1
  6
CONTINUOUS
 62
     7
 10
109.2369601313202
 20
224.6397500440237
 30
0.0
 11
109.066282023589
 21
224.0770360419314
 31
0.0
  0
LINE
  5
138
  8
1
  6
CONTINUOUS
 62
     7
 10
109.066282023589
 20
224.0770360419314
 30
0.0
 11
109.0086513684422
 21
223.4918055460887
 31
0.0
  0
LINE
  5
139
  8
1
  6
CONTINUOUS
 62
     7
 10
246.0
 20
195.0
 30
0.0
 11
246.0
 21
225.0
 31
0.0
  0
LINE
  5
13A
  8
1
  6
CONTINUOUS
 62
     7
 10
244.5
 20
193.5
 30
0.0
 11
246.0
 21
195.0
 31
0.0
  0
CIRCLE
  5
13B
  8
1
  6
CONTINUOUS
 62
     7
 10
320.0
 20
105.0
 30
0.0
 40
10.0
  0
CIRCLE
  5
13C
  8
1
  6
CONTINUOUS
 62
     7
 10
320.0
 20
105.0
 30
0.0
 40
9.499999999999998
  0
CIRCLE
  5
13D
  8
1
  6
CONTINUOUS
 62
     7
 10
320.0
 20
105.0
 30
0.0
 40
14.0
  0
ARC
  5
13E
  8
1
  6
CONTINUOUS
 62
     7
 10
320.0
 20
105.0
 30
0.0
 40
8.499999999999993
 50
180.0
 51
0.0
  0
ARC
  5
13F
  8
1
  6
CONTINUOUS
 62
     7
 10
320.0
 20
105.0
 30
0.0
 40
8.499999999999993
 50
0.0
 51
180.0
  0
CIRCLE
  5
140
  8
1
  6
CONTINUOUS
 62
     7
 10
320.0
 20
105.0
 30
0.0
 40
1.5
  0
TEXT
  5
141
  8
1
  6
CONTINUOUS
 62
     7
 10
319.0477991746905
 20
33.37886082280853
 30
0.0
 40
10.0
  1
SB-K2FY-K
  0
LINE
  5
142
  8
1
  6
CENTER
 62
     1
 10
298.0729563742185
 20
193.5
 30
0.0
 11
344.0729563742185
 21
193.5000000000026
 31
0.0
  0
LINE
  5
144
  8
1
  6
CONTINUOUS
 62
     7
 10
110.0
 20
176.5
 30
0.0
 11
110.0
 21
210.5
 31
0.0
  0
LINE
  5
145
  8
1
  6
CONTINUOUS
 62
     7
 10
109.7856302382136
 20
73.9183174225629
 30
0.0
 11
109.0
 21
118.9270436257815
 31
0.0
  0
LINE
  5
146
  8
1
  6
CONTINUOUS
 62
     7
 10
117.65
 20
179.65
 30
0.0
 11
232.35
 21
179.65
 31
0.0
  0
LINE
  5
147
  8
1
  6
CENTER
 62
     1
 10
104.0
 20
193.5
 30
0.0
 11
246.0000000000001
 21
193.5
 31
0.0
  0
LINE
  5
148
  8
1
  6
CONTINUOUS
 62
     7
 10
232.35
 20
207.35
 30
0.0
 11
117.65
 21
207.35
 31
0.0
  0
LINE
  5
149
  8
1
  6
CENTER
 62
     1
 10
320.0
 20
74.00000000000001
 30
0.0
 11
320.0
 21
66.0
 31
0.0
  0
LINE
  5
14A
  8
1
  6
CENTER
 62
     1
 10
175.0
 20
119.4270436257815
 30
0.0
 11
175.0
 21
73.42704362578154
 31
0.0
  0
LINE
  5
14B
  8
1
  6
CONTINUOUS
 62
     7
 10
341.1253135935304
 20
174.2427541581118
 30
0.0
 11
298.5729563742186
 21
173.5
 31
0.0
  0
LINE
  5
14C
  8
1
  6
CENTER
 62
     1
 10
298.0729563742185
 20
200.0
 30
0.0
 11
344.0729563742185
 21
200.0
 31
0.0
  0
LINE
  5
14D
  8
1
  6
CENTER
 62
     1
 10
175.0
 20
235.0000000000001
 30
0.0
 11
175.0
 21
164.9999999999999
 31
0.0
  0
LINE
  5
14E
  8
1
  6
CONTINUOUS
 62
     7
 10
241.0
 20
118.9270436257815
 30
0.0
 11
240.2143697617865
 21
73.91831742256288
 31
0.0
  0
LINE
  5
14F
  8
1
  6
CENTER
 62
     1
 10
104.0
 20
200.0
 30
0.0
 11
246.0000000000001
 21
200.0
 31
0.0
  0
LINE
  5
150
  8
1
  6
CENTER
 62
     1
 10
304.0
 20
105.0
 30
0.0
 11
336.0
 21
105.0
 31
0.0
  0
CIRCLE
  5
151
  8
1
  6
CONTINUOUS
 62
     7
 10
175.0
 20
193.5
 30
0.0
 40
8.2
  0
LINE
  5
152
  8
1
  6
CENTER
 62
     1
 10
320.0
 20
89.00000000000001
 30
0.0
 11
320.0
 21
121.0
 31
0.0
  0
ENDSEC
  0
EOF
