  0
SECTION
  2
HEADER
  9
$ACADVER
  1
AC1004
  9
$INSBASE
 10
0.0
 20
0.0
  9
$EXTMIN
 10
0.0
 20
0.0
  9
$EXTMAX
 10
603.0999999999999
 20
386.5636363636364
  9
$LIMMIN
 10
0.0
 20
0.0
  9
$LIMMAX
 10
12.0
 20
9.0
  9
$ORTHOMODE
 70
     0
  9
$REGENMODE
 70
     1
  9
$FILLMODE
 70
     1
  9
$QTEXTMODE
 70
     0
  9
$DRAGMODE
 70
     2
  9
$LTSCALE
 40
1.0
  9
$OSMODE
 70
    37
  9
$ATTMODE
 70
     1
  9
$TEXTSIZE
 40
0.2
  9
$TRACEWID
 40
0.05
  9
$TEXTSTYLE
  7
STANDARD
  9
$CLAYER
  8
0
  9
$CELTYPE
  6
BYLAYER
  9
$CECOLOR
 62
   256
  9
$DIMSCALE
 40
1.0
  9
$DIMASZ
 40
3.0
  9
$DIMEXO
 40
0.0625
  9
$DIMDLI
 40
0.38
  9
$DIMRND
 40
0.0
  9
$DIMDLE
 40
0.0
  9
$DIMEXE
 40
1.5
  9
$DIMTP
 40
0.0
  9
$DIMTM
 40
0.0
  9
$DIMTXT
 40
3.0
  9
$DIMCEN
 40
0.09
  9
$DIMTSZ
 40
0.0
  9
$DIMTOL
 70
     0
  9
$DIMLIM
 70
     0
  9
$DIMTIH
 70
     1
  9
$DIMTOH
 70
     1
  9
$DIMSE1
 70
     0
  9
$DIMSE2
 70
     0
  9
$DIMTAD
 70
     1
  9
$DIMZIN
 70
     0
  9
$DIMBLK
  1

  9
$DIMASO
 70
     1
  9
$DIMSHO
 70
     1
  9
$DIMPOST
  1

  9
$DIMAPOST
  1

  9
$DIMALT
 70
     0
  9
$DIMALTD
 70
     2
  9
$DIMALTF
 40
25.4
  9
$DIMLFAC
 40
1.0
  9
$DIMTOFL
 70
     0
  9
$DIMTVP
 40
0.0
  9
$DIMTIX
 70
     0
  9
$DIMSOXD
 70
     0
  9
$DIMSAH
 70
     0
  9
$DIMBLK1
  1

  9
$DIMBLK2
  1

  9
$LUNITS
 70
     2
  9
$LUPREC
 70
     4
  9
$SKETCHINC
 40
0.1
  9
$FILLETRAD
 40
0.5
  9
$AUNITS
 70
     0
  9
$AUPREC
 70
     0
  9
$MENU
  1
.
  9
$ELEVATION
 40
0.0
  9
$THICKNESS
 40
0.0
  9
$LIMCHECK
 70
     0
  9
$CHAMFERA
 40
0.0
  9
$CHAMFERB
 40
0.0
  9
$SKPOLY
 70
     0
  9
$TDCREATE
 40
2460053.378251262
  9
$TDUPDATE
 40
2460053.378256239
  9
$TDINDWG
 40
0.0000000116
  9
$TDUSRTIMER
 40
0.0000000116
  9
$USRTIMER
 70
     1
  9
$ANGBASE
 50
0.0
  9
$ANGDIR
 70
     0
  9
$PDMODE
 70
     0
  9
$PDSIZE
 40
0.0
  9
$PLINEWID
 40
0.0
  9
$COORDS
 70
     1
  9
$SPLFRAME
 70
     0
  9
$SPLINETYPE
 70
     6
  9
$SPLINESEGS
 70
     8
  9
$ATTDIA
 70
     0
  9
$ATTREQ
 70
     1
  9
$SURFTAB1
 70
     6
  9
$SURFTAB2
 70
     6
  9
$SURFTYPE
 70
     6
  9
$SURFU
 70
     6
  9
$SURFV
 70
     6
  9
$UCSNAME
  2

  9
$UCSORG
 10
0.0
 20
0.0
 30
0.0
  9
$UCSXDIR
 10
1.0
 20
0.0
 30
0.0
  9
$UCSYDIR
 10
0.0
 20
1.0
 30
0.0
  9
$USERI1
 70
     0
  9
$USERI2
 70
     0
  9
$USERI3
 70
     0
  9
$USERI4
 70
     0
  9
$USERI5
 70
     0
  9
$USERR1
 40
0.0
  9
$USERR2
 40
0.0
  9
$USERR3
 40
0.0
  9
$USERR4
 40
0.0
  9
$USERR5
 40
0.0
  9
$WORLDVIEW
 70
     1
  0
ENDSEC
  0
SECTION
  2
TABLES
  0
TABLE
  2
LTYPE
 70
     2
  0
LTYPE
  2
CONTINUOUS
 70
     0
  3
Solid line
 72
    65
 73
     0
 40
0.0
  0
LTYPE
  2
CENTER
 70
     0
  3

 72
    65
 73
     0
 40
0.0
  0
ENDTAB
  0
TABLE
  2
LAYER
 70
     3
  0
LAYER
  2
0
 70
     0
 62
     7
  6
CONTINUOUS
  0
LAYER
  2
図面枠
 70
     0
 62
     7
  6
CONTINUOUS
  0
LAYER
  2
1
 70
     0
 62
     7
  6
CONTINUOUS
  0
ENDTAB
  0
TABLE
  2
STYLE
 70
     2
  0
STYLE
  2
STANDARD
 70
     0
 40
0.0
 41
1.0
 50
0.0
 71
     0
 42
0.2
  3
txt
  4

  0
STYLE
  2
ＭＳ_ゴシック
 70
     0
 40
0.0
 41
1.0
 50
0.0
 71
     0
 42
0.2
  3
ＭＳ ゴシック.shx
  4

  0
ENDTAB
  0
TABLE
  2
VIEW
 70
     0
  0
ENDTAB
  0
ENDSEC
  0
SECTION
  2
BLOCKS
  0
BLOCK
  8
0
  2
D_FRAME_DRAWING_17
 70
     0
 10
0.0
 20
0.0
  0
LINE
  8
図面枠
  6
CONTINUOUS
 62
     7
 10
0.0
 20
0.0
 11
297.0
 21
0.0
  0
LINE
  8
図面枠
  6
CONTINUOUS
 62
     7
 10
297.0
 20
0.0
 11
297.0
 21
210.0
  0
LINE
  8
図面枠
  6
CONTINUOUS
 62
     7
 10
297.0
 20
210.0
 11
0.0
 21
210.0
  0
LINE
  8
図面枠
  6
CONTINUOUS
 62
     7
 10
0.0
 20
210.0
 11
0.0
 21
0.0
  0
ENDBLK
  8
0
  0
BLOCK
  8
0
  2
D_FRAME_VIEW_4823
 70
     0
 10
0.0
 20
0.0
  0
LINE
  8
1
  6
CONTINUOUS
 62
     7
 10
395.95
 20
330.9665284472118
 11
395.95
 21
333.2596521561604
  0
LINE
  8
1
  6
CONTINUOUS
 62
     7
 10
395.95
 20
333.2596521561604
 11
396.95
 21
333.2683790239512
  0
LINE
  8
1
  6
CONTINUOUS
 62
     7
 10
396.95
 20
356.9316209760489
 11
395.95
 21
356.9403478438396
  0
LINE
  8
1
  6
CONTINUOUS
 62
     7
 10
395.95
 20
359.2334715527881
 11
395.95
 21
356.9403478438396
  0
LINE
  8
1
  6
CONTINUOUS
 62
     7
 10
437.9499999999999
 20
364.6
 11
440.9499999999999
 21
364.6
  0
LINE
  8
1
  6
CONTINUOUS
 62
     7
 10
440.9499999999999
 20
325.6
 11
437.9499999999999
 21
325.6
  0
LINE
  8
1
  6
CONTINUOUS
 62
     7
 10
437.9499999999999
 20
325.6
 11
437.9499999999999
 21
328.1
  0
LINE
  8
1
  6
CONTINUOUS
 62
     7
 10
437.9499999999999
 20
359.6
 11
437.9499999999999
 21
362.1
  0
LINE
  8
1
  6
CONTINUOUS
 62
     7
 10
437.9499999999999
 20
328.1
 11
437.9499999999999
 21
330.6
  0
ARC
  8
1
  6
CONTINUOUS
 62
     7
 10
432.9499999999999
 20
354.6173775788101
 40
2.000000000000006
 50
0.0
 51
89.5
  0
ARC
  8
1
  6
CONTINUOUS
 62
     7
 10
432.9499999999999
 20
335.58262242119
 40
2.000000000000002
 50
270.5000000000001
 51
0.0
  0
LINE
  8
1
  6
CONTINUOUS
 62
     7
 10
396.95
 20
356.9316209760489
 11
432.9674530709967
 21
356.6173014249384
  0
LINE
  8
1
  6
CONTINUOUS
 62
     7
 10
396.95
 20
333.2683790239512
 11
432.9674530709967
 21
333.5826985750616
  0
ARC
  8
1
  6
CONTINUOUS
 62
     7
 10
432.9499999999999
 20
354.58262242119
 40
2.000000000000002
 50
270.5000000000001
 51
0.0
  0
LINE
  8
1
  6
CONTINUOUS
 62
     7
 10
395.95
 20
349.6
 11
395.95
 21
352.2596521561604
  0
LINE
  8
1
  6
CONTINUOUS
 62
     7
 10
395.95
 20
352.2596521561604
 11
432.9674530709967
 21
352.5826985750616
  0
LINE
  8
1
  6
CONTINUOUS
 62
     7
 10
395.95
 20
340.6
 11
395.95
 21
337.9403478438396
  0
LINE
  8
1
  6
CONTINUOUS
 62
     7
 10
432.9674530709967
 20
337.6173014249384
 11
395.95
 21
337.9403478438396
  0
ARC
  8
1
  6
CONTINUOUS
 62
     7
 10
432.9499999999999
 20
335.61737757881
 40
2.000000000000006
 50
0.0
 51
89.5
  0
LINE
  8
1
  6
CONTINUOUS
 62
     7
 10
437.9499999999999
 20
328.6
 11
396.9412734645016
 21
328.9578777347427
  0
LINE
  8
1
  6
CONTINUOUS
 62
     7
 10
395.95
 20
340.6
 11
395.95
 21
349.6
  0
LINE
  8
1
  6
CONTINUOUS
 62
     7
 10
396.9412734645016
 20
361.2421222652574
 11
437.9499999999999
 21
361.6
  0
ARC
  8
1
  6
CONTINUOUS
 62
     7
 10
396.95
 20
329.9578396578069
 40
1.000000000000001
 50
180.0
 51
269.4999999999999
  0
ARC
  8
1
  6
CONTINUOUS
 62
     7
 10
396.95
 20
360.2421603421932
 40
1.000000000000003
 50
90.5000000000001
 51
180.0
  0
LINE
  8
1
  6
CONTINUOUS
 62
     7
 10
395.95
 20
359.6
 11
395.95
 21
360.2421603421932
  0
LINE
  8
1
  6
CONTINUOUS
 62
     7
 10
395.95
 20
329.9578396578069
 11
395.95
 21
330.6
  0
LINE
  8
1
  6
CONTINUOUS
 62
     7
 10
395.95
 20
359.6
 11
395.95
 21
359.2334715527881
  0
LINE
  8
1
  6
CONTINUOUS
 62
     7
 10
395.95
 20
330.9665284472118
 11
395.95
 21
330.6
  0
LINE
  8
1
  6
CONTINUOUS
 62
     7
 10
395.95
 20
356.9403478438396
 11
395.95
 21
352.2596521561604
  0
LINE
  8
1
  6
CONTINUOUS
 62
     7
 10
395.95
 20
337.9403478438396
 11
395.95
 21
333.2596521561604
  0
LINE
  8
1
  6
CONTINUOUS
 62
     7
 10
398.95
 20
363.6
 11
398.95
 21
361.2596521561604
  0
ARC
  8
1
  6
CONTINUOUS
 62
     7
 10
399.95
 20
363.6
 40
1.0
 50
90.0
 51
180.0
  0
LINE
  8
1
  6
CONTINUOUS
 62
     7
 10
437.9499999999999
 20
364.6
 11
399.95
 21
364.6
  0
ARC
  8
1
  6
CONTINUOUS
 62
     7
 10
399.95
 20
326.6
 40
1.0
 50
180.0
 51
270.0
  0
LINE
  8
1
  6
CONTINUOUS
 62
     7
 10
398.95
 20
326.6
 11
398.95
 21
328.9403478438396
  0
LINE
  8
1
  6
CONTINUOUS
 62
     7
 10
437.9499999999999
 20
325.6
 11
399.95
 21
325.6
  0
ENDBLK
  8
0
  0
BLOCK
  8
0
  2
D_FRAME_VIEW_4675
 70
     0
 10
0.0
 20
0.0
  0
LINE
  8
1
  6
CONTINUOUS
 62
     7
 10
603.0999999999999
 20
309.2
 11
603.0999999999999
 21
306.2
  0
LINE
  8
1
  6
CONTINUOUS
 62
     7
 10
598.1
 20
306.2
 11
597.7421222652573
 21
265.1912734645016
  0
ARC
  8
1
  6
CONTINUOUS
 62
     7
 10
508.1
 20
279.6999999999999
 40
2.5
 50
90.0
 51
180.0
  0
ARC
  8
1
  6
CONTINUOUS
 62
     7
 10
523.1
 20
279.6999999999999
 40
2.5
 50
0.0
 51
90.0
  0
LINE
  8
1
  6
CONTINUOUS
 62
     7
 10
568.1
 20
282.2
 11
553.1
 21
282.2
  0
ARC
  8
1
  6
CONTINUOUS
 62
     7
 10
553.1
 20
279.6999999999999
 40
2.5
 50
90.0
 51
180.0
  0
LINE
  8
1
  6
CONTINUOUS
 62
     7
 10
523.1
 20
282.2
 11
508.1
 21
282.2
  0
ARC
  8
1
  6
CONTINUOUS
 62
     7
 10
568.1
 20
279.6999999999999
 40
2.5
 50
0.0
 51
90.0
  0
LINE
  8
1
  6
CONTINUOUS
 62
     7
 10
525.6
 20
265.2
 11
525.6
 21
279.7
  0
LINE
  8
1
  6
CONTINUOUS
 62
     7
 10
550.6
 20
279.6999999999999
 11
550.6
 21
265.1999999999999
  0
LINE
  8
1
  6
CONTINUOUS
 62
     7
 10
570.6
 20
265.2
 11
570.6
 21
279.7
  0
LINE
  8
1
  6
CONTINUOUS
 62
     7
 10
505.6
 20
279.6999999999999
 11
505.6
 21
265.1999999999999
  0
ARC
  8
1
  6
CONTINUOUS
 62
     7
 10
504.6
 20
265.2
 40
1.000000000000001
 50
270.0
 51
0.0
  0
ARC
  8
1
  6
CONTINUOUS
 62
     7
 10
571.6
 20
265.2
 40
1.000000000000001
 50
180.0
 51
270.0
  0
ARC
  8
1
  6
CONTINUOUS
 62
     7
 10
549.6
 20
265.2
 40
1.000000000000001
 50
270.0
 51
0.0
  0
ARC
  8
1
  6
CONTINUOUS
 62
     7
 10
596.7421603421932
 20
265.2
 40
1.000000000000001
 50
270.0
 51
359.4999999999999
  0
ARC
  8
1
  6
CONTINUOUS
 62
     7
 10
526.6
 20
265.2
 40
1.000000000000001
 50
180.0
 51
270.0000000000002
  0
ENDBLK
  8
0
  0
BLOCK
  8
0
  2
D_FRAME_VIEW_3743
 70
     0
 10
0.0
 20
0.0
  0
ARC
  8
1
  6
CONTINUOUS
 62
     7
 10
475.6
 20
328.1
 40
2.500000000000002
 50
180.0
 51
270.0
  0
ARC
  8
1
  6
CONTINUOUS
 62
     7
 10
475.6
 20
362.1
 40
2.499999999999999
 50
90.0
 51
180.0
  0
LINE
  8
1
  6
CONTINUOUS
 62
     7
 10
595.45
 20
331.2500000000001
 11
595.45
 21
358.95
  0
LINE
  8
1
  6
CONTINUOUS
 62
     7
 10
480.7499999999999
 20
358.95
 11
480.7499999999999
 21
331.25
  0
ARC
  8
1
  6
CONTINUOUS
 62
     7
 10
600.6
 20
362.1
 40
2.500000000000002
 50
0.0
 51
90.0
  0
LINE
  8
1
  6
CONTINUOUS
 62
     7
 10
603.0999999999999
 20
362.1
 11
603.0999999999999
 21
328.1000000000001
  0
ARC
  8
1
  6
CONTINUOUS
 62
     7
 10
600.6
 20
328.1
 40
2.499999999999999
 50
270.0
 51
0.0000000000001137
  0
ARC
  8
1
  6
CONTINUOUS
 62
     7
 10
592.6
 20
345.1
 40
4.999999999999997
 50
90.00000000000009
 51
270.0
  0
LINE
  8
1
  6
CONTINUOUS
 62
     7
 10
595.3627313220924
 20
350.1
 11
592.5999999999999
 21
350.1
  0
LINE
  8
1
  6
CONTINUOUS
 62
     7
 10
592.6
 20
340.1
 11
595.3627313220925
 21
340.1
  0
ARC
  8
1
  6
CONTINUOUS
 62
     7
 10
483.6
 20
345.1
 40
2.099999999999998
 50
270.0000000000004
 51
89.99999999999966
  0
ARC
  8
1
  6
CONTINUOUS
 62
     7
 10
592.6
 20
345.1
 40
2.099999999999998
 50
90.00000000000034
 51
269.9999999999995
  0
LINE
  8
1
  6
CONTINUOUS
 62
     7
 10
480.8372686779076
 20
350.1
 11
483.6
 21
350.1
  0
LINE
  8
1
  6
CONTINUOUS
 62
     7
 10
483.6
 20
340.1
 11
480.8372686779076
 21
340.1
  0
ARC
  8
1
  6
CONTINUOUS
 62
     7
 10
483.6
 20
345.1
 40
4.999999999999997
 50
270.0
 51
89.99999999999994
  0
ARC
  8
1
  6
CONTINUOUS
 62
     7
 10
592.6
 20
345.1
 40
2.099999999999998
 50
269.9999999999996
 51
90.0000000000004
  0
ARC
  8
1
  6
CONTINUOUS
 62
     7
 10
483.6
 20
345.1
 40
2.099999999999998
 50
89.99999999999955
 51
270.0000000000003
  0
ARC
  8
1
  6
CONTINUOUS
 62
     7
 10
514.5999999999999
 20
345.1
 40
10.0
 50
187.1180687170459
 51
216.869897645844
  0
LINE
  8
1
  6
CONTINUOUS
 62
     7
 10
504.6770709024725
 20
343.8608558899614
 11
504.1577780142347
 21
344.0
  0
ARC
  8
1
  6
CONTINUOUS
 62
     7
 10
514.5999999999999
 20
345.1
 40
10.5
 50
186.0134490528181
 51
216.869897645844
  0
ARC
  8
1
  6
CONTINUOUS
 62
     7
 10
508.5999999999999
 20
340.6
 40
3.0
 50
216.869897645844
 51
270.0000000000001
  0
LINE
  8
1
  6
CONTINUOUS
 62
     7
 10
508.5999999999999
 20
337.6
 11
520.5999999999999
 21
337.6
  0
ARC
  8
1
  6
CONTINUOUS
 62
     7
 10
520.5999999999999
 20
340.6
 40
3.000000000000001
 50
269.9999999999999
 51
323.130102354156
  0
ARC
  8
1
  6
CONTINUOUS
 62
     7
 10
514.5999999999999
 20
345.1
 40
10.5
 50
323.130102354156
 51
353.9865509471819
  0
LINE
  8
1
  6
CONTINUOUS
 62
     7
 10
525.0422219857652
 20
344.0
 11
524.5229290975274
 21
343.8608558899614
  0
ARC
  8
1
  6
CONTINUOUS
 62
     7
 10
514.5999999999999
 20
345.1
 40
10.0
 50
323.1301023541562
 51
352.8819312829542
  0
ARC
  8
1
  6
CONTINUOUS
 62
     7
 10
520.5999999999999
 20
340.6
 40
2.5
 50
270.0000000000002
 51
323.1301023541562
  0
LINE
  8
1
  6
CONTINUOUS
 62
     7
 10
520.5999999999999
 20
338.1
 11
508.5999999999999
 21
338.1
  0
ARC
  8
1
  6
CONTINUOUS
 62
     7
 10
508.5999999999999
 20
340.6
 40
2.5
 50
216.8698976458439
 51
270.0
  0
ARC
  8
1
  6
CONTINUOUS
 62
     7
 10
520.5999999999999
 20
349.6
 40
2.5
 50
36.86989764584382
 51
89.99999999999994
  0
ARC
  8
1
  6
CONTINUOUS
 62
     7
 10
514.5999999999999
 20
345.1
 40
10.0
 50
7.118068717045957
 51
36.86989764584399
  0
LINE
  8
1
  6
CONTINUOUS
 62
     7
 10
524.5229290975274
 20
346.3391441100385
 11
525.0422219857652
 21
346.2
  0
ARC
  8
1
  6
CONTINUOUS
 62
     7
 10
514.5999999999999
 20
345.1
 40
10.5
 50
6.013449052818125
 51
36.86989764584401
  0
ARC
  8
1
  6
CONTINUOUS
 62
     7
 10
520.5999999999999
 20
349.6
 40
3.000000000000001
 50
36.86989764584401
 51
90.00000000000006
  0
LINE
  8
1
  6
CONTINUOUS
 62
     7
 10
520.5999999999999
 20
352.6
 11
508.5999999999999
 21
352.6
  0
ARC
  8
1
  6
CONTINUOUS
 62
     7
 10
508.5999999999999
 20
349.6
 40
3.000000000000001
 50
89.99999999999991
 51
143.130102354156
  0
ARC
  8
1
  6
CONTINUOUS
 62
     7
 10
514.5999999999999
 20
345.1
 40
10.5
 50
143.130102354156
 51
173.9865509471819
  0
LINE
  8
1
  6
CONTINUOUS
 62
     7
 10
504.1577780142347
 20
346.2
 11
504.6770709024725
 21
346.3391441100385
  0
ARC
  8
1
  6
CONTINUOUS
 62
     7
 10
514.5999999999999
 20
345.1
 40
10.0
 50
143.130102354156
 51
172.8819312829541
  0
ARC
  8
1
  6
CONTINUOUS
 62
     7
 10
508.5999999999999
 20
349.6
 40
2.5
 50
90.00000000000011
 51
143.1301023541561
  0
LINE
  8
1
  6
CONTINUOUS
 62
     7
 10
508.5999999999999
 20
352.1
 11
520.5999999999999
 21
352.1
  0
ARC
  8
1
  6
CONTINUOUS
 62
     7
 10
561.6
 20
345.1
 40
10.0
 50
187.1180687170459
 51
216.869897645844
  0
LINE
  8
1
  6
CONTINUOUS
 62
     7
 10
551.6770709024726
 20
343.8608558899614
 11
551.1577780142347
 21
344.0
  0
ARC
  8
1
  6
CONTINUOUS
 62
     7
 10
561.6
 20
345.1
 40
10.5
 50
186.0134490528181
 51
216.869897645844
  0
ARC
  8
1
  6
CONTINUOUS
 62
     7
 10
555.6
 20
340.6
 40
3.000000000000001
 50
216.869897645844
 51
270.0000000000001
  0
LINE
  8
1
  6
CONTINUOUS
 62
     7
 10
555.6
 20
337.6
 11
567.6
 21
337.6
  0
ARC
  8
1
  6
CONTINUOUS
 62
     7
 10
567.6
 20
340.6
 40
3.000000000000001
 50
269.9999999999999
 51
323.130102354156
  0
ARC
  8
1
  6
CONTINUOUS
 62
     7
 10
561.6
 20
345.1
 40
10.49999999999999
 50
323.130102354156
 51
353.9865509471819
  0
LINE
  8
1
  6
CONTINUOUS
 62
     7
 10
572.0422219857653
 20
344.0
 11
571.5229290975275
 21
343.8608558899614
  0
ARC
  8
1
  6
CONTINUOUS
 62
     7
 10
561.6
 20
345.1
 40
10.0
 50
323.1301023541561
 51
352.8819312829542
  0
ARC
  8
1
  6
CONTINUOUS
 62
     7
 10
567.6
 20
340.6
 40
2.499999999999999
 50
270.0000000000001
 51
323.1301023541561
  0
LINE
  8
1
  6
CONTINUOUS
 62
     7
 10
567.6
 20
338.1
 11
555.6
 21
338.1
  0
ARC
  8
1
  6
CONTINUOUS
 62
     7
 10
555.6
 20
340.6
 40
2.5
 50
216.8698976458439
 51
270.0
  0
ARC
  8
1
  6
CONTINUOUS
 62
     7
 10
567.6
 20
349.6
 40
2.5
 50
36.86989764584382
 51
89.99999999999994
  0
ARC
  8
1
  6
CONTINUOUS
 62
     7
 10
561.6
 20
345.1
 40
10.0
 50
7.118068717045957
 51
36.86989764584393
  0
LINE
  8
1
  6
CONTINUOUS
 62
     7
 10
571.5229290975275
 20
346.3391441100385
 11
572.0422219857653
 21
346.2
  0
ARC
  8
1
  6
CONTINUOUS
 62
     7
 10
561.6
 20
345.1
 40
10.5
 50
6.013449052818125
 51
36.86989764584401
  0
ARC
  8
1
  6
CONTINUOUS
 62
     7
 10
567.6
 20
349.6
 40
3.0
 50
36.86989764584401
 51
90.00000000000006
  0
LINE
  8
1
  6
CONTINUOUS
 62
     7
 10
567.6
 20
352.6
 11
555.6
 21
352.6
  0
ARC
  8
1
  6
CONTINUOUS
 62
     7
 10
555.6
 20
349.6
 40
3.000000000000001
 50
89.99999999999991
 51
143.130102354156
  0
ARC
  8
1
  6
CONTINUOUS
 62
     7
 10
561.6
 20
345.1
 40
10.5
 50
143.130102354156
 51
173.9865509471819
  0
LINE
  8
1
  6
CONTINUOUS
 62
     7
 10
551.1577780142347
 20
346.2
 11
551.6770709024726
 21
346.3391441100385
  0
ARC
  8
1
  6
CONTINUOUS
 62
     7
 10
561.6
 20
345.1
 40
10.0
 50
143.130102354156
 51
172.8819312829541
  0
ARC
  8
1
  6
CONTINUOUS
 62
     7
 10
555.6
 20
349.6
 40
2.5
 50
90.00000000000011
 51
143.1301023541561
  0
LINE
  8
1
  6
CONTINUOUS
 62
     7
 10
555.6
 20
352.1
 11
567.6
 21
352.1
  0
ENDBLK
  8
0
  0
ENDSEC
  0
SECTION
  2
ENTITIES
  0
LINE
  8
1
  6
CENTER
 62
     1
 10
473.1
 20
345.1
 11
603.0999999999999
 21
345.1
  0
LINE
  8
1
  6
CENTER
 62
     1
 10
538.1
 20
264.2
 11
538.1
 21
309.2000000000001
  0
LINE
  8
1
  6
CENTER
 62
     1
 10
538.1
 20
325.6
 11
538.1
 21
364.6
  0
INSERT
  8
図面枠
 62
     7
  2
D_FRAME_DRAWING_17
 10
0.0
 20
0.0
 30
0.0
  0
INSERT
  8
1
  6
CONTINUOUS
 62
     7
  2
D_FRAME_VIEW_4823
 10
0.0
 20
0.0
 30
0.0
  0
INSERT
  8
1
  6
CONTINUOUS
 62
     7
  2
D_FRAME_VIEW_4675
 10
0.0
 20
0.0
 30
0.0
  0
CIRCLE
  8
1
  6
CONTINUOUS
 62
     7
 10
538.1
 20
345.1
 40
8.5
  0
LINE
  8
1
  6
CONTINUOUS
 62
     7
 10
473.1
 20
328.1
 11
473.1
 21
362.1
  0
LINE
  8
1
  6
CONTINUOUS
 62
     7
 10
480.7499999999999
 20
331.2500000000001
 11
595.45
 21
331.2500000000001
  0
LINE
  8
1
  6
CONTINUOUS
 62
     7
 10
600.6
 20
325.6
 11
475.6
 21
325.6
  0
LINE
  8
1
  6
CONTINUOUS
 62
     7
 10
475.6
 20
364.6
 11
600.6
 21
364.6
  0
LINE
  8
1
  6
CONTINUOUS
 62
     7
 10
473.1
 20
309.2
 11
603.0999999999999
 21
309.2
  0
LINE
  8
1
  6
CONTINUOUS
 62
     7
 10
603.0999999999999
 20
306.2
 11
473.1
 21
306.2
  0
LINE
  8
1
  6
CONTINUOUS
 62
     7
 10
596.7421603421932
 20
264.2
 11
473.1
 21
264.2
  0
LINE
  8
1
  6
CONTINUOUS
 62
     7
 10
473.1
 20
264.2
 11
473.1
 21
309.2
  0
LINE
  8
1
  6
CONTINUOUS
 62
     7
 10
437.9499999999999
 20
325.6
 11
437.9499999999999
 21
364.6
  0
LINE
  8
1
  6
CONTINUOUS
 62
     7
 10
440.9499999999999
 20
364.6
 11
440.9499999999999
 21
325.6
  0
LINE
  8
1
  6
CONTINUOUS
 62
     7
 10
595.45
 20
358.95
 11
480.7499999999999
 21
358.95
  0
LINE
  8
1
  6
CENTER
 62
     1
 10
436.9499999999999
 20
345.1
 11
393.9499999999999
 21
345.1
  0
INSERT
  8
1
  6
CONTINUOUS
 62
     7
  2
D_FRAME_VIEW_3743
 10
0.0
 20
0.0
 30
0.0
  0
TEXT
  8
1
  6
CONTINUOUS
 62
     7
 10
511.8718144304115
 20
381.1090909090909
 40
6.0
  1
ＳＢ－Ｋ２Ｙ
  0
ENDSEC
  0
EOF
