  0
SECTION
  2
HEADER
  9
$ACADVER
  1
AC1006
  9
$DWGCODEPAGE
  3
ansi_932
  9
$INSBASE
 10
0.0
 20
0.0
 30
0.0
  9
$EXTMIN
 10
76.7520136513047
 20
74.51897586594968
  9
$EXTMAX
 10
373.126172314618
 20
209.5
  9
$LIMMIN
 10
0.0
 20
0.0
  9
$LIMMAX
 10
12.0
 20
9.0
  9
$ORTHOMODE
 70
     0
  9
$REGENMODE
 70
     1
  9
$FILLMODE
 70
     1
  9
$QTEXTMODE
 70
     0
  9
$MIRRTEXT
 70
     1
  9
$DRAGMODE
 70
     2
  9
$LTSCALE
 40
1.0
  9
$OSMODE
 70
    37
  9
$ATTMODE
 70
     1
  9
$TEXTSIZE
 40
0.2
  9
$TRACEWID
 40
0.05
  9
$TEXTSTYLE
  7
STANDARD
  9
$CLAYER
  8
0
  9
$CELTYPE
  6
BYLAYER
  9
$CECOLOR
 62
   256
  9
$DIMSCALE
 40
1.0
  9
$DIMASZ
 40
3.0
  9
$DIMEXO
 40
0.0625
  9
$DIMDLI
 40
0.38
  9
$DIMRND
 40
0.0
  9
$DIMDLE
 40
0.0
  9
$DIMEXE
 40
1.5
  9
$DIMTP
 40
0.0
  9
$DIMTM
 40
0.0
  9
$DIMTXT
 40
3.0
  9
$DIMCEN
 40
0.09
  9
$DIMTSZ
 40
0.0
  9
$DIMTOL
 70
     0
  9
$DIMLIM
 70
     0
  9
$DIMTIH
 70
     1
  9
$DIMTOH
 70
     1
  9
$DIMSE1
 70
     0
  9
$DIMSE2
 70
     0
  9
$DIMTAD
 70
     1
  9
$DIMZIN
 70
     0
  9
$DIMBLK
  1

  9
$DIMASO
 70
     1
  9
$DIMSHO
 70
     1
  9
$DIMPOST
  1

  9
$DIMAPOST
  1

  9
$DIMALT
 70
     0
  9
$DIMALTD
 70
     2
  9
$DIMALTF
 40
25.4
  9
$DIMLFAC
 40
1.0
  9
$DIMTOFL
 70
     0
  9
$DIMTVP
 40
0.0
  9
$DIMTIX
 70
     0
  9
$DIMSOXD
 70
     0
  9
$DIMSAH
 70
     0
  9
$DIMBLK1
  1

  9
$DIMBLK2
  1

  9
$LUNITS
 70
     2
  9
$LUPREC
 70
     4
  9
$SKETCHINC
 40
0.1
  9
$FILLETRAD
 40
0.5
  9
$AUNITS
 70
     0
  9
$AUPREC
 70
     0
  9
$MENU
  1
.
  9
$ELEVATION
 40
0.0
  9
$THICKNESS
 40
0.0
  9
$LIMCHECK
 70
     0
  9
$CHAMFERA
 40
0.0
  9
$CHAMFERB
 40
0.0
  9
$SKPOLY
 70
     0
  9
$TDCREATE
 40
2460733.575229387
  9
$TDUPDATE
 40
2460733.575229769
  9
$TDINDWG
 40
0.0000000116
  9
$TDUSRTIMER
 40
0.0000000116
  9
$USRTIMER
 70
     1
  9
$ANGBASE
 50
0.0
  9
$ANGDIR
 70
     0
  9
$PDMODE
 70
     0
  9
$PDSIZE
 40
0.0
  9
$PLINEWID
 40
0.0
  9
$COORDS
 70
     1
  9
$SPLFRAME
 70
     0
  9
$SPLINETYPE
 70
     6
  9
$SPLINESEGS
 70
     8
  9
$ATTDIA
 70
     0
  9
$ATTREQ
 70
     1
  9
$HANDLING
 70
     1
  9
$HANDSEED
  5
109
  9
$SURFTAB1
 70
     6
  9
$SURFTAB2
 70
     6
  9
$SURFTYPE
 70
     6
  9
$SURFU
 70
     6
  9
$SURFV
 70
     6
  9
$UCSNAME
  2

  9
$UCSORG
 10
0.0
 20
0.0
 30
0.0
  9
$UCSXDIR
 10
1.0
 20
0.0
 30
0.0
  9
$UCSYDIR
 10
0.0
 20
1.0
 30
0.0
  9
$USERI1
 70
     0
  9
$USERI2
 70
     0
  9
$USERI3
 70
     0
  9
$USERI4
 70
     0
  9
$USERI5
 70
     0
  9
$USERR1
 40
0.0
  9
$USERR2
 40
0.0
  9
$USERR3
 40
0.0
  9
$USERR4
 40
0.0
  9
$USERR5
 40
0.0
  9
$WORLDVIEW
 70
     1
  0
ENDSEC
  0
SECTION
  2
TABLES
  0
TABLE
  2
VPORT
 70
     1
  0
VPORT
  2
*ACTIVE
 70
     0
 10
0.0
 20
0.0
 11
1.0
 21
1.0
 12
224.9390929829614
 22
142.0094879329748
 13
0.0
 23
0.0
 14
0.5
 24
0.5
 15
0.5
 25
0.5
 16
0.0
 26
0.0
 36
1.0
 17
0.0
 27
0.0
 37
0.0
 40
134.9810241340504
 41
1.6
 42
50.0
 43
0.0
 44
0.0
 50
0.0
 51
0.0
 71
     0
 72
   100
 73
     1
 74
     3
 75
     0
 76
     0
 77
     0
 78
     0
  0
ENDTAB
  0
TABLE
  2
LTYPE
 70
     2
  0
LTYPE
  2
CONTINUOUS
 70
     0
  3
Solid line
 72
    65
 73
     0
 40
0.0
  0
LTYPE
  2
CENTER
 70
     0
  3

 72
    65
 73
     0
 40
0.0
  0
ENDTAB
  0
TABLE
  2
LAYER
 70
     2
  0
LAYER
  2
0
 70
     0
 62
     7
  6
CONTINUOUS
  0
LAYER
  2
1
 70
     0
 62
     7
  6
CONTINUOUS
  0
ENDTAB
  0
TABLE
  2
STYLE
 70
     2
  0
STYLE
  2
STANDARD
 70
     0
 40
0.0
 41
1.0
 50
0.0
 71
     0
 42
0.2
  3
txt
  4

  0
STYLE
  2
ＭＳ_ゴシック
 70
     0
 40
0.0
 41
1.0
 50
0.0
 71
     0
 42
0.2
  3
ＭＳ ゴシック.shx
  4

  0
ENDTAB
  0
TABLE
  2
VIEW
 70
     0
  0
ENDTAB
  0
TABLE
  2
UCS
 70
     0
  0
ENDTAB
  0
ENDSEC
  0
SECTION
  2
BLOCKS
  0
ENDSEC
  0
SECTION
  2
ENTITIES
  0
TEXT
  5
70
  8
1
  6
CONTINUOUS
 62
     4
 10
326.9341628110541
 20
73.37886082280852
 30
0.0
 40
10.0
  1
SB-K2YHA
  0
ARC
  5
71
  8
1
  6
CONTINUOUS
 62
     7
 10
255.5
 20
96.2520136513047
 30
0.0
 40
17.49999999999999
 50
90.0
 51
180.0
  0
LINE
  5
72
  8
1
  6
CONTINUOUS
 62
     7
 10
168.0
 20
124.2520136513047
 30
0.0
 11
170.5
 21
124.2520136513047
 31
0.0
  0
LINE
  5
73
  8
1
  6
CONTINUOUS
 62
     7
 10
170.5
 20
121.2520136513047
 30
0.0
 11
168.0
 21
121.2520136513047
 31
0.0
  0
LINE
  5
74
  8
1
  6
CONTINUOUS
 62
     7
 10
193.0
 20
83.25201365130472
 30
0.0
 11
193.0
 21
96.2520136513047
 31
0.0
  0
LINE
  5
75
  8
1
  6
CONTINUOUS
 62
     7
 10
228.0
 20
96.2520136513047
 30
0.0
 11
228.0
 21
83.25201365130472
 31
0.0
  0
LINE
  5
76
  8
1
  6
CONTINUOUS
 62
     7
 10
238.0
 20
83.25201365130472
 30
0.0
 11
238.0
 21
96.2520136513047
 31
0.0
  0
LINE
  5
77
  8
1
  6
CONTINUOUS
 62
     7
 10
272.0
 20
82.25201365130472
 30
0.0
 11
271.0
 21
82.25201365130472
 31
0.0
  0
ARC
  5
78
  8
1
  6
CONTINUOUS
 62
     7
 10
282.4826224211899
 20
119.2520136513047
 30
0.0
 40
2.000000000000006
 50
90.0
 51
179.5
  0
LINE
  5
79
  8
1
  6
CONTINUOUS
 62
     7
 10
280.4826985750616
 20
119.2694667223015
 30
0.0
 11
280.1683790239512
 21
83.2520136513047
 31
0.0
  0
LINE
  5
7A
  8
1
  6
CONTINUOUS
 62
     7
 10
277.9999999999999
 20
121.2520136513047
 30
0.0
 11
278.3316209760488
 21
83.2520136513047
 31
0.0
  0
LINE
  5
7B
  8
1
  6
CONTINUOUS
 62
     7
 10
234.5
 20
121.2520136513047
 30
0.0
 11
277.9999999999999
 21
121.2520136513047
 31
0.0
  0
LINE
  5
7C
  8
1
  6
CONTINUOUS
 62
     7
 10
287.0
 20
121.2520136513047
 30
0.0
 11
295.5
 21
121.2520136513047
 31
0.0
  0
LINE
  5
7D
  8
1
  6
CONTINUOUS
 62
     7
 10
287.0
 20
121.2520136513047
 30
0.0
 11
286.6683790239512
 21
83.2520136513047
 31
0.0
  0
LINE
  5
7E
  8
1
  6
CONTINUOUS
 62
     7
 10
284.5173014249384
 20
119.2694667223015
 30
0.0
 11
284.8316209760488
 21
83.2520136513047
 31
0.0
  0
ARC
  5
7F
  8
1
  6
CONTINUOUS
 62
     7
 10
282.5173775788101
 20
119.2520136513047
 30
0.0
 40
2.000000000000002
 50
0.5
 51
90.0
  0
LINE
  5
80
  8
1
  6
CONTINUOUS
 62
     7
 10
282.4826224211899
 20
121.2520136513047
 30
0.0
 11
282.51737757881
 21
121.2520136513047
 31
0.0
  0
LINE
  5
81
  8
1
  6
CONTINUOUS
 62
     7
 10
273.0
 20
96.2520136513047
 30
0.0
 11
273.0
 21
83.25201365130472
 31
0.0
  0
ARC
  5
82
  8
1
  6
CONTINUOUS
 62
     7
 10
272.0
 20
83.25201365130472
 30
0.0
 40
1.000000000000001
 50
270.0
 51
0.0
  0
LINE
  5
83
  8
1
  6
CONTINUOUS
 62
     7
 10
231.5
 20
121.2520136513046
 30
0.0
 11
233.0
 21
121.2520136513047
 31
0.0
  0
LINE
  5
84
  8
1
  6
CONTINUOUS
 62
     7
 10
231.5
 20
124.2520136513046
 30
0.0
 11
233.0
 21
124.2520136513047
 31
0.0
  0
ARC
  5
85
  8
1
  6
CONTINUOUS
 62
     7
 10
227.0
 20
83.25201365130472
 30
0.0
 40
1.000000000000001
 50
270.0
 51
0.0
  0
LINE
  5
86
  8
1
  6
CONTINUOUS
 62
     7
 10
233.0
 20
121.2520136513047
 30
0.0
 11
234.5
 21
121.2520136513047
 31
0.0
  0
LINE
  5
87
  8
1
  6
CONTINUOUS
 62
     7
 10
233.0
 20
124.2520136513047
 30
0.0
 11
234.5
 21
124.2520136513047
 31
0.0
  0
ARC
  5
88
  8
1
  6
CONTINUOUS
 62
     7
 10
194.0
 20
83.25201365130472
 30
0.0
 40
1.000000000000001
 50
180.0
 51
270.0
  0
LINE
  5
89
  8
1
  6
CONTINUOUS
 62
     7
 10
298.0
 20
124.2520136513047
 30
0.0
 11
298.0
 21
121.2520136513047
 31
0.0
  0
LINE
  5
8A
  8
1
  6
CONTINUOUS
 62
     7
 10
298.0
 20
121.2520136513047
 30
0.0
 11
295.5
 21
121.2520136513047
 31
0.0
  0
ARC
  5
8B
  8
1
  6
CONTINUOUS
 62
     7
 10
210.5
 20
96.2520136513047
 30
0.0
 40
17.50000000000001
 50
90.0
 51
180.0
  0
LINE
  5
8C
  8
1
  6
CONTINUOUS
 62
     7
 10
188.0
 20
121.2520136513047
 30
0.0
 11
231.5
 21
121.2520136513046
 31
0.0
  0
LINE
  5
8D
  8
1
  6
CONTINUOUS
 62
     7
 10
188.0
 20
121.2520136513047
 30
0.0
 11
187.6683790239512
 21
83.2520136513047
 31
0.0
  0
LINE
  5
8E
  8
1
  6
CONTINUOUS
 62
     7
 10
183.4826224211899
 20
121.2520136513047
 30
0.0
 11
183.5173775788101
 21
121.2520136513047
 31
0.0
  0
ARC
  5
8F
  8
1
  6
CONTINUOUS
 62
     7
 10
183.4826224211899
 20
119.2520136513047
 30
0.0
 40
2.000000000000006
 50
90.0
 51
179.5
  0
LINE
  5
90
  8
1
  6
CONTINUOUS
 62
     7
 10
181.4826985750616
 20
119.2694667223015
 30
0.0
 11
181.1683790239512
 21
83.2520136513047
 31
0.0
  0
LINE
  5
91
  8
1
  6
CONTINUOUS
 62
     7
 10
185.5173014249384
 20
119.2694667223015
 30
0.0
 11
185.8316209760488
 21
83.2520136513047
 31
0.0
  0
ARC
  5
92
  8
1
  6
CONTINUOUS
 62
     7
 10
183.51737757881
 20
119.2520136513047
 30
0.0
 40
2.000000000000002
 50
0.5
 51
90.0
  0
LINE
  5
93
  8
1
  6
CONTINUOUS
 62
     7
 10
179.0
 20
121.2520136513047
 30
0.0
 11
179.3316209760488
 21
83.2520136513047
 31
0.0
  0
LINE
  5
94
  8
1
  6
CONTINUOUS
 62
     7
 10
170.5
 20
124.2520136513047
 30
0.0
 11
231.5
 21
124.2520136513046
 31
0.0
  0
LINE
  5
95
  8
1
  6
CONTINUOUS
 62
     7
 10
170.5
 20
121.2520136513047
 30
0.0
 11
179.0
 21
121.2520136513047
 31
0.0
  0
ARC
  5
96
  8
1
  6
CONTINUOUS
 62
     7
 10
255.5
 20
96.2520136513047
 30
0.0
 40
17.49999999999999
 50
0.0
 51
90.0
  0
ARC
  5
97
  8
1
  6
CONTINUOUS
 62
     7
 10
210.5
 20
96.2520136513047
 30
0.0
 40
17.49999999999999
 50
0.0
 51
90.0
  0
ARC
  5
98
  8
1
  6
CONTINUOUS
 62
     7
 10
239.0
 20
83.25201365130472
 30
0.0
 40
1.000000000000001
 50
180.0
 51
270.0
  0
LINE
  5
99
  8
1
  6
CONTINUOUS
 62
     7
 10
280.1596521561604
 20
82.2520136513047
 30
0.0
 11
278.3403478438396
 21
82.2520136513047
 31
0.0
  0
LINE
  5
9A
  8
1
  6
CONTINUOUS
 62
     7
 10
280.1683790239512
 20
83.2520136513047
 30
0.0
 11
280.1596521561603
 21
82.2520136513047
 31
0.0
  0
LINE
  5
9B
  8
1
  6
CONTINUOUS
 62
     7
 10
278.3403478438396
 20
82.2520136513047
 30
0.0
 11
278.3316209760488
 21
83.2520136513047
 31
0.0
  0
LINE
  5
9C
  8
1
  6
CONTINUOUS
 62
     7
 10
195.0
 20
82.25201365130472
 30
0.0
 11
194.0
 21
82.25201365130472
 31
0.0
  0
LINE
  5
9D
  8
1
  6
CONTINUOUS
 62
     7
 10
187.6596521561604
 20
82.2520136513047
 30
0.0
 11
185.8403478438396
 21
82.2520136513047
 31
0.0
  0
LINE
  5
9E
  8
1
  6
CONTINUOUS
 62
     7
 10
187.6683790239512
 20
83.2520136513047
 30
0.0
 11
187.6596521561604
 21
82.2520136513047
 31
0.0
  0
LINE
  5
9F
  8
1
  6
CONTINUOUS
 62
     7
 10
185.8403478438396
 20
82.2520136513047
 30
0.0
 11
185.8316209760488
 21
83.2520136513047
 31
0.0
  0
LINE
  5
A0
  8
1
  6
CONTINUOUS
 62
     7
 10
181.1596521561604
 20
82.2520136513047
 30
0.0
 11
179.3403478438396
 21
82.2520136513047
 31
0.0
  0
LINE
  5
A1
  8
1
  6
CONTINUOUS
 62
     7
 10
181.1683790239512
 20
83.2520136513047
 30
0.0
 11
181.1596521561604
 21
82.2520136513047
 31
0.0
  0
LINE
  5
A2
  8
1
  6
CONTINUOUS
 62
     7
 10
179.3403478438396
 20
82.2520136513047
 30
0.0
 11
179.3316209760488
 21
83.2520136513047
 31
0.0
  0
LINE
  5
A3
  8
1
  6
CONTINUOUS
 62
     7
 10
227.0
 20
82.25201365130472
 30
0.0
 11
226.0
 21
82.25201365130472
 31
0.0
  0
LINE
  5
A4
  8
1
  6
CONTINUOUS
 62
     7
 10
286.6596521561604
 20
82.2520136513047
 30
0.0
 11
284.8403478438396
 21
82.2520136513047
 31
0.0
  0
LINE
  5
A5
  8
1
  6
CONTINUOUS
 62
     7
 10
284.8403478438396
 20
82.2520136513047
 30
0.0
 11
284.8316209760488
 21
83.2520136513047
 31
0.0
  0
LINE
  5
A6
  8
1
  6
CONTINUOUS
 62
     7
 10
286.6683790239512
 20
83.2520136513047
 30
0.0
 11
286.6596521561604
 21
82.2520136513047
 31
0.0
  0
ARC
  5
A7
  8
1
  6
CONTINUOUS
 62
     7
 10
266.4
 20
83.75201365130472
 30
0.0
 40
1.500000000000001
 50
180.000000000001
 51
218.6821874534895
  0
LINE
  5
A8
  8
1
  6
CONTINUOUS
 62
     7
 10
264.9
 20
83.7520136513047
 30
0.0
 11
264.9
 21
85.2520136513047
 31
0.0
  0
ARC
  5
A9
  8
1
  6
CONTINUOUS
 62
     7
 10
221.4
 20
83.75201365130472
 30
0.0
 40
1.500000000000001
 50
180.000000000001
 51
218.6821874534895
  0
LINE
  5
AA
  8
1
  6
CONTINUOUS
 62
     7
 10
219.9
 20
83.7520136513047
 30
0.0
 11
219.9
 21
85.2520136513047
 31
0.0
  0
ARC
  5
AB
  8
1
  6
CONTINUOUS
 62
     7
 10
199.6
 20
83.75201365130472
 30
0.0
 40
1.500000000000001
 50
321.3178125465101
 51
359.9999999999989
  0
LINE
  5
AC
  8
1
  6
CONTINUOUS
 62
     7
 10
264.9
 20
85.2520136513047
 30
0.0
 11
264.9
 21
85.7520136513047
 31
0.0
  0
LINE
  5
AD
  8
1
  6
CONTINUOUS
 62
     7
 10
246.1
 20
85.2520136513047
 30
0.0
 11
246.1
 21
83.7520136513047
 31
0.0
  0
ARC
  5
AE
  8
1
  6
CONTINUOUS
 62
     7
 10
244.6
 20
83.75201365130472
 30
0.0
 40
1.500000000000001
 50
321.3178125465105
 51
359.9999999999989
  0
LINE
  5
AF
  8
1
  6
CONTINUOUS
 62
     7
 10
246.1
 20
85.2520136513047
 30
0.0
 11
246.1
 21
85.7520136513047
 31
0.0
  0
ARC
  5
B0
  8
1
  6
CONTINUOUS
 62
     7
 10
266.4
 20
83.75201365130472
 30
0.0
 40
1.500000000000001
 50
218.6821874534894
 51
270.0
  0
ARC
  5
B1
  8
1
  6
CONTINUOUS
 62
     7
 10
221.4
 20
83.75201365130472
 30
0.0
 40
1.500000000000001
 50
218.6821874534894
 51
270.0
  0
ARC
  5
B2
  8
1
  6
CONTINUOUS
 62
     7
 10
244.6
 20
83.75201365130472
 30
0.0
 40
1.50000000000001
 50
270.0
 51
321.3178125465106
  0
ARC
  5
B3
  8
1
  6
CONTINUOUS
 62
     7
 10
199.6
 20
83.75201365130472
 30
0.0
 40
1.499999999999999
 50
270.0
 51
321.3178125465106
  0
LINE
  5
B4
  8
1
  6
CONTINUOUS
 62
     7
 10
244.6
 20
82.25201365130472
 30
0.0
 11
240.0
 21
82.25201365130472
 31
0.0
  0
LINE
  5
B5
  8
1
  6
CONTINUOUS
 62
     7
 10
271.0
 20
82.25201365130472
 30
0.0
 11
266.4
 21
82.25201365130472
 31
0.0
  0
LINE
  5
B6
  8
1
  6
CONTINUOUS
 62
     7
 10
199.6
 20
82.25201365130472
 30
0.0
 11
195.0
 21
82.25201365130472
 31
0.0
  0
ARC
  5
B7
  8
1
  6
CONTINUOUS
 62
     7
 10
210.5
 20
93.7520136513047
 30
0.0
 40
9.400000000000006
 50
90.0
 51
180.0
  0
ARC
  5
B8
  8
1
  6
CONTINUOUS
 62
     7
 10
210.5
 20
93.7520136513047
 30
0.0
 40
9.399999999999991
 50
0.0
 51
90.0
  0
ARC
  5
B9
  8
1
  6
CONTINUOUS
 62
     7
 10
255.5
 20
93.7520136513047
 30
0.0
 40
9.400000000000006
 50
90.0
 51
180.0
  0
ARC
  5
BA
  8
1
  6
CONTINUOUS
 62
     7
 10
255.5
 20
93.7520136513047
 30
0.0
 40
9.40000000000002
 50
0.0
 51
90.0
  0
LINE
  5
BB
  8
1
  6
CONTINUOUS
 62
     7
 10
246.1
 20
93.7520136513047
 30
0.0
 11
246.1
 21
85.7520136513047
 31
0.0
  0
LINE
  5
BC
  8
1
  6
CONTINUOUS
 62
     7
 10
264.9
 20
85.7520136513047
 30
0.0
 11
264.9
 21
93.7520136513047
 31
0.0
  0
LINE
  5
BD
  8
1
  6
CONTINUOUS
 62
     7
 10
293.0
 20
121.2520136513047
 30
0.0
 11
293.0
 21
80.25201365130468
 31
0.0
  0
ARC
  5
BE
  8
1
  6
CONTINUOUS
 62
     7
 10
292.0
 20
80.25201365130468
 30
0.0
 40
1.000000000000001
 50
270.0
 51
359.9999999999996
  0
LINE
  5
BF
  8
1
  6
CONTINUOUS
 62
     7
 10
168.0
 20
121.2520136513047
 30
0.0
 11
168.0
 21
80.2520136513047
 31
0.0
  0
ARC
  5
C0
  8
1
  6
CONTINUOUS
 62
     7
 10
295.5
 20
173.0
 30
0.0
 40
2.500000000000002
 50
270.0
 51
0.0
  0
LINE
  5
C1
  8
1
  6
CONTINUOUS
 62
     7
 10
294.0
 20
170.5
 30
0.0
 11
295.5
 21
170.5
 31
0.0
  0
ARC
  5
C2
  8
1
  6
CONTINUOUS
 62
     7
 10
295.5
 20
207.0
 30
0.0
 40
2.500000000000002
 50
0.0
 51
90.0
  0
LINE
  5
C3
  8
1
  6
CONTINUOUS
 62
     7
 10
298.0
 20
173.0
 30
0.0
 11
298.0
 21
207.0
 31
0.0
  0
LINE
  5
C4
  8
1
  6
CONTINUOUS
 62
     7
 10
295.5
 20
209.5
 30
0.0
 11
294.0
 21
209.5
 31
0.0
  0
LINE
  5
C5
  8
1
  6
CONTINUOUS
 62
     7
 10
293.0
 20
209.5
 30
0.0
 11
294.0
 21
209.5
 31
0.0
  0
LINE
  5
C6
  8
1
  6
CONTINUOUS
 62
     7
 10
290.35
 20
203.85
 30
0.0
 11
290.35
 21
176.15
 31
0.0
  0
LINE
  5
C7
  8
1
  6
CONTINUOUS
 62
     7
 10
233.0
 20
208.0
 30
0.0
 11
231.5
 21
209.5
 31
0.0
  0
LINE
  5
C8
  8
1
  6
CONTINUOUS
 62
     7
 10
234.5
 20
170.5
 30
0.0
 11
292.9999999999999
 21
170.5
 31
0.0
  0
LINE
  5
C9
  8
1
  6
CONTINUOUS
 62
     7
 10
233.0
 20
172.0
 30
0.0
 11
234.5
 21
170.5
 31
0.0
  0
LINE
  5
CA
  8
1
  6
CONTINUOUS
 62
     7
 10
231.5
 20
170.5
 30
0.0
 11
233.0
 21
172.0
 31
0.0
  0
LINE
  5
CB
  8
1
  6
CONTINUOUS
 62
     7
 10
170.5
 20
170.5
 30
0.0
 11
231.5
 21
170.5
 31
0.0
  0
LINE
  5
CC
  8
1
  6
CONTINUOUS
 62
     7
 10
168.0
 20
176.0
 30
0.0
 11
168.0
 21
173.0
 31
0.0
  0
ARC
  5
CD
  8
1
  6
CONTINUOUS
 62
     7
 10
170.5
 20
207.0
 30
0.0
 40
2.499999999999995
 50
90.0
 51
180.0
  0
LINE
  5
CE
  8
1
  6
CONTINUOUS
 62
     7
 10
231.5
 20
209.5
 30
0.0
 11
170.5
 21
209.5
 31
0.0
  0
LINE
  5
CF
  8
1
  6
CONTINUOUS
 62
     7
 10
234.5
 20
209.5
 30
0.0
 11
233.0
 21
208.0
 31
0.0
  0
LINE
  5
D0
  8
1
  6
CONTINUOUS
 62
     7
 10
175.65
 20
176.15
 30
0.0
 11
175.65
 21
203.85
 31
0.0
  0
ARC
  5
D1
  8
1
  6
CONTINUOUS
 62
     7
 10
170.5
 20
173.0
 30
0.0
 40
2.500000000000002
 50
180.0
 51
270.0
  0
LINE
  5
D2
  8
1
  6
CONTINUOUS
 62
     7
 10
293.0
 20
209.5
 30
0.0
 11
234.5
 21
209.5
 31
0.0
  0
LINE
  5
D3
  8
1
  6
CONTINUOUS
 62
     7
 10
294.0
 20
170.5
 30
0.0
 11
293.0000000000001
 21
170.5
 31
0.0
  0
ARC
  5
D4
  8
1
  6
CONTINUOUS
 62
     7
 10
287.5
 20
190.0
 30
0.0
 40
2.099999999999998
 50
90.0
 51
270.0
  0
ARC
  5
D5
  8
1
  6
CONTINUOUS
 62
     7
 10
178.5
 20
190.0
 30
0.0
 40
2.099999999999998
 50
270.0
 51
90.0
  0
LINE
  5
D6
  8
1
  6
CONTINUOUS
 62
     7
 10
290.35
 20
195.0
 30
0.0
 11
287.5
 21
195.0
 31
0.0
  0
LINE
  5
D7
  8
1
  6
CONTINUOUS
 62
     7
 10
287.5
 20
185.0
 30
0.0
 11
290.35
 21
185.0
 31
0.0
  0
ARC
  5
D8
  8
1
  6
CONTINUOUS
 62
     7
 10
287.5
 20
190.0
 30
0.0
 40
4.999999999999997
 50
90.0
 51
270.0
  0
ARC
  5
D9
  8
1
  6
CONTINUOUS
 62
     7
 10
178.5
 20
190.0
 30
0.0
 40
4.999999999999997
 50
270.0
 51
90.0
  0
LINE
  5
DA
  8
1
  6
CONTINUOUS
 62
     7
 10
175.65
 20
195.0
 30
0.0
 11
178.5
 21
195.0
 31
0.0
  0
LINE
  5
DB
  8
1
  6
CONTINUOUS
 62
     7
 10
178.5
 20
185.0
 30
0.0
 11
175.65
 21
185.0
 31
0.0
  0
ARC
  5
DC
  8
1
  6
CONTINUOUS
 62
     7
 10
178.5
 20
190.0
 30
0.0
 40
2.099999999999998
 50
90.0
 51
270.0
  0
ARC
  5
DD
  8
1
  6
CONTINUOUS
 62
     7
 10
287.5
 20
190.0
 30
0.0
 40
2.099999999999998
 50
270.0
 51
90.0
  0
ARC
  5
DE
  8
1
  6
CONTINUOUS
 62
     7
 10
113.7520136513047
 20
180.4826224211899
 30
0.0
 40
2.000000000000002
 50
270.5000000000001
 51
0.0
  0
LINE
  5
DF
  8
1
  6
CONTINUOUS
 62
     7
 10
115.7520136513047
 20
199.5173775788101
 30
0.0
 11
115.7520136513047
 21
180.4826224211899
 31
0.0
  0
ARC
  5
E0
  8
1
  6
CONTINUOUS
 62
     7
 10
113.7520136513047
 20
199.5173775788101
 30
0.0
 40
2.000000000000006
 50
0.0
 51
89.5
  0
LINE
  5
E1
  8
1
  6
CONTINUOUS
 62
     7
 10
77.75201365130471
 20
178.1683790239512
 30
0.0
 11
113.7694667223015
 21
178.4826985750616
 31
0.0
  0
LINE
  5
E2
  8
1
  6
CONTINUOUS
 62
     7
 10
77.75201365130471
 20
201.8316209760488
 30
0.0
 11
113.7694667223015
 21
201.5173014249384
 31
0.0
  0
LINE
  5
E3
  8
1
  6
CONTINUOUS
 62
     7
 10
118.7520136513047
 20
209.5
 30
0.0
 11
121.7520136513047
 21
209.5
 31
0.0
  0
LINE
  5
E4
  8
1
  6
CONTINUOUS
 62
     7
 10
76.7520136513047
 20
197.1596521561604
 30
0.0
 11
113.7694667223015
 21
197.4826985750616
 31
0.0
  0
ARC
  5
E5
  8
1
  6
CONTINUOUS
 62
     7
 10
113.7520136513047
 20
199.48262242119
 30
0.0
 40
2.000000000000002
 50
270.5000000000001
 51
0.0
  0
LINE
  5
E6
  8
1
  6
CONTINUOUS
 62
     7
 10
76.7520136513047
 20
182.8403478438396
 30
0.0
 11
113.7694667223015
 21
182.5173014249384
 31
0.0
  0
LINE
  5
E7
  8
1
  6
CONTINUOUS
 62
     7
 10
76.7520136513047
 20
182.8403478438396
 30
0.0
 11
76.7520136513047
 21
185.1596521561604
 31
0.0
  0
ARC
  5
E8
  8
1
  6
CONTINUOUS
 62
     7
 10
113.7520136513047
 20
180.51737757881
 30
0.0
 40
2.000000000000006
 50
0.0
 51
89.5
  0
ARC
  5
E9
  8
1
  6
CONTINUOUS
 62
     7
 10
113.7520136513047
 20
180.5
 30
0.0
 40
2.000000000000002
 50
313.5311521673723
 51
0.0
  0
ARC
  5
EA
  8
1
  6
CONTINUOUS
 62
     7
 10
113.7520136513047
 20
180.5
 30
0.0
 40
2.000000000000003
 50
0.0
 51
46.46884783262754
  0
LINE
  5
EB
  8
1
  6
CONTINUOUS
 62
     7
 10
290.35
 20
176.15
 30
0.0
 11
175.65
 21
176.15
 31
0.0
  0
LINE
  5
EC
  8
1
  6
CONTINUOUS
 62
     7
 10
201.1
 20
93.75201365130472
 30
0.0
 11
201.1
 21
83.75201365130472
 31
0.0
  0
LINE
  5
ED
  8
1
  6
CONTINUOUS
 62
     7
 10
168.0
 20
207.0
 30
0.0
 11
168.0
 21
173.0
 31
0.0
  0
LINE
  5
EE
  8
1
  6
CENTER
 62
     1
 10
287.5
 20
185.9
 30
0.0
 11
287.5
 21
194.1
 31
0.0
  0
LINE
  5
F0
  8
1
  6
CONTINUOUS
 62
     7
 10
121.7520136513047
 20
209.5
 30
0.0
 11
76.75201365130471
 21
209.5
 31
0.0
  0
LINE
  5
F1
  8
1
  6
CENTER
 62
     1
 10
168.0
 20
190.0
 30
0.0
 11
298.0
 21
190.0
 31
0.0
  0
LINE
  5
F2
  8
1
  6
CONTINUOUS
 62
     7
 10
76.7520136513047
 20
170.5
 30
0.0
 11
76.7520136513047
 21
209.5
 31
0.0
  0
ARC
  5
F3
  8
1
  6
CONTINUOUS
 62
     7
 10
233.0
 20
190.0
 30
0.0
 40
8.199999999999989
 50
180.0
 51
0.0
  0
LINE
  5
F4
  8
1
  6
CONTINUOUS
 62
     7
 10
121.7520136513047
 20
170.5
 30
0.0
 11
76.75201365130471
 21
170.5
 31
0.0
  0
LINE
  5
F5
  8
1
  6
CONTINUOUS
 62
     7
 10
168.0
 20
79.2520136513047
 30
0.0
 11
292.0
 21
79.25201365130418
 31
0.0
  0
LINE
  5
F6
  8
1
  6
CONTINUOUS
 62
     7
 10
219.9
 20
83.75201365130472
 30
0.0
 11
219.9
 21
93.75201365130472
 31
0.0
  0
LINE
  5
F7
  8
1
  6
CONTINUOUS
 62
     7
 10
175.65
 20
203.85
 30
0.0
 11
290.35
 21
203.85
 31
0.0
  0
LINE
  5
F8
  8
1
  6
CENTER
 62
     1
 10
178.5
 20
185.9
 30
0.0
 11
178.5
 21
194.1
 31
0.0
  0
LINE
  5
F9
  8
1
  6
CONTINUOUS
 62
     7
 10
168.0
 20
124.2520136513046
 30
0.0
 11
298.0
 21
124.2520136513047
 31
0.0
  0
LINE
  5
FA
  8
1
  6
CENTER
 62
     1
 10
233.0
 20
170.5
 30
0.0
 11
233.0
 21
209.5
 31
0.0
  0
LINE
  5
FB
  8
1
  6
CONTINUOUS
 62
     7
 10
227.0
 20
82.25201365130472
 30
0.0
 11
194.0
 21
82.25201365130472
 31
0.0
  0
LINE
  5
FC
  8
1
  6
CENTER
 62
     1
 10
233.0
 20
124.2520136513047
 30
0.0
 11
233.0
 21
79.25201365130468
 31
0.0
  0
LINE
  5
FD
  8
1
  6
CENTER
 62
     1
 10
121.7520136513047
 20
190.0
 30
0.0
 11
76.75201365130471
 21
190.0
 31
0.0
  0
ARC
  5
FE
  8
1
  6
CONTINUOUS
 62
     7
 10
233.0
 20
190.0
 30
0.0
 40
8.199999999999987
 50
0.0
 51
180.0
  0
LINE
  5
FF
  8
1
  6
CONTINUOUS
 62
     7
 10
272.0
 20
82.25201365130472
 30
0.0
 11
239.0
 21
82.25201365130472
 31
0.0
  0
LINE
  5
100
  8
1
  6
CONTINUOUS
 62
     7
 10
121.7520136513047
 20
209.5
 30
0.0
 11
121.7520136513047
 21
170.5
 31
0.0
  0
LINE
  5
101
  8
1
  6
CONTINUOUS
 62
     7
 10
168.0
 20
79.25201365130468
 30
0.0
 11
168.0
 21
124.2520136513047
 31
0.0
  0
ENDSEC
  0
EOF
