  0
SECTION
  2
HEADER
  9
$ACADVER
  1
AC1006
  9
$DWGCODEPAGE
  3
ansi_932
  9
$INSBASE
 10
0.0
 20
0.0
 30
0.0
  9
$EXTMIN
 10
-266.9999999999999
 20
-1267.534090909091
  9
$EXTMAX
 10
37.50000000000009
 20
-1020.0
  9
$LIMMIN
 10
0.0
 20
0.0
  9
$LIMMAX
 10
12.0
 20
9.0
  9
$ORTHOMODE
 70
     0
  9
$REGENMODE
 70
     1
  9
$FILLMODE
 70
     1
  9
$QTEXTMODE
 70
     0
  9
$MIRRTEXT
 70
     1
  9
$DRAGMODE
 70
     2
  9
$LTSCALE
 40
1.0
  9
$OSMODE
 70
    37
  9
$ATTMODE
 70
     1
  9
$TEXTSIZE
 40
0.2
  9
$TRACEWID
 40
0.05
  9
$TEXTSTYLE
  7
STANDARD
  9
$CLAYER
  8
0
  9
$CELTYPE
  6
BYLAYER
  9
$CECOLOR
 62
   256
  9
$DIMSCALE
 40
1.0
  9
$DIMASZ
 40
3.0
  9
$DIMEXO
 40
0.0625
  9
$DIMDLI
 40
0.38
  9
$DIMRND
 40
0.0
  9
$DIMDLE
 40
0.0
  9
$DIMEXE
 40
1.5
  9
$DIMTP
 40
0.0
  9
$DIMTM
 40
0.0
  9
$DIMTXT
 40
3.0
  9
$DIMCEN
 40
0.09
  9
$DIMTSZ
 40
0.0
  9
$DIMTOL
 70
     0
  9
$DIMLIM
 70
     0
  9
$DIMTIH
 70
     1
  9
$DIMTOH
 70
     1
  9
$DIMSE1
 70
     0
  9
$DIMSE2
 70
     0
  9
$DIMTAD
 70
     1
  9
$DIMZIN
 70
     0
  9
$DIMBLK
  1

  9
$DIMASO
 70
     1
  9
$DIMSHO
 70
     1
  9
$DIMPOST
  1

  9
$DIMAPOST
  1

  9
$DIMALT
 70
     0
  9
$DIMALTD
 70
     2
  9
$DIMALTF
 40
25.4
  9
$DIMLFAC
 40
1.0
  9
$DIMTOFL
 70
     0
  9
$DIMTVP
 40
0.0
  9
$DIMTIX
 70
     0
  9
$DIMSOXD
 70
     0
  9
$DIMSAH
 70
     0
  9
$DIMBLK1
  1

  9
$DIMBLK2
  1

  9
$LUNITS
 70
     2
  9
$LUPREC
 70
     4
  9
$SKETCHINC
 40
0.1
  9
$FILLETRAD
 40
0.5
  9
$AUNITS
 70
     0
  9
$AUPREC
 70
     0
  9
$MENU
  1
.
  9
$ELEVATION
 40
0.0
  9
$THICKNESS
 40
0.0
  9
$LIMCHECK
 70
     0
  9
$CHAMFERA
 40
0.0
  9
$CHAMFERB
 40
0.0
  9
$SKPOLY
 70
     0
  9
$TDCREATE
 40
2460427.597204259
  9
$TDUPDATE
 40
2460427.597204456
  9
$TDINDWG
 40
0.0000000116
  9
$TDUSRTIMER
 40
0.0000000116
  9
$USRTIMER
 70
     1
  9
$ANGBASE
 50
0.0
  9
$ANGDIR
 70
     0
  9
$PDMODE
 70
     0
  9
$PDSIZE
 40
0.0
  9
$PLINEWID
 40
0.0
  9
$COORDS
 70
     1
  9
$SPLFRAME
 70
     0
  9
$SPLINETYPE
 70
     6
  9
$SPLINESEGS
 70
     8
  9
$ATTDIA
 70
     0
  9
$ATTREQ
 70
     1
  9
$HANDLING
 70
     1
  9
$HANDSEED
  5
1A1
  9
$SURFTAB1
 70
     6
  9
$SURFTAB2
 70
     6
  9
$SURFTYPE
 70
     6
  9
$SURFU
 70
     6
  9
$SURFV
 70
     6
  9
$UCSNAME
  2

  9
$UCSORG
 10
0.0
 20
0.0
 30
0.0
  9
$UCSXDIR
 10
1.0
 20
0.0
 30
0.0
  9
$UCSYDIR
 10
0.0
 20
1.0
 30
0.0
  9
$USERI1
 70
     0
  9
$USERI2
 70
     0
  9
$USERI3
 70
     0
  9
$USERI4
 70
     0
  9
$USERI5
 70
     0
  9
$USERR1
 40
0.0
  9
$USERR2
 40
0.0
  9
$USERR3
 40
0.0
  9
$USERR4
 40
0.0
  9
$USERR5
 40
0.0
  9
$WORLDVIEW
 70
     1
  0
ENDSEC
  0
SECTION
  2
TABLES
  0
TABLE
  2
VPORT
 70
     1
  0
VPORT
  2
*ACTIVE
 70
     0
 10
0.0
 20
0.0
 11
1.0
 21
1.0
 12
-114.7499999999999
 22
-1143.767045454545
 13
0.0
 23
0.0
 14
0.5
 24
0.5
 15
0.5
 25
0.5
 16
0.0
 26
0.0
 36
1.0
 17
0.0
 27
0.0
 37
0.0
 40
247.534090909091
 41
1.6
 42
50.0
 43
0.0
 44
0.0
 50
0.0
 51
0.0
 71
     0
 72
   100
 73
     1
 74
     3
 75
     0
 76
     0
 77
     0
 78
     0
  0
ENDTAB
  0
TABLE
  2
LTYPE
 70
     2
  0
LTYPE
  2
CONTINUOUS
 70
     0
  3
Solid line
 72
    65
 73
     0
 40
0.0
  0
LTYPE
  2
CENTER
 70
     0
  3

 72
    65
 73
     0
 40
0.0
  0
ENDTAB
  0
TABLE
  2
LAYER
 70
     2
  0
LAYER
  2
0
 70
     0
 62
     7
  6
CONTINUOUS
  0
LAYER
  2
1
 70
     0
 62
     7
  6
CONTINUOUS
  0
ENDTAB
  0
TABLE
  2
STYLE
 70
     2
  0
STYLE
  2
STANDARD
 70
     0
 40
0.0
 41
1.0
 50
0.0
 71
     0
 42
0.2
  3
txt
  4

  0
STYLE
  2
ＭＳ_ゴシック
 70
     0
 40
0.0
 41
1.0
 50
0.0
 71
     0
 42
0.2
  3
ＭＳ ゴシック.shx
  4

  0
ENDTAB
  0
TABLE
  2
VIEW
 70
     0
  0
ENDTAB
  0
TABLE
  2
UCS
 70
     0
  0
ENDTAB
  0
ENDSEC
  0
SECTION
  2
BLOCKS
  0
ENDSEC
  0
SECTION
  2
ENTITIES
  0
TEXT
  5
70
  8
1
  6
CONTINUOUS
 62
     7
 10
-128.2931880705264
 20
-1268.056818181818
 30
0.0
 40
5.0
  1
ＳＢ－Ｋ２ＹＳＡ－Ｎ
  0
LINE
  5
71
  8
0
  6
CENTER
 62
     1
 10
-158.0347555049936
 20
-1050.490732494295
 30
0.0
 11
-131.9601124360997
 21
-1050.490732494295
 31
0.0
  0
LINE
  5
73
  8
0
  6
CENTER
 62
     1
 10
-144.9974339705466
 20
-1063.528054028742
 30
0.0
 11
-144.9974339705466
 21
-1037.453410959848
 31
0.0
  0
LINE
  5
74
  8
0
  6
CENTER
 62
     1
 10
-266.9999999999999
 20
-1180.0
 30
0.0
 11
-67.99999999999994
 21
-1180.0
 31
0.0
  0
LINE
  5
75
  8
0
  6
CENTER
 62
     1
 10
-167.4999999999999
 20
-1090.0
 30
0.0
 11
-167.4999999999999
 21
-1020.0
 31
0.0
  0
LINE
  5
76
  8
0
  6
CENTER
 62
     1
 10
-167.4999999999999
 20
-1246.5
 30
0.0
 11
-167.4999999999999
 21
-1113.5
 31
0.0
  0
LINE
  5
77
  8
0
  6
CENTER
 62
     1
 10
-32.49999999999991
 20
-1180.0
 30
0.0
 11
37.50000000000009
 21
-1180.0
 31
0.0
  0
LINE
  5
78
  8
1
  6
CONTINUOUS
 62
     7
 10
-230.4999999999999
 20
-1145.5
 30
0.0
 11
-104.4999999999999
 21
-1145.5
 31
0.0
  0
LINE
  5
79
  8
1
  6
CONTINUOUS
 62
   253
 10
-234.9999999999999
 20
-1209.893412148758
 30
0.0
 11
-234.9135337618144
 21
-1210.776159648755
 31
0.0
  0
LINE
  5
7A
  8
1
  6
CONTINUOUS
 62
   253
 10
-234.9135337618144
 20
-1210.776159648755
 30
0.0
 11
-234.6574578963007
 21
-1211.624983657378
 31
0.0
  0
LINE
  5
7B
  8
1
  6
CONTINUOUS
 62
   253
 10
-234.6574578963007
 20
-1211.624983657378
 30
0.0
 11
-234.2416132553614
 21
-1212.407264344001
 31
0.0
  0
LINE
  5
7C
  8
1
  6
CONTINUOUS
 62
   253
 10
-234.2416132553614
 20
-1212.407264344001
 30
0.0
 11
-233.6819805153394
 21
-1213.092939100545
 31
0.0
  0
LINE
  5
7D
  8
1
  6
CONTINUOUS
 62
   253
 10
-233.6819805153394
 20
-1213.092939100545
 30
0.0
 11
-233.0000660485881
 21
-1213.655657830648
 31
0.0
  0
LINE
  5
7E
  8
1
  6
CONTINUOUS
 62
   253
 10
-233.0000660485881
 20
-1213.655657830648
 30
0.0
 11
-232.2220754456428
 21
-1214.073795569087
 31
0.0
  0
LINE
  5
7F
  8
1
  6
CONTINUOUS
 62
   253
 10
-232.2220754456428
 20
-1214.073795569087
 30
0.0
 11
-231.3779064490725
 21
-1214.331283517069
 31
0.0
  0
LINE
  5
80
  8
1
  6
CONTINUOUS
 62
   253
 10
-231.3779064490725
 20
-1214.331283517069
 30
0.0
 11
-230.4999999999999
 21
-1214.418226557154
 31
0.0
  0
ARC
  5
81
  8
1
  6
CONTINUOUS
 62
     7
 10
-230.4999999999999
 20
-1150.0
 30
0.0
 40
4.500000000000004
 50
90.0
 51
180.0
  0
LINE
  5
82
  8
1
  6
CONTINUOUS
 62
     7
 10
-234.9999999999999
 20
-1209.893412148758
 30
0.0
 11
-234.9999999999999
 21
-1150.0
 31
0.0
  0
LINE
  5
83
  8
1
  6
CONTINUOUS
 62
     7
 10
-87.99999999999993
 20
-1236.5
 30
0.0
 11
-246.9999999999999
 21
-1236.5
 31
0.0
  0
LINE
  5
84
  8
1
  6
CONTINUOUS
 62
     7
 10
-77.99999999999993
 20
-1133.5
 30
0.0
 11
-77.99999999999993
 21
-1226.5
 31
0.0
  0
LINE
  5
85
  8
1
  6
CONTINUOUS
 62
     7
 10
-246.9999999999999
 20
-1123.5
 30
0.0
 11
-87.99999999999997
 21
-1123.5
 31
0.0
  0
LINE
  5
86
  8
1
  6
CONTINUOUS
 62
     7
 10
-256.9999999999999
 20
-1226.5
 30
0.0
 11
-256.9999999999999
 21
-1133.5
 31
0.0
  0
ARC
  5
87
  8
1
  6
CONTINUOUS
 62
     7
 10
-246.9999999999999
 20
-1226.5
 30
0.0
 40
10.00000000000001
 50
180.0
 51
270.0
  0
ARC
  5
88
  8
1
  6
CONTINUOUS
 62
     7
 10
-87.99999999999993
 20
-1226.5
 30
0.0
 40
10.00000000000001
 50
270.0
 51
0.0
  0
ARC
  5
89
  8
1
  6
CONTINUOUS
 62
     7
 10
-87.99999999999994
 20
-1133.5
 30
0.0
 40
9.999999999999995
 50
0.0
 51
90.0
  0
ARC
  5
8A
  8
1
  6
CONTINUOUS
 62
     7
 10
-246.9999999999999
 20
-1133.5
 30
0.0
 40
10.00000000000001
 50
90.0
 51
180.0
  0
LINE
  5
8B
  8
1
  6
CONTINUOUS
 62
   253
 10
-104.4999999999999
 20
-1214.418226557154
 30
0.0
 11
-230.4999999999999
 21
-1214.418226557154
 31
0.0
  0
LINE
  5
8C
  8
1
  6
CONTINUOUS
 62
     7
 10
-99.9999999999999
 20
-1150.0
 30
0.0
 11
-99.9999999999999
 21
-1209.893412148758
 31
0.0
  0
LINE
  5
8D
  8
1
  6
CONTINUOUS
 62
   253
 10
-104.4999999999999
 20
-1214.418226557154
 30
0.0
 11
-103.6220935509273
 21
-1214.331283517069
 31
0.0
  0
LINE
  5
8E
  8
1
  6
CONTINUOUS
 62
   253
 10
-103.6220935509273
 20
-1214.331283517069
 30
0.0
 11
-102.777924554357
 21
-1214.073795569087
 31
0.0
  0
LINE
  5
8F
  8
1
  6
CONTINUOUS
 62
   253
 10
-102.777924554357
 20
-1214.073795569087
 30
0.0
 11
-101.9999339514117
 21
-1213.655657830648
 31
0.0
  0
LINE
  5
90
  8
1
  6
CONTINUOUS
 62
   253
 10
-101.9999339514117
 20
-1213.655657830648
 30
0.0
 11
-101.3180194846605
 21
-1213.092939100545
 31
0.0
  0
LINE
  5
91
  8
1
  6
CONTINUOUS
 62
   253
 10
-101.3180194846605
 20
-1213.092939100545
 30
0.0
 11
-100.7583867446385
 21
-1212.407264344001
 31
0.0
  0
LINE
  5
92
  8
1
  6
CONTINUOUS
 62
   253
 10
-100.7583867446385
 20
-1212.407264344001
 30
0.0
 11
-100.3425421036991
 21
-1211.624983657378
 31
0.0
  0
LINE
  5
93
  8
1
  6
CONTINUOUS
 62
   253
 10
-100.3425421036991
 20
-1211.624983657378
 30
0.0
 11
-100.0864662381854
 21
-1210.776159648755
 31
0.0
  0
LINE
  5
94
  8
1
  6
CONTINUOUS
 62
   253
 10
-100.0864662381854
 20
-1210.776159648755
 30
0.0
 11
-99.99999999999991
 21
-1209.893412148758
 31
0.0
  0
ARC
  5
95
  8
1
  6
CONTINUOUS
 62
     7
 10
-104.4999999999999
 20
-1150.0
 30
0.0
 40
4.499999999999948
 50
0.0
 51
90.0
  0
LINE
  5
96
  8
1
  6
CONTINUOUS
 62
     7
 10
-133.4638351368314
 20
-1145.744847162274
 30
0.0
 11
-133.5989771677544
 21
-1145.713940305962
 31
0.0
  0
ARC
  5
97
  8
1
  6
CONTINUOUS
 62
     7
 10
-142.7492585091051
 20
-1376.037135568851
 30
0.0
 40
230.5048848175081
 50
87.72494932509484
 51
90.55937925981162
  0
LINE
  5
98
  8
1
  6
CONTINUOUS
 62
     7
 10
-178.4638351368313
 20
-1145.744847162274
 30
0.0
 11
-178.5989771676796
 21
-1145.713940305971
 31
0.0
  0
ARC
  5
99
  8
1
  6
CONTINUOUS
 62
     7
 10
-187.7492585088617
 20
-1376.037135545183
 30
0.0
 40
230.5048847938439
 50
87.72494932490311
 51
90.55937925993055
  0
LINE
  5
9A
  8
1
  6
CONTINUOUS
 62
     7
 10
-138.8682943787932
 20
-1163.86486821568
 30
0.0
 11
-138.9162300271239
 21
-1163.377446897942
 31
0.0
  0
LINE
  5
9B
  8
1
  6
CONTINUOUS
 62
     7
 10
-138.9162300271239
 20
-1163.377446897942
 30
0.0
 11
-139.0582012302841
 21
-1162.908954445621
 31
0.0
  0
LINE
  5
9C
  8
1
  6
CONTINUOUS
 62
     7
 10
-139.0582012302841
 20
-1162.908954445621
 30
0.0
 11
-139.2887710642806
 21
-1162.477332228505
 31
0.0
  0
LINE
  5
9D
  8
1
  6
CONTINUOUS
 62
     7
 10
-139.2887710642806
 20
-1162.477332228505
 30
0.0
 11
-139.5991096352004
 21
-1162.099109635201
 31
0.0
  0
LINE
  5
9E
  8
1
  6
CONTINUOUS
 62
     7
 10
-139.5991096352004
 20
-1162.099109635201
 30
0.0
 11
-139.9773322285047
 21
-1161.788771064281
 31
0.0
  0
LINE
  5
9F
  8
1
  6
CONTINUOUS
 62
     7
 10
-139.9773322285047
 20
-1161.788771064281
 30
0.0
 11
-140.4089544456213
 21
-1161.558201230284
 31
0.0
  0
LINE
  5
A0
  8
1
  6
CONTINUOUS
 62
     7
 10
-140.4089544456213
 20
-1161.558201230284
 30
0.0
 11
-140.8774468979413
 21
-1161.416230027124
 31
0.0
  0
LINE
  5
A1
  8
1
  6
CONTINUOUS
 62
     7
 10
-140.8774468979413
 20
-1161.416230027124
 30
0.0
 11
-141.3648682156798
 21
-1161.368294378794
 31
0.0
  0
LINE
  5
A2
  8
1
  6
CONTINUOUS
 62
     7
 10
-141.3648682156798
 20
-1168.631705621207
 30
0.0
 11
-140.8774468979413
 21
-1168.583769972876
 31
0.0
  0
LINE
  5
A3
  8
1
  6
CONTINUOUS
 62
     7
 10
-140.8774468979413
 20
-1168.583769972876
 30
0.0
 11
-140.4089544456213
 21
-1168.441798769716
 31
0.0
  0
LINE
  5
A4
  8
1
  6
CONTINUOUS
 62
     7
 10
-140.4089544456213
 20
-1168.441798769716
 30
0.0
 11
-139.9773322285047
 21
-1168.211228935719
 31
0.0
  0
LINE
  5
A5
  8
1
  6
CONTINUOUS
 62
     7
 10
-139.9773322285047
 20
-1168.211228935719
 30
0.0
 11
-139.5991096352004
 21
-1167.9008903648
 31
0.0
  0
LINE
  5
A6
  8
1
  6
CONTINUOUS
 62
     7
 10
-139.5991096352004
 20
-1167.9008903648
 30
0.0
 11
-139.2887710642806
 21
-1167.522667771495
 31
0.0
  0
LINE
  5
A7
  8
1
  6
CONTINUOUS
 62
     7
 10
-139.2887710642806
 20
-1167.522667771495
 30
0.0
 11
-139.0582012302841
 21
-1167.091045554379
 31
0.0
  0
LINE
  5
A8
  8
1
  6
CONTINUOUS
 62
     7
 10
-139.0582012302841
 20
-1167.091045554379
 30
0.0
 11
-138.9162300271239
 21
-1166.622553102059
 31
0.0
  0
LINE
  5
A9
  8
1
  6
CONTINUOUS
 62
     7
 10
-138.9162300271239
 20
-1166.622553102059
 30
0.0
 11
-138.8682943787933
 21
-1166.13513178432
 31
0.0
  0
LINE
  5
AA
  8
1
  6
CONTINUOUS
 62
     7
 10
-193.63513178432
 20
-1161.368294378794
 30
0.0
 11
-194.1225531020585
 21
-1161.416230027124
 31
0.0
  0
LINE
  5
AB
  8
1
  6
CONTINUOUS
 62
     7
 10
-194.1225531020585
 20
-1161.416230027124
 30
0.0
 11
-194.5910455543785
 21
-1161.558201230285
 31
0.0
  0
LINE
  5
AC
  8
1
  6
CONTINUOUS
 62
     7
 10
-194.5910455543785
 20
-1161.558201230285
 30
0.0
 11
-195.0226677714951
 21
-1161.788771064281
 31
0.0
  0
LINE
  5
AD
  8
1
  6
CONTINUOUS
 62
     7
 10
-195.0226677714951
 20
-1161.788771064281
 30
0.0
 11
-195.4008903647994
 21
-1162.099109635201
 31
0.0
  0
LINE
  5
AE
  8
1
  6
CONTINUOUS
 62
     7
 10
-195.4008903647994
 20
-1162.099109635201
 30
0.0
 11
-195.7112289357192
 21
-1162.477332228505
 31
0.0
  0
LINE
  5
AF
  8
1
  6
CONTINUOUS
 62
     7
 10
-195.7112289357192
 20
-1162.477332228505
 30
0.0
 11
-195.9417987697157
 21
-1162.908954445621
 31
0.0
  0
LINE
  5
B0
  8
1
  6
CONTINUOUS
 62
     7
 10
-195.9417987697157
 20
-1162.908954445621
 30
0.0
 11
-196.0837699728759
 21
-1163.377446897942
 31
0.0
  0
LINE
  5
B1
  8
1
  6
CONTINUOUS
 62
     7
 10
-196.0837699728759
 20
-1163.377446897942
 30
0.0
 11
-196.1317056212066
 21
-1163.86486821568
 31
0.0
  0
LINE
  5
B2
  8
1
  6
CONTINUOUS
 62
     7
 10
-141.3648682156798
 20
-1183.631705621207
 30
0.0
 11
-140.8774468979414
 21
-1183.583769972876
 31
0.0
  0
LINE
  5
B3
  8
1
  6
CONTINUOUS
 62
     7
 10
-140.8774468979414
 20
-1183.583769972876
 30
0.0
 11
-140.4089544456214
 21
-1183.441798769716
 31
0.0
  0
LINE
  5
B4
  8
1
  6
CONTINUOUS
 62
     7
 10
-140.4089544456214
 20
-1183.441798769716
 30
0.0
 11
-139.9773322285048
 21
-1183.211228935719
 31
0.0
  0
LINE
  5
B5
  8
1
  6
CONTINUOUS
 62
     7
 10
-139.9773322285048
 20
-1183.211228935719
 30
0.0
 11
-139.5991096352005
 21
-1182.9008903648
 31
0.0
  0
LINE
  5
B6
  8
1
  6
CONTINUOUS
 62
     7
 10
-139.5991096352005
 20
-1182.9008903648
 30
0.0
 11
-139.2887710642808
 21
-1182.522667771495
 31
0.0
  0
LINE
  5
B7
  8
1
  6
CONTINUOUS
 62
     7
 10
-139.2887710642808
 20
-1182.522667771495
 30
0.0
 11
-139.0582012302843
 21
-1182.091045554379
 31
0.0
  0
LINE
  5
B8
  8
1
  6
CONTINUOUS
 62
     7
 10
-139.0582012302843
 20
-1182.091045554379
 30
0.0
 11
-138.9162300271241
 21
-1181.622553102059
 31
0.0
  0
LINE
  5
B9
  8
1
  6
CONTINUOUS
 62
     7
 10
-138.9162300271241
 20
-1181.622553102059
 30
0.0
 11
-138.8682943787934
 21
-1181.13513178432
 31
0.0
  0
LINE
  5
BA
  8
1
  6
CONTINUOUS
 62
     7
 10
-149.1317056212066
 20
-1166.13513178432
 30
0.0
 11
-149.0837699728759
 21
-1166.622553102059
 31
0.0
  0
LINE
  5
BB
  8
1
  6
CONTINUOUS
 62
     7
 10
-149.0837699728759
 20
-1166.622553102059
 30
0.0
 11
-148.9417987697157
 21
-1167.091045554379
 31
0.0
  0
LINE
  5
BC
  8
1
  6
CONTINUOUS
 62
     7
 10
-148.9417987697157
 20
-1167.091045554379
 30
0.0
 11
-148.7112289357192
 21
-1167.522667771495
 31
0.0
  0
LINE
  5
BD
  8
1
  6
CONTINUOUS
 62
     7
 10
-148.7112289357192
 20
-1167.522667771495
 30
0.0
 11
-148.4008903647994
 21
-1167.9008903648
 31
0.0
  0
LINE
  5
BE
  8
1
  6
CONTINUOUS
 62
     7
 10
-148.4008903647994
 20
-1167.9008903648
 30
0.0
 11
-148.0226677714951
 21
-1168.211228935719
 31
0.0
  0
LINE
  5
BF
  8
1
  6
CONTINUOUS
 62
     7
 10
-148.0226677714951
 20
-1168.211228935719
 30
0.0
 11
-147.5910455543785
 21
-1168.441798769716
 31
0.0
  0
LINE
  5
C0
  8
1
  6
CONTINUOUS
 62
     7
 10
-147.5910455543785
 20
-1168.441798769716
 30
0.0
 11
-147.1225531020585
 21
-1168.583769972876
 31
0.0
  0
LINE
  5
C1
  8
1
  6
CONTINUOUS
 62
     7
 10
-147.1225531020585
 20
-1168.583769972876
 30
0.0
 11
-146.63513178432
 21
-1168.631705621207
 31
0.0
  0
LINE
  5
C2
  8
1
  6
CONTINUOUS
 62
     7
 10
-146.63513178432
 20
-1176.368294378794
 30
0.0
 11
-147.1225531020585
 21
-1176.416230027124
 31
0.0
  0
LINE
  5
C3
  8
1
  6
CONTINUOUS
 62
     7
 10
-147.1225531020585
 20
-1176.416230027124
 30
0.0
 11
-147.5910455543785
 21
-1176.558201230285
 31
0.0
  0
LINE
  5
C4
  8
1
  6
CONTINUOUS
 62
     7
 10
-147.5910455543785
 20
-1176.558201230285
 30
0.0
 11
-148.022667771495
 21
-1176.788771064281
 31
0.0
  0
LINE
  5
C5
  8
1
  6
CONTINUOUS
 62
     7
 10
-148.022667771495
 20
-1176.788771064281
 30
0.0
 11
-148.4008903647993
 21
-1177.099109635201
 31
0.0
  0
LINE
  5
C6
  8
1
  6
CONTINUOUS
 62
     7
 10
-148.4008903647993
 20
-1177.099109635201
 30
0.0
 11
-148.7112289357191
 21
-1177.477332228505
 31
0.0
  0
LINE
  5
C7
  8
1
  6
CONTINUOUS
 62
     7
 10
-148.7112289357191
 20
-1177.477332228505
 30
0.0
 11
-148.9417987697155
 21
-1177.908954445622
 31
0.0
  0
LINE
  5
C8
  8
1
  6
CONTINUOUS
 62
     7
 10
-148.9417987697155
 20
-1177.908954445622
 30
0.0
 11
-149.0837699728758
 21
-1178.377446897942
 31
0.0
  0
LINE
  5
C9
  8
1
  6
CONTINUOUS
 62
     7
 10
-149.0837699728758
 20
-1178.377446897942
 30
0.0
 11
-149.1317056212064
 21
-1178.86486821568
 31
0.0
  0
LINE
  5
CA
  8
1
  6
CONTINUOUS
 62
     7
 10
-138.8682943787934
 20
-1178.86486821568
 30
0.0
 11
-138.9162300271241
 21
-1178.377446897942
 31
0.0
  0
LINE
  5
CB
  8
1
  6
CONTINUOUS
 62
     7
 10
-138.9162300271241
 20
-1178.377446897942
 30
0.0
 11
-139.0582012302843
 21
-1177.908954445622
 31
0.0
  0
LINE
  5
CC
  8
1
  6
CONTINUOUS
 62
     7
 10
-139.0582012302843
 20
-1177.908954445622
 30
0.0
 11
-139.2887710642808
 21
-1177.477332228505
 31
0.0
  0
LINE
  5
CD
  8
1
  6
CONTINUOUS
 62
     7
 10
-139.2887710642808
 20
-1177.477332228505
 30
0.0
 11
-139.5991096352005
 21
-1177.099109635201
 31
0.0
  0
LINE
  5
CE
  8
1
  6
CONTINUOUS
 62
     7
 10
-139.5991096352005
 20
-1177.099109635201
 30
0.0
 11
-139.9773322285048
 21
-1176.788771064281
 31
0.0
  0
LINE
  5
CF
  8
1
  6
CONTINUOUS
 62
     7
 10
-139.9773322285048
 20
-1176.788771064281
 30
0.0
 11
-140.4089544456214
 21
-1176.558201230285
 31
0.0
  0
LINE
  5
D0
  8
1
  6
CONTINUOUS
 62
     7
 10
-140.4089544456214
 20
-1176.558201230285
 30
0.0
 11
-140.8774468979413
 21
-1176.416230027124
 31
0.0
  0
LINE
  5
D1
  8
1
  6
CONTINUOUS
 62
     7
 10
-140.8774468979413
 20
-1176.416230027124
 30
0.0
 11
-141.3648682156798
 21
-1176.368294378794
 31
0.0
  0
LINE
  5
D2
  8
1
  6
CONTINUOUS
 62
     7
 10
-196.1317056212064
 20
-1181.13513178432
 30
0.0
 11
-196.0837699728758
 21
-1181.622553102059
 31
0.0
  0
LINE
  5
D3
  8
1
  6
CONTINUOUS
 62
     7
 10
-196.0837699728758
 20
-1181.622553102059
 30
0.0
 11
-195.9417987697155
 21
-1182.091045554379
 31
0.0
  0
LINE
  5
D4
  8
1
  6
CONTINUOUS
 62
     7
 10
-195.9417987697155
 20
-1182.091045554379
 30
0.0
 11
-195.7112289357191
 21
-1182.522667771495
 31
0.0
  0
LINE
  5
D5
  8
1
  6
CONTINUOUS
 62
     7
 10
-195.7112289357191
 20
-1182.522667771495
 30
0.0
 11
-195.4008903647993
 21
-1182.9008903648
 31
0.0
  0
LINE
  5
D6
  8
1
  6
CONTINUOUS
 62
     7
 10
-195.4008903647993
 20
-1182.9008903648
 30
0.0
 11
-195.022667771495
 21
-1183.211228935719
 31
0.0
  0
LINE
  5
D7
  8
1
  6
CONTINUOUS
 62
     7
 10
-195.022667771495
 20
-1183.211228935719
 30
0.0
 11
-194.5910455543784
 21
-1183.441798769716
 31
0.0
  0
LINE
  5
D8
  8
1
  6
CONTINUOUS
 62
     7
 10
-194.5910455543784
 20
-1183.441798769716
 30
0.0
 11
-194.1225531020585
 21
-1183.583769972876
 31
0.0
  0
LINE
  5
D9
  8
1
  6
CONTINUOUS
 62
     7
 10
-194.1225531020585
 20
-1183.583769972876
 30
0.0
 11
-193.63513178432
 21
-1183.631705621207
 31
0.0
  0
LINE
  5
DA
  8
1
  6
CONTINUOUS
 62
     7
 10
-146.6351317843201
 20
-1161.368294378794
 30
0.0
 11
-147.1225531020585
 21
-1161.416230027124
 31
0.0
  0
LINE
  5
DB
  8
1
  6
CONTINUOUS
 62
     7
 10
-147.1225531020585
 20
-1161.416230027124
 30
0.0
 11
-147.5910455543786
 21
-1161.558201230285
 31
0.0
  0
LINE
  5
DC
  8
1
  6
CONTINUOUS
 62
     7
 10
-147.5910455543786
 20
-1161.558201230285
 30
0.0
 11
-148.0226677714951
 21
-1161.788771064281
 31
0.0
  0
LINE
  5
DD
  8
1
  6
CONTINUOUS
 62
     7
 10
-148.0226677714951
 20
-1161.788771064281
 30
0.0
 11
-148.4008903647994
 21
-1162.099109635201
 31
0.0
  0
LINE
  5
DE
  8
1
  6
CONTINUOUS
 62
     7
 10
-148.4008903647994
 20
-1162.099109635201
 30
0.0
 11
-148.7112289357192
 21
-1162.477332228505
 31
0.0
  0
LINE
  5
DF
  8
1
  6
CONTINUOUS
 62
     7
 10
-148.7112289357192
 20
-1162.477332228505
 30
0.0
 11
-148.9417987697157
 21
-1162.908954445621
 31
0.0
  0
LINE
  5
E0
  8
1
  6
CONTINUOUS
 62
     7
 10
-148.9417987697157
 20
-1162.908954445621
 30
0.0
 11
-149.0837699728759
 21
-1163.377446897942
 31
0.0
  0
LINE
  5
E1
  8
1
  6
CONTINUOUS
 62
     7
 10
-149.0837699728759
 20
-1163.377446897942
 30
0.0
 11
-149.1317056212066
 21
-1163.86486821568
 31
0.0
  0
LINE
  5
E2
  8
1
  6
CONTINUOUS
 62
     7
 10
-196.1317056212066
 20
-1166.13513178432
 30
0.0
 11
-196.0837699728759
 21
-1166.622553102059
 31
0.0
  0
LINE
  5
E3
  8
1
  6
CONTINUOUS
 62
     7
 10
-196.0837699728759
 20
-1166.622553102059
 30
0.0
 11
-195.9417987697157
 21
-1167.091045554379
 31
0.0
  0
LINE
  5
E4
  8
1
  6
CONTINUOUS
 62
     7
 10
-195.9417987697157
 20
-1167.091045554379
 30
0.0
 11
-195.7112289357192
 21
-1167.522667771495
 31
0.0
  0
LINE
  5
E5
  8
1
  6
CONTINUOUS
 62
     7
 10
-195.7112289357192
 20
-1167.522667771495
 30
0.0
 11
-195.4008903647994
 21
-1167.9008903648
 31
0.0
  0
LINE
  5
E6
  8
1
  6
CONTINUOUS
 62
     7
 10
-195.4008903647994
 20
-1167.9008903648
 30
0.0
 11
-195.0226677714951
 21
-1168.211228935719
 31
0.0
  0
LINE
  5
E7
  8
1
  6
CONTINUOUS
 62
     7
 10
-195.0226677714951
 20
-1168.211228935719
 30
0.0
 11
-194.5910455543785
 21
-1168.441798769716
 31
0.0
  0
LINE
  5
E8
  8
1
  6
CONTINUOUS
 62
     7
 10
-194.5910455543785
 20
-1168.441798769716
 30
0.0
 11
-194.1225531020585
 21
-1168.583769972876
 31
0.0
  0
LINE
  5
E9
  8
1
  6
CONTINUOUS
 62
     7
 10
-194.1225531020585
 20
-1168.583769972876
 30
0.0
 11
-193.63513178432
 21
-1168.631705621207
 31
0.0
  0
LINE
  5
EA
  8
1
  6
CONTINUOUS
 62
     7
 10
-185.8682943787933
 20
-1163.86486821568
 30
0.0
 11
-185.9162300271239
 21
-1163.377446897942
 31
0.0
  0
LINE
  5
EB
  8
1
  6
CONTINUOUS
 62
     7
 10
-185.9162300271239
 20
-1163.377446897942
 30
0.0
 11
-186.0582012302842
 21
-1162.908954445621
 31
0.0
  0
LINE
  5
EC
  8
1
  6
CONTINUOUS
 62
     7
 10
-186.0582012302842
 20
-1162.908954445621
 30
0.0
 11
-186.2887710642807
 21
-1162.477332228505
 31
0.0
  0
LINE
  5
ED
  8
1
  6
CONTINUOUS
 62
     7
 10
-186.2887710642807
 20
-1162.477332228505
 30
0.0
 11
-186.5991096352004
 21
-1162.099109635201
 31
0.0
  0
LINE
  5
EE
  8
1
  6
CONTINUOUS
 62
     7
 10
-186.5991096352004
 20
-1162.099109635201
 30
0.0
 11
-186.9773322285048
 21
-1161.788771064281
 31
0.0
  0
LINE
  5
EF
  8
1
  6
CONTINUOUS
 62
     7
 10
-186.9773322285048
 20
-1161.788771064281
 30
0.0
 11
-187.4089544456214
 21
-1161.558201230284
 31
0.0
  0
LINE
  5
F0
  8
1
  6
CONTINUOUS
 62
     7
 10
-187.4089544456214
 20
-1161.558201230284
 30
0.0
 11
-187.8774468979413
 21
-1161.416230027124
 31
0.0
  0
LINE
  5
F1
  8
1
  6
CONTINUOUS
 62
     7
 10
-187.8774468979413
 20
-1161.416230027124
 30
0.0
 11
-188.3648682156798
 21
-1161.368294378794
 31
0.0
  0
LINE
  5
F2
  8
1
  6
CONTINUOUS
 62
     7
 10
-188.3648682156798
 20
-1183.631705621207
 30
0.0
 11
-187.8774468979414
 21
-1183.583769972876
 31
0.0
  0
LINE
  5
F3
  8
1
  6
CONTINUOUS
 62
     7
 10
-187.8774468979414
 20
-1183.583769972876
 30
0.0
 11
-187.4089544456214
 21
-1183.441798769716
 31
0.0
  0
LINE
  5
F4
  8
1
  6
CONTINUOUS
 62
     7
 10
-187.4089544456214
 20
-1183.441798769716
 30
0.0
 11
-186.9773322285048
 21
-1183.211228935719
 31
0.0
  0
LINE
  5
F5
  8
1
  6
CONTINUOUS
 62
     7
 10
-186.9773322285048
 20
-1183.211228935719
 30
0.0
 11
-186.5991096352005
 21
-1182.9008903648
 31
0.0
  0
LINE
  5
F6
  8
1
  6
CONTINUOUS
 62
     7
 10
-186.5991096352005
 20
-1182.9008903648
 30
0.0
 11
-186.2887710642808
 21
-1182.522667771495
 31
0.0
  0
LINE
  5
F7
  8
1
  6
CONTINUOUS
 62
     7
 10
-186.2887710642808
 20
-1182.522667771495
 30
0.0
 11
-186.0582012302843
 21
-1182.091045554379
 31
0.0
  0
LINE
  5
F8
  8
1
  6
CONTINUOUS
 62
     7
 10
-186.0582012302843
 20
-1182.091045554379
 30
0.0
 11
-185.9162300271241
 21
-1181.622553102059
 31
0.0
  0
LINE
  5
F9
  8
1
  6
CONTINUOUS
 62
     7
 10
-185.9162300271241
 20
-1181.622553102059
 30
0.0
 11
-185.8682943787934
 21
-1181.13513178432
 31
0.0
  0
LINE
  5
FA
  8
1
  6
CONTINUOUS
 62
     7
 10
-193.63513178432
 20
-1176.368294378794
 30
0.0
 11
-194.1225531020585
 21
-1176.416230027124
 31
0.0
  0
LINE
  5
FB
  8
1
  6
CONTINUOUS
 62
     7
 10
-194.1225531020585
 20
-1176.416230027124
 30
0.0
 11
-194.5910455543784
 21
-1176.558201230285
 31
0.0
  0
LINE
  5
FC
  8
1
  6
CONTINUOUS
 62
     7
 10
-194.5910455543784
 20
-1176.558201230285
 30
0.0
 11
-195.022667771495
 21
-1176.788771064281
 31
0.0
  0
LINE
  5
FD
  8
1
  6
CONTINUOUS
 62
     7
 10
-195.022667771495
 20
-1176.788771064281
 30
0.0
 11
-195.4008903647993
 21
-1177.099109635201
 31
0.0
  0
LINE
  5
FE
  8
1
  6
CONTINUOUS
 62
     7
 10
-195.4008903647993
 20
-1177.099109635201
 30
0.0
 11
-195.7112289357191
 21
-1177.477332228505
 31
0.0
  0
LINE
  5
FF
  8
1
  6
CONTINUOUS
 62
     7
 10
-195.7112289357191
 20
-1177.477332228505
 30
0.0
 11
-195.9417987697155
 21
-1177.908954445622
 31
0.0
  0
LINE
  5
100
  8
1
  6
CONTINUOUS
 62
     7
 10
-195.9417987697155
 20
-1177.908954445622
 30
0.0
 11
-196.0837699728758
 21
-1178.377446897942
 31
0.0
  0
LINE
  5
101
  8
1
  6
CONTINUOUS
 62
     7
 10
-196.0837699728758
 20
-1178.377446897942
 30
0.0
 11
-196.1317056212064
 21
-1178.86486821568
 31
0.0
  0
LINE
  5
102
  8
1
  6
CONTINUOUS
 62
     7
 10
-185.8682943787934
 20
-1178.86486821568
 30
0.0
 11
-185.9162300271241
 21
-1178.377446897942
 31
0.0
  0
LINE
  5
103
  8
1
  6
CONTINUOUS
 62
     7
 10
-185.9162300271241
 20
-1178.377446897942
 30
0.0
 11
-186.0582012302843
 21
-1177.908954445622
 31
0.0
  0
LINE
  5
104
  8
1
  6
CONTINUOUS
 62
     7
 10
-186.0582012302843
 20
-1177.908954445622
 30
0.0
 11
-186.2887710642808
 21
-1177.477332228505
 31
0.0
  0
LINE
  5
105
  8
1
  6
CONTINUOUS
 62
     7
 10
-186.2887710642808
 20
-1177.477332228505
 30
0.0
 11
-186.5991096352006
 21
-1177.099109635201
 31
0.0
  0
LINE
  5
106
  8
1
  6
CONTINUOUS
 62
     7
 10
-186.5991096352006
 20
-1177.099109635201
 30
0.0
 11
-186.9773322285049
 21
-1176.788771064281
 31
0.0
  0
LINE
  5
107
  8
1
  6
CONTINUOUS
 62
     7
 10
-186.9773322285049
 20
-1176.788771064281
 30
0.0
 11
-187.4089544456214
 21
-1176.558201230285
 31
0.0
  0
LINE
  5
108
  8
1
  6
CONTINUOUS
 62
     7
 10
-187.4089544456214
 20
-1176.558201230285
 30
0.0
 11
-187.8774468979414
 21
-1176.416230027124
 31
0.0
  0
LINE
  5
109
  8
1
  6
CONTINUOUS
 62
     7
 10
-187.8774468979414
 20
-1176.416230027124
 30
0.0
 11
-188.3648682156798
 21
-1176.368294378794
 31
0.0
  0
LINE
  5
10A
  8
1
  6
CONTINUOUS
 62
     7
 10
-149.1317056212064
 20
-1181.13513178432
 30
0.0
 11
-149.0837699728758
 21
-1181.622553102059
 31
0.0
  0
LINE
  5
10B
  8
1
  6
CONTINUOUS
 62
     7
 10
-149.0837699728758
 20
-1181.622553102059
 30
0.0
 11
-148.9417987697155
 21
-1182.091045554379
 31
0.0
  0
LINE
  5
10C
  8
1
  6
CONTINUOUS
 62
     7
 10
-148.9417987697155
 20
-1182.091045554379
 30
0.0
 11
-148.7112289357191
 21
-1182.522667771495
 31
0.0
  0
LINE
  5
10D
  8
1
  6
CONTINUOUS
 62
     7
 10
-148.7112289357191
 20
-1182.522667771495
 30
0.0
 11
-148.4008903647993
 21
-1182.9008903648
 31
0.0
  0
LINE
  5
10E
  8
1
  6
CONTINUOUS
 62
     7
 10
-148.4008903647993
 20
-1182.9008903648
 30
0.0
 11
-148.022667771495
 21
-1183.211228935719
 31
0.0
  0
LINE
  5
10F
  8
1
  6
CONTINUOUS
 62
     7
 10
-148.022667771495
 20
-1183.211228935719
 30
0.0
 11
-147.5910455543785
 21
-1183.441798769716
 31
0.0
  0
LINE
  5
110
  8
1
  6
CONTINUOUS
 62
     7
 10
-147.5910455543785
 20
-1183.441798769716
 30
0.0
 11
-147.1225531020585
 21
-1183.583769972876
 31
0.0
  0
LINE
  5
111
  8
1
  6
CONTINUOUS
 62
     7
 10
-147.1225531020585
 20
-1183.583769972876
 30
0.0
 11
-146.63513178432
 21
-1183.631705621207
 31
0.0
  0
LINE
  5
112
  8
1
  6
CONTINUOUS
 62
     7
 10
-188.3648682156798
 20
-1168.631705621207
 30
0.0
 11
-187.8774468979413
 21
-1168.583769972876
 31
0.0
  0
LINE
  5
113
  8
1
  6
CONTINUOUS
 62
     7
 10
-187.8774468979413
 20
-1168.583769972876
 30
0.0
 11
-187.4089544456213
 21
-1168.441798769716
 31
0.0
  0
LINE
  5
114
  8
1
  6
CONTINUOUS
 62
     7
 10
-187.4089544456213
 20
-1168.441798769716
 30
0.0
 11
-186.9773322285048
 21
-1168.211228935719
 31
0.0
  0
LINE
  5
115
  8
1
  6
CONTINUOUS
 62
     7
 10
-186.9773322285048
 20
-1168.211228935719
 30
0.0
 11
-186.5991096352004
 21
-1167.9008903648
 31
0.0
  0
LINE
  5
116
  8
1
  6
CONTINUOUS
 62
     7
 10
-186.5991096352004
 20
-1167.9008903648
 30
0.0
 11
-186.2887710642807
 21
-1167.522667771495
 31
0.0
  0
LINE
  5
117
  8
1
  6
CONTINUOUS
 62
     7
 10
-186.2887710642807
 20
-1167.522667771495
 30
0.0
 11
-186.0582012302842
 21
-1167.091045554379
 31
0.0
  0
LINE
  5
118
  8
1
  6
CONTINUOUS
 62
     7
 10
-186.0582012302842
 20
-1167.091045554379
 30
0.0
 11
-185.9162300271239
 21
-1166.622553102059
 31
0.0
  0
LINE
  5
119
  8
1
  6
CONTINUOUS
 62
     7
 10
-185.9162300271239
 20
-1166.622553102059
 30
0.0
 11
-185.8682943787933
 21
-1166.13513178432
 31
0.0
  0
LINE
  5
11A
  8
1
  6
CONTINUOUS
 62
     7
 10
-185.8682943787934
 20
-1163.86486821568
 30
0.0
 11
-185.8682943787934
 21
-1166.13513178432
 31
0.0
  0
LINE
  5
11B
  8
1
  6
CONTINUOUS
 62
     7
 10
-188.3648682156798
 20
-1161.368294378794
 30
0.0
 11
-193.6351317843201
 21
-1161.368294378794
 31
0.0
  0
LINE
  5
11C
  8
1
  6
CONTINUOUS
 62
     7
 10
-141.3648682156798
 20
-1168.631705621207
 30
0.0
 11
-146.6351317843201
 21
-1168.631705621207
 31
0.0
  0
LINE
  5
11D
  8
1
  6
CONTINUOUS
 62
     7
 10
-196.1317056212065
 20
-1163.86486821568
 30
0.0
 11
-196.1317056212065
 21
-1166.13513178432
 31
0.0
  0
LINE
  5
11E
  8
1
  6
CONTINUOUS
 62
     7
 10
-149.1317056212065
 20
-1178.86486821568
 30
0.0
 11
-149.1317056212065
 21
-1181.13513178432
 31
0.0
  0
LINE
  5
11F
  8
1
  6
CONTINUOUS
 62
     7
 10
-138.8682943787934
 20
-1163.86486821568
 30
0.0
 11
-138.8682943787934
 21
-1166.13513178432
 31
0.0
  0
LINE
  5
120
  8
1
  6
CONTINUOUS
 62
     7
 10
-149.1317056212065
 20
-1163.86486821568
 30
0.0
 11
-149.1317056212065
 21
-1166.13513178432
 31
0.0
  0
LINE
  5
121
  8
1
  6
CONTINUOUS
 62
     7
 10
-141.3648682156798
 20
-1176.368294378794
 30
0.0
 11
-146.6351317843201
 21
-1176.368294378794
 31
0.0
  0
LINE
  5
122
  8
1
  6
CONTINUOUS
 62
     7
 10
-193.6351317843201
 20
-1183.631705621207
 30
0.0
 11
-188.3648682156798
 21
-1183.631705621207
 31
0.0
  0
LINE
  5
123
  8
1
  6
CONTINUOUS
 62
     7
 10
-141.3648682156798
 20
-1161.368294378794
 30
0.0
 11
-146.6351317843201
 21
-1161.368294378794
 31
0.0
  0
LINE
  5
124
  8
1
  6
CONTINUOUS
 62
     7
 10
-146.6351317843201
 20
-1183.631705621207
 30
0.0
 11
-141.3648682156798
 21
-1183.631705621207
 31
0.0
  0
LINE
  5
125
  8
1
  6
CONTINUOUS
 62
     7
 10
-188.3648682156798
 20
-1168.631705621207
 30
0.0
 11
-193.6351317843201
 21
-1168.631705621207
 31
0.0
  0
LINE
  5
126
  8
1
  6
CONTINUOUS
 62
     7
 10
-196.1317056212065
 20
-1178.86486821568
 30
0.0
 11
-196.1317056212065
 21
-1181.13513178432
 31
0.0
  0
LINE
  5
127
  8
1
  6
CONTINUOUS
 62
     7
 10
-138.8682943787934
 20
-1178.86486821568
 30
0.0
 11
-138.8682943787934
 21
-1181.13513178432
 31
0.0
  0
LINE
  5
128
  8
1
  6
CONTINUOUS
 62
     7
 10
-188.3648682156798
 20
-1176.368294378794
 30
0.0
 11
-193.6351317843201
 21
-1176.368294378794
 31
0.0
  0
LINE
  5
129
  8
1
  6
CONTINUOUS
 62
     7
 10
-185.8682943787934
 20
-1178.86486821568
 30
0.0
 11
-185.8682943787934
 21
-1181.13513178432
 31
0.0
  0
LINE
  5
12A
  8
1
  6
CONTINUOUS
 62
     7
 10
-22.49999999999993
 20
-1123.5
 30
0.0
 11
-21.99999999999994
 21
-1123.5
 31
0.0
  0
LINE
  5
12B
  8
1
  6
CONTINUOUS
 62
     7
 10
-21.99999999999994
 20
-1123.5
 30
0.0
 11
-21.99999999999994
 21
-1133.5
 31
0.0
  0
LINE
  5
12C
  8
1
  6
CONTINUOUS
 62
     7
 10
-22.49999999999993
 20
-1133.5
 30
0.0
 11
-22.49999999999993
 21
-1123.5
 31
0.0
  0
LINE
  5
12D
  8
1
  6
CONTINUOUS
 62
     7
 10
-21.99999999999994
 20
-1226.5
 30
0.0
 11
-21.99999999999994
 21
-1236.5
 31
0.0
  0
LINE
  5
12E
  8
1
  6
CONTINUOUS
 62
     7
 10
-21.99999999999994
 20
-1236.5
 30
0.0
 11
-22.49999999999993
 21
-1236.5
 31
0.0
  0
LINE
  5
12F
  8
1
  6
CONTINUOUS
 62
     7
 10
-22.49999999999993
 20
-1236.5
 30
0.0
 11
-22.49999999999993
 21
-1226.5
 31
0.0
  0
LINE
  5
130
  8
1
  6
CONTINUOUS
 62
     7
 10
-21.99999999999993
 20
-1133.5
 30
0.0
 11
-21.99999999999993
 21
-1226.5
 31
0.0
  0
LINE
  5
131
  8
1
  6
CONTINUOUS
 62
     7
 10
-22.49999999999993
 20
-1133.5
 30
0.0
 11
-22.49999999999993
 21
-1226.5
 31
0.0
  0
ARC
  5
132
  8
1
  6
CONTINUOUS
 62
     7
 10
-21.49999999999994
 20
-1215.414421255246
 30
0.0
 40
0.4999999999999503
 50
94.99999999999994
 51
180.0000000000008
  0
ARC
  5
133
  8
1
  6
CONTINUOUS
 62
     7
 10
-21.49999999999994
 20
-1144.5
 30
0.0
 40
0.5000000000000004
 50
180.0
 51
270.0000000000001
  0
LINE
  5
134
  8
1
  6
CONTINUOUS
 62
     7
 10
-6.99999999999987
 20
-1208.624826527632
 30
0.0
 11
-6.999668623699638
 21
-1208.632431974534
 31
0.0
  0
LINE
  5
135
  8
1
  6
CONTINUOUS
 62
     7
 10
-6.607855625215462
 20
-1213.609617528089
 30
0.0
 11
-21.54357787137376
 21
-1214.9163239062
 31
0.0
  0
LINE
  5
136
  8
1
  6
CONTINUOUS
 62
     7
 10
-21.49999999999994
 20
-1145.0
 30
0.0
 11
-6.999999999999923
 21
-1145.0
 31
0.0
  0
LINE
  5
137
  8
1
  6
CONTINUOUS
 62
     7
 10
-6.999999999999923
 20
-1145.0
 30
0.0
 11
22.58726203218649
 21
-1145.51644757982
 31
0.0
  0
LINE
  5
138
  8
1
  6
CONTINUOUS
 62
     7
 10
22.93577871373835
 20
-1211.024884444075
 30
0.0
 11
-6.607855625215465
 21
-1213.609617528089
 31
0.0
  0
ARC
  5
139
  8
1
  6
CONTINUOUS
 62
     7
 10
22.50000000000006
 20
-1150.515686055602
 30
0.0
 40
5.00000000000003
 50
0.0
 51
88.99999999999994
  0
ARC
  5
13A
  8
1
  6
CONTINUOUS
 62
     7
 10
22.50000000000006
 20
-1206.043910953617
 30
0.0
 40
4.999999999999997
 50
275.0
 51
0.0
  0
LINE
  5
13B
  8
1
  6
CONTINUOUS
 62
     7
 10
27.50000000000006
 20
-1150.515686055602
 30
0.0
 11
27.50000000000006
 21
-1206.043910953617
 31
0.0
  0
LINE
  5
13C
  8
1
  6
CONTINUOUS
 62
     7
 10
-256.9999999999999
 20
-1080.0
 30
0.0
 11
-256.9999999999999
 21
-1079.5
 31
0.0
  0
LINE
  5
13D
  8
1
  6
CONTINUOUS
 62
     7
 10
-256.9999999999999
 20
-1079.5
 30
0.0
 11
-246.9999999999999
 21
-1079.5
 31
0.0
  0
LINE
  5
13E
  8
1
  6
CONTINUOUS
 62
     7
 10
-246.9999999999999
 20
-1080.0
 30
0.0
 11
-256.9999999999999
 21
-1080.0
 31
0.0
  0
LINE
  5
13F
  8
1
  6
CONTINUOUS
 62
     7
 10
-77.99999999999993
 20
-1079.5
 30
0.0
 11
-77.99999999999993
 21
-1080.0
 31
0.0
  0
LINE
  5
140
  8
1
  6
CONTINUOUS
 62
     7
 10
-77.99999999999994
 20
-1080.0
 30
0.0
 11
-87.99999999999994
 21
-1080.0
 31
0.0
  0
LINE
  5
141
  8
1
  6
CONTINUOUS
 62
     7
 10
-87.99999999999994
 20
-1079.5
 30
0.0
 11
-77.99999999999994
 21
-1079.5
 31
0.0
  0
LINE
  5
142
  8
1
  6
CONTINUOUS
 62
     7
 10
-246.9999999999999
 20
-1080.0
 30
0.0
 11
-87.99999999999997
 21
-1080.0
 31
0.0
  0
LINE
  5
143
  8
1
  6
CONTINUOUS
 62
     7
 10
-246.9999999999999
 20
-1079.5
 30
0.0
 11
-87.99999999999997
 21
-1079.5
 31
0.0
  0
LINE
  5
144
  8
1
  6
CONTINUOUS
 62
     7
 10
-104.4992384757819
 20
-1064.5
 30
0.0
 11
-104.4999999999999
 21
-1064.5
 31
0.0
  0
CIRCLE
  5
145
  8
1
  6
CONTINUOUS
 62
   253
 10
-144.9974339705466
 20
-1050.490732494295
 30
0.0
 40
11.03732153444694
  0
CIRCLE
  5
146
  8
1
  6
CONTINUOUS
 62
   253
 10
-189.997433970548
 20
-1050.490732494293
 30
0.0
 40
11.03732153444893
  0
ARC
  5
147
  8
1
  6
CONTINUOUS
 62
     7
 10
-98.9999999999999
 20
-1079.0
 30
0.0
 40
0.4999999999999449
 50
180.0
 51
270.0
  0
ARC
  5
148
  8
1
  6
CONTINUOUS
 62
     7
 10
-235.9999999999999
 20
-1079.0
 30
0.0
 40
0.4999999999999449
 50
270.0
 51
0.0000000000000568
  0
LINE
  5
149
  8
1
  6
CONTINUOUS
 62
     7
 10
-99.4999999999999
 20
-1064.5
 30
0.0
 11
-99.4999999999999
 21
-1079.0
 31
0.0
  0
LINE
  5
14A
  8
1
  6
CONTINUOUS
 62
     7
 10
-235.4999999999999
 20
-1079.0
 30
0.0
 11
-235.4999999999999
 21
-1064.5
 31
0.0
  0
LINE
  5
14B
  8
1
  6
CONTINUOUS
 62
     7
 10
-100.0164475798199
 20
-1034.912737967814
 30
0.0
 11
-99.4999999999999
 21
-1064.5
 31
0.0
  0
LINE
  5
14C
  8
1
  6
CONTINUOUS
 62
     7
 10
-235.4999999999999
 20
-1064.5
 30
0.0
 11
-234.9835524201799
 21
-1034.912737967814
 31
0.0
  0
ARC
  5
14D
  8
1
  6
CONTINUOUS
 62
     7
 10
-105.0156860556019
 20
-1035.0
 30
0.0
 40
5.000000000000001
 50
1.000000000000082
 51
90.00000000000009
  0
LINE
  5
14E
  8
1
  6
CONTINUOUS
 62
     7
 10
-229.984313944398
 20
-1030.0
 30
0.0
 11
-105.0156860556019
 21
-1030.0
 31
0.0
  0
ARC
  5
14F
  8
1
  6
CONTINUOUS
 62
     7
 10
-229.984313944398
 20
-1035.0
 30
0.0
 40
5.000000000000001
 50
89.9999999999999
 51
178.9999999999999
  0
LINE
  5
150
  8
1
  6
CONTINUOUS
 62
   253
 10
-142.4412094309518
 20
-1053.554281612873
 30
0.0
 11
-142.0513015110895
 21
-1053.516173384554
 31
0.0
  0
LINE
  5
151
  8
1
  6
CONTINUOUS
 62
   253
 10
-142.0513015110895
 20
-1053.516173384554
 30
0.0
 11
-141.6766577859924
 21
-1053.402774558298
 31
0.0
  0
LINE
  5
152
  8
1
  6
CONTINUOUS
 62
   253
 10
-141.6766577859924
 20
-1053.402774558298
 30
0.0
 11
-141.3316089721415
 21
-1053.218422819004
 31
0.0
  0
LINE
  5
153
  8
1
  6
CONTINUOUS
 62
   253
 10
-141.3316089721415
 20
-1053.218422819004
 30
0.0
 11
-141.0293537337402
 21
-1052.970169912989
 31
0.0
  0
LINE
  5
154
  8
1
  6
CONTINUOUS
 62
   253
 10
-141.0293537337402
 20
-1052.970169912989
 30
0.0
 11
-140.7814538128819
 21
-1052.667511907511
 31
0.0
  0
LINE
  5
155
  8
1
  6
CONTINUOUS
 62
   253
 10
-140.7814538128819
 20
-1052.667511907511
 30
0.0
 11
-140.597391774584
 21
-1052.322025951144
 31
0.0
  0
LINE
  5
156
  8
1
  6
CONTINUOUS
 62
   253
 10
-140.597391774584
 20
-1052.322025951144
 30
0.0
 11
-140.4842082836409
 21
-1051.946927429485
 31
0.0
  0
LINE
  5
157
  8
1
  6
CONTINUOUS
 62
   253
 10
-140.4842082836409
 20
-1051.946927429485
 30
0.0
 11
-140.4462327880331
 21
-1051.556564455704
 31
0.0
  0
LINE
  5
158
  8
1
  6
CONTINUOUS
 62
   253
 10
-194.5537672119667
 20
-1051.556564455704
 30
0.0
 11
-194.515791716359
 21
-1051.946927429485
 31
0.0
  0
LINE
  5
159
  8
1
  6
CONTINUOUS
 62
   253
 10
-194.515791716359
 20
-1051.946927429485
 30
0.0
 11
-194.4026082254159
 21
-1052.322025951144
 31
0.0
  0
LINE
  5
15A
  8
1
  6
CONTINUOUS
 62
   253
 10
-194.4026082254159
 20
-1052.322025951144
 30
0.0
 11
-194.2185461871179
 21
-1052.667511907511
 31
0.0
  0
LINE
  5
15B
  8
1
  6
CONTINUOUS
 62
   253
 10
-194.2185461871179
 20
-1052.667511907511
 30
0.0
 11
-193.9706462662597
 21
-1052.970169912989
 31
0.0
  0
LINE
  5
15C
  8
1
  6
CONTINUOUS
 62
   253
 10
-193.9706462662597
 20
-1052.970169912989
 30
0.0
 11
-193.6683910278584
 21
-1053.218422819004
 31
0.0
  0
LINE
  5
15D
  8
1
  6
CONTINUOUS
 62
   253
 10
-193.6683910278584
 20
-1053.218422819004
 30
0.0
 11
-193.3233422140075
 21
-1053.402774558298
 31
0.0
  0
LINE
  5
15E
  8
1
  6
CONTINUOUS
 62
   253
 10
-193.3233422140075
 20
-1053.402774558298
 30
0.0
 11
-192.9486984889103
 21
-1053.516173384554
 31
0.0
  0
LINE
  5
15F
  8
1
  6
CONTINUOUS
 62
   253
 10
-192.9486984889103
 20
-1053.516173384554
 30
0.0
 11
-192.5587905690481
 21
-1053.554281612873
 31
0.0
  0
LINE
  5
160
  8
1
  6
CONTINUOUS
 62
   253
 10
-192.5587905690481
 20
-1053.554281612873
 30
0.0
 11
-187.4412094309518
 21
-1053.554281612873
 31
0.0
  0
LINE
  5
161
  8
1
  6
CONTINUOUS
 62
   253
 10
-147.5587905690481
 20
-1053.554281612873
 30
0.0
 11
-142.4412094309518
 21
-1053.554281612873
 31
0.0
  0
LINE
  5
162
  8
1
  6
CONTINUOUS
 62
   253
 10
-187.4412094309518
 20
-1053.554281612873
 30
0.0
 11
-187.0513015110895
 21
-1053.516173384554
 31
0.0
  0
LINE
  5
163
  8
1
  6
CONTINUOUS
 62
   253
 10
-187.0513015110895
 20
-1053.516173384554
 30
0.0
 11
-186.6766577859923
 21
-1053.402774558298
 31
0.0
  0
LINE
  5
164
  8
1
  6
CONTINUOUS
 62
   253
 10
-186.6766577859923
 20
-1053.402774558298
 30
0.0
 11
-186.3316089721414
 21
-1053.218422819004
 31
0.0
  0
LINE
  5
165
  8
1
  6
CONTINUOUS
 62
   253
 10
-186.3316089721414
 20
-1053.218422819004
 30
0.0
 11
-186.0293537337402
 21
-1052.970169912989
 31
0.0
  0
LINE
  5
166
  8
1
  6
CONTINUOUS
 62
   253
 10
-186.0293537337402
 20
-1052.970169912989
 30
0.0
 11
-185.7814538128819
 21
-1052.667511907511
 31
0.0
  0
LINE
  5
167
  8
1
  6
CONTINUOUS
 62
   253
 10
-185.7814538128819
 20
-1052.667511907511
 30
0.0
 11
-185.597391774584
 21
-1052.322025951144
 31
0.0
  0
LINE
  5
168
  8
1
  6
CONTINUOUS
 62
   253
 10
-185.597391774584
 20
-1052.322025951144
 30
0.0
 11
-185.4842082836409
 21
-1051.946927429485
 31
0.0
  0
LINE
  5
169
  8
1
  6
CONTINUOUS
 62
   253
 10
-185.4842082836409
 20
-1051.946927429485
 30
0.0
 11
-185.4462327880332
 21
-1051.556564455704
 31
0.0
  0
LINE
  5
16A
  8
1
  6
CONTINUOUS
 62
   253
 10
-149.5537672119667
 20
-1051.556564455704
 30
0.0
 11
-149.515791716359
 21
-1051.946927429485
 31
0.0
  0
LINE
  5
16B
  8
1
  6
CONTINUOUS
 62
   253
 10
-149.515791716359
 20
-1051.946927429485
 30
0.0
 11
-149.4026082254159
 21
-1052.322025951144
 31
0.0
  0
LINE
  5
16C
  8
1
  6
CONTINUOUS
 62
   253
 10
-149.4026082254159
 20
-1052.322025951144
 30
0.0
 11
-149.2185461871179
 21
-1052.667511907511
 31
0.0
  0
LINE
  5
16D
  8
1
  6
CONTINUOUS
 62
   253
 10
-149.2185461871179
 20
-1052.667511907511
 30
0.0
 11
-148.9706462662597
 21
-1052.970169912989
 31
0.0
  0
LINE
  5
16E
  8
1
  6
CONTINUOUS
 62
   253
 10
-148.9706462662597
 20
-1052.970169912989
 30
0.0
 11
-148.6683910278584
 21
-1053.218422819004
 31
0.0
  0
LINE
  5
16F
  8
1
  6
CONTINUOUS
 62
   253
 10
-148.6683910278584
 20
-1053.218422819004
 30
0.0
 11
-148.3233422140075
 21
-1053.402774558298
 31
0.0
  0
LINE
  5
170
  8
1
  6
CONTINUOUS
 62
   253
 10
-148.3233422140075
 20
-1053.402774558298
 30
0.0
 11
-147.9486984889103
 21
-1053.516173384554
 31
0.0
  0
LINE
  5
171
  8
1
  6
CONTINUOUS
 62
   253
 10
-147.9486984889103
 20
-1053.516173384554
 30
0.0
 11
-147.5587905690481
 21
-1053.554281612873
 31
0.0
  0
LINE
  5
172
  8
1
  6
CONTINUOUS
 62
   253
 10
-149.5537672119667
 20
-1049.425290740821
 30
0.0
 11
-149.5537672119667
 21
-1051.556564455704
 31
0.0
  0
LINE
  5
173
  8
1
  6
CONTINUOUS
 62
   253
 10
-194.5537672119667
 20
-1049.425290740821
 30
0.0
 11
-194.5537672119667
 21
-1051.556564455704
 31
0.0
  0
LINE
  5
174
  8
1
  6
CONTINUOUS
 62
   253
 10
-185.4462327880331
 20
-1051.556564455704
 30
0.0
 11
-185.4462327880331
 21
-1049.425290740821
 31
0.0
  0
LINE
  5
175
  8
1
  6
CONTINUOUS
 62
   253
 10
-140.4462327880331
 20
-1051.556564455704
 30
0.0
 11
-140.4462327880331
 21
-1049.425290740821
 31
0.0
  0
LINE
  5
176
  8
1
  6
CONTINUOUS
 62
   253
 10
-147.5565081424576
 20
-1047.428335863542
 30
0.0
 11
-147.9466852938576
 21
-1047.466358525708
 31
0.0
  0
LINE
  5
177
  8
1
  6
CONTINUOUS
 62
   253
 10
-147.9466852938576
 20
-1047.466358525708
 30
0.0
 11
-148.3216576388696
 21
-1047.57968043024
 31
0.0
  0
LINE
  5
178
  8
1
  6
CONTINUOUS
 62
   253
 10
-148.3216576388696
 20
-1047.57968043024
 30
0.0
 11
-148.6670652503106
 21
-1047.763961805635
 31
0.0
  0
LINE
  5
179
  8
1
  6
CONTINUOUS
 62
   253
 10
-148.6670652503106
 20
-1047.763961805635
 30
0.0
 11
-148.9696804109513
 21
-1048.012145419095
 31
0.0
  0
LINE
  5
17A
  8
1
  6
CONTINUOUS
 62
   253
 10
-148.9696804109513
 20
-1048.012145419095
 30
0.0
 11
-149.2179141816898
 21
-1048.314726840054
 31
0.0
  0
LINE
  5
17B
  8
1
  6
CONTINUOUS
 62
   253
 10
-149.2179141816898
 20
-1048.314726840054
 30
0.0
 11
-149.4022602111392
 21
-1048.660118421504
 31
0.0
  0
LINE
  5
17C
  8
1
  6
CONTINUOUS
 62
   253
 10
-149.4022602111392
 20
-1048.660118421504
 30
0.0
 11
-149.5156587905115
 21
-1049.035093060099
 31
0.0
  0
LINE
  5
17D
  8
1
  6
CONTINUOUS
 62
   253
 10
-149.5156587905115
 20
-1049.035093060099
 30
0.0
 11
-149.5537672119667
 21
-1049.425290740821
 31
0.0
  0
LINE
  5
17E
  8
1
  6
CONTINUOUS
 62
   253
 10
-140.4462327880331
 20
-1049.425290740821
 30
0.0
 11
-140.4843412094884
 21
-1049.035093060099
 31
0.0
  0
LINE
  5
17F
  8
1
  6
CONTINUOUS
 62
   253
 10
-140.4843412094884
 20
-1049.035093060099
 30
0.0
 11
-140.5977397888606
 21
-1048.660118421504
 31
0.0
  0
LINE
  5
180
  8
1
  6
CONTINUOUS
 62
   253
 10
-140.5977397888606
 20
-1048.660118421504
 30
0.0
 11
-140.78208581831
 21
-1048.314726840054
 31
0.0
  0
LINE
  5
181
  8
1
  6
CONTINUOUS
 62
   253
 10
-140.78208581831
 20
-1048.314726840054
 30
0.0
 11
-141.0303195890486
 21
-1048.012145419095
 31
0.0
  0
LINE
  5
182
  8
1
  6
CONTINUOUS
 62
   253
 10
-141.0303195890486
 20
-1048.012145419095
 30
0.0
 11
-141.3329347496893
 21
-1047.763961805635
 31
0.0
  0
LINE
  5
183
  8
1
  6
CONTINUOUS
 62
   253
 10
-141.3329347496893
 20
-1047.763961805635
 30
0.0
 11
-141.6783423611303
 21
-1047.57968043024
 31
0.0
  0
LINE
  5
184
  8
1
  6
CONTINUOUS
 62
   253
 10
-141.6783423611303
 20
-1047.57968043024
 30
0.0
 11
-142.0533147061422
 21
-1047.466358525708
 31
0.0
  0
LINE
  5
185
  8
1
  6
CONTINUOUS
 62
   253
 10
-142.0533147061422
 20
-1047.466358525708
 30
0.0
 11
-142.4434918575423
 21
-1047.428335863542
 31
0.0
  0
LINE
  5
186
  8
1
  6
CONTINUOUS
 62
   253
 10
-192.5565081424576
 20
-1047.428335863542
 30
0.0
 11
-192.9466852938576
 21
-1047.466358525708
 31
0.0
  0
LINE
  5
187
  8
1
  6
CONTINUOUS
 62
   253
 10
-192.9466852938576
 20
-1047.466358525708
 30
0.0
 11
-193.3216576388695
 21
-1047.57968043024
 31
0.0
  0
LINE
  5
188
  8
1
  6
CONTINUOUS
 62
   253
 10
-193.3216576388695
 20
-1047.57968043024
 30
0.0
 11
-193.6670652503106
 21
-1047.763961805635
 31
0.0
  0
LINE
  5
189
  8
1
  6
CONTINUOUS
 62
   253
 10
-193.6670652503106
 20
-1047.763961805635
 30
0.0
 11
-193.9696804109513
 21
-1048.012145419095
 31
0.0
  0
LINE
  5
18A
  8
1
  6
CONTINUOUS
 62
   253
 10
-193.9696804109513
 20
-1048.012145419095
 30
0.0
 11
-194.2179141816898
 21
-1048.314726840054
 31
0.0
  0
LINE
  5
18B
  8
1
  6
CONTINUOUS
 62
   253
 10
-194.2179141816898
 20
-1048.314726840054
 30
0.0
 11
-194.4022602111392
 21
-1048.660118421504
 31
0.0
  0
LINE
  5
18C
  8
1
  6
CONTINUOUS
 62
   253
 10
-194.4022602111392
 20
-1048.660118421504
 30
0.0
 11
-194.5156587905115
 21
-1049.035093060099
 31
0.0
  0
LINE
  5
18D
  8
1
  6
CONTINUOUS
 62
   253
 10
-194.5156587905115
 20
-1049.035093060099
 30
0.0
 11
-194.5537672119667
 21
-1049.425290740821
 31
0.0
  0
LINE
  5
18E
  8
1
  6
CONTINUOUS
 62
   253
 10
-185.4462327880331
 20
-1049.425290740821
 30
0.0
 11
-185.4843412094884
 21
-1049.035093060099
 31
0.0
  0
LINE
  5
18F
  8
1
  6
CONTINUOUS
 62
   253
 10
-185.4843412094884
 20
-1049.035093060099
 30
0.0
 11
-185.5977397888606
 21
-1048.660118421504
 31
0.0
  0
LINE
  5
190
  8
1
  6
CONTINUOUS
 62
   253
 10
-185.5977397888606
 20
-1048.660118421504
 30
0.0
 11
-185.78208581831
 21
-1048.314726840054
 31
0.0
  0
LINE
  5
191
  8
1
  6
CONTINUOUS
 62
   253
 10
-185.78208581831
 20
-1048.314726840054
 30
0.0
 11
-186.0303195890486
 21
-1048.012145419095
 31
0.0
  0
LINE
  5
192
  8
1
  6
CONTINUOUS
 62
   253
 10
-186.0303195890486
 20
-1048.012145419095
 30
0.0
 11
-186.3329347496893
 21
-1047.763961805635
 31
0.0
  0
LINE
  5
193
  8
1
  6
CONTINUOUS
 62
   253
 10
-186.3329347496893
 20
-1047.763961805635
 30
0.0
 11
-186.6783423611303
 21
-1047.57968043024
 31
0.0
  0
LINE
  5
194
  8
1
  6
CONTINUOUS
 62
   253
 10
-186.6783423611303
 20
-1047.57968043024
 30
0.0
 11
-187.0533147061422
 21
-1047.466358525708
 31
0.0
  0
LINE
  5
195
  8
1
  6
CONTINUOUS
 62
   253
 10
-187.0533147061422
 20
-1047.466358525708
 30
0.0
 11
-187.4434918575423
 21
-1047.428335863542
 31
0.0
  0
LINE
  5
196
  8
1
  6
CONTINUOUS
 62
   253
 10
-187.4434918575423
 20
-1047.428335863542
 30
0.0
 11
-192.5565081424575
 21
-1047.428335863542
 31
0.0
  0
LINE
  5
197
  8
1
  6
CONTINUOUS
 62
   253
 10
-142.4434918575423
 20
-1047.428335863542
 30
0.0
 11
-147.5565081424575
 21
-1047.428335863542
 31
0.0
  0
LINE
  5
198
  8
0
  6
CENTER
 62
     1
 10
-203.0347555049969
 20
-1050.490732494293
 30
0.0
 11
-176.9601124360991
 21
-1050.490732494293
 31
0.0
  0
LINE
  5
199
  8
0
  6
CENTER
 62
     1
 10
-189.997433970548
 20
-1063.528054028742
 30
0.0
 11
-189.997433970548
 21
-1037.453410959844
 31
0.0
  0
ENDSEC
  0
EOF
