  0
SECTION
  2
HEADER
  9
$ACADVER
  1
AC1006
  9
$DWGCODEPAGE
  3
ansi_932
  9
$INSBASE
 10
0.0
 20
0.0
 30
0.0
  9
$EXTMIN
 10
61.49999999999997
 20
24.51897586594976
  9
$EXTMAX
 10
356.0125359509817
 20
220.0000000000001
  9
$LIMMIN
 10
0.0
 20
0.0
  9
$LIMMAX
 10
12.0
 20
9.0
  9
$ORTHOMODE
 70
     0
  9
$REGENMODE
 70
     1
  9
$FILLMODE
 70
     1
  9
$QTEXTMODE
 70
     0
  9
$MIRRTEXT
 70
     1
  9
$DRAGMODE
 70
     2
  9
$LTSCALE
 40
1.0
  9
$OSMODE
 70
    37
  9
$ATTMODE
 70
     1
  9
$TEXTSIZE
 40
0.2
  9
$TRACEWID
 40
0.05
  9
$TEXTSTYLE
  7
STANDARD
  9
$CLAYER
  8
0
  9
$CELTYPE
  6
BYLAYER
  9
$CECOLOR
 62
   256
  9
$DIMSCALE
 40
1.0
  9
$DIMASZ
 40
3.0
  9
$DIMEXO
 40
0.0625
  9
$DIMDLI
 40
0.38
  9
$DIMRND
 40
0.0
  9
$DIMDLE
 40
0.0
  9
$DIMEXE
 40
1.5
  9
$DIMTP
 40
0.0
  9
$DIMTM
 40
0.0
  9
$DIMTXT
 40
3.0
  9
$DIMCEN
 40
0.09
  9
$DIMTSZ
 40
0.0
  9
$DIMTOL
 70
     0
  9
$DIMLIM
 70
     0
  9
$DIMTIH
 70
     1
  9
$DIMTOH
 70
     1
  9
$DIMSE1
 70
     0
  9
$DIMSE2
 70
     0
  9
$DIMTAD
 70
     1
  9
$DIMZIN
 70
     0
  9
$DIMBLK
  1

  9
$DIMASO
 70
     1
  9
$DIMSHO
 70
     1
  9
$DIMPOST
  1

  9
$DIMAPOST
  1

  9
$DIMALT
 70
     0
  9
$DIMALTD
 70
     2
  9
$DIMALTF
 40
25.4
  9
$DIMLFAC
 40
1.0
  9
$DIMTOFL
 70
     0
  9
$DIMTVP
 40
0.0
  9
$DIMTIX
 70
     0
  9
$DIMSOXD
 70
     0
  9
$DIMSAH
 70
     0
  9
$DIMBLK1
  1

  9
$DIMBLK2
  1

  9
$LUNITS
 70
     2
  9
$LUPREC
 70
     4
  9
$SKETCHINC
 40
0.1
  9
$FILLETRAD
 40
0.5
  9
$AUNITS
 70
     0
  9
$AUPREC
 70
     0
  9
$MENU
  1
.
  9
$ELEVATION
 40
0.0
  9
$THICKNESS
 40
0.0
  9
$LIMCHECK
 70
     0
  9
$CHAMFERA
 40
0.0
  9
$CHAMFERB
 40
0.0
  9
$SKPOLY
 70
     0
  9
$TDCREATE
 40
2460454.469537141
  9
$TDUPDATE
 40
2460454.469537338
  9
$TDINDWG
 40
0.0000000116
  9
$TDUSRTIMER
 40
0.0000000116
  9
$USRTIMER
 70
     1
  9
$ANGBASE
 50
0.0
  9
$ANGDIR
 70
     0
  9
$PDMODE
 70
     0
  9
$PDSIZE
 40
0.0
  9
$PLINEWID
 40
0.0
  9
$COORDS
 70
     1
  9
$SPLFRAME
 70
     0
  9
$SPLINETYPE
 70
     6
  9
$SPLINESEGS
 70
     8
  9
$ATTDIA
 70
     0
  9
$ATTREQ
 70
     1
  9
$HANDLING
 70
     1
  9
$HANDSEED
  5
169
  9
$SURFTAB1
 70
     6
  9
$SURFTAB2
 70
     6
  9
$SURFTYPE
 70
     6
  9
$SURFU
 70
     6
  9
$SURFV
 70
     6
  9
$UCSNAME
  2

  9
$UCSORG
 10
0.0
 20
0.0
 30
0.0
  9
$UCSXDIR
 10
1.0
 20
0.0
 30
0.0
  9
$UCSYDIR
 10
0.0
 20
1.0
 30
0.0
  9
$USERI1
 70
     0
  9
$USERI2
 70
     0
  9
$USERI3
 70
     0
  9
$USERI4
 70
     0
  9
$USERI5
 70
     0
  9
$USERR1
 40
0.0
  9
$USERR2
 40
0.0
  9
$USERR3
 40
0.0
  9
$USERR4
 40
0.0
  9
$USERR5
 40
0.0
  9
$WORLDVIEW
 70
     1
  0
ENDSEC
  0
SECTION
  2
TABLES
  0
TABLE
  2
VPORT
 70
     1
  0
VPORT
  2
*ACTIVE
 70
     0
 10
0.0
 20
0.0
 11
1.0
 21
1.0
 12
208.7562679754908
 22
122.2594879329749
 13
0.0
 23
0.0
 14
0.5
 24
0.5
 15
0.5
 25
0.5
 16
0.0
 26
0.0
 36
1.0
 17
0.0
 27
0.0
 37
0.0
 40
195.4810241340504
 41
1.6
 42
50.0
 43
0.0
 44
0.0
 50
0.0
 51
0.0
 71
     0
 72
   100
 73
     1
 74
     3
 75
     0
 76
     0
 77
     0
 78
     0
  0
ENDTAB
  0
TABLE
  2
LTYPE
 70
     2
  0
LTYPE
  2
CONTINUOUS
 70
     0
  3
Solid line
 72
    65
 73
     0
 40
0.0
  0
LTYPE
  2
CENTER
 70
     0
  3

 72
    65
 73
     0
 40
0.0
  0
ENDTAB
  0
TABLE
  2
LAYER
 70
     2
  0
LAYER
  2
0
 70
     0
 62
     7
  6
CONTINUOUS
  0
LAYER
  2
1
 70
     0
 62
     7
  6
CONTINUOUS
  0
ENDTAB
  0
TABLE
  2
STYLE
 70
     2
  0
STYLE
  2
STANDARD
 70
     0
 40
0.0
 41
1.0
 50
0.0
 71
     0
 42
0.2
  3
txt
  4

  0
STYLE
  2
ＭＳ_ゴシック
 70
     0
 40
0.0
 41
1.0
 50
0.0
 71
     0
 42
0.2
  3
ＭＳ ゴシック.shx
  4

  0
ENDTAB
  0
TABLE
  2
VIEW
 70
     0
  0
ENDTAB
  0
TABLE
  2
UCS
 70
     0
  0
ENDTAB
  0
ENDSEC
  0
SECTION
  2
BLOCKS
  0
ENDSEC
  0
SECTION
  2
ENTITIES
  0
LINE
  5
70
  8
1
  6
CONTINUOUS
 62
     7
 10
316.0
 20
64.7
 30
0.0
 11
330.0
 21
64.7
 31
0.0
  0
LINE
  5
71
  8
1
  6
CONTINUOUS
 62
     7
 10
316.0
 20
65.0
 30
0.0
 11
330.0
 21
65.0
 31
0.0
  0
LINE
  5
72
  8
1
  6
CONTINUOUS
 62
     7
 10
330.0
 20
64.7
 30
0.0
 11
344.0
 21
64.7
 31
0.0
  0
LINE
  5
73
  8
1
  6
CONTINUOUS
 62
     7
 10
330.0
 20
65.0
 30
0.0
 11
344.0
 21
65.0
 31
0.0
  0
LINE
  5
74
  8
1
  6
CONTINUOUS
 62
     7
 10
320.0
 20
69.0
 30
0.0
 11
330.0
 21
69.0
 31
0.0
  0
LINE
  5
75
  8
1
  6
CONTINUOUS
 62
     7
 10
330.0
 20
69.0
 30
0.0
 11
340.0
 21
69.0
 31
0.0
  0
LINE
  5
76
  8
1
  6
CONTINUOUS
 62
     7
 10
317.0000000000001
 20
63.3
 30
0.0
 11
330.0
 21
63.3
 31
0.0
  0
LINE
  5
77
  8
1
  6
CONTINUOUS
 62
     7
 10
317.0
 20
63.5
 30
0.0
 11
330.0
 21
63.5
 31
0.0
  0
LINE
  5
78
  8
1
  6
CONTINUOUS
 62
     7
 10
330.0
 20
63.3
 30
0.0
 11
342.9999999999999
 21
63.3
 31
0.0
  0
LINE
  5
79
  8
1
  6
CONTINUOUS
 62
     7
 10
330.0
 20
63.5
 30
0.0
 11
343.0
 21
63.5
 31
0.0
  0
LINE
  5
7A
  8
1
  6
CONTINUOUS
 62
     7
 10
319.3
 20
61.0
 30
0.0
 11
330.0
 21
61.0
 31
0.0
  0
LINE
  5
7B
  8
1
  6
CONTINUOUS
 62
     7
 10
330.0
 20
61.0
 30
0.0
 11
340.7
 21
61.0
 31
0.0
  0
LINE
  5
7C
  8
1
  6
CONTINUOUS
 62
     7
 10
316.0
 20
65.0
 30
0.0
 11
316.0
 21
64.7
 31
0.0
  0
LINE
  5
7D
  8
1
  6
CONTINUOUS
 62
     7
 10
344.0
 20
64.7
 30
0.0
 11
344.0
 21
65.0
 31
0.0
  0
ARC
  5
7E
  8
1
  6
CONTINUOUS
 62
     7
 10
320.0
 20
65.0
 30
0.0
 40
3.999999999999996
 50
90.00000000000004
 51
180.0000000000001
  0
ARC
  5
7F
  8
1
  6
CONTINUOUS
 62
     7
 10
340.0
 20
65.0
 30
0.0
 40
4.000000000000004
 50
359.9999999999998
 51
90.0
  0
LINE
  5
80
  8
1
  6
CONTINUOUS
 62
     7
 10
317.0
 20
63.5
 30
0.0
 11
317.0
 21
63.3
 31
0.0
  0
LINE
  5
81
  8
1
  6
CONTINUOUS
 62
     7
 10
343.0
 20
63.3
 30
0.0
 11
343.0
 21
63.5
 31
0.0
  0
ARC
  5
82
  8
1
  6
CONTINUOUS
 62
     7
 10
319.3
 20
63.3
 30
0.0
 40
2.299999999999969
 50
180.0000000000001
 51
270.0000000000002
  0
ARC
  5
83
  8
1
  6
CONTINUOUS
 62
     7
 10
340.7
 20
63.3
 30
0.0
 40
2.3
 50
269.9999999999998
 51
359.9999999999998
  0
LINE
  5
84
  8
1
  6
CONTINUOUS
 62
     7
 10
319.5
 20
64.7
 30
0.0
 11
319.5
 21
63.5
 31
0.0
  0
LINE
  5
85
  8
1
  6
CONTINUOUS
 62
     7
 10
340.5
 20
63.5
 30
0.0
 11
340.5
 21
64.7
 31
0.0
  0
LINE
  5
86
  8
1
  6
CONTINUOUS
 62
     7
 10
155.0
 20
104.1770436257814
 30
0.0
 11
156.5
 21
104.1770436257812
 31
0.0
  0
LINE
  5
87
  8
1
  6
CONTINUOUS
 62
     7
 10
155.0
 20
103.6770436257814
 30
0.0
 11
156.5
 21
103.6770436257812
 31
0.0
  0
LINE
  5
88
  8
1
  6
CONTINUOUS
 62
     7
 10
71.49999999999999
 20
104.1770436257815
 30
0.0
 11
153.5000000000001
 21
104.1770436257815
 31
0.0
  0
LINE
  5
89
  8
1
  6
CONTINUOUS
 62
     7
 10
71.49999999999999
 20
103.6770436257815
 30
0.0
 11
153.5
 21
103.6770436257814
 31
0.0
  0
LINE
  5
8A
  8
1
  6
CONTINUOUS
 62
     7
 10
153.5000000000001
 20
104.1770436257815
 30
0.0
 11
155.0
 21
104.1770436257814
 31
0.0
  0
LINE
  5
8B
  8
1
  6
CONTINUOUS
 62
     7
 10
153.5
 20
103.6770436257814
 30
0.0
 11
155.0
 21
103.6770436257814
 31
0.0
  0
LINE
  5
8C
  8
1
  6
CONTINUOUS
 62
     7
 10
156.5
 20
104.1770436257812
 30
0.0
 11
238.5
 21
104.1770436257815
 31
0.0
  0
LINE
  5
8D
  8
1
  6
CONTINUOUS
 62
     7
 10
156.5
 20
103.6770436257812
 30
0.0
 11
238.5
 21
103.6770436257815
 31
0.0
  0
LINE
  5
8E
  8
1
  6
CONTINUOUS
 62
     7
 10
248.5
 20
104.1770436257815
 30
0.0
 11
248.5
 21
103.6770436257815
 31
0.0
  0
LINE
  5
8F
  8
1
  6
CONTINUOUS
 62
     7
 10
238.5
 20
104.1770436257815
 30
0.0
 11
248.5
 21
104.1770436257815
 31
0.0
  0
LINE
  5
90
  8
1
  6
CONTINUOUS
 62
     7
 10
248.5
 20
103.6770436257815
 30
0.0
 11
238.5
 21
103.6770436257815
 31
0.0
  0
LINE
  5
91
  8
1
  6
CONTINUOUS
 62
     7
 10
61.5
 20
103.6770436257815
 30
0.0
 11
61.5
 21
104.1770436257815
 31
0.0
  0
LINE
  5
92
  8
1
  6
CONTINUOUS
 62
     7
 10
61.5
 20
104.1770436257815
 30
0.0
 11
71.49999999999999
 21
104.1770436257815
 31
0.0
  0
LINE
  5
93
  8
1
  6
CONTINUOUS
 62
     7
 10
71.49999999999999
 20
103.6770436257815
 30
0.0
 11
61.5
 21
103.6770436257815
 31
0.0
  0
LINE
  5
94
  8
1
  6
CONTINUOUS
 62
     7
 10
242.7139259995157
 20
58.6681691154349
 30
0.0
 11
242.7143697617864
 21
58.66831742256289
 31
0.0
  0
LINE
  5
95
  8
1
  6
CONTINUOUS
 62
     7
 10
242.2140782695747
 20
58.17704362578154
 30
0.0
 11
242.3105209528751
 21
58.18643576506603
 31
0.0
  0
LINE
  5
96
  8
1
  6
CONTINUOUS
 62
     7
 10
242.3105209528751
 20
58.18643576506603
 30
0.0
 11
242.4033404237173
 21
58.21425933379815
 31
0.0
  0
LINE
  5
97
  8
1
  6
CONTINUOUS
 62
     7
 10
242.4033404237173
 20
58.21425933379815
 30
0.0
 11
242.4890495885076
 21
58.2594690406462
 31
0.0
  0
LINE
  5
98
  8
1
  6
CONTINUOUS
 62
     7
 10
242.4890495885076
 20
58.2594690406462
 30
0.0
 11
242.5644284775913
 21
58.32036642215526
 31
0.0
  0
LINE
  5
99
  8
1
  6
CONTINUOUS
 62
     7
 10
242.5644284775913
 20
58.32036642215526
 30
0.0
 11
242.6266452148668
 21
58.39466365156858
 31
0.0
  0
LINE
  5
9A
  8
1
  6
CONTINUOUS
 62
     7
 10
242.6266452148668
 20
58.39466365156858
 30
0.0
 11
242.6733624072848
 21
58.47956948917773
 31
0.0
  0
LINE
  5
9B
  8
1
  6
CONTINUOUS
 62
     7
 10
242.6733624072848
 20
58.47956948917773
 30
0.0
 11
242.7028249573328
 21
58.57189414517114
 31
0.0
  0
LINE
  5
9C
  8
1
  6
CONTINUOUS
 62
     7
 10
242.7028249573328
 20
58.57189414517114
 30
0.0
 11
242.7139259995157
 21
58.66816911543491
 31
0.0
  0
LINE
  5
9D
  8
1
  6
CONTINUOUS
 62
     7
 10
242.2140782695747
 20
58.17704362578154
 30
0.0
 11
67.78592173042527
 21
58.17704362578154
 31
0.0
  0
ARC
  5
9E
  8
1
  6
CONTINUOUS
 62
     7
 10
242.2144459142082
 20
58.67704362578154
 30
0.0
 40
0.5000000000000199
 50
270.0
 51
358.9999999999989
  0
ARC
  5
9F
  8
1
  6
CONTINUOUS
 62
     7
 10
67.78555408579176
 20
58.67704362578154
 30
0.0
 40
0.5000000000000004
 50
181.000000000001
 51
270.0
  0
CIRCLE
  5
A0
  8
1
  6
CONTINUOUS
 62
     7
 10
330.0
 20
95.0
 30
0.0
 40
10.0
  0
CIRCLE
  5
A1
  8
1
  6
CONTINUOUS
 62
     7
 10
330.0
 20
95.0
 30
0.0
 40
9.499999999999998
  0
CIRCLE
  5
A2
  8
1
  6
CONTINUOUS
 62
     7
 10
330.0
 20
95.0
 30
0.0
 40
14.0
  0
ARC
  5
A3
  8
1
  6
CONTINUOUS
 62
     7
 10
330.0
 20
95.0
 30
0.0
 40
8.499999999999993
 50
90.0
 51
270.0
  0
ARC
  5
A4
  8
1
  6
CONTINUOUS
 62
     7
 10
330.0
 20
95.0
 30
0.0
 40
8.499999999999993
 50
270.0
 51
90.0
  0
CIRCLE
  5
A5
  8
1
  6
CONTINUOUS
 62
     7
 10
330.0
 20
95.0
 30
0.0
 40
1.5
  0
LINE
  5
A6
  8
1
  6
CONTINUOUS
 62
     7
 10
218.5000000000001
 20
158.4
 30
0.0
 11
218.5000000000001
 21
158.5
 31
0.0
  0
LINE
  5
A7
  8
1
  6
CONTINUOUS
 62
     7
 10
237.5
 20
159.0
 30
0.0
 11
156.5
 21
159.0
 31
0.0
  0
LINE
  5
A8
  8
1
  6
CONTINUOUS
 62
     7
 10
156.5
 20
159.0
 30
0.0
 11
155.0
 21
160.5
 31
0.0
  0
LINE
  5
A9
  8
1
  6
CONTINUOUS
 62
     7
 10
155.0
 20
160.5
 30
0.0
 11
153.5
 21
159.0
 31
0.0
  0
LINE
  5
AA
  8
1
  6
CONTINUOUS
 62
     7
 10
153.5
 20
159.0
 30
0.0
 11
70.00000000000018
 21
159.0
 31
0.0
  0
ARC
  5
AB
  8
1
  6
CONTINUOUS
 62
     7
 10
69.9999999999999
 20
161.5
 30
0.0
 40
2.500000000000002
 50
180.0
 51
270.0000000000064
  0
ARC
  5
AC
  8
1
  6
CONTINUOUS
 62
     7
 10
69.9999999999999
 20
195.4999999999999
 30
0.0
 40
2.5
 50
90.0
 51
180.0000000000003
  0
LINE
  5
AD
  8
1
  6
CONTINUOUS
 62
     7
 10
69.9999999999999
 20
197.9999999999999
 30
0.0
 11
153.5
 21
198.0
 31
0.0
  0
LINE
  5
AE
  8
1
  6
CONTINUOUS
 62
     7
 10
153.5
 20
198.0
 30
0.0
 11
155.0
 21
196.5
 31
0.0
  0
LINE
  5
AF
  8
1
  6
CONTINUOUS
 62
     7
 10
155.0
 20
196.5
 30
0.0
 11
156.5
 21
198.0
 31
0.0
  0
LINE
  5
B0
  8
1
  6
CONTINUOUS
 62
     7
 10
156.5
 20
198.0
 30
0.0
 11
237.4999999999997
 21
197.9999999999999
 31
0.0
  0
LINE
  5
B1
  8
1
  6
CONTINUOUS
 62
     7
 10
234.8500000000004
 20
164.6499999999999
 30
0.0
 11
234.8500000000004
 21
192.35
 31
0.0
  0
LINE
  5
B2
  8
1
  6
CONTINUOUS
 62
     7
 10
75.15000000000019
 20
192.35
 30
0.0
 11
75.15000000000019
 21
164.6499999999999
 31
0.0
  0
LINE
  5
B3
  8
1
  6
CONTINUOUS
 62
     7
 10
237.5
 20
159.0
 30
0.0
 11
238.5
 21
159.0
 31
0.0
  0
LINE
  5
B4
  8
1
  6
CONTINUOUS
 62
     7
 10
242.4999999999998
 20
195.4999999999999
 30
0.0
 11
242.4999999999998
 21
161.5
 31
0.0
  0
ARC
  5
B5
  8
1
  6
CONTINUOUS
 62
     7
 10
239.9999999999998
 20
195.4999999999999
 30
0.0
 40
2.500000000000002
 50
0.0
 51
90.0000000000064
  0
ARC
  5
B6
  8
1
  6
CONTINUOUS
 62
     7
 10
239.9999999999998
 20
161.5
 30
0.0
 40
2.499999999999999
 50
270.0
 51
0.0000000000001705
  0
LINE
  5
B7
  8
1
  6
CONTINUOUS
 62
     7
 10
239.9999999999998
 20
159.0
 30
0.0
 11
238.5
 21
159.0
 31
0.0
  0
LINE
  5
B8
  8
1
  6
CONTINUOUS
 62
     7
 10
238.5
 20
197.9999999999999
 30
0.0
 11
239.9999999999995
 21
197.9999999999999
 31
0.0
  0
LINE
  5
B9
  8
1
  6
CONTINUOUS
 62
     7
 10
238.5
 20
197.9999999999999
 30
0.0
 11
237.5
 21
197.9999999999999
 31
0.0
  0
LINE
  5
BA
  8
1
  6
CONTINUOUS
 62
     7
 10
231.9999999999999
 20
173.5
 30
0.0
 11
234.7627313220929
 21
173.5
 31
0.0
  0
ARC
  5
BB
  8
1
  6
CONTINUOUS
 62
     7
 10
231.9999999999999
 20
178.5
 30
0.0
 40
5.000000000000019
 50
90.00000000000016
 51
270.0
  0
LINE
  5
BC
  8
1
  6
CONTINUOUS
 62
     7
 10
234.7627313220929
 20
183.5
 30
0.0
 11
231.9999999999999
 21
183.5
 31
0.0
  0
ARC
  5
BD
  8
1
  6
CONTINUOUS
 62
     7
 10
78.00000000000006
 20
178.5
 30
0.0
 40
5.000000000000019
 50
270.0
 51
89.99999999999982
  0
LINE
  5
BE
  8
1
  6
CONTINUOUS
 62
     7
 10
78.00000000000006
 20
173.5
 30
0.0
 11
75.23726867790778
 21
173.5
 31
0.0
  0
LINE
  5
BF
  8
1
  6
CONTINUOUS
 62
     7
 10
75.23726867790778
 20
183.5
 30
0.0
 11
78.00000000000007
 21
183.5
 31
0.0
  0
ARC
  5
C0
  8
1
  6
CONTINUOUS
 62
     7
 10
232.0
 20
178.5
 30
0.0
 40
2.100000000000005
 50
90.00000000000266
 51
269.9999999999973
  0
ARC
  5
C1
  8
1
  6
CONTINUOUS
 62
     7
 10
78.00000000000003
 20
178.5
 30
0.0
 40
2.100000000000005
 50
270.0000000000026
 51
89.99999999999726
  0
ARC
  5
C2
  8
1
  6
CONTINUOUS
 62
     7
 10
78.00000000000003
 20
178.5
 30
0.0
 40
2.100000000000005
 50
89.99999999999736
 51
270.0000000000026
  0
ARC
  5
C3
  8
1
  6
CONTINUOUS
 62
     7
 10
232.0
 20
178.5
 30
0.0
 40
2.100000000000005
 50
269.9999999999973
 51
90.00000000000261
  0
ARC
  5
C4
  8
1
  6
CONTINUOUS
 62
     7
 10
113.5
 20
177.9
 30
0.0
 40
0.4999999999999996
 50
270.0
 51
0.0
  0
LINE
  5
C5
  8
1
  6
CONTINUOUS
 62
     7
 10
114.0
 20
177.9
 30
0.0
 11
114.0
 21
179.1
 31
0.0
  0
ARC
  5
C6
  8
1
  6
CONTINUOUS
 62
     7
 10
113.5
 20
179.1
 30
0.0
 40
0.5000000000000004
 50
0.0
 51
90.0
  0
LINE
  5
C7
  8
1
  6
CONTINUOUS
 62
     7
 10
113.5
 20
179.6
 30
0.0
 11
106.5
 21
179.6
 31
0.0
  0
ARC
  5
C8
  8
1
  6
CONTINUOUS
 62
     7
 10
106.5
 20
179.1
 30
0.0
 40
0.5000000000000004
 50
90.0000000000008
 51
180.0
  0
LINE
  5
C9
  8
1
  6
CONTINUOUS
 62
     7
 10
106.0
 20
179.1
 30
0.0
 11
106.0
 21
177.9
 31
0.0
  0
ARC
  5
CA
  8
1
  6
CONTINUOUS
 62
     7
 10
106.5
 20
177.9
 30
0.0
 40
0.5000000000000004
 50
180.0
 51
269.9999999999992
  0
LINE
  5
CB
  8
1
  6
CONTINUOUS
 62
     7
 10
106.5
 20
177.4
 30
0.0
 11
113.5
 21
177.4
 31
0.0
  0
ARC
  5
CC
  8
1
  6
CONTINUOUS
 62
     7
 10
110.0
 20
178.5
 30
0.0
 40
10.0
 50
187.1180687170459
 51
216.8698976458439
  0
LINE
  5
CD
  8
1
  6
CONTINUOUS
 62
     7
 10
100.0770709024726
 20
177.2608558899614
 30
0.0
 11
99.55777801423471
 21
177.4
 31
0.0
  0
ARC
  5
CE
  8
1
  6
CONTINUOUS
 62
     7
 10
110.0
 20
178.5
 30
0.0
 40
10.5
 50
186.0134490528181
 51
216.869897645844
  0
ARC
  5
CF
  8
1
  6
CONTINUOUS
 62
     7
 10
104.0
 20
174.0
 30
0.0
 40
3.0
 50
216.8698976458441
 51
270.0000000000001
  0
LINE
  5
D0
  8
1
  6
CONTINUOUS
 62
     7
 10
104.0
 20
171.0
 30
0.0
 11
116.0
 21
171.0
 31
0.0
  0
ARC
  5
D1
  8
1
  6
CONTINUOUS
 62
     7
 10
116.0
 20
174.0
 30
0.0
 40
3.000000000000001
 50
270.0
 51
323.130102354156
  0
ARC
  5
D2
  8
1
  6
CONTINUOUS
 62
     7
 10
110.0
 20
178.5
 30
0.0
 40
10.5
 50
323.130102354156
 51
353.9865509471819
  0
LINE
  5
D3
  8
1
  6
CONTINUOUS
 62
     7
 10
120.4422219857653
 20
177.4
 30
0.0
 11
119.9229290975274
 21
177.2608558899614
 31
0.0
  0
ARC
  5
D4
  8
1
  6
CONTINUOUS
 62
     7
 10
110.0
 20
178.5
 30
0.0
 40
10.0
 50
323.1301023541562
 51
352.8819312829542
  0
ARC
  5
D5
  8
1
  6
CONTINUOUS
 62
     7
 10
116.0
 20
174.0
 30
0.0
 40
2.499999999999997
 50
270.0000000000002
 51
323.1301023541562
  0
LINE
  5
D6
  8
1
  6
CONTINUOUS
 62
     7
 10
116.0
 20
171.5
 30
0.0
 11
104.0
 21
171.5
 31
0.0
  0
ARC
  5
D7
  8
1
  6
CONTINUOUS
 62
     7
 10
104.0
 20
174.0
 30
0.0
 40
2.5
 50
216.8698976458438
 51
270.0
  0
ARC
  5
D8
  8
1
  6
CONTINUOUS
 62
     7
 10
116.0
 20
183.0
 30
0.0
 40
2.5
 50
36.86989764584382
 51
90.0
  0
ARC
  5
D9
  8
1
  6
CONTINUOUS
 62
     7
 10
110.0
 20
178.5
 30
0.0
 40
10.0
 50
7.118068717045957
 51
36.86989764584399
  0
LINE
  5
DA
  8
1
  6
CONTINUOUS
 62
     7
 10
119.9229290975274
 20
179.7391441100386
 30
0.0
 11
120.4422219857653
 21
179.6
 31
0.0
  0
ARC
  5
DB
  8
1
  6
CONTINUOUS
 62
     7
 10
110.0
 20
178.5
 30
0.0
 40
10.5
 50
6.013449052818123
 51
36.86989764584401
  0
ARC
  5
DC
  8
1
  6
CONTINUOUS
 62
     7
 10
116.0
 20
183.0
 30
0.0
 40
3.0
 50
36.86989764584401
 51
90.0
  0
LINE
  5
DD
  8
1
  6
CONTINUOUS
 62
     7
 10
116.0
 20
186.0
 30
0.0
 11
104.0
 21
186.0
 31
0.0
  0
ARC
  5
DE
  8
1
  6
CONTINUOUS
 62
     7
 10
104.0
 20
183.0
 30
0.0
 40
3.000000000000001
 50
90.0
 51
143.130102354156
  0
ARC
  5
DF
  8
1
  6
CONTINUOUS
 62
     7
 10
110.0
 20
178.5
 30
0.0
 40
10.5
 50
143.130102354156
 51
173.9865509471819
  0
LINE
  5
E0
  8
1
  6
CONTINUOUS
 62
     7
 10
99.55777801423471
 20
179.6
 30
0.0
 11
100.0770709024726
 21
179.7391441100386
 31
0.0
  0
ARC
  5
E1
  8
1
  6
CONTINUOUS
 62
     7
 10
110.0
 20
178.5
 30
0.0
 40
10.0
 50
143.1301023541561
 51
172.8819312829541
  0
ARC
  5
E2
  8
1
  6
CONTINUOUS
 62
     7
 10
104.0
 20
183.0
 30
0.0
 40
2.5
 50
90.00000000000011
 51
143.1301023541561
  0
LINE
  5
E3
  8
1
  6
CONTINUOUS
 62
     7
 10
104.0
 20
185.5
 30
0.0
 11
116.0
 21
185.5
 31
0.0
  0
ARC
  5
E4
  8
1
  6
CONTINUOUS
 62
     7
 10
203.5
 20
177.9
 30
0.0
 40
0.4999999999999996
 50
270.0
 51
0.0
  0
LINE
  5
E5
  8
1
  6
CONTINUOUS
 62
     7
 10
204.0
 20
177.9
 30
0.0
 11
204.0
 21
179.1
 31
0.0
  0
ARC
  5
E6
  8
1
  6
CONTINUOUS
 62
     7
 10
203.5
 20
179.1
 30
0.0
 40
0.5000000000000004
 50
0.0
 51
90.0
  0
LINE
  5
E7
  8
1
  6
CONTINUOUS
 62
     7
 10
203.5
 20
179.6
 30
0.0
 11
196.5
 21
179.6
 31
0.0
  0
ARC
  5
E8
  8
1
  6
CONTINUOUS
 62
     7
 10
196.5
 20
179.1
 30
0.0
 40
0.5000000000000004
 50
90.0000000000008
 51
180.0
  0
LINE
  5
E9
  8
1
  6
CONTINUOUS
 62
     7
 10
196.0
 20
179.1
 30
0.0
 11
196.0
 21
177.9
 31
0.0
  0
ARC
  5
EA
  8
1
  6
CONTINUOUS
 62
     7
 10
196.5
 20
177.9
 30
0.0
 40
0.5000000000000004
 50
180.0
 51
269.9999999999992
  0
LINE
  5
EB
  8
1
  6
CONTINUOUS
 62
     7
 10
196.5
 20
177.4
 30
0.0
 11
203.5
 21
177.4
 31
0.0
  0
ARC
  5
EC
  8
1
  6
CONTINUOUS
 62
     7
 10
200.0
 20
178.5
 30
0.0
 40
10.0
 50
187.1180687170459
 51
216.8698976458439
  0
LINE
  5
ED
  8
1
  6
CONTINUOUS
 62
     7
 10
190.0770709024725
 20
177.2608558899614
 30
0.0
 11
189.5577780142347
 21
177.4
 31
0.0
  0
ARC
  5
EE
  8
1
  6
CONTINUOUS
 62
     7
 10
200.0
 20
178.5
 30
0.0
 40
10.5
 50
186.0134490528181
 51
216.869897645844
  0
ARC
  5
EF
  8
1
  6
CONTINUOUS
 62
     7
 10
194.0
 20
174.0
 30
0.0
 40
3.0
 50
216.8698976458441
 51
270.0000000000001
  0
LINE
  5
F0
  8
1
  6
CONTINUOUS
 62
     7
 10
194.0
 20
171.0
 30
0.0
 11
206.0
 21
171.0
 31
0.0
  0
ARC
  5
F1
  8
1
  6
CONTINUOUS
 62
     7
 10
206.0
 20
174.0
 30
0.0
 40
3.000000000000001
 50
270.0
 51
323.130102354156
  0
ARC
  5
F2
  8
1
  6
CONTINUOUS
 62
     7
 10
200.0
 20
178.5
 30
0.0
 40
10.5
 50
323.130102354156
 51
353.9865509471819
  0
LINE
  5
F3
  8
1
  6
CONTINUOUS
 62
     7
 10
210.4422219857653
 20
177.4
 30
0.0
 11
209.9229290975274
 21
177.2608558899614
 31
0.0
  0
ARC
  5
F4
  8
1
  6
CONTINUOUS
 62
     7
 10
200.0
 20
178.5
 30
0.0
 40
10.0
 50
323.1301023541562
 51
352.8819312829542
  0
ARC
  5
F5
  8
1
  6
CONTINUOUS
 62
     7
 10
206.0
 20
174.0
 30
0.0
 40
2.499999999999997
 50
270.0000000000002
 51
323.1301023541562
  0
LINE
  5
F6
  8
1
  6
CONTINUOUS
 62
     7
 10
206.0
 20
171.5
 30
0.0
 11
194.0
 21
171.5
 31
0.0
  0
ARC
  5
F7
  8
1
  6
CONTINUOUS
 62
     7
 10
194.0
 20
174.0
 30
0.0
 40
2.5
 50
216.8698976458438
 51
270.0
  0
ARC
  5
F8
  8
1
  6
CONTINUOUS
 62
     7
 10
206.0
 20
183.0
 30
0.0
 40
2.5
 50
36.86989764584382
 51
90.0
  0
ARC
  5
F9
  8
1
  6
CONTINUOUS
 62
     7
 10
200.0
 20
178.5
 30
0.0
 40
10.0
 50
7.118068717045957
 51
36.86989764584399
  0
LINE
  5
FA
  8
1
  6
CONTINUOUS
 62
     7
 10
209.9229290975274
 20
179.7391441100386
 30
0.0
 11
210.4422219857653
 21
179.6
 31
0.0
  0
ARC
  5
FB
  8
1
  6
CONTINUOUS
 62
     7
 10
200.0
 20
178.5
 30
0.0
 40
10.5
 50
6.013449052818123
 51
36.86989764584401
  0
ARC
  5
FC
  8
1
  6
CONTINUOUS
 62
     7
 10
206.0
 20
183.0
 30
0.0
 40
3.0
 50
36.86989764584401
 51
90.0
  0
LINE
  5
FD
  8
1
  6
CONTINUOUS
 62
     7
 10
206.0
 20
186.0
 30
0.0
 11
194.0
 21
186.0
 31
0.0
  0
ARC
  5
FE
  8
1
  6
CONTINUOUS
 62
     7
 10
194.0
 20
183.0
 30
0.0
 40
3.000000000000001
 50
90.0
 51
143.130102354156
  0
ARC
  5
FF
  8
1
  6
CONTINUOUS
 62
     7
 10
200.0
 20
178.5
 30
0.0
 40
10.5
 50
143.130102354156
 51
173.9865509471819
  0
LINE
  5
100
  8
1
  6
CONTINUOUS
 62
     7
 10
189.5577780142347
 20
179.6
 30
0.0
 11
190.0770709024725
 21
179.7391441100386
 31
0.0
  0
ARC
  5
101
  8
1
  6
CONTINUOUS
 62
     7
 10
200.0
 20
178.5
 30
0.0
 40
10.0
 50
143.1301023541561
 51
172.8819312829541
  0
ARC
  5
102
  8
1
  6
CONTINUOUS
 62
     7
 10
194.0
 20
183.0
 30
0.0
 40
2.5
 50
90.00000000000011
 51
143.1301023541561
  0
LINE
  5
103
  8
1
  6
CONTINUOUS
 62
     7
 10
194.0
 20
185.5
 30
0.0
 11
206.0
 21
185.5
 31
0.0
  0
LINE
  5
104
  8
1
  6
CONTINUOUS
 62
     7
 10
155.0
 20
218.5000000000001
 30
0.0
 11
153.5
 21
220.0000000000001
 31
0.0
  0
LINE
  5
105
  8
1
  6
CONTINUOUS
 62
     7
 10
156.5
 20
220.0
 30
0.0
 11
155.0
 21
218.5
 31
0.0
  0
LINE
  5
106
  8
1
  6
CONTINUOUS
 62
     7
 10
238.5
 20
220.0
 30
0.0
 11
156.5
 21
220.0000000000001
 31
0.0
  0
ARC
  5
107
  8
1
  6
CONTINUOUS
 62
     7
 10
238.5
 20
210.0
 30
0.0
 40
9.999999999999995
 50
0.0
 51
90.0
  0
LINE
  5
108
  8
1
  6
CONTINUOUS
 62
     7
 10
248.5
 20
160.0
 30
0.0
 11
248.5
 21
177.0
 31
0.0
  0
ARC
  5
109
  8
1
  6
CONTINUOUS
 62
     7
 10
238.5
 20
160.0
 30
0.0
 40
9.999999999999998
 50
270.0
 51
0.0
  0
LINE
  5
10A
  8
1
  6
CONTINUOUS
 62
     7
 10
156.5
 20
150.0
 30
0.0
 11
238.5
 21
150.0
 31
0.0
  0
LINE
  5
10B
  8
1
  6
CONTINUOUS
 62
     7
 10
155.0
 20
151.4999999999999
 30
0.0
 11
156.5
 21
149.9999999999999
 31
0.0
  0
LINE
  5
10C
  8
1
  6
CONTINUOUS
 62
     7
 10
153.5000000000001
 20
150.0
 30
0.0
 11
155.0
 21
151.4999999999999
 31
0.0
  0
LINE
  5
10D
  8
1
  6
CONTINUOUS
 62
     7
 10
71.49999999999999
 20
150.0
 30
0.0
 11
153.5000000000001
 21
150.0
 31
0.0
  0
ARC
  5
10E
  8
1
  6
CONTINUOUS
 62
     7
 10
71.49999999999999
 20
160.0
 30
0.0
 40
9.999999999999995
 50
180.0
 51
270.0
  0
LINE
  5
10F
  8
1
  6
CONTINUOUS
 62
     7
 10
62.99999999999997
 20
178.5
 30
0.0
 11
61.49999999999997
 21
177.0
 31
0.0
  0
LINE
  5
110
  8
1
  6
CONTINUOUS
 62
     7
 10
61.49999999999997
 20
180.0
 30
0.0
 11
62.99999999999997
 21
178.5
 31
0.0
  0
LINE
  5
111
  8
1
  6
CONTINUOUS
 62
     7
 10
61.5
 20
210.0
 30
0.0
 11
61.49999999999997
 21
180.0
 31
0.0
  0
ARC
  5
112
  8
1
  6
CONTINUOUS
 62
     7
 10
71.5
 20
210.0
 30
0.0
 40
9.999999999999998
 50
90.0
 51
180.0
  0
LINE
  5
113
  8
1
  6
CONTINUOUS
 62
     7
 10
153.5
 20
220.0
 30
0.0
 11
71.5
 21
220.0
 31
0.0
  0
LINE
  5
114
  8
1
  6
CONTINUOUS
 62
     7
 10
240.4918055460886
 20
158.5086513684421
 30
0.0
 11
241.0770360419314
 21
158.5662820235889
 31
0.0
  0
LINE
  5
115
  8
1
  6
CONTINUOUS
 62
     7
 10
241.0770360419314
 20
158.5662820235889
 30
0.0
 11
241.6397500440236
 21
158.7369601313201
 31
0.0
  0
LINE
  5
116
  8
1
  6
CONTINUOUS
 62
     7
 10
241.6397500440236
 20
158.7369601313201
 30
0.0
 11
242.1583311274191
 21
159.0141291629338
 31
0.0
  0
LINE
  5
117
  8
1
  6
CONTINUOUS
 62
     7
 10
242.1583311274191
 20
159.0141291629338
 30
0.0
 11
242.6128582149348
 21
159.3871417850651
 31
0.0
  0
LINE
  5
118
  8
1
  6
CONTINUOUS
 62
     7
 10
242.6128582149348
 20
159.3871417850651
 30
0.0
 11
242.9858708370662
 21
159.8416688725808
 31
0.0
  0
LINE
  5
119
  8
1
  6
CONTINUOUS
 62
     7
 10
242.9858708370662
 20
159.8416688725808
 30
0.0
 11
243.2630398686798
 21
160.3602499559763
 31
0.0
  0
LINE
  5
11A
  8
1
  6
CONTINUOUS
 62
     7
 10
243.2630398686798
 20
160.3602499559763
 30
0.0
 11
243.433717976411
 21
160.9229639580686
 31
0.0
  0
LINE
  5
11B
  8
1
  6
CONTINUOUS
 62
     7
 10
243.433717976411
 20
160.9229639580686
 30
0.0
 11
243.4913486315578
 21
161.5081944539113
 31
0.0
  0
LINE
  5
11C
  8
1
  6
CONTINUOUS
 62
     7
 10
243.4913486315579
 20
208.4918055460886
 30
0.0
 11
243.4913486315579
 21
161.5081944539113
 31
0.0
  0
LINE
  5
11D
  8
1
  6
CONTINUOUS
 62
     7
 10
243.4913486315578
 20
208.4918055460887
 30
0.0
 11
243.4337179764111
 21
209.0770360419314
 31
0.0
  0
LINE
  5
11E
  8
1
  6
CONTINUOUS
 62
     7
 10
243.4337179764111
 20
209.0770360419314
 30
0.0
 11
243.2630398686798
 21
209.6397500440237
 31
0.0
  0
LINE
  5
11F
  8
1
  6
CONTINUOUS
 62
     7
 10
243.2630398686798
 20
209.6397500440237
 30
0.0
 11
242.9858708370662
 21
210.1583311274192
 31
0.0
  0
LINE
  5
120
  8
1
  6
CONTINUOUS
 62
     7
 10
242.9858708370662
 20
210.1583311274192
 30
0.0
 11
242.6128582149348
 21
210.6128582149348
 31
0.0
  0
LINE
  5
121
  8
1
  6
CONTINUOUS
 62
     7
 10
242.6128582149348
 20
210.6128582149348
 30
0.0
 11
242.1583311274192
 21
210.9858708370662
 31
0.0
  0
LINE
  5
122
  8
1
  6
CONTINUOUS
 62
     7
 10
242.1583311274192
 20
210.9858708370662
 30
0.0
 11
241.6397500440236
 21
211.2630398686798
 31
0.0
  0
LINE
  5
123
  8
1
  6
CONTINUOUS
 62
     7
 10
241.6397500440236
 20
211.2630398686798
 30
0.0
 11
241.0770360419314
 21
211.433717976411
 31
0.0
  0
LINE
  5
124
  8
1
  6
CONTINUOUS
 62
     7
 10
241.0770360419314
 20
211.433717976411
 30
0.0
 11
240.4918055460887
 21
211.4913486315579
 31
0.0
  0
LINE
  5
125
  8
1
  6
CONTINUOUS
 62
     7
 10
69.50819445391136
 20
211.4913486315579
 30
0.0
 11
240.4918055460887
 21
211.4913486315578
 31
0.0
  0
LINE
  5
126
  8
1
  6
CONTINUOUS
 62
     7
 10
69.50819445391137
 20
211.4913486315578
 30
0.0
 11
68.92296395806862
 21
211.4337179764111
 31
0.0
  0
LINE
  5
127
  8
1
  6
CONTINUOUS
 62
     7
 10
68.92296395806862
 20
211.4337179764111
 30
0.0
 11
68.3602499559764
 21
211.2630398686798
 31
0.0
  0
LINE
  5
128
  8
1
  6
CONTINUOUS
 62
     7
 10
68.3602499559764
 20
211.2630398686798
 30
0.0
 11
67.84166887258085
 21
210.9858708370662
 31
0.0
  0
LINE
  5
129
  8
1
  6
CONTINUOUS
 62
     7
 10
67.84166887258085
 20
210.9858708370662
 30
0.0
 11
67.38714178506518
 21
210.6128582149348
 31
0.0
  0
LINE
  5
12A
  8
1
  6
CONTINUOUS
 62
     7
 10
67.38714178506518
 20
210.6128582149348
 30
0.0
 11
67.01412916293383
 21
210.1583311274192
 31
0.0
  0
LINE
  5
12B
  8
1
  6
CONTINUOUS
 62
     7
 10
67.01412916293383
 20
210.1583311274192
 30
0.0
 11
66.73696013132019
 21
209.6397500440236
 31
0.0
  0
LINE
  5
12C
  8
1
  6
CONTINUOUS
 62
     7
 10
66.73696013132019
 20
209.6397500440236
 30
0.0
 11
66.56628202358897
 21
209.0770360419314
 31
0.0
  0
LINE
  5
12D
  8
1
  6
CONTINUOUS
 62
     7
 10
66.56628202358897
 20
209.0770360419314
 30
0.0
 11
66.50865136844219
 21
208.4918055460887
 31
0.0
  0
LINE
  5
12E
  8
1
  6
CONTINUOUS
 62
     7
 10
66.50865136844217
 20
161.5081944539113
 30
0.0
 11
66.50865136844217
 21
208.4918055460887
 31
0.0
  0
LINE
  5
12F
  8
1
  6
CONTINUOUS
 62
     7
 10
66.50865136844216
 20
161.5081944539113
 30
0.0
 11
66.56628202358895
 21
160.9229639580686
 31
0.0
  0
LINE
  5
130
  8
1
  6
CONTINUOUS
 62
     7
 10
66.56628202358895
 20
160.9229639580686
 30
0.0
 11
66.73696013132016
 21
160.3602499559764
 31
0.0
  0
LINE
  5
131
  8
1
  6
CONTINUOUS
 62
     7
 10
66.73696013132016
 20
160.3602499559764
 30
0.0
 11
67.0141291629338
 21
159.8416688725808
 31
0.0
  0
LINE
  5
132
  8
1
  6
CONTINUOUS
 62
     7
 10
67.0141291629338
 20
159.8416688725808
 30
0.0
 11
67.38714178506515
 21
159.3871417850651
 31
0.0
  0
LINE
  5
133
  8
1
  6
CONTINUOUS
 62
     7
 10
67.38714178506515
 20
159.3871417850651
 30
0.0
 11
67.84166887258083
 21
159.0141291629338
 31
0.0
  0
LINE
  5
134
  8
1
  6
CONTINUOUS
 62
     7
 10
67.84166887258083
 20
159.0141291629338
 30
0.0
 11
68.36024995597637
 21
158.7369601313201
 31
0.0
  0
LINE
  5
135
  8
1
  6
CONTINUOUS
 62
     7
 10
68.36024995597637
 20
158.7369601313201
 30
0.0
 11
68.92296395806859
 21
158.5662820235889
 31
0.0
  0
LINE
  5
136
  8
1
  6
CONTINUOUS
 62
     7
 10
68.92296395806859
 20
158.5662820235889
 30
0.0
 11
69.50819445391134
 21
158.5086513684421
 31
0.0
  0
LINE
  5
137
  8
1
  6
CONTINUOUS
 62
     7
 10
240.4918055460886
 20
158.5086513684421
 30
0.0
 11
69.50819445391134
 21
158.5086513684422
 31
0.0
  0
LINE
  5
138
  8
1
  6
CONTINUOUS
 62
     7
 10
247.0
 20
178.5
 30
0.0
 11
248.5
 21
180.0
 31
0.0
  0
LINE
  5
139
  8
1
  6
CONTINUOUS
 62
     7
 10
248.5
 20
180.0
 30
0.0
 11
248.5
 21
210.0
 31
0.0
  0
LINE
  5
13A
  8
1
  6
CONTINUOUS
 62
     7
 10
248.5
 20
177.0
 30
0.0
 11
247.0
 21
178.5
 31
0.0
  0
LINE
  5
13B
  8
1
  6
CONTINUOUS
 62
     7
 10
61.49999999999997
 20
177.0
 30
0.0
 11
61.5
 21
160.0
 31
0.0
  0
LINE
  5
13C
  8
1
  6
CONTINUOUS
 62
     7
 10
308.3229563742184
 20
180.0
 30
0.0
 11
308.3229563742184
 21
210.0
 31
0.0
  0
LINE
  5
13D
  8
1
  6
CONTINUOUS
 62
     7
 10
308.8229563742184
 20
180.0
 30
0.0
 11
308.8229563742184
 21
210.0
 31
0.0
  0
LINE
  5
13E
  8
1
  6
CONTINUOUS
 62
     7
 10
308.3229563742184
 20
178.5
 30
0.0
 11
308.3229563742184
 21
180.0
 31
0.0
  0
LINE
  5
13F
  8
1
  6
CONTINUOUS
 62
     7
 10
308.8229563742184
 20
178.5
 30
0.0
 11
308.8229563742184
 21
180.0
 31
0.0
  0
LINE
  5
140
  8
1
  6
CONTINUOUS
 62
     7
 10
308.3229563742184
 20
160.0
 30
0.0
 11
308.3229563742184
 21
177.0
 31
0.0
  0
LINE
  5
141
  8
1
  6
CONTINUOUS
 62
     7
 10
308.8229563742184
 20
160.0
 30
0.0
 11
308.8229563742184
 21
177.0
 31
0.0
  0
LINE
  5
142
  8
1
  6
CONTINUOUS
 62
     7
 10
308.3229563742184
 20
177.0
 30
0.0
 11
308.3229563742184
 21
178.5
 31
0.0
  0
LINE
  5
143
  8
1
  6
CONTINUOUS
 62
     7
 10
308.8229563742184
 20
177.0
 30
0.0
 11
308.8229563742184
 21
178.5
 31
0.0
  0
LINE
  5
144
  8
1
  6
CONTINUOUS
 62
     7
 10
308.3229563742184
 20
220.0
 30
0.0
 11
308.8229563742184
 21
220.0
 31
0.0
  0
LINE
  5
145
  8
1
  6
CONTINUOUS
 62
     7
 10
308.3229563742184
 20
210.0
 30
0.0
 11
308.3229563742184
 21
220.0
 31
0.0
  0
LINE
  5
146
  8
1
  6
CONTINUOUS
 62
     7
 10
308.8229563742184
 20
220.0
 30
0.0
 11
308.8229563742184
 21
210.0
 31
0.0
  0
LINE
  5
147
  8
1
  6
CONTINUOUS
 62
     7
 10
308.8229563742184
 20
150.0
 30
0.0
 11
308.3229563742184
 21
150.0
 31
0.0
  0
LINE
  5
148
  8
1
  6
CONTINUOUS
 62
     7
 10
308.3229563742184
 20
150.0
 30
0.0
 11
308.3229563742184
 21
160.0
 31
0.0
  0
LINE
  5
149
  8
1
  6
CONTINUOUS
 62
     7
 10
308.8229563742184
 20
160.0
 30
0.0
 11
308.8229563742184
 21
150.0
 31
0.0
  0
LINE
  5
14A
  8
1
  6
CONTINUOUS
 62
     7
 10
308.8229563742184
 20
211.5
 30
0.0
 11
351.3753135935303
 21
210.7572458418882
 31
0.0
  0
LINE
  5
14B
  8
1
  6
CONTINUOUS
 62
     7
 10
354.3229563742184
 20
207.757702756419
 30
0.0
 11
354.3229563742184
 21
207.7148266763173
 31
0.0
  0
LINE
  5
14C
  8
1
  6
CONTINUOUS
 62
     7
 10
354.3229563742184
 20
207.7148266763173
 30
0.0
 11
354.3229563742184
 21
162.2851733236827
 31
0.0
  0
ARC
  5
14D
  8
1
  6
CONTINUOUS
 62
     7
 10
351.3229563742184
 20
207.757702756419
 30
0.0
 40
3.0
 50
0.0
 51
89.00000000000001
  0
ARC
  5
14E
  8
1
  6
CONTINUOUS
 62
     7
 10
351.3229563742184
 20
162.242297243581
 30
0.0
 40
3.0
 50
271.0
 51
316.7520719602825
  0
ARC
  5
14F
  8
1
  6
CONTINUOUS
 62
     7
 10
351.3094798711239
 20
162.2400481028252
 30
0.0
 40
3.004084422754334
 50
316.6357114338965
 51
0.011350170963965
  0
TEXT
  5
150
  8
1
  6
CONTINUOUS
 62
     7
 10
304.0477991746905
 20
23.37886082280858
 30
0.0
 40
10.0
  1
SB-K3FY-K
  0
LINE
  5
151
  8
1
  6
CONTINUOUS
 62
     7
 10
67.49999999999989
 20
161.5
 30
0.0
 11
67.49999999999989
 21
195.4999999999999
 31
0.0
  0
LINE
  5
152
  8
1
  6
CONTINUOUS
 62
     7
 10
351.3753135935303
 20
159.2427541581118
 30
0.0
 11
308.8229563742184
 21
158.4999999999999
 31
0.0
  0
LINE
  5
153
  8
1
  6
CENTER
 62
     1
 10
155.0000000000001
 20
150.0
 30
0.0
 11
155.0
 21
220.0000000000001
 31
0.0
  0
CIRCLE
  5
155
  8
1
  6
CONTINUOUS
 62
     7
 10
155.0
 20
178.5
 30
0.0
 40
8.2
  0
LINE
  5
156
  8
1
  6
CONTINUOUS
 62
     7
 10
75.15000000000019
 20
164.6499999999999
 30
0.0
 11
234.8500000000004
 21
164.6499999999999
 31
0.0
  0
LINE
  5
157
  8
1
  6
CONTINUOUS
 62
     7
 10
67.28563023821356
 20
58.66831742256289
 30
0.0
 11
66.5
 21
103.6770436257815
 31
0.0
  0
LINE
  5
158
  8
1
  6
CENTER
 62
     1
 10
61.49999999999997
 20
178.5
 30
0.0
 11
248.5
 21
178.5
 31
0.0
  0
LINE
  5
159
  8
1
  6
CONTINUOUS
 62
     7
 10
234.8500000000004
 20
192.35
 30
0.0
 11
75.15000000000019
 21
192.35
 31
0.0
  0
LINE
  5
15A
  8
1
  6
CENTER
 62
     1
 10
330.0
 20
69.0
 30
0.0
 11
330.0
 21
61.0
 31
0.0
  0
LINE
  5
15B
  8
1
  6
CENTER
 62
     1
 10
314.0
 20
95.0
 30
0.0
 11
346.0
 21
95.0
 31
0.0
  0
LINE
  5
15C
  8
1
  6
CENTER
 62
     1
 10
330.0
 20
79.0
 30
0.0
 11
330.0
 21
111.0
 31
0.0
  0
LINE
  5
15D
  8
1
  6
CENTER
 62
     1
 10
248.5
 20
185.0
 30
0.0
 11
61.5
 21
185.0
 31
0.0
  0
LINE
  5
15E
  8
1
  6
CENTER
 62
     1
 10
308.3229563742184
 20
178.5
 30
0.0
 11
354.3229563742184
 21
178.5
 31
0.0
  0
LINE
  5
15F
  8
1
  6
CONTINUOUS
 62
     7
 10
243.5
 20
103.6770436257815
 30
0.0
 11
242.7143697617865
 21
58.66831742256289
 31
0.0
  0
LINE
  5
160
  8
1
  6
CENTER
 62
     1
 10
155.0
 20
104.1770436257814
 30
0.0
 11
155.0
 21
58.17704362578154
 31
0.0
  0
LINE
  5
161
  8
1
  6
CENTER
 62
     1
 10
308.3229563742184
 20
185.0
 30
0.0
 11
354.3229563742184
 21
185.0
 31
0.0
  0
ENDSEC
  0
EOF
