  0
SECTION
  2
HEADER
  9
$ACADVER
  1
AC1004
  9
$INSBASE
 10
0.0
 20
0.0
  9
$EXTMIN
 10
0.0
 20
0.0
  9
$EXTMAX
 10
662.3272727272729
 20
172.5272727272727
  9
$LIMMIN
 10
0.0
 20
0.0
  9
$LIMMAX
 10
12.0
 20
9.0
  9
$ORTHOMODE
 70
     0
  9
$REGENMODE
 70
     1
  9
$FILLMODE
 70
     1
  9
$QTEXTMODE
 70
     0
  9
$DRAGMODE
 70
     2
  9
$LTSCALE
 40
1.0
  9
$OSMODE
 70
    37
  9
$ATTMODE
 70
     1
  9
$TEXTSIZE
 40
0.2
  9
$TRACEWID
 40
0.05
  9
$TEXTSTYLE
  7
STANDARD
  9
$CLAYER
  8
0
  9
$CELTYPE
  6
BYLAYER
  9
$CECOLOR
 62
   256
  9
$DIMSCALE
 40
1.0
  9
$DIMASZ
 40
3.0
  9
$DIMEXO
 40
0.0625
  9
$DIMDLI
 40
0.38
  9
$DIMRND
 40
0.0
  9
$DIMDLE
 40
0.0
  9
$DIMEXE
 40
1.5
  9
$DIMTP
 40
0.0
  9
$DIMTM
 40
0.0
  9
$DIMTXT
 40
3.0
  9
$DIMCEN
 40
0.09
  9
$DIMTSZ
 40
0.0
  9
$DIMTOL
 70
     0
  9
$DIMLIM
 70
     0
  9
$DIMTIH
 70
     1
  9
$DIMTOH
 70
     1
  9
$DIMSE1
 70
     0
  9
$DIMSE2
 70
     0
  9
$DIMTAD
 70
     1
  9
$DIMZIN
 70
     0
  9
$DIMBLK
  1

  9
$DIMASO
 70
     1
  9
$DIMSHO
 70
     1
  9
$DIMPOST
  1

  9
$DIMAPOST
  1

  9
$DIMALT
 70
     0
  9
$DIMALTD
 70
     2
  9
$DIMALTF
 40
25.4
  9
$DIMLFAC
 40
1.0
  9
$DIMTOFL
 70
     0
  9
$DIMTVP
 40
0.0
  9
$DIMTIX
 70
     0
  9
$DIMSOXD
 70
     0
  9
$DIMSAH
 70
     0
  9
$DIMBLK1
  1

  9
$DIMBLK2
  1

  9
$LUNITS
 70
     2
  9
$LUPREC
 70
     4
  9
$SKETCHINC
 40
0.1
  9
$FILLETRAD
 40
0.5
  9
$AUNITS
 70
     0
  9
$AUPREC
 70
     0
  9
$MENU
  1
.
  9
$ELEVATION
 40
0.0
  9
$THICKNESS
 40
0.0
  9
$LIMCHECK
 70
     0
  9
$CHAMFERA
 40
0.0
  9
$CHAMFERB
 40
0.0
  9
$SKPOLY
 70
     0
  9
$TDCREATE
 40
2460053.378928658
  9
$TDUPDATE
 40
2460053.378933519
  9
$TDINDWG
 40
0.0000000116
  9
$TDUSRTIMER
 40
0.0000000116
  9
$USRTIMER
 70
     1
  9
$ANGBASE
 50
0.0
  9
$ANGDIR
 70
     0
  9
$PDMODE
 70
     0
  9
$PDSIZE
 40
0.0
  9
$PLINEWID
 40
0.0
  9
$COORDS
 70
     1
  9
$SPLFRAME
 70
     0
  9
$SPLINETYPE
 70
     6
  9
$SPLINESEGS
 70
     8
  9
$ATTDIA
 70
     0
  9
$ATTREQ
 70
     1
  9
$SURFTAB1
 70
     6
  9
$SURFTAB2
 70
     6
  9
$SURFTYPE
 70
     6
  9
$SURFU
 70
     6
  9
$SURFV
 70
     6
  9
$UCSNAME
  2

  9
$UCSORG
 10
0.0
 20
0.0
 30
0.0
  9
$UCSXDIR
 10
1.0
 20
0.0
 30
0.0
  9
$UCSYDIR
 10
0.0
 20
1.0
 30
0.0
  9
$USERI1
 70
     0
  9
$USERI2
 70
     0
  9
$USERI3
 70
     0
  9
$USERI4
 70
     0
  9
$USERI5
 70
     0
  9
$USERR1
 40
0.0
  9
$USERR2
 40
0.0
  9
$USERR3
 40
0.0
  9
$USERR4
 40
0.0
  9
$USERR5
 40
0.0
  9
$WORLDVIEW
 70
     1
  0
ENDSEC
  0
SECTION
  2
TABLES
  0
TABLE
  2
LTYPE
 70
     2
  0
LTYPE
  2
CONTINUOUS
 70
     0
  3
Solid line
 72
    65
 73
     0
 40
0.0
  0
LTYPE
  2
CENTER
 70
     0
  3

 72
    65
 73
     0
 40
0.0
  0
ENDTAB
  0
TABLE
  2
LAYER
 70
     3
  0
LAYER
  2
0
 70
     0
 62
     7
  6
CONTINUOUS
  0
LAYER
  2
図面枠
 70
     0
 62
     7
  6
CONTINUOUS
  0
LAYER
  2
1
 70
     0
 62
     7
  6
CONTINUOUS
  0
ENDTAB
  0
TABLE
  2
STYLE
 70
     2
  0
STYLE
  2
STANDARD
 70
     0
 40
0.0
 41
1.0
 50
0.0
 71
     0
 42
0.2
  3
txt
  4

  0
STYLE
  2
ＭＳ_ゴシック
 70
     0
 40
0.0
 41
1.0
 50
0.0
 71
     0
 42
0.2
  3
ＭＳ ゴシック.shx
  4

  0
ENDTAB
  0
TABLE
  2
VIEW
 70
     0
  0
ENDTAB
  0
ENDSEC
  0
SECTION
  2
BLOCKS
  0
BLOCK
  8
0
  2
D_FRAME_DRAWING_17
 70
     0
 10
0.0
 20
0.0
  0
LINE
  8
図面枠
  6
CONTINUOUS
 62
     7
 10
0.0
 20
0.0
 11
297.0
 21
0.0
  0
LINE
  8
図面枠
  6
CONTINUOUS
 62
     7
 10
297.0
 20
0.0
 11
297.0
 21
210.0
  0
LINE
  8
図面枠
  6
CONTINUOUS
 62
     7
 10
297.0
 20
210.0
 11
0.0
 21
210.0
  0
LINE
  8
図面枠
  6
CONTINUOUS
 62
     7
 10
0.0
 20
210.0
 11
0.0
 21
0.0
  0
ENDBLK
  8
0
  0
BLOCK
  8
0
  2
D_FRAME_VIEW_5836
 70
     0
 10
0.0
 20
0.0
  0
LINE
  8
1
  6
CONTINUOUS
 62
     7
 10
645.4500000000002
 20
84.3
 11
645.0921222652576
 21
43.29127346450165
  0
ARC
  8
1
  6
CONTINUOUS
 62
     7
 10
585.4500000000002
 20
57.80000000000002
 40
2.5
 50
0.0
 51
90.0
  0
ARC
  8
1
  6
CONTINUOUS
 62
     7
 10
510.45
 20
57.80000000000002
 40
2.5
 50
90.0
 51
180.0
  0
LINE
  8
1
  6
CONTINUOUS
 62
     7
 10
555.45
 20
60.30000000000002
 11
540.45
 21
60.30000000000002
  0
ARC
  8
1
  6
CONTINUOUS
 62
     7
 10
615.45
 20
57.80000000000002
 40
2.5
 50
0.0
 51
90.0
  0
ARC
  8
1
  6
CONTINUOUS
 62
     7
 10
540.45
 20
57.80000000000002
 40
2.5
 50
90.0
 51
180.0
  0
ARC
  8
1
  6
CONTINUOUS
 62
     7
 10
525.45
 20
57.80000000000002
 40
2.5
 50
0.0
 51
90.0
  0
LINE
  8
1
  6
CONTINUOUS
 62
     7
 10
585.4500000000002
 20
60.30000000000002
 11
570.4500000000002
 21
60.30000000000002
  0
LINE
  8
1
  6
CONTINUOUS
 62
     7
 10
525.45
 20
60.30000000000002
 11
510.45
 21
60.30000000000002
  0
ARC
  8
1
  6
CONTINUOUS
 62
     7
 10
600.4500000000002
 20
57.80000000000002
 40
2.5
 50
90.0
 51
180.0
  0
ARC
  8
1
  6
CONTINUOUS
 62
     7
 10
570.4500000000002
 20
57.80000000000002
 40
2.5
 50
90.0
 51
180.0
  0
ARC
  8
1
  6
CONTINUOUS
 62
     7
 10
555.45
 20
57.80000000000002
 40
2.5
 50
0.0
 51
90.0
  0
LINE
  8
1
  6
CONTINUOUS
 62
     7
 10
615.45
 20
60.30000000000002
 11
600.4500000000002
 21
60.30000000000002
  0
LINE
  8
1
  6
CONTINUOUS
 62
     7
 10
537.9500000000002
 20
57.80000000000002
 11
537.9500000000002
 21
43.30000000000002
  0
LINE
  8
1
  6
CONTINUOUS
 62
     7
 10
597.95
 20
57.80000000000002
 11
597.95
 21
43.30000000000002
  0
LINE
  8
1
  6
CONTINUOUS
 62
     7
 10
617.95
 20
43.30000000000002
 11
617.95
 21
57.80000000000003
  0
LINE
  8
1
  6
CONTINUOUS
 62
     7
 10
587.95
 20
43.30000000000002
 11
587.95
 21
57.80000000000003
  0
LINE
  8
1
  6
CONTINUOUS
 62
     7
 10
507.9500000000001
 20
57.80000000000002
 11
507.9500000000001
 21
43.30000000000002
  0
LINE
  8
1
  6
CONTINUOUS
 62
     7
 10
567.95
 20
57.80000000000002
 11
567.95
 21
43.30000000000002
  0
LINE
  8
1
  6
CONTINUOUS
 62
     7
 10
527.9500000000002
 20
43.30000000000002
 11
527.9500000000002
 21
57.80000000000003
  0
LINE
  8
1
  6
CONTINUOUS
 62
     7
 10
557.9500000000002
 20
43.30000000000002
 11
557.9500000000002
 21
57.80000000000003
  0
ARC
  8
1
  6
CONTINUOUS
 62
     7
 10
596.95
 20
43.30000000000002
 40
1.000000000000001
 50
270.0000000000004
 51
0.0
  0
ARC
  8
1
  6
CONTINUOUS
 62
     7
 10
528.9500000000002
 20
43.30000000000002
 40
1.000000000000001
 50
180.0
 51
270.0
  0
ARC
  8
1
  6
CONTINUOUS
 62
     7
 10
566.95
 20
43.30000000000002
 40
1.000000000000001
 50
270.0000000000002
 51
0.0
  0
ARC
  8
1
  6
CONTINUOUS
 62
     7
 10
506.9500000000001
 20
43.30000000000002
 40
1.000000000000001
 50
270.0
 51
0.0
  0
ARC
  8
1
  6
CONTINUOUS
 62
     7
 10
618.95
 20
43.30000000000002
 40
1.000000000000001
 50
180.0
 51
270.0000000000007
  0
ARC
  8
1
  6
CONTINUOUS
 62
     7
 10
588.95
 20
43.30000000000002
 40
1.000000000000001
 50
180.0
 51
270.0
  0
ARC
  8
1
  6
CONTINUOUS
 62
     7
 10
536.9500000000002
 20
43.30000000000002
 40
1.000000000000001
 50
270.0
 51
0.0
  0
ARC
  8
1
  6
CONTINUOUS
 62
     7
 10
644.0921603421934
 20
43.30000000000002
 40
1.000000000000003
 50
270.0
 51
359.5000000000001
  0
ARC
  8
1
  6
CONTINUOUS
 62
     7
 10
558.95
 20
43.30000000000002
 40
0.9999999999998899
 50
180.0
 51
270.0000000000001
  0
ENDBLK
  8
0
  0
BLOCK
  8
0
  2
D_FRAME_VIEW_6026
 70
     0
 10
0.0
 20
0.0
  0
LINE
  8
1
  6
CONTINUOUS
 62
     7
 10
407.3500000000004
 20
149.9334715527882
 11
407.3500000000004
 21
147.6403478438396
  0
LINE
  8
1
  6
CONTINUOUS
 62
     7
 10
408.3500000000004
 20
147.6316209760488
 11
407.3500000000004
 21
147.6403478438396
  0
LINE
  8
1
  6
CONTINUOUS
 62
     7
 10
407.3500000000004
 20
121.6665284472118
 11
407.3500000000004
 21
123.9596521561604
  0
LINE
  8
1
  6
CONTINUOUS
 62
     7
 10
407.3500000000004
 20
123.9596521561604
 11
408.3500000000004
 21
123.9683790239512
  0
ARC
  8
1
  6
CONTINUOUS
 62
     7
 10
444.3499999999999
 20
126.28262242119
 40
2.000000000000002
 50
270.5000000000001
 51
0.0000000000011937
  0
ARC
  8
1
  6
CONTINUOUS
 62
     7
 10
444.3499999999999
 20
145.31737757881
 40
2.000000000000006
 50
359.9999999999987
 51
89.5
  0
LINE
  8
1
  6
CONTINUOUS
 62
     7
 10
452.35
 20
149.8
 11
452.35
 21
152.8
  0
LINE
  8
1
  6
CONTINUOUS
 62
     7
 10
408.3500000000004
 20
147.6316209760488
 11
444.3674530709966
 21
147.3173014249384
  0
LINE
  8
1
  6
CONTINUOUS
 62
     7
 10
408.3500000000004
 20
123.9683790239512
 11
444.3674530709966
 21
124.2826985750616
  0
LINE
  8
1
  6
CONTINUOUS
 62
     7
 10
452.35
 20
116.3
 11
449.35
 21
116.3
  0
LINE
  8
1
  6
CONTINUOUS
 62
     7
 10
449.35
 20
155.3
 11
452.35
 21
155.3
  0
ARC
  8
1
  6
CONTINUOUS
 62
     7
 10
444.3499999999999
 20
126.3173775788101
 40
2.000000000000006
 50
0.0
 51
89.5
  0
LINE
  8
1
  6
CONTINUOUS
 62
     7
 10
407.35
 20
128.6403478438396
 11
444.3674530709966
 21
128.3173014249384
  0
LINE
  8
1
  6
CONTINUOUS
 62
     7
 10
407.35
 20
131.3
 11
407.35
 21
128.6403478438396
  0
LINE
  8
1
  6
CONTINUOUS
 62
     7
 10
444.3674530709966
 20
143.2826985750616
 11
407.35
 21
142.9596521561604
  0
ARC
  8
1
  6
CONTINUOUS
 62
     7
 10
444.3499999999999
 20
145.2826224211899
 40
2.000000000000002
 50
270.5000000000001
 51
0.0
  0
LINE
  8
1
  6
CONTINUOUS
 62
     7
 10
407.35
 20
140.3
 11
407.35
 21
142.9596521561604
  0
LINE
  8
1
  6
CONTINUOUS
 62
     7
 10
407.35
 20
131.3
 11
407.35
 21
140.3
  0
LINE
  8
1
  6
CONTINUOUS
 62
     7
 10
452.35
 20
136.55
 11
452.35
 21
149.8
  0
LINE
  8
1
  6
CONTINUOUS
 62
     7
 10
449.35
 20
119.3
 11
408.3412734645017
 21
119.6578777347427
  0
LINE
  8
1
  6
CONTINUOUS
 62
     7
 10
408.3412734645017
 20
151.9421222652574
 11
449.35
 21
152.3
  0
LINE
  8
1
  6
CONTINUOUS
 62
     7
 10
407.35
 20
150.3
 11
407.35
 21
150.9421603421932
  0
ARC
  8
1
  6
CONTINUOUS
 62
     7
 10
408.35
 20
120.6578396578068
 40
1.000000000000001
 50
180.0
 51
269.4999999999999
  0
LINE
  8
1
  6
CONTINUOUS
 62
     7
 10
407.35
 20
120.6578396578068
 11
407.35
 21
121.3
  0
ARC
  8
1
  6
CONTINUOUS
 62
     7
 10
408.35
 20
150.9421603421932
 40
1.000000000000003
 50
90.5000000000001
 51
179.9999999999998
  0
LINE
  8
1
  6
CONTINUOUS
 62
     7
 10
407.35
 20
150.3
 11
407.35
 21
149.9334715527882
  0
LINE
  8
1
  6
CONTINUOUS
 62
     7
 10
407.35
 20
121.6665284472118
 11
407.35
 21
121.3
  0
LINE
  8
1
  6
CONTINUOUS
 62
     7
 10
407.3500000000001
 20
142.9596521561604
 11
407.3500000000001
 21
147.6403478438396
  0
LINE
  8
1
  6
CONTINUOUS
 62
     7
 10
407.3500000000001
 20
123.9596521561604
 11
407.3500000000001
 21
128.6403478438396
  0
ARC
  8
1
  6
CONTINUOUS
 62
     7
 10
411.35
 20
117.3
 40
1.0
 50
180.0
 51
270.0
  0
LINE
  8
1
  6
CONTINUOUS
 62
     7
 10
410.35
 20
117.3
 11
410.35
 21
119.6403478438396
  0
LINE
  8
1
  6
CONTINUOUS
 62
     7
 10
449.35
 20
116.3
 11
411.35
 21
116.3
  0
LINE
  8
1
  6
CONTINUOUS
 62
     7
 10
410.35
 20
154.3
 11
410.35
 21
151.9596521561604
  0
ARC
  8
1
  6
CONTINUOUS
 62
     7
 10
411.35
 20
154.3
 40
1.0
 50
90.0
 51
180.0
  0
LINE
  8
1
  6
CONTINUOUS
 62
     7
 10
449.35
 20
155.3
 11
411.35
 21
155.3
  0
ENDBLK
  8
0
  0
BLOCK
  8
0
  2
D_FRAME_VIEW_4825
 70
     0
 10
0.0
 20
0.0
  0
ARC
  8
1
  6
CONTINUOUS
 62
     7
 10
477.9499999999999
 20
118.8
 40
2.500000000000002
 50
180.0
 51
270.0000000000064
  0
ARC
  8
1
  6
CONTINUOUS
 62
     7
 10
477.9499999999999
 20
152.8
 40
2.499999999999999
 50
90.0
 51
180.0000000000003
  0
LINE
  8
1
  6
CONTINUOUS
 62
     7
 10
642.8000000000005
 20
121.95
 11
642.8000000000005
 21
149.65
  0
LINE
  8
1
  6
CONTINUOUS
 62
     7
 10
483.1000000000002
 20
149.65
 11
483.1000000000002
 21
121.95
  0
ARC
  8
1
  6
CONTINUOUS
 62
     7
 10
647.9499999999998
 20
152.8
 40
2.500000000000002
 50
0.0
 51
90.00000000000638
  0
LINE
  8
1
  6
CONTINUOUS
 62
     7
 10
650.4499999999997
 20
152.8
 11
650.4499999999997
 21
118.8
  0
ARC
  8
1
  6
CONTINUOUS
 62
     7
 10
647.9499999999998
 20
118.8
 40
2.499999999999999
 50
270.0
 51
0.0000000000002274
  0
LINE
  8
1
  6
CONTINUOUS
 62
     7
 10
639.95
 20
130.8
 11
642.712731322093
 21
130.8
  0
LINE
  8
1
  6
CONTINUOUS
 62
     7
 10
642.7127313220928
 20
140.8
 11
639.9499999999999
 21
140.8
  0
ARC
  8
1
  6
CONTINUOUS
 62
     7
 10
639.95
 20
135.8
 40
5.000000000000018
 50
90.00000000000016
 51
270.0
  0
LINE
  8
1
  6
CONTINUOUS
 62
     7
 10
483.1872686779078
 20
140.8
 11
485.9500000000001
 21
140.8
  0
LINE
  8
1
  6
CONTINUOUS
 62
     7
 10
485.9500000000001
 20
130.8
 11
483.1872686779078
 21
130.8
  0
ARC
  8
1
  6
CONTINUOUS
 62
     7
 10
485.9500000000001
 20
135.8
 40
5.000000000000018
 50
270.0
 51
89.99999999999982
  0
ARC
  8
1
  6
CONTINUOUS
 62
     7
 10
485.95
 20
135.8
 40
2.100000000000005
 50
270.0000000000026
 51
89.99999999999726
  0
ARC
  8
1
  6
CONTINUOUS
 62
     7
 10
639.95
 20
135.8
 40
2.100000000000005
 50
90.00000000000266
 51
269.9999999999973
  0
ARC
  8
1
  6
CONTINUOUS
 62
     7
 10
639.95
 20
135.8
 40
2.100000000000005
 50
269.9999999999973
 51
90.00000000000261
  0
ARC
  8
1
  6
CONTINUOUS
 62
     7
 10
485.95
 20
135.8
 40
2.100000000000005
 50
89.99999999999736
 51
270.0000000000026
  0
ARC
  8
1
  6
CONTINUOUS
 62
     7
 10
517.95
 20
135.8
 40
10.0
 50
187.1180687170459
 51
216.8698976458439
  0
LINE
  8
1
  6
CONTINUOUS
 62
     7
 10
508.0270709024725
 20
134.5608558899614
 11
507.5077780142348
 21
134.7
  0
ARC
  8
1
  6
CONTINUOUS
 62
     7
 10
517.95
 20
135.8
 40
10.5
 50
186.0134490528181
 51
216.869897645844
  0
ARC
  8
1
  6
CONTINUOUS
 62
     7
 10
511.95
 20
131.3
 40
3.0
 50
216.869897645844
 51
270.0
  0
LINE
  8
1
  6
CONTINUOUS
 62
     7
 10
511.95
 20
128.3
 11
523.95
 21
128.3
  0
ARC
  8
1
  6
CONTINUOUS
 62
     7
 10
523.95
 20
131.3
 40
3.000000000000001
 50
270.0
 51
323.130102354156
  0
ARC
  8
1
  6
CONTINUOUS
 62
     7
 10
517.95
 20
135.8
 40
10.5
 50
323.130102354156
 51
353.9865509471819
  0
LINE
  8
1
  6
CONTINUOUS
 62
     7
 10
528.3922219857653
 20
134.7
 11
527.8729290975275
 21
134.5608558899614
  0
ARC
  8
1
  6
CONTINUOUS
 62
     7
 10
517.95
 20
135.8
 40
10.0
 50
323.1301023541562
 51
352.8819312829542
  0
ARC
  8
1
  6
CONTINUOUS
 62
     7
 10
523.95
 20
131.3
 40
2.499999999999997
 50
270.0000000000002
 51
323.1301023541562
  0
LINE
  8
1
  6
CONTINUOUS
 62
     7
 10
523.95
 20
128.8
 11
511.95
 21
128.8
  0
ARC
  8
1
  6
CONTINUOUS
 62
     7
 10
511.95
 20
131.3
 40
2.5
 50
216.8698976458438
 51
270.0
  0
ARC
  8
1
  6
CONTINUOUS
 62
     7
 10
523.95
 20
140.3
 40
2.5
 50
36.86989764584382
 51
90.0
  0
ARC
  8
1
  6
CONTINUOUS
 62
     7
 10
517.95
 20
135.8
 40
10.0
 50
7.118068717045957
 51
36.86989764584393
  0
LINE
  8
1
  6
CONTINUOUS
 62
     7
 10
527.8729290975275
 20
137.0391441100386
 11
528.3922219857653
 21
136.9
  0
ARC
  8
1
  6
CONTINUOUS
 62
     7
 10
517.95
 20
135.8
 40
10.5
 50
6.013449052818125
 51
36.86989764584401
  0
ARC
  8
1
  6
CONTINUOUS
 62
     7
 10
523.95
 20
140.3
 40
3.0
 50
36.86989764584401
 51
90.0
  0
LINE
  8
1
  6
CONTINUOUS
 62
     7
 10
523.95
 20
143.3
 11
511.95
 21
143.3
  0
ARC
  8
1
  6
CONTINUOUS
 62
     7
 10
511.95
 20
140.3
 40
3.000000000000001
 50
90.0
 51
143.130102354156
  0
ARC
  8
1
  6
CONTINUOUS
 62
     7
 10
517.95
 20
135.8
 40
10.5
 50
143.130102354156
 51
173.9865509471819
  0
LINE
  8
1
  6
CONTINUOUS
 62
     7
 10
507.5077780142348
 20
136.9
 11
508.0270709024725
 21
137.0391441100386
  0
ARC
  8
1
  6
CONTINUOUS
 62
     7
 10
517.95
 20
135.8
 40
10.0
 50
143.1301023541561
 51
172.8819312829541
  0
ARC
  8
1
  6
CONTINUOUS
 62
     7
 10
511.95
 20
140.3
 40
2.5
 50
90.00000000000011
 51
143.1301023541561
  0
LINE
  8
1
  6
CONTINUOUS
 62
     7
 10
511.95
 20
142.8
 11
523.95
 21
142.8
  0
ARC
  8
1
  6
CONTINUOUS
 62
     7
 10
607.9499999999999
 20
135.8
 40
10.0
 50
187.1180687170459
 51
216.8698976458439
  0
LINE
  8
1
  6
CONTINUOUS
 62
     7
 10
598.0270709024725
 20
134.5608558899614
 11
597.5077780142346
 21
134.7
  0
ARC
  8
1
  6
CONTINUOUS
 62
     7
 10
607.9499999999999
 20
135.8
 40
10.5
 50
186.0134490528181
 51
216.869897645844
  0
ARC
  8
1
  6
CONTINUOUS
 62
     7
 10
601.9499999999999
 20
131.3
 40
3.0
 50
216.869897645844
 51
270.0
  0
LINE
  8
1
  6
CONTINUOUS
 62
     7
 10
601.9499999999999
 20
128.3
 11
613.9499999999999
 21
128.3
  0
ARC
  8
1
  6
CONTINUOUS
 62
     7
 10
613.9499999999999
 20
131.3
 40
3.000000000000001
 50
270.0
 51
323.130102354156
  0
ARC
  8
1
  6
CONTINUOUS
 62
     7
 10
607.9499999999999
 20
135.8
 40
10.5
 50
323.130102354156
 51
353.9865509471819
  0
LINE
  8
1
  6
CONTINUOUS
 62
     7
 10
618.3922219857652
 20
134.7
 11
617.8729290975274
 21
134.5608558899614
  0
ARC
  8
1
  6
CONTINUOUS
 62
     7
 10
607.9499999999999
 20
135.8
 40
10.0
 50
323.1301023541562
 51
352.8819312829542
  0
ARC
  8
1
  6
CONTINUOUS
 62
     7
 10
613.9499999999999
 20
131.3
 40
2.499999999999997
 50
270.0000000000002
 51
323.1301023541562
  0
LINE
  8
1
  6
CONTINUOUS
 62
     7
 10
613.9499999999999
 20
128.8
 11
601.9499999999999
 21
128.8
  0
ARC
  8
1
  6
CONTINUOUS
 62
     7
 10
601.9499999999999
 20
131.3
 40
2.5
 50
216.8698976458438
 51
270.0
  0
ARC
  8
1
  6
CONTINUOUS
 62
     7
 10
613.9499999999999
 20
140.3
 40
2.5
 50
36.86989764584382
 51
90.0
  0
ARC
  8
1
  6
CONTINUOUS
 62
     7
 10
607.9499999999999
 20
135.8
 40
10.0
 50
7.118068717045957
 51
36.86989764584393
  0
LINE
  8
1
  6
CONTINUOUS
 62
     7
 10
617.8729290975274
 20
137.0391441100386
 11
618.3922219857652
 21
136.9
  0
ARC
  8
1
  6
CONTINUOUS
 62
     7
 10
607.9499999999999
 20
135.8
 40
10.5
 50
6.013449052818125
 51
36.86989764584401
  0
ARC
  8
1
  6
CONTINUOUS
 62
     7
 10
613.9499999999999
 20
140.3
 40
3.0
 50
36.86989764584401
 51
90.0
  0
LINE
  8
1
  6
CONTINUOUS
 62
     7
 10
613.9499999999999
 20
143.3
 11
601.9499999999999
 21
143.3
  0
ARC
  8
1
  6
CONTINUOUS
 62
     7
 10
601.9499999999999
 20
140.3
 40
3.000000000000001
 50
90.0
 51
143.130102354156
  0
ARC
  8
1
  6
CONTINUOUS
 62
     7
 10
607.9499999999999
 20
135.8
 40
10.5
 50
143.130102354156
 51
173.9865509471819
  0
LINE
  8
1
  6
CONTINUOUS
 62
     7
 10
597.5077780142346
 20
136.9
 11
598.0270709024725
 21
137.0391441100386
  0
ARC
  8
1
  6
CONTINUOUS
 62
     7
 10
607.9499999999999
 20
135.8
 40
10.0
 50
143.1301023541561
 51
172.8819312829541
  0
ARC
  8
1
  6
CONTINUOUS
 62
     7
 10
601.9499999999999
 20
140.3
 40
2.5
 50
90.00000000000011
 51
143.1301023541561
  0
LINE
  8
1
  6
CONTINUOUS
 62
     7
 10
601.9499999999999
 20
142.8
 11
613.9499999999999
 21
142.8
  0
ENDBLK
  8
0
  0
ENDSEC
  0
SECTION
  2
ENTITIES
  0
INSERT
  8
図面枠
 62
     7
  2
D_FRAME_DRAWING_17
 10
0.0
 20
0.0
 30
0.0
  0
CIRCLE
  8
1
  6
CONTINUOUS
 62
     7
 10
562.95
 20
135.8
 40
8.5
  0
LINE
  8
1
  6
CONTINUOUS
 62
     7
 10
483.1000000000002
 20
121.95
 11
642.8000000000005
 21
121.95
  0
LINE
  8
1
  6
CONTINUOUS
 62
     7
 10
642.8000000000005
 20
149.65
 11
483.1000000000002
 21
149.65
  0
LINE
  8
1
  6
CONTINUOUS
 62
     7
 10
477.9499999999999
 20
155.3
 11
647.9499999999998
 21
155.3
  0
LINE
  8
1
  6
CONTINUOUS
 62
     7
 10
647.9499999999998
 20
116.3
 11
477.9499999999999
 21
116.3
  0
LINE
  8
1
  6
CONTINUOUS
 62
     7
 10
475.4499999999999
 20
118.8
 11
475.4499999999999
 21
152.8
  0
LINE
  8
1
  6
CONTINUOUS
 62
     7
 10
449.35
 20
116.3
 11
449.35
 21
155.3
  0
LINE
  8
1
  6
CENTER
 62
     1
 10
562.95
 20
42.30000000000002
 11
562.95
 21
87.29999999999994
  0
LINE
  8
1
  6
CENTER
 62
     1
 10
452.35
 20
135.8
 11
407.35
 21
135.8
  0
LINE
  8
1
  6
CONTINUOUS
 62
     7
 10
475.4499999999999
 20
42.30000000000002
 11
475.4499999999999
 21
87.29999999999988
  0
LINE
  8
1
  6
CONTINUOUS
 62
     7
 10
644.0921603421934
 20
42.30000000000002
 11
475.4499999999999
 21
42.30000000000002
  0
LINE
  8
1
  6
CENTER
 62
     1
 10
562.95
 20
116.3
 11
562.95
 21
155.3
  0
LINE
  8
1
  6
CONTINUOUS
 62
     7
 10
452.35
 20
155.3
 11
452.35
 21
116.3
  0
LINE
  8
1
  6
CENTER
 62
     1
 10
650.4499999999997
 20
135.8
 11
475.4499999999946
 21
135.8
  0
LINE
  8
1
  6
CONTINUOUS
 62
     7
 10
650.45
 20
84.3
 11
475.4499999999999
 21
84.3
  0
LINE
  8
1
  6
CONTINUOUS
 62
     7
 10
650.45
 20
84.3
 11
650.45
 21
87.3
  0
LINE
  8
1
  6
CONTINUOUS
 62
     7
 10
650.45
 20
87.3
 11
475.4499999999999
 21
87.29999999999988
  0
LINE
  8
1
  6
CONTINUOUS
 62
     7
 10
449.35
 20
116.3
 11
449.35
 21
155.3
  0
INSERT
  8
1
  6
CONTINUOUS
 62
     7
  2
D_FRAME_VIEW_5836
 10
0.0
 20
0.0
 30
0.0
  0
INSERT
  8
1
  6
CONTINUOUS
 62
     7
  2
D_FRAME_VIEW_6026
 10
0.0
 20
0.0
 30
0.0
  0
INSERT
  8
1
  6
CONTINUOUS
 62
     7
  2
D_FRAME_VIEW_4825
 10
0.0
 20
0.0
 30
0.0
  0
TEXT
  8
1
  6
CONTINUOUS
 62
     7
 10
540.5718144304113
 20
167.0454545454546
 40
6.0
  1
ＳＢ－Ｋ３Ｙ
  0
ENDSEC
  0
EOF
