  0
SECTION
  2
HEADER
  9
$ACADVER
  1
AC1006
  9
$DWGCODEPAGE
  3
ansi_932
  9
$INSBASE
 10
0.0
 20
0.0
 30
0.0
  9
$EXTMIN
 10
275.5000000000001
 20
-1272.545454545455
  9
$EXTMAX
 10
617.5000000000001
 20
-1025.0
  9
$LIMMIN
 10
0.0
 20
0.0
  9
$LIMMAX
 10
12.0
 20
9.0
  9
$ORTHOMODE
 70
     0
  9
$REGENMODE
 70
     1
  9
$FILLMODE
 70
     1
  9
$QTEXTMODE
 70
     0
  9
$MIRRTEXT
 70
     1
  9
$DRAGMODE
 70
     2
  9
$LTSCALE
 40
1.0
  9
$OSMODE
 70
    37
  9
$ATTMODE
 70
     1
  9
$TEXTSIZE
 40
0.2
  9
$TRACEWID
 40
0.05
  9
$TEXTSTYLE
  7
STANDARD
  9
$CLAYER
  8
0
  9
$CELTYPE
  6
BYLAYER
  9
$CECOLOR
 62
   256
  9
$DIMSCALE
 40
1.0
  9
$DIMASZ
 40
3.0
  9
$DIMEXO
 40
0.0625
  9
$DIMDLI
 40
0.38
  9
$DIMRND
 40
0.0
  9
$DIMDLE
 40
0.0
  9
$DIMEXE
 40
1.5
  9
$DIMTP
 40
0.0
  9
$DIMTM
 40
0.0
  9
$DIMTXT
 40
3.0
  9
$DIMCEN
 40
0.09
  9
$DIMTSZ
 40
0.0
  9
$DIMTOL
 70
     0
  9
$DIMLIM
 70
     0
  9
$DIMTIH
 70
     1
  9
$DIMTOH
 70
     1
  9
$DIMSE1
 70
     0
  9
$DIMSE2
 70
     0
  9
$DIMTAD
 70
     1
  9
$DIMZIN
 70
     0
  9
$DIMBLK
  1

  9
$DIMASO
 70
     1
  9
$DIMSHO
 70
     1
  9
$DIMPOST
  1

  9
$DIMAPOST
  1

  9
$DIMALT
 70
     0
  9
$DIMALTD
 70
     2
  9
$DIMALTF
 40
25.4
  9
$DIMLFAC
 40
1.0
  9
$DIMTOFL
 70
     0
  9
$DIMTVP
 40
0.0
  9
$DIMTIX
 70
     0
  9
$DIMSOXD
 70
     0
  9
$DIMSAH
 70
     0
  9
$DIMBLK1
  1

  9
$DIMBLK2
  1

  9
$LUNITS
 70
     2
  9
$LUPREC
 70
     4
  9
$SKETCHINC
 40
0.1
  9
$FILLETRAD
 40
0.5
  9
$AUNITS
 70
     0
  9
$AUPREC
 70
     0
  9
$MENU
  1
.
  9
$ELEVATION
 40
0.0
  9
$THICKNESS
 40
0.0
  9
$LIMCHECK
 70
     0
  9
$CHAMFERA
 40
0.0
  9
$CHAMFERB
 40
0.0
  9
$SKPOLY
 70
     0
  9
$TDCREATE
 40
2460427.603633218
  9
$TDUPDATE
 40
2460427.603633403
  9
$TDINDWG
 40
0.0000000116
  9
$TDUSRTIMER
 40
0.0000000116
  9
$USRTIMER
 70
     1
  9
$ANGBASE
 50
0.0
  9
$ANGDIR
 70
     0
  9
$PDMODE
 70
     0
  9
$PDSIZE
 40
0.0
  9
$PLINEWID
 40
0.0
  9
$COORDS
 70
     1
  9
$SPLFRAME
 70
     0
  9
$SPLINETYPE
 70
     6
  9
$SPLINESEGS
 70
     8
  9
$ATTDIA
 70
     0
  9
$ATTREQ
 70
     1
  9
$HANDLING
 70
     1
  9
$HANDSEED
  5
1ED
  9
$SURFTAB1
 70
     6
  9
$SURFTAB2
 70
     6
  9
$SURFTYPE
 70
     6
  9
$SURFU
 70
     6
  9
$SURFV
 70
     6
  9
$UCSNAME
  2

  9
$UCSORG
 10
0.0
 20
0.0
 30
0.0
  9
$UCSXDIR
 10
1.0
 20
0.0
 30
0.0
  9
$UCSYDIR
 10
0.0
 20
1.0
 30
0.0
  9
$USERI1
 70
     0
  9
$USERI2
 70
     0
  9
$USERI3
 70
     0
  9
$USERI4
 70
     0
  9
$USERI5
 70
     0
  9
$USERR1
 40
0.0
  9
$USERR2
 40
0.0
  9
$USERR3
 40
0.0
  9
$USERR4
 40
0.0
  9
$USERR5
 40
0.0
  9
$WORLDVIEW
 70
     1
  0
ENDSEC
  0
SECTION
  2
TABLES
  0
TABLE
  2
VPORT
 70
     1
  0
VPORT
  2
*ACTIVE
 70
     0
 10
0.0
 20
0.0
 11
1.0
 21
1.0
 12
446.5000000000001
 22
-1148.772727272727
 13
0.0
 23
0.0
 14
0.5
 24
0.5
 15
0.5
 25
0.5
 16
0.0
 26
0.0
 36
1.0
 17
0.0
 27
0.0
 37
0.0
 40
247.545454545455
 41
1.6
 42
50.0
 43
0.0
 44
0.0
 50
0.0
 51
0.0
 71
     0
 72
   100
 73
     1
 74
     3
 75
     0
 76
     0
 77
     0
 78
     0
  0
ENDTAB
  0
TABLE
  2
LTYPE
 70
     2
  0
LTYPE
  2
CONTINUOUS
 70
     0
  3
Solid line
 72
    65
 73
     0
 40
0.0
  0
LTYPE
  2
CENTER
 70
     0
  3

 72
    65
 73
     0
 40
0.0
  0
ENDTAB
  0
TABLE
  2
LAYER
 70
     2
  0
LAYER
  2
0
 70
     0
 62
     7
  6
CONTINUOUS
  0
LAYER
  2
1
 70
     0
 62
     7
  6
CONTINUOUS
  0
ENDTAB
  0
TABLE
  2
STYLE
 70
     2
  0
STYLE
  2
STANDARD
 70
     0
 40
0.0
 41
1.0
 50
0.0
 71
     0
 42
0.2
  3
txt
  4

  0
STYLE
  2
ＭＳ_ゴシック
 70
     0
 40
0.0
 41
1.0
 50
0.0
 71
     0
 42
0.2
  3
ＭＳ ゴシック.shx
  4

  0
ENDTAB
  0
TABLE
  2
VIEW
 70
     0
  0
ENDTAB
  0
TABLE
  2
UCS
 70
     0
  0
ENDTAB
  0
ENDSEC
  0
SECTION
  2
BLOCKS
  0
ENDSEC
  0
SECTION
  2
ENTITIES
  0
LINE
  5
70
  8
0
  6
CENTER
 62
     1
 10
275.5000000000001
 20
-1185.0
 30
0.0
 11
519.5000000000002
 21
-1185.0
 31
0.0
  0
LINE
  5
72
  8
0
  6
CENTER
 62
     1
 10
397.5
 20
-1251.5
 30
0.0
 11
397.5000000000001
 21
-1118.5
 31
0.0
  0
LINE
  5
73
  8
0
  6
CENTER
 62
     1
 10
547.5000000000001
 20
-1185.0
 30
0.0
 11
617.5000000000001
 21
-1185.0
 31
0.0
  0
LINE
  5
74
  8
0
  6
CENTER
 62
     1
 10
397.5000000000001
 20
-1095.0
 30
0.0
 11
397.5000000000001
 21
-1025.0
 31
0.0
  0
TEXT
  5
75
  8
1
  6
CONTINUOUS
 62
     7
 10
416.7068119294737
 20
-1273.068181818182
 30
0.0
 40
5.0
  1
ＳＢ－Ｋ３ＹＳＡ－Ｎ
  0
LINE
  5
76
  8
0
  6
CENTER
 62
     1
 10
352.5017717364481
 20
-1068.52805387266
 30
0.0
 11
352.5017717364481
 21
-1042.453574237458
 31
0.0
  0
LINE
  5
77
  8
0
  6
CENTER
 62
     1
 10
399.4645319188405
 20
-1055.490814055059
 30
0.0
 11
425.5390115540435
 21
-1055.490814055059
 31
0.0
  0
LINE
  5
78
  8
0
  6
CENTER
 62
     1
 10
442.5017717364481
 20
-1068.52805387266
 30
0.0
 11
442.5017717364481
 21
-1042.453574237458
 31
0.0
  0
LINE
  5
79
  8
0
  6
CENTER
 62
     1
 10
382.5017717364477
 20
-1068.52805387266
 30
0.0
 11
382.5017717364477
 21
-1042.453574237458
 31
0.0
  0
LINE
  5
7A
  8
0
  6
CENTER
 62
     1
 10
412.501771736442
 20
-1068.52805387266
 30
0.0
 11
412.501771736442
 21
-1042.453574237457
 31
0.0
  0
LINE
  5
7B
  8
0
  6
CENTER
 62
     1
 10
369.4645319188464
 20
-1055.490814055059
 30
0.0
 11
395.539011554049
 21
-1055.490814055059
 31
0.0
  0
LINE
  5
7C
  8
0
  6
CENTER
 62
     1
 10
429.4645319188468
 20
-1055.490814055059
 30
0.0
 11
455.5390115540494
 21
-1055.490814055059
 31
0.0
  0
LINE
  5
7D
  8
0
  6
CENTER
 62
     1
 10
339.4645319188468
 20
-1055.490814055059
 30
0.0
 11
365.5390115540494
 21
-1055.490814055059
 31
0.0
  0
POINT
  5
7E
  8
0
 62
     1
 10
447.6317056212067
 20
-1185.0
 30
0.0
  0
LINE
  5
7F
  8
1
  6
CONTINUOUS
 62
     7
 10
558.0
 20
-1241.5
 30
0.0
 11
557.5000000000001
 21
-1241.5
 31
0.0
  0
LINE
  5
80
  8
1
  6
CONTINUOUS
 62
     7
 10
558.0
 20
-1231.5
 30
0.0
 11
558.0
 21
-1241.5
 31
0.0
  0
LINE
  5
81
  8
1
  6
CONTINUOUS
 62
     7
 10
557.5000000000001
 20
-1241.5
 30
0.0
 11
557.5000000000001
 21
-1231.5
 31
0.0
  0
LINE
  5
82
  8
1
  6
CONTINUOUS
 62
     7
 10
558.0
 20
-1138.5
 30
0.0
 11
558.0
 21
-1231.5
 31
0.0
  0
LINE
  5
83
  8
1
  6
CONTINUOUS
 62
     7
 10
557.5000000000001
 20
-1138.5
 30
0.0
 11
557.5000000000001
 21
-1231.5
 31
0.0
  0
LINE
  5
84
  8
1
  6
CONTINUOUS
 62
     7
 10
557.5000000000001
 20
-1128.5
 30
0.0
 11
558.0
 21
-1128.5
 31
0.0
  0
LINE
  5
85
  8
1
  6
CONTINUOUS
 62
     7
 10
558.0
 20
-1128.5
 30
0.0
 11
558.0
 21
-1138.5
 31
0.0
  0
LINE
  5
86
  8
1
  6
CONTINUOUS
 62
     7
 10
557.5000000000001
 20
-1138.5
 30
0.0
 11
557.5000000000001
 21
-1128.5
 31
0.0
  0
ARC
  5
87
  8
1
  6
CONTINUOUS
 62
     7
 10
558.5000000000001
 20
-1149.5
 30
0.0
 40
0.500000000000056
 50
180.0
 51
270.0000000000001
  0
ARC
  5
88
  8
1
  6
CONTINUOUS
 62
     7
 10
558.5000000000001
 20
-1220.414421255246
 30
0.0
 40
0.5000000000001759
 50
94.99999999999994
 51
180.0
  0
LINE
  5
89
  8
1
  6
CONTINUOUS
 62
     7
 10
573.3921443747846
 20
-1218.609617528089
 30
0.0
 11
558.4564221286262
 21
-1219.9163239062
 31
0.0
  0
LINE
  5
8A
  8
1
  6
CONTINUOUS
 62
     7
 10
573.0
 20
-1150.0
 30
0.0
 11
602.5872620321865
 21
-1150.51644757982
 31
0.0
  0
LINE
  5
8B
  8
1
  6
CONTINUOUS
 62
     7
 10
573.0000000000001
 20
-1154.999238475782
 30
0.0
 11
573.0000000000001
 21
-1155.0
 31
0.0
  0
LINE
  5
8C
  8
1
  6
CONTINUOUS
 62
     7
 10
558.5000000000001
 20
-1150.0
 30
0.0
 11
573.0
 21
-1150.0
 31
0.0
  0
LINE
  5
8D
  8
1
  6
CONTINUOUS
 62
     7
 10
602.9357787137384
 20
-1216.024884444075
 30
0.0
 11
573.3921443747846
 21
-1218.609617528089
 31
0.0
  0
ARC
  5
8E
  8
1
  6
CONTINUOUS
 62
     7
 10
602.5
 20
-1211.043910953617
 30
0.0
 40
5.000000000000004
 50
275.0000000000001
 51
0.0
  0
LINE
  5
8F
  8
1
  6
CONTINUOUS
 62
     7
 10
607.5
 20
-1155.515686055602
 30
0.0
 11
607.5
 21
-1211.043910953617
 31
0.0
  0
ARC
  5
90
  8
1
  6
CONTINUOUS
 62
     7
 10
602.5
 20
-1155.515686055602
 30
0.0
 40
5.000000000000031
 50
0.0
 51
88.99999999999994
  0
LINE
  5
91
  8
1
  6
CONTINUOUS
 62
     7
 10
285.5000000000001
 20
-1085.0
 30
0.0
 11
285.5000000000001
 21
-1084.5
 31
0.0
  0
LINE
  5
92
  8
1
  6
CONTINUOUS
 62
     7
 10
285.5000000000001
 20
-1084.5
 30
0.0
 11
295.5000000000001
 21
-1084.5
 31
0.0
  0
LINE
  5
93
  8
1
  6
CONTINUOUS
 62
     7
 10
295.5000000000001
 20
-1085.0
 30
0.0
 11
285.5000000000001
 21
-1085.0
 31
0.0
  0
LINE
  5
94
  8
1
  6
CONTINUOUS
 62
     7
 10
509.5000000000002
 20
-1084.5
 30
0.0
 11
509.5000000000002
 21
-1085.0
 31
0.0
  0
LINE
  5
95
  8
1
  6
CONTINUOUS
 62
     7
 10
499.5000000000001
 20
-1084.5
 30
0.0
 11
509.5000000000002
 21
-1084.5
 31
0.0
  0
LINE
  5
96
  8
1
  6
CONTINUOUS
 62
     7
 10
509.5000000000002
 20
-1085.0
 30
0.0
 11
499.5000000000001
 21
-1085.0
 31
0.0
  0
LINE
  5
97
  8
1
  6
CONTINUOUS
 62
     7
 10
295.5000000000001
 20
-1084.5
 30
0.0
 11
499.5000000000001
 21
-1084.5
 31
0.0
  0
LINE
  5
98
  8
1
  6
CONTINUOUS
 62
     7
 10
295.5000000000001
 20
-1085.0
 30
0.0
 11
499.5000000000001
 21
-1085.0
 31
0.0
  0
CIRCLE
  5
99
  8
1
  6
CONTINUOUS
 62
   253
 10
352.5017717364481
 20
-1055.490814055059
 30
0.0
 40
11.03723981760128
  0
LINE
  5
9A
  8
1
  6
CONTINUOUS
 62
     7
 10
483.0007615242182
 20
-1069.5
 30
0.0
 11
483.0000000000001
 21
-1069.5
 31
0.0
  0
CIRCLE
  5
9B
  8
1
  6
CONTINUOUS
 62
   253
 10
442.5017717364481
 20
-1055.490814055059
 30
0.0
 40
11.03723981760128
  0
CIRCLE
  5
9C
  8
1
  6
CONTINUOUS
 62
   253
 10
412.501771736442
 20
-1055.490814055059
 30
0.0
 40
11.0372398176015
  0
CIRCLE
  5
9D
  8
1
  6
CONTINUOUS
 62
   253
 10
382.5017717364477
 20
-1055.490814055059
 30
0.0
 40
11.03723981760128
  0
ARC
  5
9E
  8
1
  6
CONTINUOUS
 62
     7
 10
488.5000000000002
 20
-1084.0
 30
0.0
 40
0.4999999999999449
 50
180.0
 51
270.0
  0
ARC
  5
9F
  8
1
  6
CONTINUOUS
 62
     7
 10
306.5000000000001
 20
-1084.0
 30
0.0
 40
0.4999999999999449
 50
270.0
 51
0.0000000000000568
  0
LINE
  5
A0
  8
1
  6
CONTINUOUS
 62
     7
 10
488.0000000000001
 20
-1069.5
 30
0.0
 11
488.0000000000001
 21
-1084.0
 31
0.0
  0
LINE
  5
A1
  8
1
  6
CONTINUOUS
 62
     7
 10
487.4835524201802
 20
-1039.912737967814
 30
0.0
 11
488.0000000000001
 21
-1069.5
 31
0.0
  0
LINE
  5
A2
  8
1
  6
CONTINUOUS
 62
     7
 10
307.0000000000002
 20
-1069.5
 30
0.0
 11
307.5164475798201
 21
-1039.912737967814
 31
0.0
  0
LINE
  5
A3
  8
1
  6
CONTINUOUS
 62
     7
 10
307.0000000000002
 20
-1084.0
 30
0.0
 11
307.0000000000002
 21
-1069.5
 31
0.0
  0
ARC
  5
A4
  8
1
  6
CONTINUOUS
 62
     7
 10
482.4843139443981
 20
-1040.0
 30
0.0
 40
5.000000000000028
 50
1.000000000000082
 51
89.99999999999982
  0
LINE
  5
A5
  8
1
  6
CONTINUOUS
 62
     7
 10
312.5156860556021
 20
-1035.0
 30
0.0
 11
482.4843139443981
 21
-1035.0
 31
0.0
  0
ARC
  5
A6
  8
1
  6
CONTINUOUS
 62
     7
 10
312.5156860556021
 20
-1040.0
 30
0.0
 40
5.000000000000028
 50
89.9999999999999
 51
178.9999999999999
  0
LINE
  5
A7
  8
1
  6
CONTINUOUS
 62
   253
 10
347.9462327880333
 20
-1056.556564455704
 30
0.0
 11
347.9842082836411
 21
-1056.946927429484
 31
0.0
  0
LINE
  5
A8
  8
1
  6
CONTINUOUS
 62
   253
 10
347.9842082836411
 20
-1056.946927429484
 30
0.0
 11
348.0973917745841
 21
-1057.322025951144
 31
0.0
  0
LINE
  5
A9
  8
1
  6
CONTINUOUS
 62
   253
 10
348.0973917745841
 20
-1057.322025951144
 30
0.0
 11
348.2814538128821
 21
-1057.667511907511
 31
0.0
  0
LINE
  5
AA
  8
1
  6
CONTINUOUS
 62
   253
 10
348.2814538128821
 20
-1057.667511907511
 30
0.0
 11
348.5293537337404
 21
-1057.970169912989
 31
0.0
  0
LINE
  5
AB
  8
1
  6
CONTINUOUS
 62
   253
 10
348.5293537337404
 20
-1057.970169912989
 30
0.0
 11
348.8316089721416
 21
-1058.218422819004
 31
0.0
  0
LINE
  5
AC
  8
1
  6
CONTINUOUS
 62
   253
 10
348.8316089721416
 20
-1058.218422819004
 30
0.0
 11
349.1766577859925
 21
-1058.402774558298
 31
0.0
  0
LINE
  5
AD
  8
1
  6
CONTINUOUS
 62
   253
 10
349.1766577859925
 20
-1058.402774558298
 30
0.0
 11
349.5513015110897
 21
-1058.516173384553
 31
0.0
  0
LINE
  5
AE
  8
1
  6
CONTINUOUS
 62
   253
 10
349.5513015110897
 20
-1058.516173384553
 30
0.0
 11
349.941209430952
 21
-1058.554281612873
 31
0.0
  0
LINE
  5
AF
  8
1
  6
CONTINUOUS
 62
   253
 10
445.0587905690482
 20
-1058.554281612873
 30
0.0
 11
445.4486984889105
 21
-1058.516173384553
 31
0.0
  0
LINE
  5
B0
  8
1
  6
CONTINUOUS
 62
   253
 10
445.4486984889105
 20
-1058.516173384553
 30
0.0
 11
445.8233422140076
 21
-1058.402774558298
 31
0.0
  0
LINE
  5
B1
  8
1
  6
CONTINUOUS
 62
   253
 10
445.8233422140076
 20
-1058.402774558298
 30
0.0
 11
446.1683910278586
 21
-1058.218422819004
 31
0.0
  0
LINE
  5
B2
  8
1
  6
CONTINUOUS
 62
   253
 10
446.1683910278586
 20
-1058.218422819004
 30
0.0
 11
446.4706462662598
 21
-1057.970169912989
 31
0.0
  0
LINE
  5
B3
  8
1
  6
CONTINUOUS
 62
   253
 10
446.4706462662598
 20
-1057.970169912989
 30
0.0
 11
446.718546187118
 21
-1057.667511907511
 31
0.0
  0
LINE
  5
B4
  8
1
  6
CONTINUOUS
 62
   253
 10
446.718546187118
 20
-1057.667511907511
 30
0.0
 11
446.902608225416
 21
-1057.322025951144
 31
0.0
  0
LINE
  5
B5
  8
1
  6
CONTINUOUS
 62
   253
 10
446.902608225416
 20
-1057.322025951144
 30
0.0
 11
447.0157917163591
 21
-1056.946927429484
 31
0.0
  0
LINE
  5
B6
  8
1
  6
CONTINUOUS
 62
   253
 10
447.0157917163591
 20
-1056.946927429484
 30
0.0
 11
447.0537672119668
 21
-1056.556564455704
 31
0.0
  0
LINE
  5
B7
  8
1
  6
CONTINUOUS
 62
   253
 10
385.0587905690483
 20
-1058.554281612873
 30
0.0
 11
385.4486984889105
 21
-1058.516173384553
 31
0.0
  0
LINE
  5
B8
  8
1
  6
CONTINUOUS
 62
   253
 10
385.4486984889105
 20
-1058.516173384553
 30
0.0
 11
385.8233422140077
 21
-1058.402774558298
 31
0.0
  0
LINE
  5
B9
  8
1
  6
CONTINUOUS
 62
   253
 10
385.8233422140077
 20
-1058.402774558298
 30
0.0
 11
386.1683910278586
 21
-1058.218422819004
 31
0.0
  0
LINE
  5
BA
  8
1
  6
CONTINUOUS
 62
   253
 10
386.1683910278586
 20
-1058.218422819004
 30
0.0
 11
386.4706462662599
 21
-1057.970169912989
 31
0.0
  0
LINE
  5
BB
  8
1
  6
CONTINUOUS
 62
   253
 10
386.4706462662599
 20
-1057.970169912989
 30
0.0
 11
386.7185461871181
 21
-1057.667511907511
 31
0.0
  0
LINE
  5
BC
  8
1
  6
CONTINUOUS
 62
   253
 10
386.7185461871181
 20
-1057.667511907511
 30
0.0
 11
386.902608225416
 21
-1057.322025951144
 31
0.0
  0
LINE
  5
BD
  8
1
  6
CONTINUOUS
 62
   253
 10
386.902608225416
 20
-1057.322025951144
 30
0.0
 11
387.0157917163592
 21
-1056.946927429484
 31
0.0
  0
LINE
  5
BE
  8
1
  6
CONTINUOUS
 62
   253
 10
387.0157917163592
 20
-1056.946927429484
 30
0.0
 11
387.0537672119669
 21
-1056.556564455704
 31
0.0
  0
LINE
  5
BF
  8
1
  6
CONTINUOUS
 62
   253
 10
349.941209430952
 20
-1058.554281612873
 30
0.0
 11
355.0587905690483
 21
-1058.554281612873
 31
0.0
  0
LINE
  5
C0
  8
1
  6
CONTINUOUS
 62
   253
 10
407.9462327880333
 20
-1056.556564455704
 30
0.0
 11
407.984208283641
 21
-1056.946927429484
 31
0.0
  0
LINE
  5
C1
  8
1
  6
CONTINUOUS
 62
   253
 10
407.984208283641
 20
-1056.946927429484
 30
0.0
 11
408.0973917745841
 21
-1057.322025951144
 31
0.0
  0
LINE
  5
C2
  8
1
  6
CONTINUOUS
 62
   253
 10
408.0973917745841
 20
-1057.322025951144
 30
0.0
 11
408.2814538128821
 21
-1057.667511907511
 31
0.0
  0
LINE
  5
C3
  8
1
  6
CONTINUOUS
 62
   253
 10
408.2814538128821
 20
-1057.667511907511
 30
0.0
 11
408.5293537337403
 21
-1057.970169912989
 31
0.0
  0
LINE
  5
C4
  8
1
  6
CONTINUOUS
 62
   253
 10
408.5293537337403
 20
-1057.970169912989
 30
0.0
 11
408.8316089721416
 21
-1058.218422819004
 31
0.0
  0
LINE
  5
C5
  8
1
  6
CONTINUOUS
 62
   253
 10
408.8316089721416
 20
-1058.218422819004
 30
0.0
 11
409.1766577859925
 21
-1058.402774558298
 31
0.0
  0
LINE
  5
C6
  8
1
  6
CONTINUOUS
 62
   253
 10
409.1766577859925
 20
-1058.402774558298
 30
0.0
 11
409.5513015110897
 21
-1058.516173384553
 31
0.0
  0
LINE
  5
C7
  8
1
  6
CONTINUOUS
 62
   253
 10
409.5513015110897
 20
-1058.516173384553
 30
0.0
 11
409.941209430952
 21
-1058.554281612873
 31
0.0
  0
LINE
  5
C8
  8
1
  6
CONTINUOUS
 62
   253
 10
439.941209430952
 20
-1058.554281612873
 30
0.0
 11
445.0587905690482
 21
-1058.554281612873
 31
0.0
  0
LINE
  5
C9
  8
1
  6
CONTINUOUS
 62
   253
 10
437.9462327880333
 20
-1056.556564455704
 30
0.0
 11
437.9842082836411
 21
-1056.946927429484
 31
0.0
  0
LINE
  5
CA
  8
1
  6
CONTINUOUS
 62
   253
 10
437.9842082836411
 20
-1056.946927429484
 30
0.0
 11
438.0973917745841
 21
-1057.322025951144
 31
0.0
  0
LINE
  5
CB
  8
1
  6
CONTINUOUS
 62
   253
 10
438.0973917745841
 20
-1057.322025951144
 30
0.0
 11
438.2814538128821
 21
-1057.667511907511
 31
0.0
  0
LINE
  5
CC
  8
1
  6
CONTINUOUS
 62
   253
 10
438.2814538128821
 20
-1057.667511907511
 30
0.0
 11
438.5293537337404
 21
-1057.970169912989
 31
0.0
  0
LINE
  5
CD
  8
1
  6
CONTINUOUS
 62
   253
 10
438.5293537337404
 20
-1057.970169912989
 30
0.0
 11
438.8316089721416
 21
-1058.218422819004
 31
0.0
  0
LINE
  5
CE
  8
1
  6
CONTINUOUS
 62
   253
 10
438.8316089721416
 20
-1058.218422819004
 30
0.0
 11
439.1766577859925
 21
-1058.402774558298
 31
0.0
  0
LINE
  5
CF
  8
1
  6
CONTINUOUS
 62
   253
 10
439.1766577859925
 20
-1058.402774558298
 30
0.0
 11
439.5513015110897
 21
-1058.516173384553
 31
0.0
  0
LINE
  5
D0
  8
1
  6
CONTINUOUS
 62
   253
 10
439.5513015110897
 20
-1058.516173384553
 30
0.0
 11
439.941209430952
 21
-1058.554281612873
 31
0.0
  0
LINE
  5
D1
  8
1
  6
CONTINUOUS
 62
   253
 10
355.0587905690483
 20
-1058.554281612873
 30
0.0
 11
355.4486984889105
 21
-1058.516173384553
 31
0.0
  0
LINE
  5
D2
  8
1
  6
CONTINUOUS
 62
   253
 10
355.4486984889105
 20
-1058.516173384553
 30
0.0
 11
355.8233422140077
 21
-1058.402774558298
 31
0.0
  0
LINE
  5
D3
  8
1
  6
CONTINUOUS
 62
   253
 10
355.8233422140077
 20
-1058.402774558298
 30
0.0
 11
356.1683910278587
 21
-1058.218422819004
 31
0.0
  0
LINE
  5
D4
  8
1
  6
CONTINUOUS
 62
   253
 10
356.1683910278587
 20
-1058.218422819004
 30
0.0
 11
356.4706462662598
 21
-1057.970169912989
 31
0.0
  0
LINE
  5
D5
  8
1
  6
CONTINUOUS
 62
   253
 10
356.4706462662598
 20
-1057.970169912989
 30
0.0
 11
356.7185461871181
 21
-1057.667511907511
 31
0.0
  0
LINE
  5
D6
  8
1
  6
CONTINUOUS
 62
   253
 10
356.7185461871181
 20
-1057.667511907511
 30
0.0
 11
356.9026082254161
 21
-1057.322025951144
 31
0.0
  0
LINE
  5
D7
  8
1
  6
CONTINUOUS
 62
   253
 10
356.9026082254161
 20
-1057.322025951144
 30
0.0
 11
357.0157917163592
 21
-1056.946927429484
 31
0.0
  0
LINE
  5
D8
  8
1
  6
CONTINUOUS
 62
   253
 10
357.0157917163592
 20
-1056.946927429484
 30
0.0
 11
357.0537672119669
 21
-1056.556564455704
 31
0.0
  0
LINE
  5
D9
  8
1
  6
CONTINUOUS
 62
   253
 10
409.941209430952
 20
-1058.554281612873
 30
0.0
 11
415.0587905690483
 21
-1058.554281612873
 31
0.0
  0
LINE
  5
DA
  8
1
  6
CONTINUOUS
 62
   253
 10
377.9462327880333
 20
-1056.556564455704
 30
0.0
 11
377.9842082836411
 21
-1056.946927429484
 31
0.0
  0
LINE
  5
DB
  8
1
  6
CONTINUOUS
 62
   253
 10
377.9842082836411
 20
-1056.946927429484
 30
0.0
 11
378.0973917745842
 21
-1057.322025951144
 31
0.0
  0
LINE
  5
DC
  8
1
  6
CONTINUOUS
 62
   253
 10
378.0973917745842
 20
-1057.322025951144
 30
0.0
 11
378.2814538128821
 21
-1057.667511907511
 31
0.0
  0
LINE
  5
DD
  8
1
  6
CONTINUOUS
 62
   253
 10
378.2814538128821
 20
-1057.667511907511
 30
0.0
 11
378.5293537337404
 21
-1057.970169912989
 31
0.0
  0
LINE
  5
DE
  8
1
  6
CONTINUOUS
 62
   253
 10
378.5293537337404
 20
-1057.970169912989
 30
0.0
 11
378.8316089721417
 21
-1058.218422819004
 31
0.0
  0
LINE
  5
DF
  8
1
  6
CONTINUOUS
 62
   253
 10
378.8316089721417
 20
-1058.218422819004
 30
0.0
 11
379.1766577859926
 21
-1058.402774558298
 31
0.0
  0
LINE
  5
E0
  8
1
  6
CONTINUOUS
 62
   253
 10
379.1766577859926
 20
-1058.402774558298
 30
0.0
 11
379.5513015110898
 21
-1058.516173384553
 31
0.0
  0
LINE
  5
E1
  8
1
  6
CONTINUOUS
 62
   253
 10
379.5513015110898
 20
-1058.516173384553
 30
0.0
 11
379.941209430952
 21
-1058.554281612873
 31
0.0
  0
LINE
  5
E2
  8
1
  6
CONTINUOUS
 62
   253
 10
415.0587905690483
 20
-1058.554281612873
 30
0.0
 11
415.4486984889105
 21
-1058.516173384553
 31
0.0
  0
LINE
  5
E3
  8
1
  6
CONTINUOUS
 62
   253
 10
415.4486984889105
 20
-1058.516173384553
 30
0.0
 11
415.8233422140077
 21
-1058.402774558298
 31
0.0
  0
LINE
  5
E4
  8
1
  6
CONTINUOUS
 62
   253
 10
415.8233422140077
 20
-1058.402774558298
 30
0.0
 11
416.1683910278586
 21
-1058.218422819004
 31
0.0
  0
LINE
  5
E5
  8
1
  6
CONTINUOUS
 62
   253
 10
416.1683910278586
 20
-1058.218422819004
 30
0.0
 11
416.4706462662599
 21
-1057.970169912989
 31
0.0
  0
LINE
  5
E6
  8
1
  6
CONTINUOUS
 62
   253
 10
416.4706462662599
 20
-1057.970169912989
 30
0.0
 11
416.7185461871181
 21
-1057.667511907511
 31
0.0
  0
LINE
  5
E7
  8
1
  6
CONTINUOUS
 62
   253
 10
416.7185461871181
 20
-1057.667511907511
 30
0.0
 11
416.902608225416
 21
-1057.322025951144
 31
0.0
  0
LINE
  5
E8
  8
1
  6
CONTINUOUS
 62
   253
 10
416.902608225416
 20
-1057.322025951144
 30
0.0
 11
417.0157917163592
 21
-1056.946927429484
 31
0.0
  0
LINE
  5
E9
  8
1
  6
CONTINUOUS
 62
   253
 10
417.0157917163592
 20
-1056.946927429484
 30
0.0
 11
417.0537672119669
 21
-1056.556564455704
 31
0.0
  0
LINE
  5
EA
  8
1
  6
CONTINUOUS
 62
   253
 10
379.941209430952
 20
-1058.554281612873
 30
0.0
 11
385.0587905690483
 21
-1058.554281612873
 31
0.0
  0
LINE
  5
EB
  8
1
  6
CONTINUOUS
 62
   253
 10
377.9462327880333
 20
-1054.425290740821
 30
0.0
 11
377.9462327880333
 21
-1056.556564455704
 31
0.0
  0
LINE
  5
EC
  8
1
  6
CONTINUOUS
 62
   253
 10
407.9462327880334
 20
-1054.425290740821
 30
0.0
 11
407.9462327880334
 21
-1056.556564455704
 31
0.0
  0
LINE
  5
ED
  8
1
  6
CONTINUOUS
 62
   253
 10
347.9462327880334
 20
-1054.425290740821
 30
0.0
 11
347.9462327880334
 21
-1056.556564455704
 31
0.0
  0
LINE
  5
EE
  8
1
  6
CONTINUOUS
 62
   253
 10
437.9462327880333
 20
-1054.425290740821
 30
0.0
 11
437.9462327880333
 21
-1056.556564455704
 31
0.0
  0
LINE
  5
EF
  8
1
  6
CONTINUOUS
 62
   253
 10
387.0537672119669
 20
-1056.556564455704
 30
0.0
 11
387.0537672119669
 21
-1054.425290740821
 31
0.0
  0
LINE
  5
F0
  8
1
  6
CONTINUOUS
 62
   253
 10
417.0537672119669
 20
-1056.556564455704
 30
0.0
 11
417.0537672119669
 21
-1054.425290740821
 31
0.0
  0
LINE
  5
F1
  8
1
  6
CONTINUOUS
 62
   253
 10
357.0537672119669
 20
-1056.556564455704
 30
0.0
 11
357.0537672119669
 21
-1054.425290740821
 31
0.0
  0
LINE
  5
F2
  8
1
  6
CONTINUOUS
 62
   253
 10
447.0537672119669
 20
-1056.556564455704
 30
0.0
 11
447.0537672119669
 21
-1054.425290740821
 31
0.0
  0
LINE
  5
F3
  8
1
  6
CONTINUOUS
 62
   253
 10
349.9434918575425
 20
-1052.428335863542
 30
0.0
 11
349.5533147061424
 21
-1052.466358525707
 31
0.0
  0
LINE
  5
F4
  8
1
  6
CONTINUOUS
 62
   253
 10
349.5533147061424
 20
-1052.466358525707
 30
0.0
 11
349.1783423611305
 21
-1052.579680430239
 31
0.0
  0
LINE
  5
F5
  8
1
  6
CONTINUOUS
 62
   253
 10
349.1783423611305
 20
-1052.579680430239
 30
0.0
 11
348.8329347496894
 21
-1052.763961805635
 31
0.0
  0
LINE
  5
F6
  8
1
  6
CONTINUOUS
 62
   253
 10
348.8329347496894
 20
-1052.763961805635
 30
0.0
 11
348.5303195890488
 21
-1053.012145419095
 31
0.0
  0
LINE
  5
F7
  8
1
  6
CONTINUOUS
 62
   253
 10
348.5303195890488
 20
-1053.012145419095
 30
0.0
 11
348.2820858183102
 21
-1053.314726840054
 31
0.0
  0
LINE
  5
F8
  8
1
  6
CONTINUOUS
 62
   253
 10
348.2820858183102
 20
-1053.314726840054
 30
0.0
 11
348.0977397888608
 21
-1053.660118421503
 31
0.0
  0
LINE
  5
F9
  8
1
  6
CONTINUOUS
 62
   253
 10
348.0977397888608
 20
-1053.660118421503
 30
0.0
 11
347.9843412094885
 21
-1054.035093060098
 31
0.0
  0
LINE
  5
FA
  8
1
  6
CONTINUOUS
 62
   253
 10
347.9843412094885
 20
-1054.035093060098
 30
0.0
 11
347.9462327880333
 21
-1054.425290740821
 31
0.0
  0
LINE
  5
FB
  8
1
  6
CONTINUOUS
 62
   253
 10
417.0537672119669
 20
-1054.425290740821
 30
0.0
 11
417.0156587905117
 21
-1054.035093060098
 31
0.0
  0
LINE
  5
FC
  8
1
  6
CONTINUOUS
 62
   253
 10
417.0156587905117
 20
-1054.035093060098
 30
0.0
 11
416.9022602111394
 21
-1053.660118421503
 31
0.0
  0
LINE
  5
FD
  8
1
  6
CONTINUOUS
 62
   253
 10
416.9022602111394
 20
-1053.660118421503
 30
0.0
 11
416.71791418169
 21
-1053.314726840054
 31
0.0
  0
LINE
  5
FE
  8
1
  6
CONTINUOUS
 62
   253
 10
416.71791418169
 20
-1053.314726840054
 30
0.0
 11
416.4696804109515
 21
-1053.012145419095
 31
0.0
  0
LINE
  5
FF
  8
1
  6
CONTINUOUS
 62
   253
 10
416.4696804109515
 20
-1053.012145419095
 30
0.0
 11
416.1670652503108
 21
-1052.763961805635
 31
0.0
  0
LINE
  5
100
  8
1
  6
CONTINUOUS
 62
   253
 10
416.1670652503108
 20
-1052.763961805635
 30
0.0
 11
415.8216576388697
 21
-1052.579680430239
 31
0.0
  0
LINE
  5
101
  8
1
  6
CONTINUOUS
 62
   253
 10
415.8216576388697
 20
-1052.579680430239
 30
0.0
 11
415.4466852938579
 21
-1052.466358525707
 31
0.0
  0
LINE
  5
102
  8
1
  6
CONTINUOUS
 62
   253
 10
415.4466852938579
 20
-1052.466358525707
 30
0.0
 11
415.0565081424577
 21
-1052.428335863542
 31
0.0
  0
LINE
  5
103
  8
1
  6
CONTINUOUS
 62
   253
 10
357.0537672119669
 20
-1054.425290740821
 30
0.0
 11
357.0156587905117
 21
-1054.035093060098
 31
0.0
  0
LINE
  5
104
  8
1
  6
CONTINUOUS
 62
   253
 10
357.0156587905117
 20
-1054.035093060098
 30
0.0
 11
356.9022602111394
 21
-1053.660118421503
 31
0.0
  0
LINE
  5
105
  8
1
  6
CONTINUOUS
 62
   253
 10
356.9022602111394
 20
-1053.660118421503
 30
0.0
 11
356.71791418169
 21
-1053.314726840054
 31
0.0
  0
LINE
  5
106
  8
1
  6
CONTINUOUS
 62
   253
 10
356.71791418169
 20
-1053.314726840054
 30
0.0
 11
356.4696804109515
 21
-1053.012145419095
 31
0.0
  0
LINE
  5
107
  8
1
  6
CONTINUOUS
 62
   253
 10
356.4696804109515
 20
-1053.012145419095
 30
0.0
 11
356.1670652503108
 21
-1052.763961805635
 31
0.0
  0
LINE
  5
108
  8
1
  6
CONTINUOUS
 62
   253
 10
356.1670652503108
 20
-1052.763961805635
 30
0.0
 11
355.8216576388697
 21
-1052.579680430239
 31
0.0
  0
LINE
  5
109
  8
1
  6
CONTINUOUS
 62
   253
 10
355.8216576388697
 20
-1052.579680430239
 30
0.0
 11
355.4466852938579
 21
-1052.466358525707
 31
0.0
  0
LINE
  5
10A
  8
1
  6
CONTINUOUS
 62
   253
 10
355.4466852938579
 20
-1052.466358525707
 30
0.0
 11
355.0565081424577
 21
-1052.428335863542
 31
0.0
  0
LINE
  5
10B
  8
1
  6
CONTINUOUS
 62
   253
 10
387.0537672119669
 20
-1054.425290740821
 30
0.0
 11
387.0156587905117
 21
-1054.035093060098
 31
0.0
  0
LINE
  5
10C
  8
1
  6
CONTINUOUS
 62
   253
 10
387.0156587905117
 20
-1054.035093060098
 30
0.0
 11
386.9022602111394
 21
-1053.660118421503
 31
0.0
  0
LINE
  5
10D
  8
1
  6
CONTINUOUS
 62
   253
 10
386.9022602111394
 20
-1053.660118421503
 30
0.0
 11
386.71791418169
 21
-1053.314726840054
 31
0.0
  0
LINE
  5
10E
  8
1
  6
CONTINUOUS
 62
   253
 10
386.71791418169
 20
-1053.314726840054
 30
0.0
 11
386.4696804109515
 21
-1053.012145419095
 31
0.0
  0
LINE
  5
10F
  8
1
  6
CONTINUOUS
 62
   253
 10
386.4696804109515
 20
-1053.012145419095
 30
0.0
 11
386.1670652503108
 21
-1052.763961805635
 31
0.0
  0
LINE
  5
110
  8
1
  6
CONTINUOUS
 62
   253
 10
386.1670652503108
 20
-1052.763961805635
 30
0.0
 11
385.8216576388697
 21
-1052.579680430239
 31
0.0
  0
LINE
  5
111
  8
1
  6
CONTINUOUS
 62
   253
 10
385.8216576388697
 20
-1052.579680430239
 30
0.0
 11
385.4466852938579
 21
-1052.466358525707
 31
0.0
  0
LINE
  5
112
  8
1
  6
CONTINUOUS
 62
   253
 10
385.4466852938579
 20
-1052.466358525707
 30
0.0
 11
385.0565081424577
 21
-1052.428335863542
 31
0.0
  0
LINE
  5
113
  8
1
  6
CONTINUOUS
 62
   253
 10
447.0537672119669
 20
-1054.425290740821
 30
0.0
 11
447.0156587905117
 21
-1054.035093060098
 31
0.0
  0
LINE
  5
114
  8
1
  6
CONTINUOUS
 62
   253
 10
447.0156587905117
 20
-1054.035093060098
 30
0.0
 11
446.9022602111394
 21
-1053.660118421503
 31
0.0
  0
LINE
  5
115
  8
1
  6
CONTINUOUS
 62
   253
 10
446.9022602111394
 20
-1053.660118421503
 30
0.0
 11
446.71791418169
 21
-1053.314726840054
 31
0.0
  0
LINE
  5
116
  8
1
  6
CONTINUOUS
 62
   253
 10
446.71791418169
 20
-1053.314726840054
 30
0.0
 11
446.4696804109515
 21
-1053.012145419095
 31
0.0
  0
LINE
  5
117
  8
1
  6
CONTINUOUS
 62
   253
 10
446.4696804109515
 20
-1053.012145419095
 30
0.0
 11
446.1670652503108
 21
-1052.763961805635
 31
0.0
  0
LINE
  5
118
  8
1
  6
CONTINUOUS
 62
   253
 10
446.1670652503108
 20
-1052.763961805635
 30
0.0
 11
445.8216576388697
 21
-1052.579680430239
 31
0.0
  0
LINE
  5
119
  8
1
  6
CONTINUOUS
 62
   253
 10
445.8216576388697
 20
-1052.579680430239
 30
0.0
 11
445.4466852938579
 21
-1052.466358525707
 31
0.0
  0
LINE
  5
11A
  8
1
  6
CONTINUOUS
 62
   253
 10
445.4466852938579
 20
-1052.466358525707
 30
0.0
 11
445.0565081424577
 21
-1052.428335863542
 31
0.0
  0
LINE
  5
11B
  8
1
  6
CONTINUOUS
 62
   253
 10
409.9434918575425
 20
-1052.428335863542
 30
0.0
 11
409.5533147061424
 21
-1052.466358525707
 31
0.0
  0
LINE
  5
11C
  8
1
  6
CONTINUOUS
 62
   253
 10
409.5533147061424
 20
-1052.466358525707
 30
0.0
 11
409.1783423611305
 21
-1052.579680430239
 31
0.0
  0
LINE
  5
11D
  8
1
  6
CONTINUOUS
 62
   253
 10
409.1783423611305
 20
-1052.579680430239
 30
0.0
 11
408.8329347496895
 21
-1052.763961805635
 31
0.0
  0
LINE
  5
11E
  8
1
  6
CONTINUOUS
 62
   253
 10
408.8329347496895
 20
-1052.763961805635
 30
0.0
 11
408.5303195890488
 21
-1053.012145419095
 31
0.0
  0
LINE
  5
11F
  8
1
  6
CONTINUOUS
 62
   253
 10
408.5303195890488
 20
-1053.012145419095
 30
0.0
 11
408.2820858183102
 21
-1053.314726840054
 31
0.0
  0
LINE
  5
120
  8
1
  6
CONTINUOUS
 62
   253
 10
408.2820858183102
 20
-1053.314726840054
 30
0.0
 11
408.0977397888607
 21
-1053.660118421503
 31
0.0
  0
LINE
  5
121
  8
1
  6
CONTINUOUS
 62
   253
 10
408.0977397888607
 20
-1053.660118421503
 30
0.0
 11
407.9843412094885
 21
-1054.035093060098
 31
0.0
  0
LINE
  5
122
  8
1
  6
CONTINUOUS
 62
   253
 10
407.9843412094885
 20
-1054.035093060098
 30
0.0
 11
407.9462327880333
 21
-1054.425290740821
 31
0.0
  0
LINE
  5
123
  8
1
  6
CONTINUOUS
 62
   253
 10
379.9434918575425
 20
-1052.428335863542
 30
0.0
 11
379.5533147061424
 21
-1052.466358525707
 31
0.0
  0
LINE
  5
124
  8
1
  6
CONTINUOUS
 62
   253
 10
379.5533147061424
 20
-1052.466358525707
 30
0.0
 11
379.1783423611305
 21
-1052.579680430239
 31
0.0
  0
LINE
  5
125
  8
1
  6
CONTINUOUS
 62
   253
 10
379.1783423611305
 20
-1052.579680430239
 30
0.0
 11
378.8329347496895
 21
-1052.763961805635
 31
0.0
  0
LINE
  5
126
  8
1
  6
CONTINUOUS
 62
   253
 10
378.8329347496895
 20
-1052.763961805635
 30
0.0
 11
378.5303195890488
 21
-1053.012145419095
 31
0.0
  0
LINE
  5
127
  8
1
  6
CONTINUOUS
 62
   253
 10
378.5303195890488
 20
-1053.012145419095
 30
0.0
 11
378.2820858183102
 21
-1053.314726840054
 31
0.0
  0
LINE
  5
128
  8
1
  6
CONTINUOUS
 62
   253
 10
378.2820858183102
 20
-1053.314726840054
 30
0.0
 11
378.0977397888608
 21
-1053.660118421503
 31
0.0
  0
LINE
  5
129
  8
1
  6
CONTINUOUS
 62
   253
 10
378.0977397888608
 20
-1053.660118421503
 30
0.0
 11
377.9843412094886
 21
-1054.035093060098
 31
0.0
  0
LINE
  5
12A
  8
1
  6
CONTINUOUS
 62
   253
 10
377.9843412094886
 20
-1054.035093060098
 30
0.0
 11
377.9462327880334
 21
-1054.425290740821
 31
0.0
  0
LINE
  5
12B
  8
1
  6
CONTINUOUS
 62
   253
 10
439.9434918575425
 20
-1052.428335863542
 30
0.0
 11
439.5533147061424
 21
-1052.466358525707
 31
0.0
  0
LINE
  5
12C
  8
1
  6
CONTINUOUS
 62
   253
 10
439.5533147061424
 20
-1052.466358525707
 30
0.0
 11
439.1783423611305
 21
-1052.579680430239
 31
0.0
  0
LINE
  5
12D
  8
1
  6
CONTINUOUS
 62
   253
 10
439.1783423611305
 20
-1052.579680430239
 30
0.0
 11
438.8329347496895
 21
-1052.763961805635
 31
0.0
  0
LINE
  5
12E
  8
1
  6
CONTINUOUS
 62
   253
 10
438.8329347496895
 20
-1052.763961805635
 30
0.0
 11
438.5303195890488
 21
-1053.012145419095
 31
0.0
  0
LINE
  5
12F
  8
1
  6
CONTINUOUS
 62
   253
 10
438.5303195890488
 20
-1053.012145419095
 30
0.0
 11
438.2820858183102
 21
-1053.314726840054
 31
0.0
  0
LINE
  5
130
  8
1
  6
CONTINUOUS
 62
   253
 10
438.2820858183102
 20
-1053.314726840054
 30
0.0
 11
438.0977397888607
 21
-1053.660118421503
 31
0.0
  0
LINE
  5
131
  8
1
  6
CONTINUOUS
 62
   253
 10
438.0977397888607
 20
-1053.660118421503
 30
0.0
 11
437.9843412094885
 21
-1054.035093060098
 31
0.0
  0
LINE
  5
132
  8
1
  6
CONTINUOUS
 62
   253
 10
437.9843412094885
 20
-1054.035093060098
 30
0.0
 11
437.9462327880333
 21
-1054.425290740821
 31
0.0
  0
LINE
  5
133
  8
1
  6
CONTINUOUS
 62
   253
 10
445.0565081424578
 20
-1052.428335863542
 30
0.0
 11
439.9434918575425
 21
-1052.428335863542
 31
0.0
  0
LINE
  5
134
  8
1
  6
CONTINUOUS
 62
   253
 10
355.0565081424577
 20
-1052.428335863542
 30
0.0
 11
349.9434918575425
 21
-1052.428335863542
 31
0.0
  0
LINE
  5
135
  8
1
  6
CONTINUOUS
 62
   253
 10
385.0565081424577
 20
-1052.428335863542
 30
0.0
 11
379.9434918575425
 21
-1052.428335863542
 31
0.0
  0
LINE
  5
136
  8
1
  6
CONTINUOUS
 62
   253
 10
415.0565081424577
 20
-1052.428335863542
 30
0.0
 11
409.9434918575425
 21
-1052.428335863542
 31
0.0
  0
LINE
  5
137
  8
1
  6
CONTINUOUS
 62
   253
 10
347.9462327880334
 20
-1056.556564455704
 30
0.0
 11
347.9751675159803
 21
-1056.527598822971
 31
0.0
  0
LINE
  5
138
  8
1
  6
CONTINUOUS
 62
   253
 10
483.0000000000001
 20
-1219.418226557154
 30
0.0
 11
312.0000000000002
 21
-1219.418226557154
 31
0.0
  0
LINE
  5
139
  8
1
  6
CONTINUOUS
 62
     7
 10
312.0000000000002
 20
-1150.5
 30
0.0
 11
483.0000000000001
 21
-1150.5
 31
0.0
  0
LINE
  5
13A
  8
1
  6
CONTINUOUS
 62
   253
 10
307.5000000000002
 20
-1214.893412148757
 30
0.0
 11
307.5864662381856
 21
-1215.776159648755
 31
0.0
  0
LINE
  5
13B
  8
1
  6
CONTINUOUS
 62
   253
 10
307.5864662381856
 20
-1215.776159648755
 30
0.0
 11
307.8425421036994
 21
-1216.624983657377
 31
0.0
  0
LINE
  5
13C
  8
1
  6
CONTINUOUS
 62
   253
 10
307.8425421036994
 20
-1216.624983657377
 30
0.0
 11
308.2583867446387
 21
-1217.407264344001
 31
0.0
  0
LINE
  5
13D
  8
1
  6
CONTINUOUS
 62
   253
 10
308.2583867446387
 20
-1217.407264344001
 30
0.0
 11
308.8180194846607
 21
-1218.092939100545
 31
0.0
  0
LINE
  5
13E
  8
1
  6
CONTINUOUS
 62
   253
 10
308.8180194846607
 20
-1218.092939100545
 30
0.0
 11
309.4999339514119
 21
-1218.655657830648
 31
0.0
  0
LINE
  5
13F
  8
1
  6
CONTINUOUS
 62
   253
 10
309.4999339514119
 20
-1218.655657830648
 30
0.0
 11
310.2779245543572
 21
-1219.073795569087
 31
0.0
  0
LINE
  5
140
  8
1
  6
CONTINUOUS
 62
   253
 10
310.2779245543572
 20
-1219.073795569087
 30
0.0
 11
311.1220935509276
 21
-1219.331283517069
 31
0.0
  0
LINE
  5
141
  8
1
  6
CONTINUOUS
 62
   253
 10
311.1220935509276
 20
-1219.331283517069
 30
0.0
 11
312.0000000000002
 21
-1219.418226557154
 31
0.0
  0
ARC
  5
142
  8
1
  6
CONTINUOUS
 62
     7
 10
312.0000000000002
 20
-1155.0
 30
0.0
 40
4.50000000000006
 50
90.0
 51
180.0
  0
LINE
  5
143
  8
1
  6
CONTINUOUS
 62
     7
 10
307.5000000000001
 20
-1214.893412148757
 30
0.0
 11
307.5000000000001
 21
-1155.0
 31
0.0
  0
ARC
  5
144
  8
1
  6
CONTINUOUS
 62
     7
 10
499.5000000000001
 20
-1138.5
 30
0.0
 40
9.999999999999954
 50
0.0
 51
90.0
  0
LINE
  5
145
  8
1
  6
CONTINUOUS
 62
     7
 10
509.5000000000002
 20
-1138.5
 30
0.0
 11
509.5000000000002
 21
-1231.5
 31
0.0
  0
ARC
  5
146
  8
1
  6
CONTINUOUS
 62
     7
 10
499.5000000000001
 20
-1231.5
 30
0.0
 40
10.00000000000001
 50
270.0
 51
0.0
  0
LINE
  5
147
  8
1
  6
CONTINUOUS
 62
     7
 10
499.5000000000001
 20
-1241.5
 30
0.0
 11
295.5000000000001
 21
-1241.5
 31
0.0
  0
ARC
  5
148
  8
1
  6
CONTINUOUS
 62
     7
 10
295.5000000000001
 20
-1231.5
 30
0.0
 40
9.999999999999954
 50
180.0
 51
270.0
  0
LINE
  5
149
  8
1
  6
CONTINUOUS
 62
     7
 10
285.5000000000001
 20
-1231.5
 30
0.0
 11
285.5000000000001
 21
-1138.5
 31
0.0
  0
ARC
  5
14A
  8
1
  6
CONTINUOUS
 62
     7
 10
295.5000000000001
 20
-1138.5
 30
0.0
 40
10.00000000000001
 50
90.0
 51
180.0
  0
LINE
  5
14B
  8
1
  6
CONTINUOUS
 62
     7
 10
295.5000000000001
 20
-1128.5
 30
0.0
 11
499.5000000000001
 21
-1128.5
 31
0.0
  0
LINE
  5
14C
  8
1
  6
CONTINUOUS
 62
     7
 10
487.5000000000002
 20
-1155.0
 30
0.0
 11
487.5000000000002
 21
-1214.893412148757
 31
0.0
  0
LINE
  5
14D
  8
1
  6
CONTINUOUS
 62
   253
 10
483.0000000000001
 20
-1219.418226557154
 30
0.0
 11
483.8779064490727
 21
-1219.331283517069
 31
0.0
  0
LINE
  5
14E
  8
1
  6
CONTINUOUS
 62
   253
 10
483.8779064490727
 20
-1219.331283517069
 30
0.0
 11
484.722075445643
 21
-1219.073795569087
 31
0.0
  0
LINE
  5
14F
  8
1
  6
CONTINUOUS
 62
   253
 10
484.722075445643
 20
-1219.073795569087
 30
0.0
 11
485.5000660485883
 21
-1218.655657830648
 31
0.0
  0
LINE
  5
150
  8
1
  6
CONTINUOUS
 62
   253
 10
485.5000660485883
 20
-1218.655657830648
 30
0.0
 11
486.1819805153395
 21
-1218.092939100545
 31
0.0
  0
LINE
  5
151
  8
1
  6
CONTINUOUS
 62
   253
 10
486.1819805153395
 20
-1218.092939100545
 30
0.0
 11
486.7416132553616
 21
-1217.407264344001
 31
0.0
  0
LINE
  5
152
  8
1
  6
CONTINUOUS
 62
   253
 10
486.7416132553616
 20
-1217.407264344001
 30
0.0
 11
487.1574578963009
 21
-1216.624983657377
 31
0.0
  0
LINE
  5
153
  8
1
  6
CONTINUOUS
 62
   253
 10
487.1574578963009
 20
-1216.624983657377
 30
0.0
 11
487.4135337618146
 21
-1215.776159648755
 31
0.0
  0
LINE
  5
154
  8
1
  6
CONTINUOUS
 62
   253
 10
487.4135337618146
 20
-1215.776159648755
 30
0.0
 11
487.5000000000001
 21
-1214.893412148757
 31
0.0
  0
ARC
  5
155
  8
1
  6
CONTINUOUS
 62
     7
 10
483.0000000000001
 20
-1155.0
 30
0.0
 40
4.499999999999948
 50
0.0
 51
90.0
  0
LINE
  5
156
  8
1
  6
CONTINUOUS
 62
     7
 10
447.6317056212068
 20
-1168.86486821568
 30
0.0
 11
447.5837699728762
 21
-1168.377446897942
 31
0.0
  0
LINE
  5
157
  8
1
  6
CONTINUOUS
 62
     7
 10
447.5837699728762
 20
-1168.377446897942
 30
0.0
 11
447.4417987697158
 21
-1167.908954445621
 31
0.0
  0
LINE
  5
158
  8
1
  6
CONTINUOUS
 62
     7
 10
447.4417987697158
 20
-1167.908954445621
 30
0.0
 11
447.2112289357194
 21
-1167.477332228505
 31
0.0
  0
LINE
  5
159
  8
1
  6
CONTINUOUS
 62
     7
 10
447.2112289357194
 20
-1167.477332228505
 30
0.0
 11
446.9008903647996
 21
-1167.099109635201
 31
0.0
  0
LINE
  5
15A
  8
1
  6
CONTINUOUS
 62
     7
 10
446.9008903647996
 20
-1167.099109635201
 30
0.0
 11
446.5226677714953
 21
-1166.788771064281
 31
0.0
  0
LINE
  5
15B
  8
1
  6
CONTINUOUS
 62
     7
 10
446.5226677714953
 20
-1166.788771064281
 30
0.0
 11
446.0910455543787
 21
-1166.558201230284
 31
0.0
  0
LINE
  5
15C
  8
1
  6
CONTINUOUS
 62
     7
 10
446.0910455543787
 20
-1166.558201230284
 30
0.0
 11
445.6225531020586
 21
-1166.416230027124
 31
0.0
  0
LINE
  5
15D
  8
1
  6
CONTINUOUS
 62
     7
 10
445.6225531020586
 20
-1166.416230027124
 30
0.0
 11
445.1351317843202
 21
-1166.368294378794
 31
0.0
  0
LINE
  5
15E
  8
1
  6
CONTINUOUS
 62
     7
 10
357.6317056212067
 20
-1183.86486821568
 30
0.0
 11
357.583769972876
 21
-1183.377446897941
 31
0.0
  0
LINE
  5
15F
  8
1
  6
CONTINUOUS
 62
     7
 10
357.583769972876
 20
-1183.377446897941
 30
0.0
 11
357.4417987697158
 21
-1182.908954445621
 31
0.0
  0
LINE
  5
160
  8
1
  6
CONTINUOUS
 62
     7
 10
357.4417987697158
 20
-1182.908954445621
 30
0.0
 11
357.2112289357193
 21
-1182.477332228505
 31
0.0
  0
LINE
  5
161
  8
1
  6
CONTINUOUS
 62
     7
 10
357.2112289357193
 20
-1182.477332228505
 30
0.0
 11
356.9008903647995
 21
-1182.099109635201
 31
0.0
  0
LINE
  5
162
  8
1
  6
CONTINUOUS
 62
     7
 10
356.9008903647995
 20
-1182.099109635201
 30
0.0
 11
356.5226677714952
 21
-1181.788771064281
 31
0.0
  0
LINE
  5
163
  8
1
  6
CONTINUOUS
 62
     7
 10
356.5226677714952
 20
-1181.788771064281
 30
0.0
 11
356.0910455543786
 21
-1181.558201230284
 31
0.0
  0
LINE
  5
164
  8
1
  6
CONTINUOUS
 62
     7
 10
356.0910455543786
 20
-1181.558201230284
 30
0.0
 11
355.6225531020586
 21
-1181.416230027124
 31
0.0
  0
LINE
  5
165
  8
1
  6
CONTINUOUS
 62
     7
 10
355.6225531020586
 20
-1181.416230027124
 30
0.0
 11
355.1351317843202
 21
-1181.368294378794
 31
0.0
  0
LINE
  5
166
  8
1
  6
CONTINUOUS
 62
     7
 10
445.1351317843202
 20
-1188.631705621206
 30
0.0
 11
445.6225531020586
 21
-1188.583769972876
 31
0.0
  0
LINE
  5
167
  8
1
  6
CONTINUOUS
 62
     7
 10
445.6225531020586
 20
-1188.583769972876
 30
0.0
 11
446.0910455543786
 21
-1188.441798769716
 31
0.0
  0
LINE
  5
168
  8
1
  6
CONTINUOUS
 62
     7
 10
446.0910455543786
 20
-1188.441798769716
 30
0.0
 11
446.5226677714952
 21
-1188.211228935719
 31
0.0
  0
LINE
  5
169
  8
1
  6
CONTINUOUS
 62
     7
 10
446.5226677714952
 20
-1188.211228935719
 30
0.0
 11
446.9008903647995
 21
-1187.900890364799
 31
0.0
  0
LINE
  5
16A
  8
1
  6
CONTINUOUS
 62
     7
 10
446.9008903647995
 20
-1187.900890364799
 30
0.0
 11
447.2112289357192
 21
-1187.522667771495
 31
0.0
  0
LINE
  5
16B
  8
1
  6
CONTINUOUS
 62
     7
 10
447.2112289357192
 20
-1187.522667771495
 30
0.0
 11
447.4417987697157
 21
-1187.091045554379
 31
0.0
  0
LINE
  5
16C
  8
1
  6
CONTINUOUS
 62
     7
 10
447.4417987697157
 20
-1187.091045554379
 30
0.0
 11
447.5837699728759
 21
-1186.622553102059
 31
0.0
  0
LINE
  5
16D
  8
1
  6
CONTINUOUS
 62
     7
 10
447.5837699728759
 20
-1186.622553102059
 30
0.0
 11
447.6317056212066
 21
-1186.13513178432
 31
0.0
  0
LINE
  5
16E
  8
1
  6
CONTINUOUS
 62
     7
 10
447.6317056212066
 20
-1183.86486821568
 30
0.0
 11
447.5837699728759
 21
-1183.377446897941
 31
0.0
  0
LINE
  5
16F
  8
1
  6
CONTINUOUS
 62
     7
 10
447.5837699728759
 20
-1183.377446897941
 30
0.0
 11
447.4417987697157
 21
-1182.908954445621
 31
0.0
  0
LINE
  5
170
  8
1
  6
CONTINUOUS
 62
     7
 10
447.4417987697157
 20
-1182.908954445621
 30
0.0
 11
447.2112289357192
 21
-1182.477332228505
 31
0.0
  0
LINE
  5
171
  8
1
  6
CONTINUOUS
 62
     7
 10
447.2112289357192
 20
-1182.477332228505
 30
0.0
 11
446.9008903647995
 21
-1182.099109635201
 31
0.0
  0
LINE
  5
172
  8
1
  6
CONTINUOUS
 62
     7
 10
446.9008903647995
 20
-1182.099109635201
 30
0.0
 11
446.5226677714952
 21
-1181.788771064281
 31
0.0
  0
LINE
  5
173
  8
1
  6
CONTINUOUS
 62
     7
 10
446.5226677714952
 20
-1181.788771064281
 30
0.0
 11
446.0910455543786
 21
-1181.558201230284
 31
0.0
  0
LINE
  5
174
  8
1
  6
CONTINUOUS
 62
     7
 10
446.0910455543786
 20
-1181.558201230284
 30
0.0
 11
445.6225531020586
 21
-1181.416230027124
 31
0.0
  0
LINE
  5
175
  8
1
  6
CONTINUOUS
 62
     7
 10
445.6225531020586
 20
-1181.416230027124
 30
0.0
 11
445.1351317843202
 21
-1181.368294378794
 31
0.0
  0
LINE
  5
176
  8
1
  6
CONTINUOUS
 62
     7
 10
437.3682943787936
 20
-1186.13513178432
 30
0.0
 11
437.4162300271243
 21
-1186.622553102059
 31
0.0
  0
LINE
  5
177
  8
1
  6
CONTINUOUS
 62
     7
 10
437.4162300271243
 20
-1186.622553102059
 30
0.0
 11
437.5582012302845
 21
-1187.091045554379
 31
0.0
  0
LINE
  5
178
  8
1
  6
CONTINUOUS
 62
     7
 10
437.5582012302845
 20
-1187.091045554379
 30
0.0
 11
437.788771064281
 21
-1187.522667771495
 31
0.0
  0
LINE
  5
179
  8
1
  6
CONTINUOUS
 62
     7
 10
437.788771064281
 20
-1187.522667771495
 30
0.0
 11
438.0991096352008
 21
-1187.900890364799
 31
0.0
  0
LINE
  5
17A
  8
1
  6
CONTINUOUS
 62
     7
 10
438.0991096352008
 20
-1187.900890364799
 30
0.0
 11
438.4773322285051
 21
-1188.211228935719
 31
0.0
  0
LINE
  5
17B
  8
1
  6
CONTINUOUS
 62
     7
 10
438.4773322285051
 20
-1188.211228935719
 30
0.0
 11
438.9089544456216
 21
-1188.441798769716
 31
0.0
  0
LINE
  5
17C
  8
1
  6
CONTINUOUS
 62
     7
 10
438.9089544456216
 20
-1188.441798769716
 30
0.0
 11
439.3774468979416
 21
-1188.583769972876
 31
0.0
  0
LINE
  5
17D
  8
1
  6
CONTINUOUS
 62
     7
 10
439.3774468979416
 20
-1188.583769972876
 30
0.0
 11
439.8648682156801
 21
-1188.631705621206
 31
0.0
  0
LINE
  5
17E
  8
1
  6
CONTINUOUS
 62
     7
 10
349.86486821568
 20
-1166.368294378794
 30
0.0
 11
349.3774468979416
 21
-1166.416230027124
 31
0.0
  0
LINE
  5
17F
  8
1
  6
CONTINUOUS
 62
     7
 10
349.3774468979416
 20
-1166.416230027124
 30
0.0
 11
348.9089544456215
 21
-1166.558201230285
 31
0.0
  0
LINE
  5
180
  8
1
  6
CONTINUOUS
 62
     7
 10
348.9089544456215
 20
-1166.558201230285
 30
0.0
 11
348.477332228505
 21
-1166.788771064281
 31
0.0
  0
LINE
  5
181
  8
1
  6
CONTINUOUS
 62
     7
 10
348.477332228505
 20
-1166.788771064281
 30
0.0
 11
348.0991096352006
 21
-1167.099109635201
 31
0.0
  0
LINE
  5
182
  8
1
  6
CONTINUOUS
 62
     7
 10
348.0991096352006
 20
-1167.099109635201
 30
0.0
 11
347.7887710642809
 21
-1167.477332228505
 31
0.0
  0
LINE
  5
183
  8
1
  6
CONTINUOUS
 62
     7
 10
347.7887710642809
 20
-1167.477332228505
 30
0.0
 11
347.5582012302844
 21
-1167.908954445621
 31
0.0
  0
LINE
  5
184
  8
1
  6
CONTINUOUS
 62
     7
 10
347.5582012302844
 20
-1167.908954445621
 30
0.0
 11
347.4162300271242
 21
-1168.377446897942
 31
0.0
  0
LINE
  5
185
  8
1
  6
CONTINUOUS
 62
     7
 10
347.4162300271242
 20
-1168.377446897942
 30
0.0
 11
347.3682943787935
 21
-1168.86486821568
 31
0.0
  0
LINE
  5
186
  8
1
  6
CONTINUOUS
 62
     7
 10
349.8648682156801
 20
-1181.368294378794
 30
0.0
 11
349.3774468979416
 21
-1181.416230027124
 31
0.0
  0
LINE
  5
187
  8
1
  6
CONTINUOUS
 62
     7
 10
349.3774468979416
 20
-1181.416230027124
 30
0.0
 11
348.9089544456216
 21
-1181.558201230284
 31
0.0
  0
LINE
  5
188
  8
1
  6
CONTINUOUS
 62
     7
 10
348.9089544456216
 20
-1181.558201230284
 30
0.0
 11
348.4773322285051
 21
-1181.788771064281
 31
0.0
  0
LINE
  5
189
  8
1
  6
CONTINUOUS
 62
     7
 10
348.4773322285051
 20
-1181.788771064281
 30
0.0
 11
348.0991096352008
 21
-1182.099109635201
 31
0.0
  0
LINE
  5
18A
  8
1
  6
CONTINUOUS
 62
     7
 10
348.0991096352008
 20
-1182.099109635201
 30
0.0
 11
347.788771064281
 21
-1182.477332228505
 31
0.0
  0
LINE
  5
18B
  8
1
  6
CONTINUOUS
 62
     7
 10
347.788771064281
 20
-1182.477332228505
 30
0.0
 11
347.5582012302845
 21
-1182.908954445621
 31
0.0
  0
LINE
  5
18C
  8
1
  6
CONTINUOUS
 62
     7
 10
347.5582012302845
 20
-1182.908954445621
 30
0.0
 11
347.4162300271243
 21
-1183.377446897941
 31
0.0
  0
LINE
  5
18D
  8
1
  6
CONTINUOUS
 62
     7
 10
347.4162300271243
 20
-1183.377446897941
 30
0.0
 11
347.3682943787936
 21
-1183.86486821568
 31
0.0
  0
LINE
  5
18E
  8
1
  6
CONTINUOUS
 62
     7
 10
445.1351317843202
 20
-1173.631705621207
 30
0.0
 11
445.6225531020586
 21
-1173.583769972876
 31
0.0
  0
LINE
  5
18F
  8
1
  6
CONTINUOUS
 62
     7
 10
445.6225531020586
 20
-1173.583769972876
 30
0.0
 11
446.0910455543787
 21
-1173.441798769716
 31
0.0
  0
LINE
  5
190
  8
1
  6
CONTINUOUS
 62
     7
 10
446.0910455543787
 20
-1173.441798769716
 30
0.0
 11
446.5226677714953
 21
-1173.211228935719
 31
0.0
  0
LINE
  5
191
  8
1
  6
CONTINUOUS
 62
     7
 10
446.5226677714953
 20
-1173.211228935719
 30
0.0
 11
446.9008903647996
 21
-1172.9008903648
 31
0.0
  0
LINE
  5
192
  8
1
  6
CONTINUOUS
 62
     7
 10
446.9008903647996
 20
-1172.9008903648
 30
0.0
 11
447.2112289357194
 21
-1172.522667771495
 31
0.0
  0
LINE
  5
193
  8
1
  6
CONTINUOUS
 62
     7
 10
447.2112289357194
 20
-1172.522667771495
 30
0.0
 11
447.4417987697158
 21
-1172.091045554379
 31
0.0
  0
LINE
  5
194
  8
1
  6
CONTINUOUS
 62
     7
 10
447.4417987697158
 20
-1172.091045554379
 30
0.0
 11
447.5837699728761
 21
-1171.622553102059
 31
0.0
  0
LINE
  5
195
  8
1
  6
CONTINUOUS
 62
     7
 10
447.5837699728761
 20
-1171.622553102059
 30
0.0
 11
447.6317056212068
 21
-1171.13513178432
 31
0.0
  0
LINE
  5
196
  8
1
  6
CONTINUOUS
 62
     7
 10
347.3682943787935
 20
-1171.13513178432
 30
0.0
 11
347.4162300271241
 21
-1171.622553102059
 31
0.0
  0
LINE
  5
197
  8
1
  6
CONTINUOUS
 62
     7
 10
347.4162300271241
 20
-1171.622553102059
 30
0.0
 11
347.5582012302844
 21
-1172.091045554379
 31
0.0
  0
LINE
  5
198
  8
1
  6
CONTINUOUS
 62
     7
 10
347.5582012302844
 20
-1172.091045554379
 30
0.0
 11
347.7887710642809
 21
-1172.522667771495
 31
0.0
  0
LINE
  5
199
  8
1
  6
CONTINUOUS
 62
     7
 10
347.7887710642809
 20
-1172.522667771495
 30
0.0
 11
348.0991096352006
 21
-1172.9008903648
 31
0.0
  0
LINE
  5
19A
  8
1
  6
CONTINUOUS
 62
     7
 10
348.0991096352006
 20
-1172.9008903648
 30
0.0
 11
348.477332228505
 21
-1173.211228935719
 31
0.0
  0
LINE
  5
19B
  8
1
  6
CONTINUOUS
 62
     7
 10
348.477332228505
 20
-1173.211228935719
 30
0.0
 11
348.9089544456215
 21
-1173.441798769716
 31
0.0
  0
LINE
  5
19C
  8
1
  6
CONTINUOUS
 62
     7
 10
348.9089544456215
 20
-1173.441798769716
 30
0.0
 11
349.3774468979416
 21
-1173.583769972876
 31
0.0
  0
LINE
  5
19D
  8
1
  6
CONTINUOUS
 62
     7
 10
349.3774468979416
 20
-1173.583769972876
 30
0.0
 11
349.86486821568
 21
-1173.631705621207
 31
0.0
  0
LINE
  5
19E
  8
1
  6
CONTINUOUS
 62
     7
 10
355.1351317843202
 20
-1188.631705621206
 30
0.0
 11
355.6225531020586
 21
-1188.583769972876
 31
0.0
  0
LINE
  5
19F
  8
1
  6
CONTINUOUS
 62
     7
 10
355.6225531020586
 20
-1188.583769972876
 30
0.0
 11
356.0910455543786
 21
-1188.441798769716
 31
0.0
  0
LINE
  5
1A0
  8
1
  6
CONTINUOUS
 62
     7
 10
356.0910455543786
 20
-1188.441798769716
 30
0.0
 11
356.5226677714952
 21
-1188.211228935719
 31
0.0
  0
LINE
  5
1A1
  8
1
  6
CONTINUOUS
 62
     7
 10
356.5226677714952
 20
-1188.211228935719
 30
0.0
 11
356.9008903647995
 21
-1187.900890364799
 31
0.0
  0
LINE
  5
1A2
  8
1
  6
CONTINUOUS
 62
     7
 10
356.9008903647995
 20
-1187.900890364799
 30
0.0
 11
357.2112289357193
 21
-1187.522667771495
 31
0.0
  0
LINE
  5
1A3
  8
1
  6
CONTINUOUS
 62
     7
 10
357.2112289357193
 20
-1187.522667771495
 30
0.0
 11
357.4417987697158
 21
-1187.091045554379
 31
0.0
  0
LINE
  5
1A4
  8
1
  6
CONTINUOUS
 62
     7
 10
357.4417987697158
 20
-1187.091045554379
 30
0.0
 11
357.583769972876
 21
-1186.622553102059
 31
0.0
  0
LINE
  5
1A5
  8
1
  6
CONTINUOUS
 62
     7
 10
357.583769972876
 20
-1186.622553102059
 30
0.0
 11
357.6317056212067
 21
-1186.13513178432
 31
0.0
  0
LINE
  5
1A6
  8
1
  6
CONTINUOUS
 62
     7
 10
347.3682943787936
 20
-1186.13513178432
 30
0.0
 11
347.4162300271242
 21
-1186.622553102059
 31
0.0
  0
LINE
  5
1A7
  8
1
  6
CONTINUOUS
 62
     7
 10
347.4162300271242
 20
-1186.622553102059
 30
0.0
 11
347.5582012302845
 21
-1187.091045554379
 31
0.0
  0
LINE
  5
1A8
  8
1
  6
CONTINUOUS
 62
     7
 10
347.5582012302845
 20
-1187.091045554379
 30
0.0
 11
347.788771064281
 21
-1187.522667771495
 31
0.0
  0
LINE
  5
1A9
  8
1
  6
CONTINUOUS
 62
     7
 10
347.788771064281
 20
-1187.522667771495
 30
0.0
 11
348.0991096352008
 21
-1187.900890364799
 31
0.0
  0
LINE
  5
1AA
  8
1
  6
CONTINUOUS
 62
     7
 10
348.0991096352008
 20
-1187.900890364799
 30
0.0
 11
348.4773322285051
 21
-1188.211228935719
 31
0.0
  0
LINE
  5
1AB
  8
1
  6
CONTINUOUS
 62
     7
 10
348.4773322285051
 20
-1188.211228935719
 30
0.0
 11
348.9089544456216
 21
-1188.441798769716
 31
0.0
  0
LINE
  5
1AC
  8
1
  6
CONTINUOUS
 62
     7
 10
348.9089544456216
 20
-1188.441798769716
 30
0.0
 11
349.3774468979416
 21
-1188.583769972876
 31
0.0
  0
LINE
  5
1AD
  8
1
  6
CONTINUOUS
 62
     7
 10
349.3774468979416
 20
-1188.583769972876
 30
0.0
 11
349.86486821568
 21
-1188.631705621206
 31
0.0
  0
LINE
  5
1AE
  8
1
  6
CONTINUOUS
 62
     7
 10
355.1351317843203
 20
-1173.631705621207
 30
0.0
 11
355.6225531020587
 21
-1173.583769972876
 31
0.0
  0
LINE
  5
1AF
  8
1
  6
CONTINUOUS
 62
     7
 10
355.6225531020587
 20
-1173.583769972876
 30
0.0
 11
356.0910455543788
 21
-1173.441798769716
 31
0.0
  0
LINE
  5
1B0
  8
1
  6
CONTINUOUS
 62
     7
 10
356.0910455543788
 20
-1173.441798769716
 30
0.0
 11
356.5226677714953
 21
-1173.211228935719
 31
0.0
  0
LINE
  5
1B1
  8
1
  6
CONTINUOUS
 62
     7
 10
356.5226677714953
 20
-1173.211228935719
 30
0.0
 11
356.9008903647996
 21
-1172.9008903648
 31
0.0
  0
LINE
  5
1B2
  8
1
  6
CONTINUOUS
 62
     7
 10
356.9008903647996
 20
-1172.9008903648
 30
0.0
 11
357.2112289357194
 21
-1172.522667771495
 31
0.0
  0
LINE
  5
1B3
  8
1
  6
CONTINUOUS
 62
     7
 10
357.2112289357194
 20
-1172.522667771495
 30
0.0
 11
357.4417987697159
 21
-1172.091045554379
 31
0.0
  0
LINE
  5
1B4
  8
1
  6
CONTINUOUS
 62
     7
 10
357.4417987697159
 20
-1172.091045554379
 30
0.0
 11
357.5837699728762
 21
-1171.622553102059
 31
0.0
  0
LINE
  5
1B5
  8
1
  6
CONTINUOUS
 62
     7
 10
357.5837699728762
 20
-1171.622553102059
 30
0.0
 11
357.6317056212068
 21
-1171.13513178432
 31
0.0
  0
LINE
  5
1B6
  8
1
  6
CONTINUOUS
 62
     7
 10
437.3682943787935
 20
-1171.13513178432
 30
0.0
 11
437.4162300271241
 21
-1171.622553102059
 31
0.0
  0
LINE
  5
1B7
  8
1
  6
CONTINUOUS
 62
     7
 10
437.4162300271241
 20
-1171.622553102059
 30
0.0
 11
437.5582012302844
 21
-1172.091045554379
 31
0.0
  0
LINE
  5
1B8
  8
1
  6
CONTINUOUS
 62
     7
 10
437.5582012302844
 20
-1172.091045554379
 30
0.0
 11
437.7887710642809
 21
-1172.522667771495
 31
0.0
  0
LINE
  5
1B9
  8
1
  6
CONTINUOUS
 62
     7
 10
437.7887710642809
 20
-1172.522667771495
 30
0.0
 11
438.0991096352006
 21
-1172.9008903648
 31
0.0
  0
LINE
  5
1BA
  8
1
  6
CONTINUOUS
 62
     7
 10
438.0991096352006
 20
-1172.9008903648
 30
0.0
 11
438.477332228505
 21
-1173.211228935719
 31
0.0
  0
LINE
  5
1BB
  8
1
  6
CONTINUOUS
 62
     7
 10
438.477332228505
 20
-1173.211228935719
 30
0.0
 11
438.9089544456215
 21
-1173.441798769716
 31
0.0
  0
LINE
  5
1BC
  8
1
  6
CONTINUOUS
 62
     7
 10
438.9089544456215
 20
-1173.441798769716
 30
0.0
 11
439.3774468979416
 21
-1173.583769972876
 31
0.0
  0
LINE
  5
1BD
  8
1
  6
CONTINUOUS
 62
     7
 10
439.3774468979416
 20
-1173.583769972876
 30
0.0
 11
439.86486821568
 21
-1173.631705621207
 31
0.0
  0
LINE
  5
1BE
  8
1
  6
CONTINUOUS
 62
     7
 10
439.86486821568
 20
-1166.368294378794
 30
0.0
 11
439.3774468979416
 21
-1166.416230027124
 31
0.0
  0
LINE
  5
1BF
  8
1
  6
CONTINUOUS
 62
     7
 10
439.3774468979416
 20
-1166.416230027124
 30
0.0
 11
438.9089544456215
 21
-1166.558201230285
 31
0.0
  0
LINE
  5
1C0
  8
1
  6
CONTINUOUS
 62
     7
 10
438.9089544456215
 20
-1166.558201230285
 30
0.0
 11
438.477332228505
 21
-1166.788771064281
 31
0.0
  0
LINE
  5
1C1
  8
1
  6
CONTINUOUS
 62
     7
 10
438.477332228505
 20
-1166.788771064281
 30
0.0
 11
438.0991096352006
 21
-1167.099109635201
 31
0.0
  0
LINE
  5
1C2
  8
1
  6
CONTINUOUS
 62
     7
 10
438.0991096352006
 20
-1167.099109635201
 30
0.0
 11
437.7887710642809
 21
-1167.477332228505
 31
0.0
  0
LINE
  5
1C3
  8
1
  6
CONTINUOUS
 62
     7
 10
437.7887710642809
 20
-1167.477332228505
 30
0.0
 11
437.5582012302844
 21
-1167.908954445621
 31
0.0
  0
LINE
  5
1C4
  8
1
  6
CONTINUOUS
 62
     7
 10
437.5582012302844
 20
-1167.908954445621
 30
0.0
 11
437.4162300271242
 21
-1168.377446897942
 31
0.0
  0
LINE
  5
1C5
  8
1
  6
CONTINUOUS
 62
     7
 10
437.4162300271242
 20
-1168.377446897942
 30
0.0
 11
437.3682943787935
 21
-1168.86486821568
 31
0.0
  0
LINE
  5
1C6
  8
1
  6
CONTINUOUS
 62
     7
 10
439.8648682156801
 20
-1181.368294378794
 30
0.0
 11
439.3774468979416
 21
-1181.416230027124
 31
0.0
  0
LINE
  5
1C7
  8
1
  6
CONTINUOUS
 62
     7
 10
439.3774468979416
 20
-1181.416230027124
 30
0.0
 11
438.9089544456216
 21
-1181.558201230284
 31
0.0
  0
LINE
  5
1C8
  8
1
  6
CONTINUOUS
 62
     7
 10
438.9089544456216
 20
-1181.558201230284
 30
0.0
 11
438.4773322285051
 21
-1181.788771064281
 31
0.0
  0
LINE
  5
1C9
  8
1
  6
CONTINUOUS
 62
     7
 10
438.4773322285051
 20
-1181.788771064281
 30
0.0
 11
438.0991096352008
 21
-1182.099109635201
 31
0.0
  0
LINE
  5
1CA
  8
1
  6
CONTINUOUS
 62
     7
 10
438.0991096352008
 20
-1182.099109635201
 30
0.0
 11
437.788771064281
 21
-1182.477332228505
 31
0.0
  0
LINE
  5
1CB
  8
1
  6
CONTINUOUS
 62
     7
 10
437.788771064281
 20
-1182.477332228505
 30
0.0
 11
437.5582012302845
 21
-1182.908954445621
 31
0.0
  0
LINE
  5
1CC
  8
1
  6
CONTINUOUS
 62
     7
 10
437.5582012302845
 20
-1182.908954445621
 30
0.0
 11
437.4162300271243
 21
-1183.377446897941
 31
0.0
  0
LINE
  5
1CD
  8
1
  6
CONTINUOUS
 62
     7
 10
437.4162300271243
 20
-1183.377446897941
 30
0.0
 11
437.3682943787936
 21
-1183.86486821568
 31
0.0
  0
LINE
  5
1CE
  8
1
  6
CONTINUOUS
 62
     7
 10
357.6317056212068
 20
-1168.86486821568
 30
0.0
 11
357.5837699728762
 21
-1168.377446897942
 31
0.0
  0
LINE
  5
1CF
  8
1
  6
CONTINUOUS
 62
     7
 10
357.5837699728762
 20
-1168.377446897942
 30
0.0
 11
357.4417987697159
 21
-1167.908954445622
 31
0.0
  0
LINE
  5
1D0
  8
1
  6
CONTINUOUS
 62
     7
 10
357.4417987697159
 20
-1167.908954445622
 30
0.0
 11
357.2112289357194
 21
-1167.477332228505
 31
0.0
  0
LINE
  5
1D1
  8
1
  6
CONTINUOUS
 62
     7
 10
357.2112289357194
 20
-1167.477332228505
 30
0.0
 11
356.9008903647996
 21
-1167.099109635201
 31
0.0
  0
LINE
  5
1D2
  8
1
  6
CONTINUOUS
 62
     7
 10
356.9008903647996
 20
-1167.099109635201
 30
0.0
 11
356.5226677714953
 21
-1166.788771064281
 31
0.0
  0
LINE
  5
1D3
  8
1
  6
CONTINUOUS
 62
     7
 10
356.5226677714953
 20
-1166.788771064281
 30
0.0
 11
356.0910455543788
 21
-1166.558201230285
 31
0.0
  0
LINE
  5
1D4
  8
1
  6
CONTINUOUS
 62
     7
 10
356.0910455543788
 20
-1166.558201230285
 30
0.0
 11
355.6225531020587
 21
-1166.416230027124
 31
0.0
  0
LINE
  5
1D5
  8
1
  6
CONTINUOUS
 62
     7
 10
355.6225531020587
 20
-1166.416230027124
 30
0.0
 11
355.1351317843203
 21
-1166.368294378794
 31
0.0
  0
LINE
  5
1D6
  8
1
  6
CONTINUOUS
 62
     7
 10
357.6317056212067
 20
-1168.86486821568
 30
0.0
 11
357.6317056212067
 21
-1171.13513178432
 31
0.0
  0
LINE
  5
1D7
  8
1
  6
CONTINUOUS
 62
     7
 10
445.1351317843202
 20
-1173.631705621207
 30
0.0
 11
439.86486821568
 21
-1173.631705621207
 31
0.0
  0
LINE
  5
1D8
  8
1
  6
CONTINUOUS
 62
     7
 10
447.6317056212067
 20
-1183.86486821568
 30
0.0
 11
447.6317056212067
 21
-1186.13513178432
 31
0.0
  0
LINE
  5
1D9
  8
1
  6
CONTINUOUS
 62
     7
 10
349.86486821568
 20
-1188.631705621206
 30
0.0
 11
355.1351317843203
 21
-1188.631705621206
 31
0.0
  0
LINE
  5
1DA
  8
1
  6
CONTINUOUS
 62
     7
 10
447.6317056212067
 20
-1168.86486821568
 30
0.0
 11
447.6317056212067
 21
-1171.13513178432
 31
0.0
  0
LINE
  5
1DB
  8
1
  6
CONTINUOUS
 62
     7
 10
437.3682943787935
 20
-1183.86486821568
 30
0.0
 11
437.3682943787935
 21
-1186.13513178432
 31
0.0
  0
LINE
  5
1DC
  8
1
  6
CONTINUOUS
 62
     7
 10
445.1351317843202
 20
-1166.368294378793
 30
0.0
 11
439.86486821568
 21
-1166.368294378793
 31
0.0
  0
LINE
  5
1DD
  8
1
  6
CONTINUOUS
 62
     7
 10
445.1351317843202
 20
-1181.368294378794
 30
0.0
 11
439.86486821568
 21
-1181.368294378794
 31
0.0
  0
LINE
  5
1DE
  8
1
  6
CONTINUOUS
 62
     7
 10
355.1351317843203
 20
-1166.368294378793
 30
0.0
 11
349.86486821568
 21
-1166.368294378793
 31
0.0
  0
LINE
  5
1DF
  8
1
  6
CONTINUOUS
 62
     7
 10
357.6317056212067
 20
-1183.86486821568
 30
0.0
 11
357.6317056212067
 21
-1186.13513178432
 31
0.0
  0
LINE
  5
1E0
  8
1
  6
CONTINUOUS
 62
     7
 10
437.3682943787935
 20
-1168.86486821568
 30
0.0
 11
437.3682943787935
 21
-1171.13513178432
 31
0.0
  0
LINE
  5
1E1
  8
1
  6
CONTINUOUS
 62
     7
 10
347.3682943787936
 20
-1183.86486821568
 30
0.0
 11
347.3682943787936
 21
-1186.13513178432
 31
0.0
  0
LINE
  5
1E2
  8
1
  6
CONTINUOUS
 62
     7
 10
347.3682943787936
 20
-1168.86486821568
 30
0.0
 11
347.3682943787936
 21
-1171.13513178432
 31
0.0
  0
LINE
  5
1E3
  8
1
  6
CONTINUOUS
 62
     7
 10
355.1351317843203
 20
-1173.631705621207
 30
0.0
 11
349.86486821568
 21
-1173.631705621207
 31
0.0
  0
LINE
  5
1E4
  8
1
  6
CONTINUOUS
 62
     7
 10
355.1351317843203
 20
-1181.368294378794
 30
0.0
 11
349.86486821568
 21
-1181.368294378794
 31
0.0
  0
LINE
  5
1E5
  8
1
  6
CONTINUOUS
 62
     7
 10
439.86486821568
 20
-1188.631705621206
 30
0.0
 11
445.1351317843202
 21
-1188.631705621206
 31
0.0
  0
ENDSEC
  0
EOF
