  0
SECTION
  2
HEADER
  9
$ACADVER
  1
AC1006
  9
$DWGCODEPAGE
  3
ansi_932
  9
$INSBASE
 10
0.0
 20
0.0
 30
0.0
  9
$EXTMIN
 10
275.5000000000001
 20
-1272.545454545455
  9
$EXTMAX
 10
617.5800000016495
 20
-1024.91999999835
  9
$LIMMIN
 10
0.0
 20
0.0
  9
$LIMMAX
 10
12.0
 20
9.0
  9
$ORTHOMODE
 70
     0
  9
$REGENMODE
 70
     1
  9
$FILLMODE
 70
     1
  9
$QTEXTMODE
 70
     0
  9
$MIRRTEXT
 70
     1
  9
$DRAGMODE
 70
     2
  9
$LTSCALE
 40
1.0
  9
$OSMODE
 70
    37
  9
$ATTMODE
 70
     1
  9
$TEXTSIZE
 40
0.2
  9
$TRACEWID
 40
0.05
  9
$TEXTSTYLE
  7
STANDARD
  9
$CLAYER
  8
0
  9
$CELTYPE
  6
BYLAYER
  9
$CECOLOR
 62
   256
  9
$DIMSCALE
 40
1.0
  9
$DIMASZ
 40
3.0
  9
$DIMEXO
 40
0.0625
  9
$DIMDLI
 40
0.38
  9
$DIMRND
 40
0.0
  9
$DIMDLE
 40
0.0
  9
$DIMEXE
 40
1.5
  9
$DIMTP
 40
0.0
  9
$DIMTM
 40
0.0
  9
$DIMTXT
 40
3.0
  9
$DIMCEN
 40
0.09
  9
$DIMTSZ
 40
0.0
  9
$DIMTOL
 70
     0
  9
$DIMLIM
 70
     0
  9
$DIMTIH
 70
     1
  9
$DIMTOH
 70
     1
  9
$DIMSE1
 70
     0
  9
$DIMSE2
 70
     0
  9
$DIMTAD
 70
     1
  9
$DIMZIN
 70
     0
  9
$DIMBLK
  1

  9
$DIMASO
 70
     1
  9
$DIMSHO
 70
     1
  9
$DIMPOST
  1

  9
$DIMAPOST
  1

  9
$DIMALT
 70
     0
  9
$DIMALTD
 70
     2
  9
$DIMALTF
 40
25.4
  9
$DIMLFAC
 40
1.0
  9
$DIMTOFL
 70
     0
  9
$DIMTVP
 40
0.0
  9
$DIMTIX
 70
     0
  9
$DIMSOXD
 70
     0
  9
$DIMSAH
 70
     0
  9
$DIMBLK1
  1

  9
$DIMBLK2
  1

  9
$LUNITS
 70
     2
  9
$LUPREC
 70
     4
  9
$SKETCHINC
 40
0.1
  9
$FILLETRAD
 40
0.5
  9
$AUNITS
 70
     0
  9
$AUPREC
 70
     0
  9
$MENU
  1
.
  9
$ELEVATION
 40
0.0
  9
$THICKNESS
 40
0.0
  9
$LIMCHECK
 70
     0
  9
$CHAMFERA
 40
0.0
  9
$CHAMFERB
 40
0.0
  9
$SKPOLY
 70
     0
  9
$TDCREATE
 40
2460427.601611713
  9
$TDUPDATE
 40
2460427.601611933
  9
$TDINDWG
 40
0.0000000116
  9
$TDUSRTIMER
 40
0.0000000116
  9
$USRTIMER
 70
     1
  9
$ANGBASE
 50
0.0
  9
$ANGDIR
 70
     0
  9
$PDMODE
 70
     0
  9
$PDSIZE
 40
0.0
  9
$PLINEWID
 40
0.0
  9
$COORDS
 70
     1
  9
$SPLFRAME
 70
     0
  9
$SPLINETYPE
 70
     6
  9
$SPLINESEGS
 70
     8
  9
$ATTDIA
 70
     0
  9
$ATTREQ
 70
     1
  9
$HANDLING
 70
     1
  9
$HANDSEED
  5
214
  9
$SURFTAB1
 70
     6
  9
$SURFTAB2
 70
     6
  9
$SURFTYPE
 70
     6
  9
$SURFU
 70
     6
  9
$SURFV
 70
     6
  9
$UCSNAME
  2

  9
$UCSORG
 10
0.0
 20
0.0
 30
0.0
  9
$UCSXDIR
 10
1.0
 20
0.0
 30
0.0
  9
$UCSYDIR
 10
0.0
 20
1.0
 30
0.0
  9
$USERI1
 70
     0
  9
$USERI2
 70
     0
  9
$USERI3
 70
     0
  9
$USERI4
 70
     0
  9
$USERI5
 70
     0
  9
$USERR1
 40
0.0
  9
$USERR2
 40
0.0
  9
$USERR3
 40
0.0
  9
$USERR4
 40
0.0
  9
$USERR5
 40
0.0
  9
$WORLDVIEW
 70
     1
  0
ENDSEC
  0
SECTION
  2
TABLES
  0
TABLE
  2
VPORT
 70
     1
  0
VPORT
  2
*ACTIVE
 70
     0
 10
0.0
 20
0.0
 11
1.0
 21
1.0
 12
446.5400000008248
 22
-1148.732727271903
 13
0.0
 23
0.0
 14
0.5
 24
0.5
 15
0.5
 25
0.5
 16
0.0
 26
0.0
 36
1.0
 17
0.0
 27
0.0
 37
0.0
 40
247.6254545471049
 41
1.6
 42
50.0
 43
0.0
 44
0.0
 50
0.0
 51
0.0
 71
     0
 72
   100
 73
     1
 74
     3
 75
     0
 76
     0
 77
     0
 78
     0
  0
ENDTAB
  0
TABLE
  2
LTYPE
 70
     2
  0
LTYPE
  2
CONTINUOUS
 70
     0
  3
Solid line
 72
    65
 73
     0
 40
0.0
  0
LTYPE
  2
CENTER
 70
     0
  3

 72
    65
 73
     0
 40
0.0
  0
ENDTAB
  0
TABLE
  2
LAYER
 70
     2
  0
LAYER
  2
0
 70
     0
 62
     7
  6
CONTINUOUS
  0
LAYER
  2
1
 70
     0
 62
     7
  6
CONTINUOUS
  0
ENDTAB
  0
TABLE
  2
STYLE
 70
     2
  0
STYLE
  2
STANDARD
 70
     0
 40
0.0
 41
1.0
 50
0.0
 71
     0
 42
0.2
  3
txt
  4

  0
STYLE
  2
ＭＳ_ゴシック
 70
     0
 40
0.0
 41
1.0
 50
0.0
 71
     0
 42
0.2
  3
ＭＳ ゴシック.shx
  4

  0
ENDTAB
  0
TABLE
  2
VIEW
 70
     0
  0
ENDTAB
  0
TABLE
  2
UCS
 70
     0
  0
ENDTAB
  0
ENDSEC
  0
SECTION
  2
BLOCKS
  0
ENDSEC
  0
SECTION
  2
ENTITIES
  0
LINE
  5
70
  8
0
  6
CENTER
 62
     1
 10
397.5000000000002
 20
-1259.000000000003
 30
0.0
 11
397.5000000000002
 21
-1126.000000000003
 31
0.0
  0
LINE
  5
72
  8
0
  6
CENTER
 62
     1
 10
548.0800000016496
 20
-1192.500000000003
 30
0.0
 11
617.5800000016495
 21
-1192.500000000003
 31
0.0
  0
LINE
  5
73
  8
0
  6
CENTER
 62
     1
 10
275.5000000000001
 20
-1192.500000000003
 30
0.0
 11
519.5000000000002
 21
-1192.500000000003
 31
0.0
  0
LINE
  5
74
  8
0
  6
CENTER
 62
     1
 10
397.5000000000001
 20
-1095.079999995051
 30
0.0
 11
397.5000000000001
 21
-1024.91999999835
 31
0.0
  0
TEXT
  5
75
  8
1
  6
CONTINUOUS
 62
     7
 10
422.3772664749283
 20
-1273.068181818182
 30
0.0
 40
5.0
  1
ＳＢ－Ｋ３ＹＳＡ
  0
LINE
  5
76
  8
0
  6
CENTER
 62
     1
 10
352.5016308292613
 20
-1068.448053849293
 30
0.0
 11
352.5016308292613
 21
-1042.373848190763
 31
0.0
  0
LINE
  5
77
  8
0
  6
CENTER
 62
     1
 10
369.464527999997
 20
-1055.410951020028
 30
0.0
 11
395.5387336585274
 21
-1055.410951020028
 31
0.0
  0
LINE
  5
78
  8
0
  6
CENTER
 62
     1
 10
429.464527999996
 20
-1055.410951020028
 30
0.0
 11
455.5387336585265
 21
-1055.410951020028
 31
0.0
  0
LINE
  5
79
  8
0
  6
CENTER
 62
     1
 10
339.4645279999961
 20
-1055.410951020028
 30
0.0
 11
365.5387336585265
 21
-1055.410951020028
 31
0.0
  0
LINE
  5
7A
  8
0
  6
CENTER
 62
     1
 10
442.5016308292612
 20
-1068.448053849293
 30
0.0
 11
442.5016308292612
 21
-1042.373848190763
 31
0.0
  0
LINE
  5
7B
  8
0
  6
CENTER
 62
     1
 10
382.5016308292622
 20
-1068.448053849293
 30
0.0
 11
382.5016308292622
 21
-1042.373848190763
 31
0.0
  0
LINE
  5
7C
  8
0
  6
CENTER
 62
     1
 10
412.5016308292639
 20
-1068.448053849293
 30
0.0
 11
412.5016308292639
 21
-1042.373848190763
 31
0.0
  0
LINE
  5
7D
  8
0
  6
CENTER
 62
     1
 10
399.4645279999989
 20
-1055.410951020028
 30
0.0
 11
425.5387336585289
 21
-1055.410951020028
 31
0.0
  0
LINE
  5
7E
  8
1
  6
CONTINUOUS
 62
     7
 10
499.5
 20
-1084.91999999409
 30
0.0
 11
504.4999999999989
 21
-1084.91999999409
 31
0.0
  0
LINE
  5
7F
  8
1
  6
CONTINUOUS
 62
     7
 10
504.4999999999999
 20
-1084.91999999409
 30
0.0
 11
504.4999999999999
 21
-1085.07999999409
 31
0.0
  0
LINE
  5
80
  8
1
  6
CONTINUOUS
 62
     7
 10
504.4999999999993
 20
-1085.07999999409
 30
0.0
 11
499.5
 21
-1085.07999999409
 31
0.0
  0
LINE
  5
81
  8
1
  6
CONTINUOUS
 62
     7
 10
484.5000000000001
 20
-1085.07999999409
 30
0.0
 11
484.5000000000001
 21
-1084.91999999409
 31
0.0
  0
LINE
  5
82
  8
1
  6
CONTINUOUS
 62
     7
 10
484.5000000000007
 20
-1084.91999999409
 30
0.0
 11
489.5000000000001
 21
-1084.91999999409
 31
0.0
  0
LINE
  5
83
  8
1
  6
CONTINUOUS
 62
     7
 10
489.5000000000001
 20
-1085.07999999409
 30
0.0
 11
484.5000000000011
 21
-1085.07999999409
 31
0.0
  0
LINE
  5
84
  8
1
  6
CONTINUOUS
 62
     7
 10
489.5000000000001
 20
-1084.91999999377
 30
0.0
 11
499.5
 21
-1084.91999999377
 31
0.0
  0
LINE
  5
85
  8
1
  6
CONTINUOUS
 62
     7
 10
489.5000000000001
 20
-1085.07999999377
 30
0.0
 11
499.5
 21
-1085.07999999377
 31
0.0
  0
LINE
  5
86
  8
1
  6
CONTINUOUS
 62
     7
 10
479.5
 20
-1085.079999994731
 30
0.0
 11
484.4999999999994
 21
-1085.079999994731
 31
0.0
  0
LINE
  5
87
  8
1
  6
CONTINUOUS
 62
     7
 10
290.5000000000002
 20
-1085.079999995372
 30
0.0
 11
290.5000000000002
 21
-1084.919999995372
 31
0.0
  0
LINE
  5
88
  8
1
  6
CONTINUOUS
 62
     7
 10
295.5000000000003
 20
-1085.079999995372
 30
0.0
 11
290.5000000000013
 21
-1085.079999995372
 31
0.0
  0
LINE
  5
89
  8
1
  6
CONTINUOUS
 62
     7
 10
295.5000000000003
 20
-1085.079999995051
 30
0.0
 11
479.5
 21
-1085.079999995051
 31
0.0
  0
LINE
  5
8A
  8
1
  6
CONTINUOUS
 62
     7
 10
285.5000000000001
 20
-1084.91999999835
 30
0.0
 11
285.5000000000001
 21
-1084.41999999835
 31
0.0
  0
LINE
  5
8B
  8
1
  6
CONTINUOUS
 62
     7
 10
285.5000000000001
 20
-1084.41999999835
 30
0.0
 11
295.5000000000001
 21
-1084.41999999835
 31
0.0
  0
LINE
  5
8C
  8
1
  6
CONTINUOUS
 62
     7
 10
295.5000000000001
 20
-1084.91999999835
 30
0.0
 11
285.5000000000001
 21
-1084.91999999835
 31
0.0
  0
LINE
  5
8D
  8
1
  6
CONTINUOUS
 62
     7
 10
509.5000000000002
 20
-1084.41999999835
 30
0.0
 11
509.5000000000002
 21
-1084.91999999835
 31
0.0
  0
LINE
  5
8E
  8
1
  6
CONTINUOUS
 62
     7
 10
499.5000000000001
 20
-1084.41999999835
 30
0.0
 11
509.5000000000002
 21
-1084.41999999835
 31
0.0
  0
LINE
  5
8F
  8
1
  6
CONTINUOUS
 62
     7
 10
509.5000000000002
 20
-1084.91999999835
 30
0.0
 11
504.4999999999999
 21
-1084.91999999835
 31
0.0
  0
LINE
  5
90
  8
1
  6
CONTINUOUS
 62
     7
 10
295.5000000000001
 20
-1084.41999999835
 30
0.0
 11
499.5000000000001
 21
-1084.41999999835
 31
0.0
  0
LINE
  5
91
  8
1
  6
CONTINUOUS
 62
     7
 10
295.5000000000001
 20
-1084.91999999835
 30
0.0
 11
484.5000000000001
 21
-1084.919999996541
 31
0.0
  0
LINE
  5
92
  8
1
  6
CONTINUOUS
 62
     7
 10
483.0007615242182
 20
-1069.41999999835
 30
0.0
 11
483.0000000000001
 21
-1069.41999999835
 31
0.0
  0
CIRCLE
  5
93
  8
1
  6
CONTINUOUS
 62
   253
 10
352.5016308292613
 20
-1055.410951020028
 30
0.0
 40
11.03710282926526
  0
CIRCLE
  5
94
  8
1
  6
CONTINUOUS
 62
   253
 10
442.5016308292612
 20
-1055.410951020028
 30
0.0
 40
11.03710282926526
  0
CIRCLE
  5
95
  8
1
  6
CONTINUOUS
 62
   253
 10
412.5016308292639
 20
-1055.410951020028
 30
0.0
 40
11.03710282926503
  0
CIRCLE
  5
96
  8
1
  6
CONTINUOUS
 62
   253
 10
382.5016308292622
 20
-1055.410951020028
 30
0.0
 40
11.03710282926526
  0
ARC
  5
97
  8
1
  6
CONTINUOUS
 62
     7
 10
488.5000000000002
 20
-1083.91999999835
 30
0.0
 40
0.4999999999999449
 50
180.0
 51
270.0
  0
ARC
  5
98
  8
1
  6
CONTINUOUS
 62
     7
 10
306.5000000000001
 20
-1083.91999999835
 30
0.0
 40
0.4999999999999449
 50
270.0
 51
0.0000000000000568
  0
LINE
  5
99
  8
1
  6
CONTINUOUS
 62
     7
 10
307.0000000000002
 20
-1083.91999999835
 30
0.0
 11
307.0000000000002
 21
-1069.41999999835
 31
0.0
  0
LINE
  5
9A
  8
1
  6
CONTINUOUS
 62
     7
 10
487.4835524201802
 20
-1039.832737966164
 30
0.0
 11
488.0000000000001
 21
-1069.41999999835
 31
0.0
  0
LINE
  5
9B
  8
1
  6
CONTINUOUS
 62
     7
 10
307.0000000000002
 20
-1069.41999999835
 30
0.0
 11
307.5164475798201
 21
-1039.832737966164
 31
0.0
  0
LINE
  5
9C
  8
1
  6
CONTINUOUS
 62
     7
 10
488.0000000000001
 20
-1069.41999999835
 30
0.0
 11
488.0000000000001
 21
-1083.91999999835
 31
0.0
  0
ARC
  5
9D
  8
1
  6
CONTINUOUS
 62
     7
 10
312.5156860556021
 20
-1039.91999999835
 30
0.0
 40
5.000000000000031
 50
89.9999999999999
 51
178.9999999999999
  0
LINE
  5
9E
  8
1
  6
CONTINUOUS
 62
     7
 10
312.5156860556021
 20
-1034.91999999835
 30
0.0
 11
482.4843139443981
 21
-1034.91999999835
 31
0.0
  0
ARC
  5
9F
  8
1
  6
CONTINUOUS
 62
     7
 10
482.4843139443981
 20
-1039.91999999835
 30
0.0
 40
5.000000000000031
 50
1.000000000000082
 51
89.99999999999982
  0
LINE
  5
A0
  8
1
  6
CONTINUOUS
 62
   253
 10
377.9462327880333
 20
-1056.476564454054
 30
0.0
 11
377.9842082836411
 21
-1056.866927427835
 31
0.0
  0
LINE
  5
A1
  8
1
  6
CONTINUOUS
 62
   253
 10
377.9842082836411
 20
-1056.866927427835
 30
0.0
 11
378.0973917745842
 21
-1057.242025949494
 31
0.0
  0
LINE
  5
A2
  8
1
  6
CONTINUOUS
 62
   253
 10
378.0973917745842
 20
-1057.242025949494
 30
0.0
 11
378.2814538128821
 21
-1057.587511905861
 31
0.0
  0
LINE
  5
A3
  8
1
  6
CONTINUOUS
 62
   253
 10
378.2814538128821
 20
-1057.587511905861
 30
0.0
 11
378.5293537337404
 21
-1057.890169911339
 31
0.0
  0
LINE
  5
A4
  8
1
  6
CONTINUOUS
 62
   253
 10
378.5293537337404
 20
-1057.890169911339
 30
0.0
 11
378.8316089721417
 21
-1058.138422817354
 31
0.0
  0
LINE
  5
A5
  8
1
  6
CONTINUOUS
 62
   253
 10
378.8316089721417
 20
-1058.138422817354
 30
0.0
 11
379.1766577859926
 21
-1058.322774556648
 31
0.0
  0
LINE
  5
A6
  8
1
  6
CONTINUOUS
 62
   253
 10
379.1766577859926
 20
-1058.322774556648
 30
0.0
 11
379.5513015110898
 21
-1058.436173382904
 31
0.0
  0
LINE
  5
A7
  8
1
  6
CONTINUOUS
 62
   253
 10
379.5513015110898
 20
-1058.436173382904
 30
0.0
 11
379.941209430952
 21
-1058.474281611223
 31
0.0
  0
LINE
  5
A8
  8
1
  6
CONTINUOUS
 62
   253
 10
349.941209430952
 20
-1058.474281611223
 30
0.0
 11
355.0587905690483
 21
-1058.474281611223
 31
0.0
  0
LINE
  5
A9
  8
1
  6
CONTINUOUS
 62
   253
 10
385.0587905690483
 20
-1058.474281611223
 30
0.0
 11
385.4486984889105
 21
-1058.436173382904
 31
0.0
  0
LINE
  5
AA
  8
1
  6
CONTINUOUS
 62
   253
 10
385.4486984889105
 20
-1058.436173382904
 30
0.0
 11
385.8233422140077
 21
-1058.322774556648
 31
0.0
  0
LINE
  5
AB
  8
1
  6
CONTINUOUS
 62
   253
 10
385.8233422140077
 20
-1058.322774556648
 30
0.0
 11
386.1683910278586
 21
-1058.138422817354
 31
0.0
  0
LINE
  5
AC
  8
1
  6
CONTINUOUS
 62
   253
 10
386.1683910278586
 20
-1058.138422817354
 30
0.0
 11
386.4706462662599
 21
-1057.890169911339
 31
0.0
  0
LINE
  5
AD
  8
1
  6
CONTINUOUS
 62
   253
 10
386.4706462662599
 20
-1057.890169911339
 30
0.0
 11
386.7185461871181
 21
-1057.587511905861
 31
0.0
  0
LINE
  5
AE
  8
1
  6
CONTINUOUS
 62
   253
 10
386.7185461871181
 20
-1057.587511905861
 30
0.0
 11
386.902608225416
 21
-1057.242025949494
 31
0.0
  0
LINE
  5
AF
  8
1
  6
CONTINUOUS
 62
   253
 10
386.902608225416
 20
-1057.242025949494
 30
0.0
 11
387.0157917163592
 21
-1056.866927427835
 31
0.0
  0
LINE
  5
B0
  8
1
  6
CONTINUOUS
 62
   253
 10
387.0157917163592
 20
-1056.866927427835
 30
0.0
 11
387.0537672119669
 21
-1056.476564454054
 31
0.0
  0
LINE
  5
B1
  8
1
  6
CONTINUOUS
 62
   253
 10
355.0587905690483
 20
-1058.474281611223
 30
0.0
 11
355.4486984889105
 21
-1058.436173382904
 31
0.0
  0
LINE
  5
B2
  8
1
  6
CONTINUOUS
 62
   253
 10
355.4486984889105
 20
-1058.436173382904
 30
0.0
 11
355.8233422140077
 21
-1058.322774556648
 31
0.0
  0
LINE
  5
B3
  8
1
  6
CONTINUOUS
 62
   253
 10
355.8233422140077
 20
-1058.322774556648
 30
0.0
 11
356.1683910278587
 21
-1058.138422817354
 31
0.0
  0
LINE
  5
B4
  8
1
  6
CONTINUOUS
 62
   253
 10
356.1683910278587
 20
-1058.138422817354
 30
0.0
 11
356.4706462662598
 21
-1057.890169911339
 31
0.0
  0
LINE
  5
B5
  8
1
  6
CONTINUOUS
 62
   253
 10
356.4706462662598
 20
-1057.890169911339
 30
0.0
 11
356.7185461871181
 21
-1057.587511905861
 31
0.0
  0
LINE
  5
B6
  8
1
  6
CONTINUOUS
 62
   253
 10
356.7185461871181
 20
-1057.587511905861
 30
0.0
 11
356.9026082254161
 21
-1057.242025949494
 31
0.0
  0
LINE
  5
B7
  8
1
  6
CONTINUOUS
 62
   253
 10
356.9026082254161
 20
-1057.242025949494
 30
0.0
 11
357.0157917163592
 21
-1056.866927427835
 31
0.0
  0
LINE
  5
B8
  8
1
  6
CONTINUOUS
 62
   253
 10
357.0157917163592
 20
-1056.866927427835
 30
0.0
 11
357.0537672119669
 21
-1056.476564454054
 31
0.0
  0
LINE
  5
B9
  8
1
  6
CONTINUOUS
 62
   253
 10
439.941209430952
 20
-1058.474281611223
 30
0.0
 11
445.0587905690482
 21
-1058.474281611223
 31
0.0
  0
LINE
  5
BA
  8
1
  6
CONTINUOUS
 62
   253
 10
445.0587905690482
 20
-1058.474281611223
 30
0.0
 11
445.4486984889105
 21
-1058.436173382904
 31
0.0
  0
LINE
  5
BB
  8
1
  6
CONTINUOUS
 62
   253
 10
445.4486984889105
 20
-1058.436173382904
 30
0.0
 11
445.8233422140076
 21
-1058.322774556648
 31
0.0
  0
LINE
  5
BC
  8
1
  6
CONTINUOUS
 62
   253
 10
445.8233422140076
 20
-1058.322774556648
 30
0.0
 11
446.1683910278586
 21
-1058.138422817354
 31
0.0
  0
LINE
  5
BD
  8
1
  6
CONTINUOUS
 62
   253
 10
446.1683910278586
 20
-1058.138422817354
 30
0.0
 11
446.4706462662598
 21
-1057.890169911339
 31
0.0
  0
LINE
  5
BE
  8
1
  6
CONTINUOUS
 62
   253
 10
446.4706462662598
 20
-1057.890169911339
 30
0.0
 11
446.718546187118
 21
-1057.587511905861
 31
0.0
  0
LINE
  5
BF
  8
1
  6
CONTINUOUS
 62
   253
 10
446.718546187118
 20
-1057.587511905861
 30
0.0
 11
446.902608225416
 21
-1057.242025949494
 31
0.0
  0
LINE
  5
C0
  8
1
  6
CONTINUOUS
 62
   253
 10
446.902608225416
 20
-1057.242025949494
 30
0.0
 11
447.0157917163591
 21
-1056.866927427835
 31
0.0
  0
LINE
  5
C1
  8
1
  6
CONTINUOUS
 62
   253
 10
447.0157917163591
 20
-1056.866927427835
 30
0.0
 11
447.0537672119668
 21
-1056.476564454054
 31
0.0
  0
LINE
  5
C2
  8
1
  6
CONTINUOUS
 62
   253
 10
415.0587905690483
 20
-1058.474281611223
 30
0.0
 11
415.4486984889105
 21
-1058.436173382904
 31
0.0
  0
LINE
  5
C3
  8
1
  6
CONTINUOUS
 62
   253
 10
415.4486984889105
 20
-1058.436173382904
 30
0.0
 11
415.8233422140077
 21
-1058.322774556648
 31
0.0
  0
LINE
  5
C4
  8
1
  6
CONTINUOUS
 62
   253
 10
415.8233422140077
 20
-1058.322774556648
 30
0.0
 11
416.1683910278586
 21
-1058.138422817354
 31
0.0
  0
LINE
  5
C5
  8
1
  6
CONTINUOUS
 62
   253
 10
416.1683910278586
 20
-1058.138422817354
 30
0.0
 11
416.4706462662599
 21
-1057.890169911339
 31
0.0
  0
LINE
  5
C6
  8
1
  6
CONTINUOUS
 62
   253
 10
416.4706462662599
 20
-1057.890169911339
 30
0.0
 11
416.7185461871181
 21
-1057.587511905861
 31
0.0
  0
LINE
  5
C7
  8
1
  6
CONTINUOUS
 62
   253
 10
416.7185461871181
 20
-1057.587511905861
 30
0.0
 11
416.902608225416
 21
-1057.242025949494
 31
0.0
  0
LINE
  5
C8
  8
1
  6
CONTINUOUS
 62
   253
 10
416.902608225416
 20
-1057.242025949494
 30
0.0
 11
417.0157917163592
 21
-1056.866927427835
 31
0.0
  0
LINE
  5
C9
  8
1
  6
CONTINUOUS
 62
   253
 10
417.0157917163592
 20
-1056.866927427835
 30
0.0
 11
417.0537672119669
 21
-1056.476564454054
 31
0.0
  0
LINE
  5
CA
  8
1
  6
CONTINUOUS
 62
   253
 10
409.941209430952
 20
-1058.474281611223
 30
0.0
 11
415.0587905690483
 21
-1058.474281611223
 31
0.0
  0
LINE
  5
CB
  8
1
  6
CONTINUOUS
 62
   253
 10
407.9462327880333
 20
-1056.476564454054
 30
0.0
 11
407.984208283641
 21
-1056.866927427835
 31
0.0
  0
LINE
  5
CC
  8
1
  6
CONTINUOUS
 62
   253
 10
407.984208283641
 20
-1056.866927427835
 30
0.0
 11
408.0973917745841
 21
-1057.242025949494
 31
0.0
  0
LINE
  5
CD
  8
1
  6
CONTINUOUS
 62
   253
 10
408.0973917745841
 20
-1057.242025949494
 30
0.0
 11
408.2814538128821
 21
-1057.587511905861
 31
0.0
  0
LINE
  5
CE
  8
1
  6
CONTINUOUS
 62
   253
 10
408.2814538128821
 20
-1057.587511905861
 30
0.0
 11
408.5293537337403
 21
-1057.890169911339
 31
0.0
  0
LINE
  5
CF
  8
1
  6
CONTINUOUS
 62
   253
 10
408.5293537337403
 20
-1057.890169911339
 30
0.0
 11
408.8316089721416
 21
-1058.138422817354
 31
0.0
  0
LINE
  5
D0
  8
1
  6
CONTINUOUS
 62
   253
 10
408.8316089721416
 20
-1058.138422817354
 30
0.0
 11
409.1766577859925
 21
-1058.322774556648
 31
0.0
  0
LINE
  5
D1
  8
1
  6
CONTINUOUS
 62
   253
 10
409.1766577859925
 20
-1058.322774556648
 30
0.0
 11
409.5513015110897
 21
-1058.436173382904
 31
0.0
  0
LINE
  5
D2
  8
1
  6
CONTINUOUS
 62
   253
 10
409.5513015110897
 20
-1058.436173382904
 30
0.0
 11
409.941209430952
 21
-1058.474281611223
 31
0.0
  0
LINE
  5
D3
  8
1
  6
CONTINUOUS
 62
   253
 10
347.9462327880333
 20
-1056.476564454054
 30
0.0
 11
347.9842082836411
 21
-1056.866927427835
 31
0.0
  0
LINE
  5
D4
  8
1
  6
CONTINUOUS
 62
   253
 10
347.9842082836411
 20
-1056.866927427835
 30
0.0
 11
348.0973917745841
 21
-1057.242025949494
 31
0.0
  0
LINE
  5
D5
  8
1
  6
CONTINUOUS
 62
   253
 10
348.0973917745841
 20
-1057.242025949494
 30
0.0
 11
348.2814538128821
 21
-1057.587511905861
 31
0.0
  0
LINE
  5
D6
  8
1
  6
CONTINUOUS
 62
   253
 10
348.2814538128821
 20
-1057.587511905861
 30
0.0
 11
348.5293537337404
 21
-1057.890169911339
 31
0.0
  0
LINE
  5
D7
  8
1
  6
CONTINUOUS
 62
   253
 10
348.5293537337404
 20
-1057.890169911339
 30
0.0
 11
348.8316089721416
 21
-1058.138422817354
 31
0.0
  0
LINE
  5
D8
  8
1
  6
CONTINUOUS
 62
   253
 10
348.8316089721416
 20
-1058.138422817354
 30
0.0
 11
349.1766577859925
 21
-1058.322774556648
 31
0.0
  0
LINE
  5
D9
  8
1
  6
CONTINUOUS
 62
   253
 10
349.1766577859925
 20
-1058.322774556648
 30
0.0
 11
349.5513015110897
 21
-1058.436173382904
 31
0.0
  0
LINE
  5
DA
  8
1
  6
CONTINUOUS
 62
   253
 10
349.5513015110897
 20
-1058.436173382904
 30
0.0
 11
349.941209430952
 21
-1058.474281611223
 31
0.0
  0
LINE
  5
DB
  8
1
  6
CONTINUOUS
 62
   253
 10
379.941209430952
 20
-1058.474281611223
 30
0.0
 11
385.0587905690483
 21
-1058.474281611223
 31
0.0
  0
LINE
  5
DC
  8
1
  6
CONTINUOUS
 62
   253
 10
437.9462327880333
 20
-1056.476564454054
 30
0.0
 11
437.9842082836411
 21
-1056.866927427835
 31
0.0
  0
LINE
  5
DD
  8
1
  6
CONTINUOUS
 62
   253
 10
437.9842082836411
 20
-1056.866927427835
 30
0.0
 11
438.0973917745841
 21
-1057.242025949494
 31
0.0
  0
LINE
  5
DE
  8
1
  6
CONTINUOUS
 62
   253
 10
438.0973917745841
 20
-1057.242025949494
 30
0.0
 11
438.2814538128821
 21
-1057.587511905861
 31
0.0
  0
LINE
  5
DF
  8
1
  6
CONTINUOUS
 62
   253
 10
438.2814538128821
 20
-1057.587511905861
 30
0.0
 11
438.5293537337404
 21
-1057.890169911339
 31
0.0
  0
LINE
  5
E0
  8
1
  6
CONTINUOUS
 62
   253
 10
438.5293537337404
 20
-1057.890169911339
 30
0.0
 11
438.8316089721416
 21
-1058.138422817354
 31
0.0
  0
LINE
  5
E1
  8
1
  6
CONTINUOUS
 62
   253
 10
438.8316089721416
 20
-1058.138422817354
 30
0.0
 11
439.1766577859925
 21
-1058.322774556648
 31
0.0
  0
LINE
  5
E2
  8
1
  6
CONTINUOUS
 62
   253
 10
439.1766577859925
 20
-1058.322774556648
 30
0.0
 11
439.5513015110897
 21
-1058.436173382904
 31
0.0
  0
LINE
  5
E3
  8
1
  6
CONTINUOUS
 62
   253
 10
439.5513015110897
 20
-1058.436173382904
 30
0.0
 11
439.941209430952
 21
-1058.474281611223
 31
0.0
  0
LINE
  5
E4
  8
1
  6
CONTINUOUS
 62
   253
 10
407.9462327880334
 20
-1054.345290739171
 30
0.0
 11
407.9462327880334
 21
-1056.476564454054
 31
0.0
  0
LINE
  5
E5
  8
1
  6
CONTINUOUS
 62
   253
 10
347.9462327880334
 20
-1054.345290739171
 30
0.0
 11
347.9462327880334
 21
-1056.476564454054
 31
0.0
  0
LINE
  5
E6
  8
1
  6
CONTINUOUS
 62
   253
 10
377.9462327880333
 20
-1054.345290739171
 30
0.0
 11
377.9462327880333
 21
-1056.476564454054
 31
0.0
  0
LINE
  5
E7
  8
1
  6
CONTINUOUS
 62
   253
 10
437.9462327880333
 20
-1054.345290739171
 30
0.0
 11
437.9462327880333
 21
-1056.476564454054
 31
0.0
  0
LINE
  5
E8
  8
1
  6
CONTINUOUS
 62
   253
 10
417.0537672119669
 20
-1056.476564454054
 30
0.0
 11
417.0537672119669
 21
-1054.345290739171
 31
0.0
  0
LINE
  5
E9
  8
1
  6
CONTINUOUS
 62
   253
 10
387.0537672119669
 20
-1056.476564454054
 30
0.0
 11
387.0537672119669
 21
-1054.345290739171
 31
0.0
  0
LINE
  5
EA
  8
1
  6
CONTINUOUS
 62
   253
 10
357.0537672119669
 20
-1056.476564454054
 30
0.0
 11
357.0537672119669
 21
-1054.345290739171
 31
0.0
  0
LINE
  5
EB
  8
1
  6
CONTINUOUS
 62
   253
 10
447.0537672119669
 20
-1056.476564454054
 30
0.0
 11
447.0537672119669
 21
-1054.345290739171
 31
0.0
  0
LINE
  5
EC
  8
1
  6
CONTINUOUS
 62
   253
 10
357.0537672119669
 20
-1054.345290739171
 30
0.0
 11
357.0156587905117
 21
-1053.955093058449
 31
0.0
  0
LINE
  5
ED
  8
1
  6
CONTINUOUS
 62
   253
 10
357.0156587905117
 20
-1053.955093058449
 30
0.0
 11
356.9022602111394
 21
-1053.580118419854
 31
0.0
  0
LINE
  5
EE
  8
1
  6
CONTINUOUS
 62
   253
 10
356.9022602111394
 20
-1053.580118419854
 30
0.0
 11
356.71791418169
 21
-1053.234726838404
 31
0.0
  0
LINE
  5
EF
  8
1
  6
CONTINUOUS
 62
   253
 10
356.71791418169
 20
-1053.234726838404
 30
0.0
 11
356.4696804109515
 21
-1052.932145417445
 31
0.0
  0
LINE
  5
F0
  8
1
  6
CONTINUOUS
 62
   253
 10
356.4696804109515
 20
-1052.932145417445
 30
0.0
 11
356.1670652503108
 21
-1052.683961803985
 31
0.0
  0
LINE
  5
F1
  8
1
  6
CONTINUOUS
 62
   253
 10
356.1670652503108
 20
-1052.683961803985
 30
0.0
 11
355.8216576388697
 21
-1052.49968042859
 31
0.0
  0
LINE
  5
F2
  8
1
  6
CONTINUOUS
 62
   253
 10
355.8216576388697
 20
-1052.49968042859
 30
0.0
 11
355.4466852938579
 21
-1052.386358524058
 31
0.0
  0
LINE
  5
F3
  8
1
  6
CONTINUOUS
 62
   253
 10
355.4466852938579
 20
-1052.386358524058
 30
0.0
 11
355.0565081424577
 21
-1052.348335861893
 31
0.0
  0
LINE
  5
F4
  8
1
  6
CONTINUOUS
 62
   253
 10
439.9434918575425
 20
-1052.348335861893
 30
0.0
 11
439.5533147061424
 21
-1052.386358524058
 31
0.0
  0
LINE
  5
F5
  8
1
  6
CONTINUOUS
 62
   253
 10
439.5533147061424
 20
-1052.386358524058
 30
0.0
 11
439.1783423611305
 21
-1052.49968042859
 31
0.0
  0
LINE
  5
F6
  8
1
  6
CONTINUOUS
 62
   253
 10
439.1783423611305
 20
-1052.49968042859
 30
0.0
 11
438.8329347496895
 21
-1052.683961803985
 31
0.0
  0
LINE
  5
F7
  8
1
  6
CONTINUOUS
 62
   253
 10
438.8329347496895
 20
-1052.683961803985
 30
0.0
 11
438.5303195890488
 21
-1052.932145417445
 31
0.0
  0
LINE
  5
F8
  8
1
  6
CONTINUOUS
 62
   253
 10
438.5303195890488
 20
-1052.932145417445
 30
0.0
 11
438.2820858183102
 21
-1053.234726838404
 31
0.0
  0
LINE
  5
F9
  8
1
  6
CONTINUOUS
 62
   253
 10
438.2820858183102
 20
-1053.234726838404
 30
0.0
 11
438.0977397888607
 21
-1053.580118419854
 31
0.0
  0
LINE
  5
FA
  8
1
  6
CONTINUOUS
 62
   253
 10
438.0977397888607
 20
-1053.580118419854
 30
0.0
 11
437.9843412094885
 21
-1053.955093058449
 31
0.0
  0
LINE
  5
FB
  8
1
  6
CONTINUOUS
 62
   253
 10
437.9843412094885
 20
-1053.955093058449
 30
0.0
 11
437.9462327880333
 21
-1054.345290739171
 31
0.0
  0
LINE
  5
FC
  8
1
  6
CONTINUOUS
 62
   253
 10
447.0537672119669
 20
-1054.345290739171
 30
0.0
 11
447.0156587905117
 21
-1053.955093058449
 31
0.0
  0
LINE
  5
FD
  8
1
  6
CONTINUOUS
 62
   253
 10
447.0156587905117
 20
-1053.955093058449
 30
0.0
 11
446.9022602111394
 21
-1053.580118419854
 31
0.0
  0
LINE
  5
FE
  8
1
  6
CONTINUOUS
 62
   253
 10
446.9022602111394
 20
-1053.580118419854
 30
0.0
 11
446.71791418169
 21
-1053.234726838404
 31
0.0
  0
LINE
  5
FF
  8
1
  6
CONTINUOUS
 62
   253
 10
446.71791418169
 20
-1053.234726838404
 30
0.0
 11
446.4696804109515
 21
-1052.932145417445
 31
0.0
  0
LINE
  5
100
  8
1
  6
CONTINUOUS
 62
   253
 10
446.4696804109515
 20
-1052.932145417445
 30
0.0
 11
446.1670652503108
 21
-1052.683961803985
 31
0.0
  0
LINE
  5
101
  8
1
  6
CONTINUOUS
 62
   253
 10
446.1670652503108
 20
-1052.683961803985
 30
0.0
 11
445.8216576388697
 21
-1052.49968042859
 31
0.0
  0
LINE
  5
102
  8
1
  6
CONTINUOUS
 62
   253
 10
445.8216576388697
 20
-1052.49968042859
 30
0.0
 11
445.4466852938579
 21
-1052.386358524058
 31
0.0
  0
LINE
  5
103
  8
1
  6
CONTINUOUS
 62
   253
 10
445.4466852938579
 20
-1052.386358524058
 30
0.0
 11
445.0565081424577
 21
-1052.348335861893
 31
0.0
  0
LINE
  5
104
  8
1
  6
CONTINUOUS
 62
   253
 10
349.9434918575425
 20
-1052.348335861893
 30
0.0
 11
349.5533147061424
 21
-1052.386358524058
 31
0.0
  0
LINE
  5
105
  8
1
  6
CONTINUOUS
 62
   253
 10
349.5533147061424
 20
-1052.386358524058
 30
0.0
 11
349.1783423611305
 21
-1052.49968042859
 31
0.0
  0
LINE
  5
106
  8
1
  6
CONTINUOUS
 62
   253
 10
349.1783423611305
 20
-1052.49968042859
 30
0.0
 11
348.8329347496894
 21
-1052.683961803985
 31
0.0
  0
LINE
  5
107
  8
1
  6
CONTINUOUS
 62
   253
 10
348.8329347496894
 20
-1052.683961803985
 30
0.0
 11
348.5303195890488
 21
-1052.932145417445
 31
0.0
  0
LINE
  5
108
  8
1
  6
CONTINUOUS
 62
   253
 10
348.5303195890488
 20
-1052.932145417445
 30
0.0
 11
348.2820858183102
 21
-1053.234726838404
 31
0.0
  0
LINE
  5
109
  8
1
  6
CONTINUOUS
 62
   253
 10
348.2820858183102
 20
-1053.234726838404
 30
0.0
 11
348.0977397888608
 21
-1053.580118419854
 31
0.0
  0
LINE
  5
10A
  8
1
  6
CONTINUOUS
 62
   253
 10
348.0977397888608
 20
-1053.580118419854
 30
0.0
 11
347.9843412094885
 21
-1053.955093058449
 31
0.0
  0
LINE
  5
10B
  8
1
  6
CONTINUOUS
 62
   253
 10
347.9843412094885
 20
-1053.955093058449
 30
0.0
 11
347.9462327880333
 21
-1054.345290739171
 31
0.0
  0
LINE
  5
10C
  8
1
  6
CONTINUOUS
 62
   253
 10
417.0537672119669
 20
-1054.345290739171
 30
0.0
 11
417.0156587905117
 21
-1053.955093058449
 31
0.0
  0
LINE
  5
10D
  8
1
  6
CONTINUOUS
 62
   253
 10
417.0156587905117
 20
-1053.955093058449
 30
0.0
 11
416.9022602111394
 21
-1053.580118419854
 31
0.0
  0
LINE
  5
10E
  8
1
  6
CONTINUOUS
 62
   253
 10
416.9022602111394
 20
-1053.580118419854
 30
0.0
 11
416.71791418169
 21
-1053.234726838404
 31
0.0
  0
LINE
  5
10F
  8
1
  6
CONTINUOUS
 62
   253
 10
416.71791418169
 20
-1053.234726838404
 30
0.0
 11
416.4696804109515
 21
-1052.932145417445
 31
0.0
  0
LINE
  5
110
  8
1
  6
CONTINUOUS
 62
   253
 10
416.4696804109515
 20
-1052.932145417445
 30
0.0
 11
416.1670652503108
 21
-1052.683961803985
 31
0.0
  0
LINE
  5
111
  8
1
  6
CONTINUOUS
 62
   253
 10
416.1670652503108
 20
-1052.683961803985
 30
0.0
 11
415.8216576388697
 21
-1052.49968042859
 31
0.0
  0
LINE
  5
112
  8
1
  6
CONTINUOUS
 62
   253
 10
415.8216576388697
 20
-1052.49968042859
 30
0.0
 11
415.4466852938579
 21
-1052.386358524058
 31
0.0
  0
LINE
  5
113
  8
1
  6
CONTINUOUS
 62
   253
 10
415.4466852938579
 20
-1052.386358524058
 30
0.0
 11
415.0565081424577
 21
-1052.348335861893
 31
0.0
  0
LINE
  5
114
  8
1
  6
CONTINUOUS
 62
   253
 10
387.0537672119669
 20
-1054.345290739171
 30
0.0
 11
387.0156587905117
 21
-1053.955093058449
 31
0.0
  0
LINE
  5
115
  8
1
  6
CONTINUOUS
 62
   253
 10
387.0156587905117
 20
-1053.955093058449
 30
0.0
 11
386.9022602111394
 21
-1053.580118419854
 31
0.0
  0
LINE
  5
116
  8
1
  6
CONTINUOUS
 62
   253
 10
386.9022602111394
 20
-1053.580118419854
 30
0.0
 11
386.71791418169
 21
-1053.234726838404
 31
0.0
  0
LINE
  5
117
  8
1
  6
CONTINUOUS
 62
   253
 10
386.71791418169
 20
-1053.234726838404
 30
0.0
 11
386.4696804109515
 21
-1052.932145417445
 31
0.0
  0
LINE
  5
118
  8
1
  6
CONTINUOUS
 62
   253
 10
386.4696804109515
 20
-1052.932145417445
 30
0.0
 11
386.1670652503108
 21
-1052.683961803985
 31
0.0
  0
LINE
  5
119
  8
1
  6
CONTINUOUS
 62
   253
 10
386.1670652503108
 20
-1052.683961803985
 30
0.0
 11
385.8216576388697
 21
-1052.49968042859
 31
0.0
  0
LINE
  5
11A
  8
1
  6
CONTINUOUS
 62
   253
 10
385.8216576388697
 20
-1052.49968042859
 30
0.0
 11
385.4466852938579
 21
-1052.386358524058
 31
0.0
  0
LINE
  5
11B
  8
1
  6
CONTINUOUS
 62
   253
 10
385.4466852938579
 20
-1052.386358524058
 30
0.0
 11
385.0565081424577
 21
-1052.348335861893
 31
0.0
  0
LINE
  5
11C
  8
1
  6
CONTINUOUS
 62
   253
 10
409.9434918575425
 20
-1052.348335861893
 30
0.0
 11
409.5533147061424
 21
-1052.386358524058
 31
0.0
  0
LINE
  5
11D
  8
1
  6
CONTINUOUS
 62
   253
 10
409.5533147061424
 20
-1052.386358524058
 30
0.0
 11
409.1783423611305
 21
-1052.49968042859
 31
0.0
  0
LINE
  5
11E
  8
1
  6
CONTINUOUS
 62
   253
 10
409.1783423611305
 20
-1052.49968042859
 30
0.0
 11
408.8329347496895
 21
-1052.683961803985
 31
0.0
  0
LINE
  5
11F
  8
1
  6
CONTINUOUS
 62
   253
 10
408.8329347496895
 20
-1052.683961803985
 30
0.0
 11
408.5303195890488
 21
-1052.932145417445
 31
0.0
  0
LINE
  5
120
  8
1
  6
CONTINUOUS
 62
   253
 10
408.5303195890488
 20
-1052.932145417445
 30
0.0
 11
408.2820858183102
 21
-1053.234726838404
 31
0.0
  0
LINE
  5
121
  8
1
  6
CONTINUOUS
 62
   253
 10
408.2820858183102
 20
-1053.234726838404
 30
0.0
 11
408.0977397888607
 21
-1053.580118419854
 31
0.0
  0
LINE
  5
122
  8
1
  6
CONTINUOUS
 62
   253
 10
408.0977397888607
 20
-1053.580118419854
 30
0.0
 11
407.9843412094885
 21
-1053.955093058449
 31
0.0
  0
LINE
  5
123
  8
1
  6
CONTINUOUS
 62
   253
 10
407.9843412094885
 20
-1053.955093058449
 30
0.0
 11
407.9462327880333
 21
-1054.345290739171
 31
0.0
  0
LINE
  5
124
  8
1
  6
CONTINUOUS
 62
   253
 10
379.9434918575425
 20
-1052.348335861893
 30
0.0
 11
379.5533147061424
 21
-1052.386358524058
 31
0.0
  0
LINE
  5
125
  8
1
  6
CONTINUOUS
 62
   253
 10
379.5533147061424
 20
-1052.386358524058
 30
0.0
 11
379.1783423611305
 21
-1052.49968042859
 31
0.0
  0
LINE
  5
126
  8
1
  6
CONTINUOUS
 62
   253
 10
379.1783423611305
 20
-1052.49968042859
 30
0.0
 11
378.8329347496895
 21
-1052.683961803985
 31
0.0
  0
LINE
  5
127
  8
1
  6
CONTINUOUS
 62
   253
 10
378.8329347496895
 20
-1052.683961803985
 30
0.0
 11
378.5303195890488
 21
-1052.932145417445
 31
0.0
  0
LINE
  5
128
  8
1
  6
CONTINUOUS
 62
   253
 10
378.5303195890488
 20
-1052.932145417445
 30
0.0
 11
378.2820858183102
 21
-1053.234726838404
 31
0.0
  0
LINE
  5
129
  8
1
  6
CONTINUOUS
 62
   253
 10
378.2820858183102
 20
-1053.234726838404
 30
0.0
 11
378.0977397888608
 21
-1053.580118419854
 31
0.0
  0
LINE
  5
12A
  8
1
  6
CONTINUOUS
 62
   253
 10
378.0977397888608
 20
-1053.580118419854
 30
0.0
 11
377.9843412094886
 21
-1053.955093058449
 31
0.0
  0
LINE
  5
12B
  8
1
  6
CONTINUOUS
 62
   253
 10
377.9843412094886
 20
-1053.955093058449
 30
0.0
 11
377.9462327880334
 21
-1054.345290739171
 31
0.0
  0
LINE
  5
12C
  8
1
  6
CONTINUOUS
 62
   253
 10
385.0565081424577
 20
-1052.348335861892
 30
0.0
 11
379.9434918575425
 21
-1052.348335861892
 31
0.0
  0
LINE
  5
12D
  8
1
  6
CONTINUOUS
 62
   253
 10
355.0565081424577
 20
-1052.348335861892
 30
0.0
 11
349.9434918575425
 21
-1052.348335861892
 31
0.0
  0
LINE
  5
12E
  8
1
  6
CONTINUOUS
 62
   253
 10
415.0565081424577
 20
-1052.348335861892
 30
0.0
 11
409.9434918575425
 21
-1052.348335861892
 31
0.0
  0
LINE
  5
12F
  8
1
  6
CONTINUOUS
 62
   253
 10
445.0565081424578
 20
-1052.348335861892
 30
0.0
 11
439.9434918575425
 21
-1052.348335861892
 31
0.0
  0
LINE
  5
130
  8
1
  6
CONTINUOUS
 62
   253
 10
347.9462327880334
 20
-1056.476564454054
 30
0.0
 11
347.9751675159803
 21
-1056.447598821321
 31
0.0
  0
LINE
  5
131
  8
1
  6
CONTINUOUS
 62
     7
 10
557.42000000623
 20
-1120.999999999997
 30
0.0
 11
557.58000000623
 21
-1121.000000000007
 31
0.0
  0
LINE
  5
132
  8
1
  6
CONTINUOUS
 62
     7
 10
557.58000000623
 20
-1121.000000000008
 30
0.0
 11
557.5800000059097
 21
-1126.000000000007
 31
0.0
  0
LINE
  5
133
  8
1
  6
CONTINUOUS
 62
     7
 10
557.4200000059097
 20
-1125.999999999997
 30
0.0
 11
557.42000000623
 21
-1120.999999999997
 31
0.0
  0
LINE
  5
134
  8
1
  6
CONTINUOUS
 62
     7
 10
557.4200000059097
 20
-1125.999999999997
 30
0.0
 11
557.4199999986707
 21
-1238.999999999989
 31
0.0
  0
LINE
  5
135
  8
1
  6
CONTINUOUS
 62
     7
 10
557.5800000059097
 20
-1126.000000000007
 30
0.0
 11
557.5800000022044
 21
-1137.339745962159
 31
0.0
  0
LINE
  5
136
  8
1
  6
CONTINUOUS
 62
     7
 10
557.5799999983503
 20
-1243.999999999999
 30
0.0
 11
557.4199999983505
 21
-1243.999999999989
 31
0.0
  0
LINE
  5
137
  8
1
  6
CONTINUOUS
 62
     7
 10
557.4199999983505
 20
-1243.999999999988
 30
0.0
 11
557.4199999986707
 21
-1238.999999999989
 31
0.0
  0
LINE
  5
138
  8
1
  6
CONTINUOUS
 62
     7
 10
557.5800000016496
 20
-1146.000000000003
 30
0.0
 11
557.5800000016496
 21
-1239.000000000003
 31
0.0
  0
LINE
  5
139
  8
1
  6
CONTINUOUS
 62
     7
 10
558.0800000016495
 20
-1146.000000000003
 30
0.0
 11
558.0800000016495
 21
-1239.000000000003
 31
0.0
  0
LINE
  5
13A
  8
1
  6
CONTINUOUS
 62
     7
 10
558.0800000016495
 20
-1239.000000000003
 30
0.0
 11
558.0800000016495
 21
-1249.000000000003
 31
0.0
  0
LINE
  5
13B
  8
1
  6
CONTINUOUS
 62
     7
 10
558.0800000016495
 20
-1249.000000000003
 30
0.0
 11
557.5800000016496
 21
-1249.000000000003
 31
0.0
  0
LINE
  5
13C
  8
1
  6
CONTINUOUS
 62
     7
 10
557.5800000016496
 20
-1249.000000000003
 30
0.0
 11
557.5800000016496
 21
-1239.000000000003
 31
0.0
  0
LINE
  5
13D
  8
1
  6
CONTINUOUS
 62
     7
 10
557.5800000016496
 20
-1136.000000000003
 30
0.0
 11
558.0800000016495
 21
-1136.000000000003
 31
0.0
  0
LINE
  5
13E
  8
1
  6
CONTINUOUS
 62
     7
 10
558.0800000016495
 20
-1136.000000000003
 30
0.0
 11
558.0800000016495
 21
-1146.000000000003
 31
0.0
  0
LINE
  5
13F
  8
1
  6
CONTINUOUS
 62
     7
 10
557.5800000016496
 20
-1146.000000000003
 30
0.0
 11
557.5800000016496
 21
-1137.339745962158
 31
0.0
  0
ARC
  5
140
  8
1
  6
CONTINUOUS
 62
     7
 10
558.5800000016496
 20
-1157.000000000003
 30
0.0
 40
0.500000000000056
 50
180.0
 51
270.0000000000001
  0
ARC
  5
141
  8
1
  6
CONTINUOUS
 62
     7
 10
558.5800000016496
 20
-1227.914421255249
 30
0.0
 40
0.5000000000001759
 50
94.99999999999994
 51
180.0
  0
LINE
  5
142
  8
1
  6
CONTINUOUS
 62
     7
 10
573.0800000016496
 20
-1157.500000000003
 30
0.0
 11
602.667262033836
 21
-1158.016447579823
 31
0.0
  0
LINE
  5
143
  8
1
  6
CONTINUOUS
 62
     7
 10
573.0800000016499
 20
-1162.499238475785
 30
0.0
 11
573.0800000016499
 21
-1162.500000000003
 31
0.0
  0
LINE
  5
144
  8
1
  6
CONTINUOUS
 62
     7
 10
573.4721443764341
 20
-1226.109617528092
 30
0.0
 11
558.5364221302758
 21
-1227.416323906203
 31
0.0
  0
LINE
  5
145
  8
1
  6
CONTINUOUS
 62
     7
 10
558.5800000016496
 20
-1157.500000000003
 30
0.0
 11
573.0800000016496
 21
-1157.500000000003
 31
0.0
  0
LINE
  5
146
  8
1
  6
CONTINUOUS
 62
     7
 10
603.0157787153878
 20
-1223.524884444078
 30
0.0
 11
573.4721443764341
 21
-1226.109617528092
 31
0.0
  0
LINE
  5
147
  8
1
  6
CONTINUOUS
 62
     7
 10
607.5800000016495
 20
-1163.015686055605
 30
0.0
 11
607.5800000016495
 21
-1218.54391095362
 31
0.0
  0
ARC
  5
148
  8
1
  6
CONTINUOUS
 62
     7
 10
602.5800000016496
 20
-1218.54391095362
 30
0.0
 40
4.999999999999893
 50
275.0000000000001
 51
0.0
  0
ARC
  5
149
  8
1
  6
CONTINUOUS
 62
     7
 10
602.5800000016496
 20
-1163.015686055605
 30
0.0
 40
5.000000000000028
 50
0.0
 51
88.99999999999994
  0
ARC
  5
14A
  8
1
  6
CONTINUOUS
 62
     7
 10
499.5000000000001
 20
-1238.999999999989
 30
0.0
 40
4.999999999999997
 50
270.0
 51
0.0
  0
LINE
  5
14B
  8
1
  6
CONTINUOUS
 62
     7
 10
499.5000000000001
 20
-1243.999999999989
 30
0.0
 11
295.5000000000003
 21
-1243.999999999989
 31
0.0
  0
ARC
  5
14C
  8
1
  6
CONTINUOUS
 62
     7
 10
295.5000000000003
 20
-1238.999999999989
 30
0.0
 40
5.000000000000004
 50
180.0
 51
270.0
  0
LINE
  5
14D
  8
1
  6
CONTINUOUS
 62
     7
 10
290.5000000000002
 20
-1238.999999999989
 30
0.0
 11
290.5000000000002
 21
-1145.999999999995
 31
0.0
  0
ARC
  5
14E
  8
1
  6
CONTINUOUS
 62
     7
 10
295.5000000000003
 20
-1145.999999999995
 30
0.0
 40
4.999999999999997
 50
90.0
 51
180.0
  0
LINE
  5
14F
  8
1
  6
CONTINUOUS
 62
     7
 10
295.5000000000003
 20
-1140.999999999995
 30
0.0
 11
479.5
 21
-1140.999999999995
 31
0.0
  0
ARC
  5
150
  8
1
  6
CONTINUOUS
 62
     7
 10
479.5
 20
-1135.999999999996
 30
0.0
 40
5.000000000000004
 50
270.0
 51
0.0
  0
LINE
  5
151
  8
1
  6
CONTINUOUS
 62
     7
 10
484.5000000000001
 20
-1135.999999999996
 30
0.0
 11
484.5000000000001
 21
-1125.999999999997
 31
0.0
  0
ARC
  5
152
  8
1
  6
CONTINUOUS
 62
     7
 10
489.5000000000001
 20
-1125.999999999997
 30
0.0
 40
5.000000000000004
 50
90.0
 51
180.0
  0
LINE
  5
153
  8
1
  6
CONTINUOUS
 62
     7
 10
489.5000000000001
 20
-1120.999999999997
 30
0.0
 11
499.5000000000001
 21
-1120.999999999997
 31
0.0
  0
ARC
  5
154
  8
1
  6
CONTINUOUS
 62
     7
 10
499.5000000000001
 20
-1125.999999999997
 30
0.0
 40
5.000000000000004
 50
0.0
 51
90.0
  0
LINE
  5
155
  8
1
  6
CONTINUOUS
 62
     7
 10
504.4999999999999
 20
-1125.999999999997
 30
0.0
 11
504.4999999999999
 21
-1238.999999999989
 31
0.0
  0
ARC
  5
156
  8
1
  6
CONTINUOUS
 62
     7
 10
488.5000000000001
 20
-1158.499999999995
 30
0.0
 40
2.000000000000002
 50
0.0
 51
89.99999999999962
  0
LINE
  5
157
  8
1
  6
CONTINUOUS
 62
     7
 10
306.5000000000002
 20
-1156.499999999995
 30
0.0
 11
488.5000000000001
 21
-1156.499999999995
 31
0.0
  0
ARC
  5
158
  8
1
  6
CONTINUOUS
 62
     7
 10
306.5000000000002
 20
-1158.499999999995
 30
0.0
 40
2.000000000000002
 50
90.0
 51
180.0
  0
LINE
  5
159
  8
1
  6
CONTINUOUS
 62
     7
 10
304.5000000000002
 20
-1226.49999999999
 30
0.0
 11
304.5000000000002
 21
-1158.499999999995
 31
0.0
  0
ARC
  5
15A
  8
1
  6
CONTINUOUS
 62
     7
 10
306.5000000000002
 20
-1226.49999999999
 30
0.0
 40
2.000000000000002
 50
180.0
 51
270.0
  0
LINE
  5
15B
  8
1
  6
CONTINUOUS
 62
     7
 10
488.5000000000001
 20
-1228.49999999999
 30
0.0
 11
306.5000000000002
 21
-1228.49999999999
 31
0.0
  0
ARC
  5
15C
  8
1
  6
CONTINUOUS
 62
     7
 10
488.5000000000001
 20
-1226.49999999999
 30
0.0
 40
2.000000000000002
 50
270.0000000000004
 51
0.0
  0
LINE
  5
15D
  8
1
  6
CONTINUOUS
 62
     7
 10
490.5000000000001
 20
-1158.499999999995
 30
0.0
 11
490.5000000000001
 21
-1226.49999999999
 31
0.0
  0
ARC
  5
15E
  8
1
  6
CONTINUOUS
 62
     7
 10
499.5000000000001
 20
-1146.000000000003
 30
0.0
 40
10.00000000000001
 50
0.0
 51
60.0000000000007
  0
ARC
  5
15F
  8
1
  6
CONTINUOUS
 62
     7
 10
499.5000000000002
 20
-1239.000000000003
 30
0.0
 40
10.00000000000001
 50
270.0
 51
0.0
  0
ARC
  5
160
  8
1
  6
CONTINUOUS
 62
     7
 10
295.5000000000001
 20
-1239.000000000003
 30
0.0
 40
9.99999999999998
 50
180.0
 51
270.0
  0
ARC
  5
161
  8
1
  6
CONTINUOUS
 62
     7
 10
295.5000000000001
 20
-1146.000000000003
 30
0.0
 40
10.0
 50
90.0
 51
180.0
  0
LINE
  5
162
  8
1
  6
CONTINUOUS
 62
     7
 10
499.5000000000002
 20
-1249.000000000003
 30
0.0
 11
295.5000000000002
 21
-1249.000000000003
 31
0.0
  0
LINE
  5
163
  8
1
  6
CONTINUOUS
 62
     7
 10
509.5000000000002
 20
-1146.000000000003
 30
0.0
 11
509.5000000000002
 21
-1239.000000000003
 31
0.0
  0
LINE
  5
164
  8
1
  6
CONTINUOUS
 62
     7
 10
295.5000000000001
 20
-1136.000000000003
 30
0.0
 11
484.4999999999993
 21
-1136.000000000003
 31
0.0
  0
LINE
  5
165
  8
1
  6
CONTINUOUS
 62
     7
 10
285.5000000000001
 20
-1239.000000000003
 30
0.0
 11
285.5000000000001
 21
-1146.000000000003
 31
0.0
  0
LINE
  5
166
  8
1
  6
CONTINUOUS
 62
     7
 10
487.5000000000002
 20
-1162.500000000003
 30
0.0
 11
487.5000000000002
 21
-1222.39341214876
 31
0.0
  0
LINE
  5
167
  8
1
  6
CONTINUOUS
 62
   253
 10
483.0000000000001
 20
-1226.918226557157
 30
0.0
 11
483.8779064490727
 21
-1226.831283517072
 31
0.0
  0
LINE
  5
168
  8
1
  6
CONTINUOUS
 62
   253
 10
483.8779064490727
 20
-1226.831283517072
 30
0.0
 11
484.722075445643
 21
-1226.57379556909
 31
0.0
  0
LINE
  5
169
  8
1
  6
CONTINUOUS
 62
   253
 10
484.722075445643
 20
-1226.57379556909
 30
0.0
 11
485.5000660485883
 21
-1226.155657830651
 31
0.0
  0
LINE
  5
16A
  8
1
  6
CONTINUOUS
 62
   253
 10
485.5000660485883
 20
-1226.155657830651
 30
0.0
 11
486.1819805153395
 21
-1225.592939100548
 31
0.0
  0
LINE
  5
16B
  8
1
  6
CONTINUOUS
 62
   253
 10
486.1819805153395
 20
-1225.592939100548
 30
0.0
 11
486.7416132553616
 21
-1224.907264344004
 31
0.0
  0
LINE
  5
16C
  8
1
  6
CONTINUOUS
 62
   253
 10
486.7416132553616
 20
-1224.907264344004
 30
0.0
 11
487.1574578963009
 21
-1224.124983657381
 31
0.0
  0
LINE
  5
16D
  8
1
  6
CONTINUOUS
 62
   253
 10
487.1574578963009
 20
-1224.124983657381
 30
0.0
 11
487.4135337618146
 21
-1223.276159648758
 31
0.0
  0
LINE
  5
16E
  8
1
  6
CONTINUOUS
 62
   253
 10
487.4135337618146
 20
-1223.276159648758
 30
0.0
 11
487.5000000000001
 21
-1222.39341214876
 31
0.0
  0
ARC
  5
16F
  8
1
  6
CONTINUOUS
 62
     7
 10
312.0000000000002
 20
-1162.500000000003
 30
0.0
 40
4.500000000000004
 50
90.0
 51
180.0
  0
LINE
  5
170
  8
1
  6
CONTINUOUS
 62
     7
 10
307.5000000000001
 20
-1222.39341214876
 30
0.0
 11
307.5000000000001
 21
-1162.500000000003
 31
0.0
  0
ARC
  5
171
  8
1
  6
CONTINUOUS
 62
     7
 10
483.0000000000001
 20
-1162.500000000003
 30
0.0
 40
4.5
 50
0.0
 51
90.0
  0
LINE
  5
172
  8
1
  6
CONTINUOUS
 62
   253
 10
483.0000000000001
 20
-1226.918226557157
 30
0.0
 11
312.0000000000002
 21
-1226.918226557157
 31
0.0
  0
LINE
  5
173
  8
1
  6
CONTINUOUS
 62
     7
 10
312.0000000000002
 20
-1158.000000000003
 30
0.0
 11
483.0000000000001
 21
-1158.000000000003
 31
0.0
  0
LINE
  5
174
  8
1
  6
CONTINUOUS
 62
   253
 10
307.5000000000002
 20
-1222.39341214876
 30
0.0
 11
307.5864662381856
 21
-1223.276159648758
 31
0.0
  0
LINE
  5
175
  8
1
  6
CONTINUOUS
 62
   253
 10
307.5864662381856
 20
-1223.276159648758
 30
0.0
 11
307.8425421036994
 21
-1224.124983657381
 31
0.0
  0
LINE
  5
176
  8
1
  6
CONTINUOUS
 62
   253
 10
307.8425421036994
 20
-1224.124983657381
 30
0.0
 11
308.2583867446387
 21
-1224.907264344004
 31
0.0
  0
LINE
  5
177
  8
1
  6
CONTINUOUS
 62
   253
 10
308.2583867446387
 20
-1224.907264344004
 30
0.0
 11
308.8180194846607
 21
-1225.592939100548
 31
0.0
  0
LINE
  5
178
  8
1
  6
CONTINUOUS
 62
   253
 10
308.8180194846607
 20
-1225.592939100548
 30
0.0
 11
309.4999339514119
 21
-1226.155657830651
 31
0.0
  0
LINE
  5
179
  8
1
  6
CONTINUOUS
 62
   253
 10
309.4999339514119
 20
-1226.155657830651
 30
0.0
 11
310.2779245543572
 21
-1226.57379556909
 31
0.0
  0
LINE
  5
17A
  8
1
  6
CONTINUOUS
 62
   253
 10
310.2779245543572
 20
-1226.57379556909
 30
0.0
 11
311.1220935509276
 21
-1226.831283517072
 31
0.0
  0
LINE
  5
17B
  8
1
  6
CONTINUOUS
 62
   253
 10
311.1220935509276
 20
-1226.831283517072
 30
0.0
 11
312.0000000000002
 21
-1226.918226557157
 31
0.0
  0
LINE
  5
17C
  8
1
  6
CONTINUOUS
 62
     7
 10
437.3682943787936
 20
-1178.635131784323
 30
0.0
 11
437.4162300271242
 21
-1179.122553102062
 31
0.0
  0
LINE
  5
17D
  8
1
  6
CONTINUOUS
 62
     7
 10
437.4162300271242
 20
-1179.122553102062
 30
0.0
 11
437.5582012302845
 21
-1179.591045554382
 31
0.0
  0
LINE
  5
17E
  8
1
  6
CONTINUOUS
 62
     7
 10
437.5582012302845
 20
-1179.591045554382
 30
0.0
 11
437.7887710642809
 21
-1180.022667771498
 31
0.0
  0
LINE
  5
17F
  8
1
  6
CONTINUOUS
 62
     7
 10
437.7887710642809
 20
-1180.022667771498
 30
0.0
 11
438.0991096352007
 21
-1180.400890364803
 31
0.0
  0
LINE
  5
180
  8
1
  6
CONTINUOUS
 62
     7
 10
438.0991096352007
 20
-1180.400890364803
 30
0.0
 11
438.477332228505
 21
-1180.711228935723
 31
0.0
  0
LINE
  5
181
  8
1
  6
CONTINUOUS
 62
     7
 10
438.477332228505
 20
-1180.711228935723
 30
0.0
 11
438.9089544456216
 21
-1180.941798769719
 31
0.0
  0
LINE
  5
182
  8
1
  6
CONTINUOUS
 62
     7
 10
438.9089544456216
 20
-1180.941798769719
 30
0.0
 11
439.3774468979416
 21
-1181.083769972879
 31
0.0
  0
LINE
  5
183
  8
1
  6
CONTINUOUS
 62
     7
 10
439.3774468979416
 20
-1181.083769972879
 30
0.0
 11
439.86486821568
 21
-1181.13170562121
 31
0.0
  0
LINE
  5
184
  8
1
  6
CONTINUOUS
 62
     7
 10
447.6317056212067
 20
-1176.364868215683
 30
0.0
 11
447.583769972876
 21
-1175.877446897945
 31
0.0
  0
LINE
  5
185
  8
1
  6
CONTINUOUS
 62
     7
 10
447.583769972876
 20
-1175.877446897945
 30
0.0
 11
447.4417987697158
 21
-1175.408954445625
 31
0.0
  0
LINE
  5
186
  8
1
  6
CONTINUOUS
 62
     7
 10
447.4417987697158
 20
-1175.408954445625
 30
0.0
 11
447.2112289357194
 21
-1174.977332228508
 31
0.0
  0
LINE
  5
187
  8
1
  6
CONTINUOUS
 62
     7
 10
447.2112289357194
 20
-1174.977332228508
 30
0.0
 11
446.9008903647996
 21
-1174.599109635204
 31
0.0
  0
LINE
  5
188
  8
1
  6
CONTINUOUS
 62
     7
 10
446.9008903647996
 20
-1174.599109635204
 30
0.0
 11
446.5226677714953
 21
-1174.288771064284
 31
0.0
  0
LINE
  5
189
  8
1
  6
CONTINUOUS
 62
     7
 10
446.5226677714953
 20
-1174.288771064284
 30
0.0
 11
446.0910455543787
 21
-1174.058201230288
 31
0.0
  0
LINE
  5
18A
  8
1
  6
CONTINUOUS
 62
     7
 10
446.0910455543787
 20
-1174.058201230288
 30
0.0
 11
445.6225531020587
 21
-1173.916230027127
 31
0.0
  0
LINE
  5
18B
  8
1
  6
CONTINUOUS
 62
     7
 10
445.6225531020587
 20
-1173.916230027127
 30
0.0
 11
445.1351317843203
 21
-1173.868294378797
 31
0.0
  0
LINE
  5
18C
  8
1
  6
CONTINUOUS
 62
     7
 10
347.3682943787936
 20
-1193.635131784323
 30
0.0
 11
347.4162300271242
 21
-1194.122553102062
 31
0.0
  0
LINE
  5
18D
  8
1
  6
CONTINUOUS
 62
     7
 10
347.4162300271242
 20
-1194.122553102062
 30
0.0
 11
347.5582012302845
 21
-1194.591045554381
 31
0.0
  0
LINE
  5
18E
  8
1
  6
CONTINUOUS
 62
     7
 10
347.5582012302845
 20
-1194.591045554381
 30
0.0
 11
347.7887710642809
 21
-1195.022667771498
 31
0.0
  0
LINE
  5
18F
  8
1
  6
CONTINUOUS
 62
     7
 10
347.7887710642809
 20
-1195.022667771498
 30
0.0
 11
348.0991096352007
 21
-1195.400890364802
 31
0.0
  0
LINE
  5
190
  8
1
  6
CONTINUOUS
 62
     7
 10
348.0991096352007
 20
-1195.400890364802
 30
0.0
 11
348.477332228505
 21
-1195.711228935722
 31
0.0
  0
LINE
  5
191
  8
1
  6
CONTINUOUS
 62
     7
 10
348.477332228505
 20
-1195.711228935722
 30
0.0
 11
348.9089544456216
 21
-1195.941798769719
 31
0.0
  0
LINE
  5
192
  8
1
  6
CONTINUOUS
 62
     7
 10
348.9089544456216
 20
-1195.941798769719
 30
0.0
 11
349.3774468979416
 21
-1196.083769972879
 31
0.0
  0
LINE
  5
193
  8
1
  6
CONTINUOUS
 62
     7
 10
349.3774468979416
 20
-1196.083769972879
 30
0.0
 11
349.86486821568
 21
-1196.131705621209
 31
0.0
  0
LINE
  5
194
  8
1
  6
CONTINUOUS
 62
     7
 10
439.86486821568
 20
-1173.868294378797
 30
0.0
 11
439.3774468979416
 21
-1173.916230027127
 31
0.0
  0
LINE
  5
195
  8
1
  6
CONTINUOUS
 62
     7
 10
439.3774468979416
 20
-1173.916230027127
 30
0.0
 11
438.9089544456216
 21
-1174.058201230288
 31
0.0
  0
LINE
  5
196
  8
1
  6
CONTINUOUS
 62
     7
 10
438.9089544456216
 20
-1174.058201230288
 30
0.0
 11
438.477332228505
 21
-1174.288771064284
 31
0.0
  0
LINE
  5
197
  8
1
  6
CONTINUOUS
 62
     7
 10
438.477332228505
 20
-1174.288771064284
 30
0.0
 11
438.0991096352007
 21
-1174.599109635204
 31
0.0
  0
LINE
  5
198
  8
1
  6
CONTINUOUS
 62
     7
 10
438.0991096352007
 20
-1174.599109635204
 30
0.0
 11
437.7887710642809
 21
-1174.977332228508
 31
0.0
  0
LINE
  5
199
  8
1
  6
CONTINUOUS
 62
     7
 10
437.7887710642809
 20
-1174.977332228508
 30
0.0
 11
437.5582012302845
 21
-1175.408954445625
 31
0.0
  0
LINE
  5
19A
  8
1
  6
CONTINUOUS
 62
     7
 10
437.5582012302845
 20
-1175.408954445625
 30
0.0
 11
437.4162300271242
 21
-1175.877446897945
 31
0.0
  0
LINE
  5
19B
  8
1
  6
CONTINUOUS
 62
     7
 10
437.4162300271242
 20
-1175.877446897945
 30
0.0
 11
437.3682943787936
 21
-1176.364868215683
 31
0.0
  0
LINE
  5
19C
  8
1
  6
CONTINUOUS
 62
     7
 10
355.1351317843203
 20
-1181.13170562121
 30
0.0
 11
355.6225531020587
 21
-1181.083769972879
 31
0.0
  0
LINE
  5
19D
  8
1
  6
CONTINUOUS
 62
     7
 10
355.6225531020587
 20
-1181.083769972879
 30
0.0
 11
356.0910455543787
 21
-1180.941798769719
 31
0.0
  0
LINE
  5
19E
  8
1
  6
CONTINUOUS
 62
     7
 10
356.0910455543787
 20
-1180.941798769719
 30
0.0
 11
356.5226677714953
 21
-1180.711228935723
 31
0.0
  0
LINE
  5
19F
  8
1
  6
CONTINUOUS
 62
     7
 10
356.5226677714953
 20
-1180.711228935723
 30
0.0
 11
356.9008903647996
 21
-1180.400890364803
 31
0.0
  0
LINE
  5
1A0
  8
1
  6
CONTINUOUS
 62
     7
 10
356.9008903647996
 20
-1180.400890364803
 30
0.0
 11
357.2112289357194
 21
-1180.022667771498
 31
0.0
  0
LINE
  5
1A1
  8
1
  6
CONTINUOUS
 62
     7
 10
357.2112289357194
 20
-1180.022667771498
 30
0.0
 11
357.4417987697158
 21
-1179.591045554382
 31
0.0
  0
LINE
  5
1A2
  8
1
  6
CONTINUOUS
 62
     7
 10
357.4417987697158
 20
-1179.591045554382
 30
0.0
 11
357.583769972876
 21
-1179.122553102062
 31
0.0
  0
LINE
  5
1A3
  8
1
  6
CONTINUOUS
 62
     7
 10
357.583769972876
 20
-1179.122553102062
 30
0.0
 11
357.6317056212067
 21
-1178.635131784323
 31
0.0
  0
LINE
  5
1A4
  8
1
  6
CONTINUOUS
 62
     7
 10
349.86486821568
 20
-1173.868294378797
 30
0.0
 11
349.3774468979416
 21
-1173.916230027127
 31
0.0
  0
LINE
  5
1A5
  8
1
  6
CONTINUOUS
 62
     7
 10
349.3774468979416
 20
-1173.916230027127
 30
0.0
 11
348.9089544456216
 21
-1174.058201230288
 31
0.0
  0
LINE
  5
1A6
  8
1
  6
CONTINUOUS
 62
     7
 10
348.9089544456216
 20
-1174.058201230288
 30
0.0
 11
348.477332228505
 21
-1174.288771064284
 31
0.0
  0
LINE
  5
1A7
  8
1
  6
CONTINUOUS
 62
     7
 10
348.477332228505
 20
-1174.288771064284
 30
0.0
 11
348.0991096352007
 21
-1174.599109635204
 31
0.0
  0
LINE
  5
1A8
  8
1
  6
CONTINUOUS
 62
     7
 10
348.0991096352007
 20
-1174.599109635204
 30
0.0
 11
347.7887710642809
 21
-1174.977332228508
 31
0.0
  0
LINE
  5
1A9
  8
1
  6
CONTINUOUS
 62
     7
 10
347.7887710642809
 20
-1174.977332228508
 30
0.0
 11
347.5582012302845
 21
-1175.408954445625
 31
0.0
  0
LINE
  5
1AA
  8
1
  6
CONTINUOUS
 62
     7
 10
347.5582012302845
 20
-1175.408954445625
 30
0.0
 11
347.4162300271242
 21
-1175.877446897945
 31
0.0
  0
LINE
  5
1AB
  8
1
  6
CONTINUOUS
 62
     7
 10
347.4162300271242
 20
-1175.877446897945
 30
0.0
 11
347.3682943787936
 21
-1176.364868215683
 31
0.0
  0
LINE
  5
1AC
  8
1
  6
CONTINUOUS
 62
     7
 10
349.86486821568
 20
-1188.868294378797
 30
0.0
 11
349.3774468979416
 21
-1188.916230027127
 31
0.0
  0
LINE
  5
1AD
  8
1
  6
CONTINUOUS
 62
     7
 10
349.3774468979416
 20
-1188.916230027127
 30
0.0
 11
348.9089544456216
 21
-1189.058201230288
 31
0.0
  0
LINE
  5
1AE
  8
1
  6
CONTINUOUS
 62
     7
 10
348.9089544456216
 20
-1189.058201230288
 30
0.0
 11
348.477332228505
 21
-1189.288771064284
 31
0.0
  0
LINE
  5
1AF
  8
1
  6
CONTINUOUS
 62
     7
 10
348.477332228505
 20
-1189.288771064284
 30
0.0
 11
348.0991096352007
 21
-1189.599109635204
 31
0.0
  0
LINE
  5
1B0
  8
1
  6
CONTINUOUS
 62
     7
 10
348.0991096352007
 20
-1189.599109635204
 30
0.0
 11
347.7887710642809
 21
-1189.977332228508
 31
0.0
  0
LINE
  5
1B1
  8
1
  6
CONTINUOUS
 62
     7
 10
347.7887710642809
 20
-1189.977332228508
 30
0.0
 11
347.5582012302845
 21
-1190.408954445625
 31
0.0
  0
LINE
  5
1B2
  8
1
  6
CONTINUOUS
 62
     7
 10
347.5582012302845
 20
-1190.408954445625
 30
0.0
 11
347.4162300271242
 21
-1190.877446897945
 31
0.0
  0
LINE
  5
1B3
  8
1
  6
CONTINUOUS
 62
     7
 10
347.4162300271242
 20
-1190.877446897945
 30
0.0
 11
347.3682943787936
 21
-1191.364868215683
 31
0.0
  0
LINE
  5
1B4
  8
1
  6
CONTINUOUS
 62
     7
 10
445.1351317843203
 20
-1181.13170562121
 30
0.0
 11
445.6225531020587
 21
-1181.083769972879
 31
0.0
  0
LINE
  5
1B5
  8
1
  6
CONTINUOUS
 62
     7
 10
445.6225531020587
 20
-1181.083769972879
 30
0.0
 11
446.0910455543787
 21
-1180.941798769719
 31
0.0
  0
LINE
  5
1B6
  8
1
  6
CONTINUOUS
 62
     7
 10
446.0910455543787
 20
-1180.941798769719
 30
0.0
 11
446.5226677714953
 21
-1180.711228935723
 31
0.0
  0
LINE
  5
1B7
  8
1
  6
CONTINUOUS
 62
     7
 10
446.5226677714953
 20
-1180.711228935723
 30
0.0
 11
446.9008903647996
 21
-1180.400890364803
 31
0.0
  0
LINE
  5
1B8
  8
1
  6
CONTINUOUS
 62
     7
 10
446.9008903647996
 20
-1180.400890364803
 30
0.0
 11
447.2112289357194
 21
-1180.022667771498
 31
0.0
  0
LINE
  5
1B9
  8
1
  6
CONTINUOUS
 62
     7
 10
447.2112289357194
 20
-1180.022667771498
 30
0.0
 11
447.4417987697158
 21
-1179.591045554382
 31
0.0
  0
LINE
  5
1BA
  8
1
  6
CONTINUOUS
 62
     7
 10
447.4417987697158
 20
-1179.591045554382
 30
0.0
 11
447.583769972876
 21
-1179.122553102062
 31
0.0
  0
LINE
  5
1BB
  8
1
  6
CONTINUOUS
 62
     7
 10
447.583769972876
 20
-1179.122553102062
 30
0.0
 11
447.6317056212067
 21
-1178.635131784323
 31
0.0
  0
LINE
  5
1BC
  8
1
  6
CONTINUOUS
 62
     7
 10
355.1351317843203
 20
-1196.13170562121
 30
0.0
 11
355.6225531020587
 21
-1196.083769972879
 31
0.0
  0
LINE
  5
1BD
  8
1
  6
CONTINUOUS
 62
     7
 10
355.6225531020587
 20
-1196.083769972879
 30
0.0
 11
356.0910455543787
 21
-1195.941798769719
 31
0.0
  0
LINE
  5
1BE
  8
1
  6
CONTINUOUS
 62
     7
 10
356.0910455543787
 20
-1195.941798769719
 30
0.0
 11
356.5226677714953
 21
-1195.711228935722
 31
0.0
  0
LINE
  5
1BF
  8
1
  6
CONTINUOUS
 62
     7
 10
356.5226677714953
 20
-1195.711228935722
 30
0.0
 11
356.9008903647996
 21
-1195.400890364802
 31
0.0
  0
LINE
  5
1C0
  8
1
  6
CONTINUOUS
 62
     7
 10
356.9008903647996
 20
-1195.400890364802
 30
0.0
 11
357.2112289357194
 21
-1195.022667771498
 31
0.0
  0
LINE
  5
1C1
  8
1
  6
CONTINUOUS
 62
     7
 10
357.2112289357194
 20
-1195.022667771498
 30
0.0
 11
357.4417987697158
 21
-1194.591045554381
 31
0.0
  0
LINE
  5
1C2
  8
1
  6
CONTINUOUS
 62
     7
 10
357.4417987697158
 20
-1194.591045554381
 30
0.0
 11
357.583769972876
 21
-1194.122553102062
 31
0.0
  0
LINE
  5
1C3
  8
1
  6
CONTINUOUS
 62
     7
 10
357.583769972876
 20
-1194.122553102062
 30
0.0
 11
357.6317056212067
 21
-1193.635131784323
 31
0.0
  0
LINE
  5
1C4
  8
1
  6
CONTINUOUS
 62
     7
 10
447.6317056212067
 20
-1191.364868215683
 30
0.0
 11
447.583769972876
 21
-1190.877446897944
 31
0.0
  0
LINE
  5
1C5
  8
1
  6
CONTINUOUS
 62
     7
 10
447.583769972876
 20
-1190.877446897944
 30
0.0
 11
447.4417987697158
 21
-1190.408954445624
 31
0.0
  0
LINE
  5
1C6
  8
1
  6
CONTINUOUS
 62
     7
 10
447.4417987697158
 20
-1190.408954445624
 30
0.0
 11
447.2112289357193
 21
-1189.977332228508
 31
0.0
  0
LINE
  5
1C7
  8
1
  6
CONTINUOUS
 62
     7
 10
447.2112289357193
 20
-1189.977332228508
 30
0.0
 11
446.9008903647995
 21
-1189.599109635204
 31
0.0
  0
LINE
  5
1C8
  8
1
  6
CONTINUOUS
 62
     7
 10
446.9008903647995
 20
-1189.599109635204
 30
0.0
 11
446.5226677714952
 21
-1189.288771064284
 31
0.0
  0
LINE
  5
1C9
  8
1
  6
CONTINUOUS
 62
     7
 10
446.5226677714952
 20
-1189.288771064284
 30
0.0
 11
446.0910455543786
 21
-1189.058201230287
 31
0.0
  0
LINE
  5
1CA
  8
1
  6
CONTINUOUS
 62
     7
 10
446.0910455543786
 20
-1189.058201230287
 30
0.0
 11
445.6225531020586
 21
-1188.916230027127
 31
0.0
  0
LINE
  5
1CB
  8
1
  6
CONTINUOUS
 62
     7
 10
445.6225531020586
 20
-1188.916230027127
 30
0.0
 11
445.1351317843202
 21
-1188.868294378796
 31
0.0
  0
LINE
  5
1CC
  8
1
  6
CONTINUOUS
 62
     7
 10
347.3682943787936
 20
-1178.635131784323
 30
0.0
 11
347.4162300271242
 21
-1179.122553102062
 31
0.0
  0
LINE
  5
1CD
  8
1
  6
CONTINUOUS
 62
     7
 10
347.4162300271242
 20
-1179.122553102062
 30
0.0
 11
347.5582012302845
 21
-1179.591045554382
 31
0.0
  0
LINE
  5
1CE
  8
1
  6
CONTINUOUS
 62
     7
 10
347.5582012302845
 20
-1179.591045554382
 30
0.0
 11
347.7887710642809
 21
-1180.022667771498
 31
0.0
  0
LINE
  5
1CF
  8
1
  6
CONTINUOUS
 62
     7
 10
347.7887710642809
 20
-1180.022667771498
 30
0.0
 11
348.0991096352007
 21
-1180.400890364803
 31
0.0
  0
LINE
  5
1D0
  8
1
  6
CONTINUOUS
 62
     7
 10
348.0991096352007
 20
-1180.400890364803
 30
0.0
 11
348.477332228505
 21
-1180.711228935723
 31
0.0
  0
LINE
  5
1D1
  8
1
  6
CONTINUOUS
 62
     7
 10
348.477332228505
 20
-1180.711228935723
 30
0.0
 11
348.9089544456216
 21
-1180.941798769719
 31
0.0
  0
LINE
  5
1D2
  8
1
  6
CONTINUOUS
 62
     7
 10
348.9089544456216
 20
-1180.941798769719
 30
0.0
 11
349.3774468979416
 21
-1181.083769972879
 31
0.0
  0
LINE
  5
1D3
  8
1
  6
CONTINUOUS
 62
     7
 10
349.3774468979416
 20
-1181.083769972879
 30
0.0
 11
349.86486821568
 21
-1181.13170562121
 31
0.0
  0
LINE
  5
1D4
  8
1
  6
CONTINUOUS
 62
     7
 10
445.1351317843202
 20
-1196.13170562121
 30
0.0
 11
445.6225531020586
 21
-1196.083769972879
 31
0.0
  0
LINE
  5
1D5
  8
1
  6
CONTINUOUS
 62
     7
 10
445.6225531020586
 20
-1196.083769972879
 30
0.0
 11
446.0910455543786
 21
-1195.941798769719
 31
0.0
  0
LINE
  5
1D6
  8
1
  6
CONTINUOUS
 62
     7
 10
446.0910455543786
 20
-1195.941798769719
 30
0.0
 11
446.5226677714952
 21
-1195.711228935722
 31
0.0
  0
LINE
  5
1D7
  8
1
  6
CONTINUOUS
 62
     7
 10
446.5226677714952
 20
-1195.711228935722
 30
0.0
 11
446.9008903647995
 21
-1195.400890364802
 31
0.0
  0
LINE
  5
1D8
  8
1
  6
CONTINUOUS
 62
     7
 10
446.9008903647995
 20
-1195.400890364802
 30
0.0
 11
447.2112289357193
 21
-1195.022667771498
 31
0.0
  0
LINE
  5
1D9
  8
1
  6
CONTINUOUS
 62
     7
 10
447.2112289357193
 20
-1195.022667771498
 30
0.0
 11
447.4417987697158
 21
-1194.591045554381
 31
0.0
  0
LINE
  5
1DA
  8
1
  6
CONTINUOUS
 62
     7
 10
447.4417987697158
 20
-1194.591045554381
 30
0.0
 11
447.583769972876
 21
-1194.122553102062
 31
0.0
  0
LINE
  5
1DB
  8
1
  6
CONTINUOUS
 62
     7
 10
447.583769972876
 20
-1194.122553102062
 30
0.0
 11
447.6317056212067
 21
-1193.635131784323
 31
0.0
  0
LINE
  5
1DC
  8
1
  6
CONTINUOUS
 62
     7
 10
357.6317056212067
 20
-1191.364868215683
 30
0.0
 11
357.583769972876
 21
-1190.877446897944
 31
0.0
  0
LINE
  5
1DD
  8
1
  6
CONTINUOUS
 62
     7
 10
357.583769972876
 20
-1190.877446897944
 30
0.0
 11
357.4417987697158
 21
-1190.408954445624
 31
0.0
  0
LINE
  5
1DE
  8
1
  6
CONTINUOUS
 62
     7
 10
357.4417987697158
 20
-1190.408954445624
 30
0.0
 11
357.2112289357194
 21
-1189.977332228508
 31
0.0
  0
LINE
  5
1DF
  8
1
  6
CONTINUOUS
 62
     7
 10
357.2112289357194
 20
-1189.977332228508
 30
0.0
 11
356.9008903647996
 21
-1189.599109635204
 31
0.0
  0
LINE
  5
1E0
  8
1
  6
CONTINUOUS
 62
     7
 10
356.9008903647996
 20
-1189.599109635204
 30
0.0
 11
356.5226677714953
 21
-1189.288771064284
 31
0.0
  0
LINE
  5
1E1
  8
1
  6
CONTINUOUS
 62
     7
 10
356.5226677714953
 20
-1189.288771064284
 30
0.0
 11
356.0910455543787
 21
-1189.058201230287
 31
0.0
  0
LINE
  5
1E2
  8
1
  6
CONTINUOUS
 62
     7
 10
356.0910455543787
 20
-1189.058201230287
 30
0.0
 11
355.6225531020587
 21
-1188.916230027127
 31
0.0
  0
LINE
  5
1E3
  8
1
  6
CONTINUOUS
 62
     7
 10
355.6225531020587
 20
-1188.916230027127
 30
0.0
 11
355.1351317843203
 21
-1188.868294378796
 31
0.0
  0
LINE
  5
1E4
  8
1
  6
CONTINUOUS
 62
     7
 10
357.6317056212067
 20
-1176.364868215683
 30
0.0
 11
357.583769972876
 21
-1175.877446897945
 31
0.0
  0
LINE
  5
1E5
  8
1
  6
CONTINUOUS
 62
     7
 10
357.583769972876
 20
-1175.877446897945
 30
0.0
 11
357.4417987697158
 21
-1175.408954445625
 31
0.0
  0
LINE
  5
1E6
  8
1
  6
CONTINUOUS
 62
     7
 10
357.4417987697158
 20
-1175.408954445625
 30
0.0
 11
357.2112289357194
 21
-1174.977332228508
 31
0.0
  0
LINE
  5
1E7
  8
1
  6
CONTINUOUS
 62
     7
 10
357.2112289357194
 20
-1174.977332228508
 30
0.0
 11
356.9008903647996
 21
-1174.599109635204
 31
0.0
  0
LINE
  5
1E8
  8
1
  6
CONTINUOUS
 62
     7
 10
356.9008903647996
 20
-1174.599109635204
 30
0.0
 11
356.5226677714953
 21
-1174.288771064284
 31
0.0
  0
LINE
  5
1E9
  8
1
  6
CONTINUOUS
 62
     7
 10
356.5226677714953
 20
-1174.288771064284
 30
0.0
 11
356.0910455543787
 21
-1174.058201230288
 31
0.0
  0
LINE
  5
1EA
  8
1
  6
CONTINUOUS
 62
     7
 10
356.0910455543787
 20
-1174.058201230288
 30
0.0
 11
355.6225531020587
 21
-1173.916230027127
 31
0.0
  0
LINE
  5
1EB
  8
1
  6
CONTINUOUS
 62
     7
 10
355.6225531020587
 20
-1173.916230027127
 30
0.0
 11
355.1351317843203
 21
-1173.868294378796
 31
0.0
  0
LINE
  5
1EC
  8
1
  6
CONTINUOUS
 62
     7
 10
437.3682943787936
 20
-1193.635131784323
 30
0.0
 11
437.4162300271242
 21
-1194.122553102062
 31
0.0
  0
LINE
  5
1ED
  8
1
  6
CONTINUOUS
 62
     7
 10
437.4162300271242
 20
-1194.122553102062
 30
0.0
 11
437.5582012302845
 21
-1194.591045554381
 31
0.0
  0
LINE
  5
1EE
  8
1
  6
CONTINUOUS
 62
     7
 10
437.5582012302845
 20
-1194.591045554381
 30
0.0
 11
437.7887710642809
 21
-1195.022667771498
 31
0.0
  0
LINE
  5
1EF
  8
1
  6
CONTINUOUS
 62
     7
 10
437.7887710642809
 20
-1195.022667771498
 30
0.0
 11
438.0991096352007
 21
-1195.400890364802
 31
0.0
  0
LINE
  5
1F0
  8
1
  6
CONTINUOUS
 62
     7
 10
438.0991096352007
 20
-1195.400890364802
 30
0.0
 11
438.477332228505
 21
-1195.711228935722
 31
0.0
  0
LINE
  5
1F1
  8
1
  6
CONTINUOUS
 62
     7
 10
438.477332228505
 20
-1195.711228935722
 30
0.0
 11
438.9089544456216
 21
-1195.941798769719
 31
0.0
  0
LINE
  5
1F2
  8
1
  6
CONTINUOUS
 62
     7
 10
438.9089544456216
 20
-1195.941798769719
 30
0.0
 11
439.3774468979416
 21
-1196.083769972879
 31
0.0
  0
LINE
  5
1F3
  8
1
  6
CONTINUOUS
 62
     7
 10
439.3774468979416
 20
-1196.083769972879
 30
0.0
 11
439.86486821568
 21
-1196.131705621209
 31
0.0
  0
LINE
  5
1F4
  8
1
  6
CONTINUOUS
 62
     7
 10
439.86486821568
 20
-1188.868294378797
 30
0.0
 11
439.3774468979416
 21
-1188.916230027127
 31
0.0
  0
LINE
  5
1F5
  8
1
  6
CONTINUOUS
 62
     7
 10
439.3774468979416
 20
-1188.916230027127
 30
0.0
 11
438.9089544456216
 21
-1189.058201230288
 31
0.0
  0
LINE
  5
1F6
  8
1
  6
CONTINUOUS
 62
     7
 10
438.9089544456216
 20
-1189.058201230288
 30
0.0
 11
438.477332228505
 21
-1189.288771064284
 31
0.0
  0
LINE
  5
1F7
  8
1
  6
CONTINUOUS
 62
     7
 10
438.477332228505
 20
-1189.288771064284
 30
0.0
 11
438.0991096352007
 21
-1189.599109635204
 31
0.0
  0
LINE
  5
1F8
  8
1
  6
CONTINUOUS
 62
     7
 10
438.0991096352007
 20
-1189.599109635204
 30
0.0
 11
437.7887710642809
 21
-1189.977332228508
 31
0.0
  0
LINE
  5
1F9
  8
1
  6
CONTINUOUS
 62
     7
 10
437.7887710642809
 20
-1189.977332228508
 30
0.0
 11
437.5582012302845
 21
-1190.408954445625
 31
0.0
  0
LINE
  5
1FA
  8
1
  6
CONTINUOUS
 62
     7
 10
437.5582012302845
 20
-1190.408954445625
 30
0.0
 11
437.4162300271242
 21
-1190.877446897945
 31
0.0
  0
LINE
  5
1FB
  8
1
  6
CONTINUOUS
 62
     7
 10
437.4162300271242
 20
-1190.877446897945
 30
0.0
 11
437.3682943787936
 21
-1191.364868215683
 31
0.0
  0
LINE
  5
1FC
  8
1
  6
CONTINUOUS
 62
     7
 10
355.1351317843203
 20
-1181.13170562121
 30
0.0
 11
349.86486821568
 21
-1181.13170562121
 31
0.0
  0
LINE
  5
1FD
  8
1
  6
CONTINUOUS
 62
     7
 10
437.3682943787935
 20
-1176.364868215683
 30
0.0
 11
437.3682943787935
 21
-1178.635131784323
 31
0.0
  0
LINE
  5
1FE
  8
1
  6
CONTINUOUS
 62
     7
 10
355.1351317843203
 20
-1188.868294378796
 30
0.0
 11
349.86486821568
 21
-1188.868294378796
 31
0.0
  0
LINE
  5
1FF
  8
1
  6
CONTINUOUS
 62
     7
 10
347.3682943787936
 20
-1176.364868215683
 30
0.0
 11
347.3682943787936
 21
-1178.635131784323
 31
0.0
  0
LINE
  5
200
  8
1
  6
CONTINUOUS
 62
     7
 10
357.6317056212067
 20
-1176.364868215683
 30
0.0
 11
357.6317056212067
 21
-1178.635131784323
 31
0.0
  0
LINE
  5
201
  8
1
  6
CONTINUOUS
 62
     7
 10
357.6317056212067
 20
-1191.364868215683
 30
0.0
 11
357.6317056212067
 21
-1193.635131784323
 31
0.0
  0
LINE
  5
202
  8
1
  6
CONTINUOUS
 62
     7
 10
347.3682943787936
 20
-1191.364868215683
 30
0.0
 11
347.3682943787936
 21
-1193.635131784323
 31
0.0
  0
LINE
  5
203
  8
1
  6
CONTINUOUS
 62
     7
 10
437.3682943787935
 20
-1191.364868215683
 30
0.0
 11
437.3682943787935
 21
-1193.635131784323
 31
0.0
  0
LINE
  5
204
  8
1
  6
CONTINUOUS
 62
     7
 10
445.1351317843202
 20
-1188.868294378796
 30
0.0
 11
439.86486821568
 21
-1188.868294378796
 31
0.0
  0
LINE
  5
205
  8
1
  6
CONTINUOUS
 62
     7
 10
349.86486821568
 20
-1196.13170562121
 30
0.0
 11
355.1351317843203
 21
-1196.13170562121
 31
0.0
  0
LINE
  5
206
  8
1
  6
CONTINUOUS
 62
     7
 10
439.86486821568
 20
-1196.13170562121
 30
0.0
 11
445.1351317843202
 21
-1196.13170562121
 31
0.0
  0
LINE
  5
207
  8
1
  6
CONTINUOUS
 62
     7
 10
445.1351317843203
 20
-1181.13170562121
 30
0.0
 11
439.86486821568
 21
-1181.13170562121
 31
0.0
  0
LINE
  5
208
  8
1
  6
CONTINUOUS
 62
     7
 10
445.1351317843202
 20
-1173.868294378796
 30
0.0
 11
439.86486821568
 21
-1173.868294378796
 31
0.0
  0
LINE
  5
209
  8
1
  6
CONTINUOUS
 62
     7
 10
447.6317056212067
 20
-1176.364868215683
 30
0.0
 11
447.6317056212067
 21
-1178.635131784323
 31
0.0
  0
LINE
  5
20A
  8
1
  6
CONTINUOUS
 62
     7
 10
355.1351317843203
 20
-1173.868294378796
 30
0.0
 11
349.86486821568
 21
-1173.868294378796
 31
0.0
  0
LINE
  5
20B
  8
1
  6
CONTINUOUS
 62
     7
 10
447.6317056212067
 20
-1191.364868215683
 30
0.0
 11
447.6317056212067
 21
-1193.635131784323
 31
0.0
  0
POINT
  5
20C
  8
0
 62
     1
 10
447.6317056212067
 20
-1192.500000000003
 30
0.0
  0
ENDSEC
  0
EOF
